  0
SECTION
  2
HEADER
  9
$ACADVER
  1
AC1014
  9
$ACADMAINTVER
 70
     9
  9
$DWGCODEPAGE
  3
ANSI_1252
  9
$INSBASE
 10
0.0
 20
0.0
 30
0.0
  9
$EXTMIN
 10
0.0003661829982491
 20
0.0002746372486868
 30
-0.0000000000000001
  9
$EXTMAX
 10
3.427946435710599
 20
2.861301306556258
 30
0.0000000000000002
  9
$LIMMIN
 10
0.0
 20
0.0
  9
$LIMMAX
 10
12.0
 20
9.0
  9
$ORTHOMODE
 70
     0
  9
$REGENMODE
 70
     1
  9
$FILLMODE
 70
     1
  9
$QTEXTMODE
 70
     0
  9
$MIRRTEXT
 70
     1
  9
$DRAGMODE
 70
     2
  9
$LTSCALE
 40
0.5
  9
$OSMODE
 70
    37
  9
$ATTMODE
 70
     1
  9
$TEXTSIZE
 40
0.25
  9
$TRACEWID
 40
0.05
  9
$TEXTSTYLE
  7
STANDARD
  9
$CLAYER
  8
0
  9
$CELTYPE
  6
BYLAYER
  9
$CECOLOR
 62
   256
  9
$CELTSCALE
 40
1.0
  9
$DELOBJ
 70
     1
  9
$DISPSILH
 70
     0
  9
$DIMSCALE
 40
1.0
  9
$DIMASZ
 40
0.18
  9
$DIMEXO
 40
0.0625
  9
$DIMDLI
 40
0.38
  9
$DIMRND
 40
0.0
  9
$DIMDLE
 40
0.0
  9
$DIMEXE
 40
0.18
  9
$DIMTP
 40
0.0
  9
$DIMTM
 40
0.0
  9
$DIMTXT
 40
0.18
  9
$DIMCEN
 40
0.09
  9
$DIMTSZ
 40
0.0
  9
$DIMTOL
 70
     0
  9
$DIMLIM
 70
     0
  9
$DIMTIH
 70
     1
  9
$DIMTOH
 70
     1
  9
$DIMSE1
 70
     0
  9
$DIMSE2
 70
     0
  9
$DIMTAD
 70
     0
  9
$DIMZIN
 70
     0
  9
$DIMBLK
  1

  9
$DIMASO
 70
     1
  9
$DIMSHO
 70
     1
  9
$DIMPOST
  1

  9
$DIMAPOST
  1

  9
$DIMALT
 70
     0
  9
$DIMALTD
 70
     2
  9
$DIMALTF
 40
25.4
  9
$DIMLFAC
 40
1.0
  9
$DIMTOFL
 70
     0
  9
$DIMTVP
 40
0.0
  9
$DIMTIX
 70
     0
  9
$DIMSOXD
 70
     0
  9
$DIMSAH
 70
     0
  9
$DIMBLK1
  1

  9
$DIMBLK2
  1

  9
$DIMSTYLE
  2
STANDARD
  9
$DIMCLRD
 70
     0
  9
$DIMCLRE
 70
     0
  9
$DIMCLRT
 70
     0
  9
$DIMTFAC
 40
1.0
  9
$DIMGAP
 40
0.09
  9
$DIMJUST
 70
     0
  9
$DIMSD1
 70
     0
  9
$DIMSD2
 70
     0
  9
$DIMTOLJ
 70
     1
  9
$DIMTZIN
 70
     0
  9
$DIMALTZ
 70
     0
  9
$DIMALTTZ
 70
     0
  9
$DIMFIT
 70
     3
  9
$DIMUPT
 70
     0
  9
$DIMUNIT
 70
     2
  9
$DIMDEC
 70
     4
  9
$DIMTDEC
 70
     4
  9
$DIMALTU
 70
     2
  9
$DIMALTTD
 70
     2
  9
$DIMTXSTY
  7
STANDARD
  9
$DIMAUNIT
 70
     0
  9
$LUNITS
 70
     2
  9
$LUPREC
 70
     4
  9
$SKETCHINC
 40
0.1
  9
$FILLETRAD
 40
0.5
  9
$AUNITS
 70
     0
  9
$AUPREC
 70
     0
  9
$MENU
  1
.
  9
$ELEVATION
 40
0.0
  9
$PELEVATION
 40
0.0
  9
$THICKNESS
 40
0.0
  9
$LIMCHECK
 70
     0
  9
$BLIPMODE
 70
     0
  9
$CHAMFERA
 40
0.5
  9
$CHAMFERB
 40
0.5
  9
$CHAMFERC
 40
1.0
  9
$CHAMFERD
 40
0.0
  9
$SKPOLY
 70
     0
  9
$TDCREATE
 40
2451675.885797453
  9
$TDUPDATE
 40
2452759.745988495
  9
$TDINDWG
 40
0.3581360648
  9
$TDUSRTIMER
 40
0.3581278472
  9
$USRTIMER
 70
     1
  9
$ANGBASE
 50
0.0
  9
$ANGDIR
 70
     0
  9
$PDMODE
 70
     0
  9
$PDSIZE
 40
0.0
  9
$PLINEWID
 40
0.0
  9
$COORDS
 70
     1
  9
$SPLFRAME
 70
     0
  9
$SPLINETYPE
 70
     6
  9
$SPLINESEGS
 70
     8
  9
$ATTDIA
 70
     0
  9
$ATTREQ
 70
     1
  9
$HANDLING
 70
     1
  9
$HANDSEED
  5
8D
  9
$SURFTAB1
 70
     6
  9
$SURFTAB2
 70
     6
  9
$SURFTYPE
 70
     6
  9
$SURFU
 70
     6
  9
$SURFV
 70
     6
  9
$UCSNAME
  2

  9
$UCSORG
 10
0.0
 20
0.0
 30
0.0
  9
$UCSXDIR
 10
1.0
 20
0.0
 30
0.0
  9
$UCSYDIR
 10
0.0
 20
1.0
 30
0.0
  9
$PUCSNAME
  2

  9
$PUCSORG
 10
0.0
 20
0.0
 30
0.0
  9
$PUCSXDIR
 10
1.0
 20
0.0
 30
0.0
  9
$PUCSYDIR
 10
0.0
 20
1.0
 30
0.0
  9
$USERI1
 70
     0
  9
$USERI2
 70
     0
  9
$USERI3
 70
     0
  9
$USERI4
 70
     0
  9
$USERI5
 70
     0
  9
$USERR1
 40
0.0
  9
$USERR2
 40
0.0
  9
$USERR3
 40
0.0
  9
$USERR4
 40
0.0
  9
$USERR5
 40
0.0
  9
$WORLDVIEW
 70
     1
  9
$SHADEDGE
 70
     3
  9
$SHADEDIF
 70
    70
  9
$TILEMODE
 70
     1
  9
$MAXACTVP
 70
    48
  9
$PINSBASE
 10
0.0
 20
0.0
 30
0.0
  9
$PLIMCHECK
 70
     0
  9
$PEXTMIN
 10
1.000000000000000E+20
 20
1.000000000000000E+20
 30
1.000000000000000E+20
  9
$PEXTMAX
 10
-1.000000000000000E+20
 20
-1.000000000000000E+20
 30
-1.000000000000000E+20
  9
$PLIMMIN
 10
0.0
 20
0.0
  9
$PLIMMAX
 10
12.0
 20
9.0
  9
$UNITMODE
 70
     0
  9
$VISRETAIN
 70
     1
  9
$PLINEGEN
 70
     0
  9
$PSLTSCALE
 70
     1
  9
$TREEDEPTH
 70
  3020
  9
$PICKSTYLE
 70
     1
  9
$CMLSTYLE
  2
STANDARD
  9
$CMLJUST
 70
     0
  9
$CMLSCALE
 40
1.0
  9
$PROXYGRAPHICS
 70
     1
  9
$MEASUREMENT
 70
     0
  0
ENDSEC
  0
SECTION
  2
CLASSES
  0
CLASS
  1
ACDBDICTIONARYWDFLT
  2
AcDbDictionaryWithDefault
  3
AutoCAD 2000
 90
        0
280
     1
281
     0
  0
CLASS
  1
ACDBPLACEHOLDER
  2
AcDbPlaceHolder
  3
AutoCAD 2000
 90
        0
280
     1
281
     0
  0
CLASS
  1
LAYOUT
  2
AcDbLayout
  3
AutoCAD 2000
 90
        0
280
     1
281
     0
  0
CLASS
  1
LONG_TRANSACTION
  2
AcDbLongTransaction
  3
AutoCAD 2000
 90
        0
280
     1
281
     0
  0
CLASS
  1
LWPOLYLINE
  2
AcDbPolyline
  3
"AutoCAD"
 90
        0
280
     1
281
     1
  0
CLASS
  1
HATCH
  2
AcDbHatch
  3
"ACAD_SEDONA"
 90
        0
280
     1
281
     1
  0
CLASS
  1
XRECORD
  2
AcDbXrecord
  3
"<Built In>"
 90
        0
280
     0
281
     0
  0
CLASS
  1
LONG_TRANSACTION
  2
AcDbLongTransaction
  3
AutoCAD 2000
 90
        0
280
     1
281
     0
  0
CLASS
  1
LWPOLYLINE
  2
AcDbPolyline
  3
"AutoCAD"
 90
        0
280
     1
281
     1
  0
CLASS
  1
HATCH
  2
AcDbHatch
  3
"ACAD_SEDONA"
 90
        0
280
     1
281
     1
  0
CLASS
  1
XRECORD
  2
AcDbXrecord
  3
"<Built In>"
 90
        0
280
     0
281
     0
  0
CLASS
  1
LONG_TRANSACTION
  2
AcDbLongTransaction
  3
AutoCAD 2000
 90
        0
280
     1
281
     0
  0
CLASS
  1
LWPOLYLINE
  2
AcDbPolyline
  3
"AutoCAD"
 90
        0
280
     1
281
     1
  0
CLASS
  1
HATCH
  2
AcDbHatch
  3
"ACAD_SEDONA"
 90
        0
280
     1
281
     1
  0
CLASS
  1
XRECORD
  2
AcDbXrecord
  3
"<Built In>"
 90
        0
280
     0
281
     0
  0
CLASS
  1
LONG_TRANSACTION
  2
AcDbLongTransaction
  3
AutoCAD 2000
 90
        0
280
     1
281
     0
  0
CLASS
  1
LWPOLYLINE
  2
AcDbPolyline
  3
"AutoCAD"
 90
        0
280
     1
281
     1
  0
CLASS
  1
HATCH
  2
AcDbHatch
  3
"ACAD_SEDONA"
 90
        0
280
     1
281
     1
  0
CLASS
  1
XRECORD
  2
AcDbXrecord
  3
"<Built In>"
 90
        0
280
     0
281
     0
  0
CLASS
  1
LONG_TRANSACTION
  2
AcDbLongTransaction
  3
AutoCAD 2000
 90
        0
280
     1
281
     0
  0
CLASS
  1
LWPOLYLINE
  2
AcDbPolyline
  3
"AutoCAD"
 90
        0
280
     1
281
     1
  0
CLASS
  1
HATCH
  2
AcDbHatch
  3
"ACAD_SEDONA"
 90
        0
280
     1
281
     1
  0
CLASS
  1
XRECORD
  2
AcDbXrecord
  3
"<Built In>"
 90
        0
280
     0
281
     0
  0
CLASS
  1
DICTIONARYVAR
  2
AcDbDictionaryVar
  3
"AutoCAD"
 90
        0
280
     0
281
     0
  0
CLASS
  1
LONG_TRANSACTION
  2
AcDbLongTransaction
  3
AutoCAD 2000
 90
        0
280
     0
281
     0
  0
CLASS
  1
LWPOLYLINE
  2
AcDbPolyline
  3
"AutoCAD"
 90
        0
280
     0
281
     1
  0
CLASS
  1
HATCH
  2
AcDbHatch
  3
"ACAD_SEDONA"
 90
        0
280
     0
281
     1
  0
CLASS
  1
XRECORD
  2
AcDbXrecord
  3
"<Built In>"
 90
        0
280
     0
281
     0
  0
CLASS
  1
LONG_TRANSACTION
  2
AcDbLongTransaction
  3
AutoCAD 2000
 90
        0
280
     0
281
     0
  0
CLASS
  1
LWPOLYLINE
  2
AcDbPolyline
  3
"AutoCAD"
 90
        0
280
     0
281
     1
  0
CLASS
  1
HATCH
  2
AcDbHatch
  3
"ACAD_SEDONA"
 90
        0
280
     0
281
     1
  0
CLASS
  1
XRECORD
  2
AcDbXrecord
  3
"<Built In>"
 90
        0
280
     0
281
     0
  0
ENDSEC
  0
SECTION
  2
TABLES
  0
TABLE
  2
VPORT
  5
6D
100
AcDbSymbolTable
 70
     1
  0
VPORT
  5
89
100
AcDbSymbolTableRecord
100
AcDbViewportTableRecord
  2
*ACTIVE
 70
     0
 10
0.0
 20
0.0
 11
1.0
 21
1.0
 12
1.713958763184443
 22
1.465940355576614
 13
0.0
 23
0.0
 14
0.5
 24
0.5
 15
0.5
 25
0.5
 16
0.0
 26
0.0
 36
1.0
 17
0.0
 27
0.0
 37
0.0
 40
2.953422199362707
 41
1.457627118644067
 42
50.0
 43
0.0
 44
0.0
 50
0.0
 51
0.0
 71
     0
 72
   100
 73
     1
 74
     3
 75
     0
 76
     0
 77
     0
 78
     0
  0
ENDTAB
  0
TABLE
  2
LTYPE
  5
66
100
AcDbSymbolTable
 70
     1
  0
LTYPE
  5
67
102
{ACAD_XDICTIONARY
360
68
102
}
100
AcDbSymbolTableRecord
100
AcDbLinetypeTableRecord
  2
BYBLOCK
 70
     0
  3

 72
    65
 73
     0
 40
0.0
  0
LTYPE
  5
69
102
{ACAD_XDICTIONARY
360
6A
102
}
100
AcDbSymbolTableRecord
100
AcDbLinetypeTableRecord
  2
BYLAYER
 70
     0
  3

 72
    65
 73
     0
 40
0.0
  0
LTYPE
  5
5
102
{ACAD_XDICTIONARY
360
6
102
}
100
AcDbSymbolTableRecord
100
AcDbLinetypeTableRecord
  2
CONTINUOUS
 70
     0
  3
Solid line
 72
    65
 73
     0
 40
0.0
  0
ENDTAB
  0
TABLE
  2
LAYER
  5
64
100
AcDbSymbolTable
 70
     4
  0
LAYER
  5
31
100
AcDbSymbolTableRecord
100
AcDbLayerTableRecord
  2
0
 70
     0
 62
     7
  6
CONTINUOUS
  0
LAYER
  5
4
100
AcDbSymbolTableRecord
100
AcDbLayerTableRecord
  2
USP
 70
     0
 62
     7
  6
CONTINUOUS
  0
LAYER
  5
9
100
AcDbSymbolTableRecord
100
AcDbLayerTableRecord
  2
USP-GEO
 70
     0
 62
     7
  6
CONTINUOUS
  0
LAYER
  5
D
100
AcDbSymbolTableRecord
100
AcDbLayerTableRecord
  2
USP-TXT
 70
     0
 62
     7
  6
CONTINUOUS
  0
ENDTAB
  0
TABLE
  2
STYLE
  5
65
100
AcDbSymbolTable
 70
     1
  0
STYLE
  5
E
102
{ACAD_XDICTIONARY
360
F
102
}
100
AcDbSymbolTableRecord
100
AcDbTextStyleTableRecord
  2
STANDARD
 70
     0
 40
0.0
 41
1.0
 50
0.0
 71
     0
 42
0.25
  3
txt
  4

  0
ENDTAB
  0
TABLE
  2
VIEW
  5
6B
100
AcDbSymbolTable
 70
     0
  0
ENDTAB
  0
TABLE
  2
UCS
  5
6C
100
AcDbSymbolTable
 70
     0
  0
ENDTAB
  0
TABLE
  2
APPID
  5
6F
100
AcDbSymbolTable
 70
     1
  0
APPID
  5
70
100
AcDbSymbolTableRecord
100
AcDbRegAppTableRecord
  2
ACAD
 70
     0
  0
ENDTAB
  0
TABLE
  2
DIMSTYLE
  5
71
100
AcDbSymbolTable
 70
     1
  0
DIMSTYLE
105
7A
102
{ACAD_XDICTIONARY
360
7B
102
}
100
AcDbSymbolTableRecord
100
AcDbDimStyleTableRecord
  2
STANDARD
 70
     0
  3

  4

  5

  6

  7

 40
1.0
 41
0.18
 42
0.0625
 43
0.38
 44
0.18
 45
0.0
 46
0.0
 47
0.0
 48
0.0
140
0.18
141
0.09
142
0.0
143
25.4
144
1.0
145
0.0
146
1.0
147
0.09
 71
     0
 72
     0
 73
     1
 74
     1
 75
     0
 76
     0
 77
     0
 78
     0
170
     0
171
     2
172
     0
173
     0
174
     0
175
     0
176
     0
177
     0
178
     0
270
     2
271
     4
272
     4
273
     2
274
     2
340
E
275
     0
280
     0
281
     0
282
     0
283
     1
284
     0
285
     0
286
     0
287
     3
288
     0
  0
ENDTAB
  0
TABLE
  2
BLOCK_RECORD
  5
1
100
AcDbSymbolTable
 70
     2
  0
BLOCK_RECORD
  5
2
102
{ACAD_XDICTIONARY
360
5B
102
}
100
AcDbSymbolTableRecord
100
AcDbBlockTableRecord
  2
*MODEL_SPACE
  0
BLOCK_RECORD
  5
5F
102
{ACAD_XDICTIONARY
360
60
102
}
100
AcDbSymbolTableRecord
100
AcDbBlockTableRecord
  2
*PAPER_SPACE
  0
BLOCK_RECORD
  5
7
100
AcDbSymbolTableRecord
100
AcDbBlockTableRecord
  2
MP34_F
  0
BLOCK_RECORD
  5
34
100
AcDbSymbolTableRecord
100
AcDbBlockTableRecord
  2
MP34_S
  0
ENDTAB
  0
ENDSEC
  0
SECTION
  2
BLOCKS
  0
BLOCK
  5
5D
100
AcDbEntity
  8
0
100
AcDbBlockBegin
  2
*MODEL_SPACE
 70
     0
 10
0.0
 20
0.0
 30
0.0
  3
*MODEL_SPACE
  1

  0
ENDBLK
  5
5E
100
AcDbEntity
  8
0
100
AcDbBlockEnd
  0
BLOCK
  5
62
100
AcDbEntity
 67
     1
  8
0
100
AcDbBlockBegin
  2
*PAPER_SPACE
 70
     0
 10
0.0
 20
0.0
 30
0.0
  3
*PAPER_SPACE
  1

  0
ENDBLK
  5
63
100
AcDbEntity
 67
     1
  8
0
100
AcDbBlockEnd
  0
BLOCK
  5
30
100
AcDbEntity
  8
0
100
AcDbBlockBegin
  2
MP34_F
 70
     0
 10
0.0
 20
0.0
 30
0.0
  3
MP34_F
  1

  0
LINE
  5
8
100
AcDbEntity
  8
USP-GEO
100
AcDbLine
 10
0.0520000000000001
 20
0.4447115384615401
 30
0.0
 11
0.0519999999999992
 21
0.8677884615384609
 31
0.0
210
0.0
220
1.0
230
0.0
  0
LINE
  5
A
100
AcDbEntity
  8
USP-GEO
100
AcDbLine
 10
-0.0000000000000013
 20
0.8677884615384614
 30
0.0
 11
-0.0000000000000009
 21
0.4447115384615391
 31
0.0
210
0.0
220
1.0
230
0.0
  0
LINE
  5
B
100
AcDbEntity
  8
USP-GEO
100
AcDbLine
 10
1.411200681915438
 20
0.4447115384615382
 30
0.0000000000000003
 11
1.005299318084565
 21
0.8677884615384588
 31
0.0000000000000002
210
0.0
220
1.0
230
0.0
  0
TEXT
  5
C
100
AcDbEntity
  8
USP-TXT
100
AcDbText
 10
-0.0593281249999976
 20
-0.361026669307571
 30
0.0000000000000001
 40
0.09765625
  1
MP34 - FRONT VIEW
 72
     1
 11
0.7707500000000023
 21
-0.361026669307571
 31
0.0000000000000001
100
AcDbText
  0
CIRCLE
  5
10
100
AcDbEntity
  8
USP-GEO
100
AcDbCircle
 10
1.302
 20
0.1874999999999991
 30
0.0000000000000002
 40
0.0680000000000001
  0
LINE
  5
11
100
AcDbEntity
  8
USP-GEO
100
AcDbLine
 10
0.0520000000000018
 20
0.0
 30
0.0
 11
1.489500000000002
 21
-0.0000000000000018
 31
0.0000000000000003
210
0.0
220
1.0
230
0.0
  0
LINE
  5
12
100
AcDbEntity
  8
USP-GEO
100
AcDbLine
 10
0.0520000000000009
 20
0.2499999999999982
 30
0.0
 11
0.0520000000000005
 21
0.4447115384615394
 31
0.0
210
0.0
220
1.0
230
0.0
  0
LINE
  5
13
100
AcDbEntity
  8
USP-GEO
100
AcDbLine
 10
-0.0000000000000009
 20
0.4447115384615394
 30
0.0
 11
-0.0000000000000009
 21
0.2499999999999993
 31
0.0
210
0.0
220
1.0
230
0.0
  0
LINE
  5
14
100
AcDbEntity
  8
USP-GEO
100
AcDbLine
 10
0.0519999999999996
 20
0.2499999999999982
 30
0.0
 11
0.0519999999999996
 21
0.0
 31
0.0
210
0.0
220
1.0
230
0.0
  0
LINE
  5
15
100
AcDbEntity
  8
USP-GEO
100
AcDbLine
 10
-0.0000000000000013
 20
0.2499999999999993
 30
0.0
 11
-0.0000000000000013
 21
0.0000000000000002
 31
0.0
210
0.0
220
1.0
230
0.0
  0
LINE
  5
16
100
AcDbEntity
  8
USP-GEO
100
AcDbLine
 10
0.0520000000000001
 20
0.0
 30
0.0
 11
0.0
 21
0.0
 31
0.0
210
0.0
220
1.0
230
0.0
  0
ARC
  5
17
100
AcDbEntity
  8
USP-GEO
100
AcDbCircle
 10
1.208250000000001
 20
0.2500000000000007
 30
0.0000000000000002
 40
0.2812500000000002
100
AcDbArc
 50
359.9999999999997
 51
43.8130614604031
  0
LINE
  5
18
100
AcDbEntity
  8
USP-GEO
100
AcDbLine
 10
1.489500000000002
 20
-0.0000000000000009
 30
0.0000000000000003
 11
1.489500000000002
 21
0.2499999999999993
 31
0.0000000000000003
210
0.0
220
1.0
230
0.0
  0
CIRCLE
  5
19
100
AcDbEntity
  8
USP-GEO
100
AcDbCircle
 10
1.302
 20
2.3125
 30
0.0000000000000002
 40
0.0680000000000001
  0
LINE
  5
1A
100
AcDbEntity
  8
USP-GEO
100
AcDbLine
 10
1.489500000000001
 20
2.499999999999999
 30
0.0000000000000003
 11
0.0519999999999992
 21
2.499999999999999
 31
0.0
210
0.0
220
1.0
230
0.0
  0
LINE
  5
1B
100
AcDbEntity
  8
USP-GEO
100
AcDbLine
 10
1.005299318084564
 20
1.444711538461538
 30
0.0000000000000002
 11
1.411200681915439
 21
1.86778846153846
 31
0.0000000000000003
210
0.0
220
1.0
230
0.0
  0
LINE
  5
1C
100
AcDbEntity
  8
USP-GEO
100
AcDbLine
 10
0.0520000000000009
 20
2.0625
 30
0.0
 11
0.0520000000000009
 21
2.5
 31
0.0
210
0.0
220
1.0
230
0.0
  0
LINE
  5
1D
100
AcDbEntity
  8
USP-GEO
100
AcDbLine
 10
-0.0000000000000004
 20
2.499999999999999
 30
0.0
 11
-0.0000000000000004
 21
2.0625
 31
0.0
210
0.0
220
1.0
230
0.0
  0
LINE
  5
1E
100
AcDbEntity
  8
USP-GEO
100
AcDbLine
 10
0.0520000000000009
 20
1.44471153846154
 30
0.0
 11
0.0520000000000009
 21
1.249999999999999
 31
0.0
210
0.0
220
1.0
230
0.0
  0
LINE
  5
1F
100
AcDbEntity
  8
USP-GEO
100
AcDbLine
 10
-0.0000000000000004
 20
1.444711538461539
 30
0.0
 11
-0.0000000000000004
 21
1.249999999999999
 31
0.0
210
0.0
220
1.0
230
0.0
  0
LINE
  5
20
100
AcDbEntity
  8
USP-GEO
100
AcDbLine
 10
0.0519999999999992
 20
1.062499999999999
 30
0.0
 11
0.0519999999999992
 21
0.8677884615384609
 31
0.0
210
0.0
220
1.0
230
0.0
  0
LINE
  5
21
100
AcDbEntity
  8
USP-GEO
100
AcDbLine
 10
0.0000000000000004
 20
1.0625
 30
0.0
 11
0.0000000000000004
 21
0.8677884615384616
 31
0.0
210
0.0
220
1.0
230
0.0
  0
LINE
  5
22
100
AcDbEntity
  8
USP-GEO
100
AcDbLine
 10
0.0519999999999996
 20
1.062499999999999
 30
0.0
 11
0.0519999999999996
 21
1.249999999999999
 31
0.0
210
0.0
220
1.0
230
0.0
  0
LINE
  5
23
100
AcDbEntity
  8
USP-GEO
100
AcDbLine
 10
-0.0000000000000009
 20
1.249999999999999
 30
0.0
 11
-0.0000000000000009
 21
1.0625
 31
0.0
210
0.0
220
1.0
230
0.0
  0
LINE
  5
24
100
AcDbEntity
  8
USP-GEO
100
AcDbLine
 10
0.0519999999999996
 20
1.444711538461539
 30
0.0
 11
0.0520000000000001
 21
1.86778846153846
 31
0.0
210
0.0
220
1.0
230
0.0
  0
LINE
  5
25
100
AcDbEntity
  8
USP-GEO
100
AcDbLine
 10
0.0
 20
1.86778846153846
 30
0.0
 11
-0.0000000000000004
 21
1.444711538461539
 31
0.0
210
0.0
220
1.0
230
0.0
  0
LINE
  5
26
100
AcDbEntity
  8
USP-GEO
100
AcDbLine
 10
0.0520000000000009
 20
1.86778846153846
 30
0.0
 11
0.0520000000000009
 21
2.0625
 31
0.0
210
0.0
220
1.0
230
0.0
  0
LINE
  5
27
100
AcDbEntity
  8
USP-GEO
100
AcDbLine
 10
0.0000000000000009
 20
2.0625
 30
0.0
 11
0.0000000000000009
 21
1.867788461538461
 31
0.0
210
0.0
220
1.0
230
0.0
  0
ARC
  5
28
100
AcDbEntity
  8
USP-GEO
100
AcDbCircle
 10
1.208250000000002
 20
1.249999999999999
 30
0.0000000000000002
 40
0.2812500000000002
100
AcDbArc
 50
136.1869385395969
 51
179.999999999999
  0
CIRCLE
  5
29
100
AcDbEntity
  8
USP-GEO
100
AcDbCircle
 10
0.7395000000000023
 20
1.062499999999999
 30
0.0000000000000001
 40
0.0680000000000001
  0
ARC
  5
2A
100
AcDbEntity
  8
USP-GEO
100
AcDbCircle
 10
1.20825
 20
1.062499999999999
 30
0.0000000000000002
 40
0.2812500000000002
100
AcDbArc
 50
179.9999999999991
 51
223.8130614604036
  0
LINE
  5
2B
100
AcDbEntity
  8
USP-GEO
100
AcDbLine
 10
0.9270000000000017
 20
1.062499999999999
 30
0.0000000000000002
 11
0.9270000000000013
 21
1.249999999999999
 31
0.0000000000000002
210
0.0
220
1.0
230
0.0
  0
CIRCLE
  5
2C
100
AcDbEntity
  8
USP-GEO
100
AcDbCircle
 10
0.7395000000000036
 20
1.812499999999999
 30
0.0000000000000001
 40
0.0680000000000001
  0
LINE
  5
2D
100
AcDbEntity
  8
USP-GEO
100
AcDbLine
 10
0.0519999999999992
 20
2.5
 30
0.0
 11
0.0
 21
2.5
 31
0.0
210
0.0
220
1.0
230
0.0
  0
LINE
  5
2E
100
AcDbEntity
  8
USP-GEO
100
AcDbLine
 10
1.4895
 20
2.062499999999999
 30
0.0000000000000003
 11
1.4895
 21
2.499999999999999
 31
0.0000000000000003
210
0.0
220
1.0
230
0.0
  0
ARC
  5
2F
100
AcDbEntity
  8
USP-GEO
100
AcDbCircle
 10
1.20825
 20
2.0625
 30
0.0000000000000002
 40
0.2812500000000002
100
AcDbArc
 50
316.1869385395967
 51
359.9999999999997
  0
ENDBLK
  5
32
100
AcDbEntity
  8
0
100
AcDbBlockEnd
  0
BLOCK
  5
59
100
AcDbEntity
  8
0
100
AcDbBlockBegin
  2
MP34_S
 70
     0
 10
0.0
 20
0.0
 30
0.0
  3
MP34_S
  1

  0
LINE
  5
35
100
AcDbEntity
  8
USP-GEO
100
AcDbLine
 10
1.4895
 20
0.44471153846154
 30
0.0000000000000001
 11
1.4895
 21
0.8677884615384602
 31
0.0000000000000001
210
0.0
220
1.0
230
0.0
  0
LINE
  5
36
100
AcDbEntity
  8
USP-GEO
100
AcDbLine
 10
1.4375
 20
0.4447115384615382
 30
0.0000000000000001
 11
1.4375
 21
0.8677884615384588
 31
0.0000000000000001
210
0.0
220
1.0
230
0.0
  0
LINE
  5
37
100
AcDbEntity
  8
USP-GEO
100
AcDbLine
 10
0.4842006819154376
 20
0.4447115384615401
 30
0.0
 11
0.0782993180845653
 21
0.8677884615384609
 31
-0.0000000000000001
210
0.0
220
1.0
230
0.0
  0
TEXT
  5
38
100
AcDbEntity
  8
USP-TXT
100
AcDbText
 10
-0.0202239583333342
 20
-0.3610266693075679
 30
0.0
 40
0.09765625
  1
MP34 - SIDE VIEW
 72
     1
 11
0.744749999999999
 21
-0.3610266693075679
 31
0.0
100
AcDbText
  0
LINE
  5
39
100
AcDbEntity
  8
USP-GEO
100
AcDbLine
 10
0.5625000000000016
 20
0.0000000000000024
 30
0.0
 11
1.437500000000001
 21
0.0000000000000009
 31
0.0000000000000001
210
0.0
220
1.0
230
0.0
  0
CIRCLE
  5
3A
100
AcDbEntity
  8
USP-GEO
100
AcDbCircle
 10
0.8125000000000019
 20
0.1875000000000007
 30
0.0
 40
0.068
  0
ARC
  5
3B
100
AcDbEntity
  8
USP-GEO
100
AcDbCircle
 10
0.2812500000000011
 20
0.2499999999999996
 30
0.0
 40
0.2812500000000001
100
AcDbArc
 50
359.9999999999997
 51
43.81306146040354
  0
LINE
  5
3C
100
AcDbEntity
  8
USP-GEO
100
AcDbLine
 10
0.5625000000000007
 20
0.2499999999999982
 30
0.0
 11
0.5625000000000007
 21
0.0
 31
0.0
210
0.0
220
1.0
230
0.0
  0
LINE
  5
3D
100
AcDbEntity
  8
USP-GEO
100
AcDbLine
 10
1.4895
 20
0.2499999999999996
 30
0.0000000000000001
 11
1.4895
 21
0.4447115384615393
 31
0.0000000000000001
210
0.0
220
1.0
230
0.0
  0
LINE
  5
3E
100
AcDbEntity
  8
USP-GEO
100
AcDbLine
 10
1.4375
 20
0.2499999999999993
 30
0.0000000000000001
 11
1.4375
 21
0.4447115384615391
 31
0.0000000000000001
210
0.0
220
1.0
230
0.0
  0
LINE
  5
3F
100
AcDbEntity
  8
USP-GEO
100
AcDbLine
 10
1.4375
 20
-0.0000000000000009
 30
0.0000000000000001
 11
1.4895
 21
-0.0000000000000009
 31
0.0000000000000001
210
0.0
220
1.0
230
0.0
  0
LINE
  5
40
100
AcDbEntity
  8
USP-GEO
100
AcDbLine
 10
1.4375
 20
-0.0000000000000009
 30
0.0000000000000001
 11
1.4375
 21
0.2499999999999993
 31
0.0000000000000001
210
0.0
220
1.0
230
0.0
  0
LINE
  5
41
100
AcDbEntity
  8
USP-GEO
100
AcDbLine
 10
1.4895
 20
-0.0000000000000011
 30
0.0000000000000001
 11
1.4895
 21
0.2499999999999996
 31
0.0000000000000001
210
0.0
220
1.0
230
0.0
  0
CIRCLE
  5
42
100
AcDbEntity
  8
USP-GEO
100
AcDbCircle
 10
0.3125000000000018
 20
1.0625
 30
0.0
 40
0.068
  0
LINE
  5
43
100
AcDbEntity
  8
USP-GEO
100
AcDbLine
 10
0.0782993180845664
 20
1.444711538461539
 30
-0.0000000000000001
 11
0.4842006819154388
 21
1.86778846153846
 31
0.0
210
0.0
220
1.0
230
0.0
  0
ARC
  5
44
100
AcDbEntity
  8
USP-GEO
100
AcDbCircle
 10
0.2812500000000007
 20
1.25
 30
0.0
 40
0.2812500000000001
100
AcDbArc
 50
136.1869385395964
 51
180.0000000000001
  0
ARC
  5
45
100
AcDbEntity
  8
USP-GEO
100
AcDbCircle
 10
0.2812500000000024
 20
1.062499999999999
 30
0.0
 40
0.2812500000000001
100
AcDbArc
 50
179.9999999999999
 51
223.813061460403
  0
LINE
  5
46
100
AcDbEntity
  8
USP-GEO
100
AcDbLine
 10
0.0
 20
1.062499999999999
 30
-0.0000000000000001
 11
0.0
 21
1.249999999999999
 31
-0.0000000000000001
210
0.0
220
1.0
230
0.0
  0
LINE
  5
47
100
AcDbEntity
  8
USP-GEO
100
AcDbLine
 10
1.4895
 20
2.0625
 30
0.0000000000000001
 11
1.4895
 21
2.5
 31
0.0000000000000001
210
0.0
220
1.0
230
0.0
  0
LINE
  5
48
100
AcDbEntity
  8
USP-GEO
100
AcDbLine
 10
1.4375
 20
2.062499999999999
 30
0.0000000000000001
 11
1.4375
 21
2.499999999999999
 31
0.0000000000000001
210
0.0
220
1.0
230
0.0
  0
LINE
  5
49
100
AcDbEntity
  8
USP-GEO
100
AcDbLine
 10
0.5625000000000018
 20
2.0625
 30
0.0
 11
0.5625000000000018
 21
2.5
 31
0.0
210
0.0
220
1.0
230
0.0
  0
CIRCLE
  5
4A
100
AcDbEntity
  8
USP-GEO
100
AcDbCircle
 10
0.6875000000000018
 20
1.562499999999999
 30
0.0
 40
0.068
  0
ARC
  5
4B
100
AcDbEntity
  8
USP-GEO
100
AcDbCircle
 10
0.2812500000000011
 20
2.0625
 30
0.0
 40
0.2812500000000001
100
AcDbArc
 50
316.1869385395966
 51
0.0000000000000891
  0
LINE
  5
4C
100
AcDbEntity
  8
USP-GEO
100
AcDbLine
 10
1.4895
 20
1.25
 30
0.0000000000000001
 11
1.4895
 21
1.444711538461538
 31
0.0000000000000001
210
0.0
220
1.0
230
0.0
  0
LINE
  5
4D
100
AcDbEntity
  8
USP-GEO
100
AcDbLine
 10
1.4375
 20
1.444711538461537
 30
0.0000000000000001
 11
1.4375
 21
1.249999999999999
 31
0.0000000000000001
210
0.0
220
1.0
230
0.0
  0
LINE
  5
4E
100
AcDbEntity
  8
USP-GEO
100
AcDbLine
 10
1.489500000000001
 20
0.8677884615384597
 30
0.0000000000000001
 11
1.489500000000001
 21
1.062499999999998
 31
0.0000000000000001
210
0.0
220
1.0
230
0.0
  0
LINE
  5
4F
100
AcDbEntity
  8
USP-GEO
100
AcDbLine
 10
1.437500000000001
 20
1.062499999999999
 30
0.0000000000000001
 11
1.437500000000001
 21
0.8677884615384588
 31
0.0000000000000001
210
0.0
220
1.0
230
0.0
  0
LINE
  5
50
100
AcDbEntity
  8
USP-GEO
100
AcDbLine
 10
1.437500000000001
 20
1.062499999999999
 30
0.0000000000000001
 11
1.437500000000001
 21
1.249999999999999
 31
0.0000000000000001
210
0.0
220
1.0
230
0.0
  0
LINE
  5
51
100
AcDbEntity
  8
USP-GEO
100
AcDbLine
 10
1.4895
 20
1.062499999999998
 30
0.0000000000000001
 11
1.4895
 21
1.25
 31
0.0000000000000001
210
0.0
220
1.0
230
0.0
  0
LINE
  5
52
100
AcDbEntity
  8
USP-GEO
100
AcDbLine
 10
1.4895
 20
1.444711538461539
 30
0.0000000000000001
 11
1.4895
 21
1.86778846153846
 31
0.0000000000000001
210
0.0
220
1.0
230
0.0
  0
LINE
  5
53
100
AcDbEntity
  8
USP-GEO
100
AcDbLine
 10
1.4375
 20
1.444711538461538
 30
0.0000000000000001
 11
1.4375
 21
1.86778846153846
 31
0.0000000000000001
210
0.0
220
1.0
230
0.0
  0
LINE
  5
54
100
AcDbEntity
  8
USP-GEO
100
AcDbLine
 10
1.437500000000001
 20
1.867788461538461
 30
0.0000000000000001
 11
1.437500000000001
 21
2.062499999999999
 31
0.0000000000000001
210
0.0
220
1.0
230
0.0
  0
LINE
  5
55
100
AcDbEntity
  8
USP-GEO
100
AcDbLine
 10
1.4895
 20
1.867788461538459
 30
0.0000000000000001
 11
1.4895
 21
2.0625
 31
0.0000000000000001
210
0.0
220
1.0
230
0.0
  0
LINE
  5
56
100
AcDbEntity
  8
USP-GEO
100
AcDbLine
 10
1.4375
 20
2.499999999999999
 30
0.0000000000000001
 11
0.5625000000000023
 21
2.499999999999999
 31
0.0
210
0.0
220
1.0
230
0.0
  0
CIRCLE
  5
57
100
AcDbEntity
  8
USP-GEO
100
AcDbCircle
 10
0.8125000000000007
 20
2.3125
 30
0.0
 40
0.068
  0
LINE
  5
58
100
AcDbEntity
  8
USP-GEO
100
AcDbLine
 10
1.437499999999999
 20
2.499999999999999
 30
0.0000000000000001
 11
1.4895
 21
2.499999999999999
 31
0.0000000000000001
210
0.0
220
1.0
230
0.0
  0
ENDBLK
  5
5A
100
AcDbEntity
  8
0
100
AcDbBlockEnd
  0
ENDSEC
  0
SECTION
  2
ENTITIES
  0
INSERT
  5
3
100
AcDbEntity
  8
USP
100
AcDbBlockReference
  2
MP34_F
 10
0.0596943079982467
 20
0.3613013065562578
 30
-0.0000000000000001
  0
INSERT
  5
33
100
AcDbEntity
  8
USP
100
AcDbBlockReference
  2
MP34_S
 10
1.918222477377266
 20
0.3613013065562578
 30
0.0000000000000001
  0
ENDSEC
  0
SECTION
  2
OBJECTS
  0
DICTIONARY
  5
76
102
{ACAD_XDICTIONARY
360
77
102
}
100
AcDbDictionary
  3
ACAD_GROUP
350
73
  3
ACAD_MLINESTYLE
350
74
  0
DICTIONARY
  5
68
100
AcDbDictionary
280
     1
  0
DICTIONARY
  5
6A
100
AcDbDictionary
280
     1
  0
DICTIONARY
  5
6
100
AcDbDictionary
280
     1
  0
DICTIONARY
  5
F
100
AcDbDictionary
280
     1
  0
DICTIONARY
  5
7B
100
AcDbDictionary
280
     1
  0
DICTIONARY
  5
5B
100
AcDbDictionary
280
     1
  3
ACAD_LAYOUTSELFREF
360
5C
  0
DICTIONARY
  5
60
100
AcDbDictionary
280
     1
  3
ACAD_LAYOUTSELFREF
360
61
  0
DICTIONARY
  5
77
100
AcDbDictionary
280
     1
  3
ACAD_XREC_ROUNDTRIP
360
78
  0
DICTIONARY
  5
73
102
{ACAD_REACTORS
330
76
102
}
100
AcDbDictionary
  0
DICTIONARY
  5
74
102
{ACAD_XDICTIONARY
360
75
102
}
102
{ACAD_REACTORS
330
76
102
}
100
AcDbDictionary
  3
STANDARD
350
79
  0
XRECORD
  5
5C
102
{ACAD_REACTORS
330
5B
102
}
100
AcDbXrecord
340
2
  0
XRECORD
  5
61
102
{ACAD_REACTORS
330
60
102
}
100
AcDbXrecord
340
61
  0
XRECORD
  5
78
102
{ACAD_REACTORS
330
77
102
}
100
AcDbXrecord
102
EXTNAMES
  1
ACDBVARIABLEDICTIONARY
  2
AcDbVariableDictionary
  0
DICTIONARY
  5
75
100
AcDbDictionary
280
     1
  0
MLINESTYLE
  5
79
102
{ACAD_REACTORS
330
74
102
}
100
AcDbMlineStyle
  2
STANDARD
 70
     0
  3

 62
   256
 51
90.0
 52
90.0
 71
     2
 49
0.5
 62
   256
  6
BYLAYER
 49
-0.5
 62
   256
  6
BYLAYER
  0
ENDSEC
  0
EOF
