  0
SECTION
  2
HEADER
  9
$ACADVER
  1
AC1014
  9
$ACADMAINTVER
 70
     9
  9
$DWGCODEPAGE
  3
ANSI_1252
  9
$INSBASE
 10
0.0
 20
0.0
 30
0.0
  9
$EXTMIN
 10
0.0008543411104824
 20
0.0012447622725631
 30
0.0
  9
$EXTMAX
 10
16.32464258106828
 20
20.95666939110733
 30
0.0
  9
$LIMMIN
 10
0.0
 20
0.0
  9
$LIMMAX
 10
12.0
 20
9.0
  9
$ORTHOMODE
 70
     0
  9
$REGENMODE
 70
     1
  9
$FILLMODE
 70
     1
  9
$QTEXTMODE
 70
     0
  9
$MIRRTEXT
 70
     0
  9
$DRAGMODE
 70
     2
  9
$LTSCALE
 40
1.5
  9
$OSMODE
 70
    37
  9
$ATTMODE
 70
     1
  9
$TEXTSIZE
 40
0.25
  9
$TRACEWID
 40
0.05
  9
$TEXTSTYLE
  7
STANDARD
  9
$CLAYER
  8
0
  9
$CELTYPE
  6
BYLAYER
  9
$CECOLOR
 62
   256
  9
$CELTSCALE
 40
1.0
  9
$DELOBJ
 70
     1
  9
$DISPSILH
 70
     1
  9
$DIMSCALE
 40
6.0
  9
$DIMASZ
 40
0.125
  9
$DIMEXO
 40
0.0625
  9
$DIMDLI
 40
0.37890625
  9
$DIMRND
 40
0.0
  9
$DIMDLE
 40
0.0
  9
$DIMEXE
 40
0.09375
  9
$DIMTP
 40
0.0
  9
$DIMTM
 40
0.0
  9
$DIMTXT
 40
0.109375
  9
$DIMCEN
 40
0.0
  9
$DIMTSZ
 40
0.0
  9
$DIMTOL
 70
     0
  9
$DIMLIM
 70
     0
  9
$DIMTIH
 70
     1
  9
$DIMTOH
 70
     1
  9
$DIMSE1
 70
     0
  9
$DIMSE2
 70
     0
  9
$DIMTAD
 70
     0
  9
$DIMZIN
 70
     8
  9
$DIMBLK
  1

  9
$DIMASO
 70
     1
  9
$DIMSHO
 70
     1
  9
$DIMPOST
  1

  9
$DIMAPOST
  1

  9
$DIMALT
 70
     0
  9
$DIMALTD
 70
     2
  9
$DIMALTF
 40
25.4
  9
$DIMLFAC
 40
1.0
  9
$DIMTOFL
 70
     0
  9
$DIMTVP
 40
0.0
  9
$DIMTIX
 70
     0
  9
$DIMSOXD
 70
     0
  9
$DIMSAH
 70
     0
  9
$DIMBLK1
  1

  9
$DIMBLK2
  1

  9
$DIMSTYLE
  2
STANDARD
  9
$DIMCLRD
 70
     0
  9
$DIMCLRE
 70
     0
  9
$DIMCLRT
 70
   256
  9
$DIMTFAC
 40
1.0
  9
$DIMGAP
 40
0.08984375
  9
$DIMJUST
 70
     0
  9
$DIMSD1
 70
     0
  9
$DIMSD2
 70
     0
  9
$DIMTOLJ
 70
     1
  9
$DIMTZIN
 70
     0
  9
$DIMALTZ
 70
     0
  9
$DIMALTTZ
 70
     0
  9
$DIMFIT
 70
     3
  9
$DIMUPT
 70
     1
  9
$DIMUNIT
 70
     7
  9
$DIMDEC
 70
     4
  9
$DIMTDEC
 70
     4
  9
$DIMALTU
 70
     2
  9
$DIMALTTD
 70
     2
  9
$DIMTXSTY
  7
STANDARD
  9
$DIMAUNIT
 70
     0
  9
$LUNITS
 70
     5
  9
$LUPREC
 70
     6
  9
$SKETCHINC
 40
0.1
  9
$FILLETRAD
 40
0.0
  9
$AUNITS
 70
     0
  9
$AUPREC
 70
     1
  9
$MENU
  1
CUSTOM
  9
$ELEVATION
 40
0.0
  9
$PELEVATION
 40
0.0
  9
$THICKNESS
 40
0.0
  9
$LIMCHECK
 70
     0
  9
$BLIPMODE
 70
     0
  9
$CHAMFERA
 40
0.0
  9
$CHAMFERB
 40
0.0
  9
$CHAMFERC
 40
0.0
  9
$CHAMFERD
 40
0.0
  9
$SKPOLY
 70
     0
  9
$TDCREATE
 40
2451263.663231366
  9
$TDUPDATE
 40
2452759.745965891
  9
$TDINDWG
 40
0.1190955208
  9
$TDUSRTIMER
 40
0.1190955208
  9
$USRTIMER
 70
     1
  9
$ANGBASE
 50
0.0
  9
$ANGDIR
 70
     0
  9
$PDMODE
 70
     0
  9
$PDSIZE
 40
0.0
  9
$PLINEWID
 40
0.0
  9
$COORDS
 70
     1
  9
$SPLFRAME
 70
     0
  9
$SPLINETYPE
 70
     6
  9
$SPLINESEGS
 70
     8
  9
$ATTDIA
 70
     0
  9
$ATTREQ
 70
     1
  9
$HANDLING
 70
     1
  9
$HANDSEED
  5
BB
  9
$SURFTAB1
 70
     6
  9
$SURFTAB2
 70
     6
  9
$SURFTYPE
 70
     6
  9
$SURFU
 70
     6
  9
$SURFV
 70
     6
  9
$UCSNAME
  2

  9
$UCSORG
 10
0.0
 20
0.0
 30
0.0
  9
$UCSXDIR
 10
1.0
 20
0.0
 30
0.0
  9
$UCSYDIR
 10
0.0
 20
1.0
 30
0.0
  9
$PUCSNAME
  2

  9
$PUCSORG
 10
0.0
 20
0.0
 30
0.0
  9
$PUCSXDIR
 10
1.0
 20
0.0
 30
0.0
  9
$PUCSYDIR
 10
0.0
 20
1.0
 30
0.0
  9
$USERI1
 70
     0
  9
$USERI2
 70
     0
  9
$USERI3
 70
     0
  9
$USERI4
 70
     0
  9
$USERI5
 70
     0
  9
$USERR1
 40
0.0
  9
$USERR2
 40
0.0
  9
$USERR3
 40
0.0
  9
$USERR4
 40
0.0
  9
$USERR5
 40
0.0
  9
$WORLDVIEW
 70
     1
  9
$SHADEDGE
 70
     3
  9
$SHADEDIF
 70
    70
  9
$TILEMODE
 70
     1
  9
$MAXACTVP
 70
    16
  9
$PINSBASE
 10
0.0
 20
0.0
 30
0.0
  9
$PLIMCHECK
 70
     0
  9
$PEXTMIN
 10
1.000000000000000E+20
 20
1.000000000000000E+20
 30
1.000000000000000E+20
  9
$PEXTMAX
 10
-1.000000000000000E+20
 20
-1.000000000000000E+20
 30
-1.000000000000000E+20
  9
$PLIMMIN
 10
0.0
 20
0.0
  9
$PLIMMAX
 10
12.0
 20
9.0
  9
$UNITMODE
 70
     0
  9
$VISRETAIN
 70
     0
  9
$PLINEGEN
 70
     0
  9
$PSLTSCALE
 70
     0
  9
$TREEDEPTH
 70
  3020
  9
$PICKSTYLE
 70
     1
  9
$CMLSTYLE
  2
STANDARD
  9
$CMLJUST
 70
     0
  9
$CMLSCALE
 40
1.0
  9
$PROXYGRAPHICS
 70
     1
  9
$MEASUREMENT
 70
     0
  0
ENDSEC
  0
SECTION
  2
CLASSES
  0
CLASS
  1
ACDBDICTIONARYWDFLT
  2
AcDbDictionaryWithDefault
  3
AutoCAD 2000
 90
        0
280
     0
281
     0
  0
CLASS
  1
ACDBPLACEHOLDER
  2
AcDbPlaceHolder
  3
AutoCAD 2000
 90
        0
280
     0
281
     0
  0
CLASS
  1
LAYOUT
  2
AcDbLayout
  3
AutoCAD 2000
 90
        0
280
     0
281
     0
  0
CLASS
  1
DICTIONARYVAR
  2
AcDbDictionaryVar
  3
"AutoCAD"
 90
        0
280
     0
281
     0
  0
CLASS
  1
LONG_TRANSACTION
  2
AcDbLongTransaction
  3
AutoCAD 2000
 90
        0
280
     0
281
     0
  0
CLASS
  1
LWPOLYLINE
  2
AcDbPolyline
  3
"AutoCAD"
 90
        0
280
     0
281
     1
  0
CLASS
  1
HATCH
  2
AcDbHatch
  3
"ACAD_SEDONA"
 90
        0
280
     0
281
     1
  0
CLASS
  1
XRECORD
  2
AcDbXrecord
  3
"<Built In>"
 90
        0
280
     0
281
     0
  0
CLASS
  1
LONG_TRANSACTION
  2
AcDbLongTransaction
  3
AutoCAD 2000
 90
        0
280
     0
281
     0
  0
CLASS
  1
LWPOLYLINE
  2
AcDbPolyline
  3
"AutoCAD"
 90
        0
280
     0
281
     1
  0
CLASS
  1
HATCH
  2
AcDbHatch
  3
"ACAD_SEDONA"
 90
        0
280
     0
281
     1
  0
CLASS
  1
XRECORD
  2
AcDbXrecord
  3
"<Built In>"
 90
        0
280
     0
281
     0
  0
ENDSEC
  0
SECTION
  2
TABLES
  0
TABLE
  2
VPORT
  5
9D
100
AcDbSymbolTable
 70
     1
  0
VPORT
  5
B7
100
AcDbSymbolTableRecord
100
AcDbViewportTableRecord
  2
*ACTIVE
 70
     0
 10
0.0
 20
0.0
 11
1.0
 21
1.0
 12
-14.93283752069011
 22
21.00765070634922
 13
0.0
 23
0.0
 14
1.0
 24
1.0
 15
0.0
 25
0.0
 16
0.0
 26
0.0
 36
1.0
 17
23.09603071721725
 27
-10.27010416511325
 37
-10.44050274849355
 40
21.62689303315096
 41
1.457627118644067
 42
50.0
 43
10.55307667737539
 44
10.55307667737539
 50
0.0
 51
0.0
 71
     0
 72
   100
 73
     1
 74
     1
 75
     0
 76
     0
 77
     0
 78
     0
  0
ENDTAB
  0
TABLE
  2
LTYPE
  5
98
100
AcDbSymbolTable
 70
     1
  0
LTYPE
  5
99
100
AcDbSymbolTableRecord
100
AcDbLinetypeTableRecord
  2
BYBLOCK
 70
     0
  3

 72
    65
 73
     0
 40
0.0
  0
LTYPE
  5
9A
100
AcDbSymbolTableRecord
100
AcDbLinetypeTableRecord
  2
BYLAYER
 70
     0
  3

 72
    65
 73
     0
 40
0.0
  0
LTYPE
  5
5
100
AcDbSymbolTableRecord
100
AcDbLinetypeTableRecord
  2
CONTINUOUS
 70
     0
  3
Solid line
 72
    65
 73
     0
 40
0.0
  0
ENDTAB
  0
TABLE
  2
LAYER
  5
96
100
AcDbSymbolTable
 70
     4
  0
LAYER
  5
47
100
AcDbSymbolTableRecord
100
AcDbLayerTableRecord
  2
0
 70
     0
 62
     7
  6
CONTINUOUS
  0
LAYER
  5
8
100
AcDbSymbolTableRecord
100
AcDbLayerTableRecord
  2
USP-GEO
 70
     0
 62
     7
  6
CONTINUOUS
  0
LAYER
  5
E
100
AcDbSymbolTableRecord
100
AcDbLayerTableRecord
  2
USP-TXT
 70
     0
 62
     7
  6
CONTINUOUS
  0
LAYER
  5
4
100
AcDbSymbolTableRecord
100
AcDbLayerTableRecord
  2
USP
 70
     0
 62
     7
  6
CONTINUOUS
  0
ENDTAB
  0
TABLE
  2
STYLE
  5
97
100
AcDbSymbolTable
 70
     1
  0
STYLE
  5
F
100
AcDbSymbolTableRecord
100
AcDbTextStyleTableRecord
  2
STANDARD
 70
     0
 40
0.0
 41
1.0
 50
0.0
 71
     0
 42
0.25
  3
txt
  4

  0
ENDTAB
  0
TABLE
  2
VIEW
  5
9B
100
AcDbSymbolTable
 70
     0
  0
ENDTAB
  0
TABLE
  2
UCS
  5
9C
100
AcDbSymbolTable
 70
     0
  0
ENDTAB
  0
TABLE
  2
APPID
  5
9F
100
AcDbSymbolTable
 70
     1
  0
APPID
  5
A0
100
AcDbSymbolTableRecord
100
AcDbRegAppTableRecord
  2
ACAD
 70
     0
  0
ENDTAB
  0
TABLE
  2
DIMSTYLE
  5
A1
100
AcDbSymbolTable
 70
     1
  0
DIMSTYLE
105
A9
100
AcDbSymbolTableRecord
100
AcDbDimStyleTableRecord
  2
STANDARD
 70
     0
  3

  4

  5

  6

  7

 40
1.0
 41
0.18
 42
0.0625
 43
0.38
 44
0.18
 45
0.0
 46
0.0
 47
0.0
 48
0.0
140
0.18
141
0.09
142
0.0
143
25.4
144
1.0
145
0.0
146
1.0
147
0.09
 71
     0
 72
     0
 73
     1
 74
     1
 75
     0
 76
     0
 77
     0
 78
     0
170
     0
171
     2
172
     0
173
     0
174
     0
175
     0
176
     0
177
     0
178
     0
270
     2
271
     4
272
     4
273
     2
274
     2
340
F
275
     0
280
     0
281
     0
282
     0
283
     1
284
     0
285
     0
286
     0
287
     3
288
     0
  0
ENDTAB
  0
TABLE
  2
BLOCK_RECORD
  5
1
100
AcDbSymbolTable
 70
     3
  0
BLOCK_RECORD
  5
2
102
{ACAD_XDICTIONARY
360
8D
102
}
100
AcDbSymbolTableRecord
100
AcDbBlockTableRecord
  2
*MODEL_SPACE
  0
BLOCK_RECORD
  5
91
102
{ACAD_XDICTIONARY
360
92
102
}
100
AcDbSymbolTableRecord
100
AcDbBlockTableRecord
  2
*PAPER_SPACE
  0
BLOCK_RECORD
  5
6
100
AcDbSymbolTableRecord
100
AcDbBlockTableRecord
  2
LUGT2_F
  0
BLOCK_RECORD
  5
4A
100
AcDbSymbolTableRecord
100
AcDbBlockTableRecord
  2
LUGT2_T
  0
BLOCK_RECORD
  5
69
100
AcDbSymbolTableRecord
100
AcDbBlockTableRecord
  2
LUGT2_S
  0
ENDTAB
  0
ENDSEC
  0
SECTION
  2
BLOCKS
  0
BLOCK
  5
8F
100
AcDbEntity
  8
0
100
AcDbBlockBegin
  2
*MODEL_SPACE
 70
     0
 10
0.0
 20
0.0
 30
0.0
  3
*MODEL_SPACE
  1

  0
ENDBLK
  5
90
100
AcDbEntity
  8
0
100
AcDbBlockEnd
  0
BLOCK
  5
94
100
AcDbEntity
 67
     1
  8
0
100
AcDbBlockBegin
  2
*PAPER_SPACE
 70
     0
 10
0.0
 20
0.0
 30
0.0
  3
*PAPER_SPACE
  1

  0
ENDBLK
  5
95
100
AcDbEntity
 67
     1
  8
0
100
AcDbBlockEnd
  0
BLOCK
  5
46
100
AcDbEntity
  8
0
100
AcDbBlockBegin
  2
LUGT2_F
 70
     0
 10
0.0
 20
0.0
 30
0.0
  3
LUGT2_F
  1

  0
LINE
  5
7
100
AcDbEntity
  8
USP-GEO
100
AcDbLine
 10
6.749999999999994
 20
12.62499999999999
 30
0.0
 11
6.75
 21
6.875
 31
0.0
  0
LINE
  5
9
100
AcDbEntity
  8
USP-GEO
100
AcDbLine
 10
0.0
 20
6.875000000000005
 30
0.0
 11
-0.0000000000000022
 21
12.62499999999999
 31
0.0
  0
LINE
  5
A
100
AcDbEntity
  8
USP-GEO
100
AcDbLine
 10
4.625
 20
0.0000000000000004
 30
0.0
 11
2.125000000000003
 21
0.0
 31
0.0
  0
CIRCLE
  5
B
100
AcDbEntity
  8
USP-GEO
100
AcDbCircle
 10
2.625000000000001
 20
1.124999999999999
 30
0.0
 40
0.082
  0
CIRCLE
  5
C
100
AcDbEntity
  8
USP-GEO
100
AcDbCircle
 10
2.625000000000001
 20
3.375
 30
0.0
 40
0.082
  0
TEXT
  5
D
100
AcDbEntity
  8
USP-TXT
100
AcDbText
 10
-0.0148243777384392
 20
-2.034509868514296
 30
0.0
 40
0.375
  1
LUGT2 - FRONT VIEW
 72
     1
 11
3.36017562226156
 21
-2.034509868514296
 31
0.0
100
AcDbText
  0
LINE
  5
10
100
AcDbEntity
  8
USP-GEO
100
AcDbLine
 10
1.875000000000003
 20
0.2499999999999987
 30
0.0
 11
1.875000000000001
 21
4.792893218813453
 31
0.0
  0
LINE
  5
11
100
AcDbEntity
  8
USP-GEO
100
AcDbLine
 10
2.125000000000003
 20
0.0
 30
0.0
 11
1.875000000000003
 21
0.2499999999999991
 31
0.0
  0
CIRCLE
  5
12
100
AcDbEntity
  8
USP-GEO
100
AcDbCircle
 10
2.375000000000002
 20
0.3749999999999996
 30
0.0
 40
0.082
  0
CIRCLE
  5
13
100
AcDbEntity
  8
USP-GEO
100
AcDbCircle
 10
2.375000000000002
 20
1.500000000000003
 30
0.0
 40
0.15625
  0
LINE
  5
14
100
AcDbEntity
  8
USP-GEO
100
AcDbLine
 10
1.728553390593273
 20
5.146446609406726
 30
0.0
 11
-0.0000000000000004
 21
6.875000000000005
 31
0.0
  0
ARC
  5
15
100
AcDbEntity
  8
USP-GEO
100
AcDbCircle
 10
1.375
 20
4.792893218813453
 30
0.0
 40
0.5
100
AcDbArc
 50
0.0
 51
45.00000000000002
  0
CIRCLE
  5
16
100
AcDbEntity
  8
USP-GEO
100
AcDbCircle
 10
2.375000000000002
 20
2.625
 30
0.0
 40
0.082
  0
CIRCLE
  5
17
100
AcDbEntity
  8
USP-GEO
100
AcDbCircle
 10
2.375
 20
4.875
 30
0.0
 40
0.082
  0
CIRCLE
  5
18
100
AcDbEntity
  8
USP-GEO
100
AcDbCircle
 10
1.175213210791472
 20
6.734644365879514
 30
0.0
 40
0.15625
  0
CIRCLE
  5
19
100
AcDbEntity
  8
USP-GEO
100
AcDbCircle
 10
0.6236931695338975
 20
8.124999999999994
 30
0.0
 40
0.082
  0
LINE
  5
1A
100
AcDbEntity
  8
USP-GEO
100
AcDbLine
 10
4.875000000000005
 20
4.792893218813453
 30
0.0
 11
4.875
 21
0.2500000000000009
 31
0.0
  0
CIRCLE
  5
1B
100
AcDbEntity
  8
USP-GEO
100
AcDbCircle
 10
3.875000000000003
 20
0.375
 30
0.0
 40
0.082
  0
LINE
  5
1C
100
AcDbEntity
  8
USP-GEO
100
AcDbLine
 10
4.875
 20
0.2500000000000009
 30
0.0
 11
4.625
 21
0.0
 31
0.0
  0
CIRCLE
  5
1D
100
AcDbEntity
  8
USP-GEO
100
AcDbCircle
 10
4.125000000000003
 20
1.125
 30
0.0
 40
0.082
  0
LINE
  5
1E
100
AcDbEntity
  8
USP-GEO
100
AcDbLine
 10
6.749999999999998
 20
6.875000000000001
 30
0.0
 11
5.021446609406726
 21
5.146446609406726
 31
0.0
  0
ARC
  5
1F
100
AcDbEntity
  8
USP-GEO
100
AcDbCircle
 10
5.375000000000003
 20
4.792893218813453
 30
0.0
 40
0.5
100
AcDbArc
 50
135.0000000000003
 51
179.9999999999992
  0
CIRCLE
  5
20
100
AcDbEntity
  8
USP-GEO
100
AcDbCircle
 10
3.875000000000001
 20
4.875
 30
0.0
 40
0.082
  0
CIRCLE
  5
21
100
AcDbEntity
  8
USP-GEO
100
AcDbCircle
 10
3.875000000000001
 20
2.624999999999998
 30
0.0
 40
0.082
  0
CIRCLE
  5
22
100
AcDbEntity
  8
USP-GEO
100
AcDbCircle
 10
2.875000000000002
 20
1.875
 30
0.0
 40
0.082
  0
CIRCLE
  5
23
100
AcDbEntity
  8
USP-GEO
100
AcDbCircle
 10
2.875
 20
4.125
 30
0.0
 40
0.082
  0
CIRCLE
  5
24
100
AcDbEntity
  8
USP-GEO
100
AcDbCircle
 10
4.125000000000001
 20
3.375
 30
0.0
 40
0.082
  0
CIRCLE
  5
25
100
AcDbEntity
  8
USP-GEO
100
AcDbCircle
 10
4.375000000000005
 20
3.000000000000001
 30
0.0
 40
0.15625
  0
CIRCLE
  5
26
100
AcDbEntity
  8
USP-GEO
100
AcDbCircle
 10
4.375000000000001
 20
1.874999999999999
 30
0.0
 40
0.082
  0
CIRCLE
  5
27
100
AcDbEntity
  8
USP-GEO
100
AcDbCircle
 10
4.375000000000001
 20
4.125
 30
0.0
 40
0.082
  0
CIRCLE
  5
28
100
AcDbEntity
  8
USP-GEO
100
AcDbCircle
 10
3.375000000000001
 20
5.546815219064352
 30
0.0
 40
0.15625
  0
CIRCLE
  5
29
100
AcDbEntity
  8
USP-GEO
100
AcDbCircle
 10
5.574786789208527
 20
6.734644365879514
 30
0.0
 40
0.15625
  0
CIRCLE
  5
2A
100
AcDbEntity
  8
USP-GEO
100
AcDbCircle
 10
6.126306830466106
 20
8.124999999999998
 30
0.0
 40
0.082
  0
LINE
  5
2B
100
AcDbEntity
  8
USP-GEO
100
AcDbLine
 10
1.717443169533897
 20
8.875
 30
0.0
 11
5.032556830466106
 21
8.875000000000001
 31
0.0
  0
LINE
  5
2C
100
AcDbEntity
  8
USP-GEO
100
AcDbLine
 10
-0.0000000000000027
 20
12.62499999999999
 30
0.0
 11
0.2499999999999969
 21
12.87499999999999
 31
0.0
  0
LINE
  5
2D
100
AcDbEntity
  8
USP-GEO
100
AcDbLine
 10
1.75
 20
12.62499999999999
 30
0.0
 11
1.750000000000001
 21
9.374999999999998
 31
0.0
  0
LINE
  5
2E
100
AcDbEntity
  8
USP-GEO
100
AcDbLine
 10
1.670999999999999
 20
12.62499999999999
 30
0.0
 11
1.671
 21
9.374999999999998
 31
0.0
  0
LINE
  5
2F
100
AcDbEntity
  8
USP-GEO
100
AcDbLine
 10
1.750000000000002
 20
9.374999999999998
 30
0.0
 11
1.750000000000002
 21
9.125000000000001
 31
0.0
  0
LINE
  5
30
100
AcDbEntity
  8
USP-GEO
100
AcDbLine
 10
1.671000000000001
 20
9.374999999999998
 30
0.0
 11
1.671000000000001
 21
9.125000000000001
 31
0.0
  0
ARC
  5
31
100
AcDbEntity
  8
USP-GEO
100
AcDbCircle
 10
1.748693169533896
 20
9.0
 30
0.0
 40
0.1288470508005487
100
AcDbArc
 50
104.036243467927
 51
255.9637565320745
  0
LINE
  5
32
100
AcDbEntity
  8
USP-GEO
100
AcDbLine
 10
1.750000000000002
 20
9.124999999999998
 30
0.0
 11
1.671000000000001
 21
9.124999999999998
 31
0.0
  0
LINE
  5
33
100
AcDbEntity
  8
USP-GEO
100
AcDbLine
 10
1.750000000000002
 20
9.374999999999998
 30
0.0
 11
1.671000000000001
 21
9.374999999999998
 31
0.0
  0
LINE
  5
34
100
AcDbEntity
  8
USP-GEO
100
AcDbLine
 10
0.2499999999999969
 20
12.87499999999999
 30
0.0
 11
1.671
 21
12.875
 31
0.0
  0
LINE
  5
35
100
AcDbEntity
  8
USP-GEO
100
AcDbLine
 10
1.75
 20
12.62499999999999
 30
0.0
 11
1.75
 21
12.87499999999999
 31
0.0
  0
LINE
  5
36
100
AcDbEntity
  8
USP-GEO
100
AcDbLine
 10
1.670999999999999
 20
12.87499999999999
 30
0.0
 11
1.670999999999999
 21
12.62499999999999
 31
0.0
  0
LINE
  5
37
100
AcDbEntity
  8
USP-GEO
100
AcDbLine
 10
1.75
 20
12.87499999999999
 30
0.0
 11
1.670999999999999
 21
12.87499999999999
 31
0.0
  0
LINE
  5
38
100
AcDbEntity
  8
USP-GEO
100
AcDbLine
 10
1.75
 20
12.62499999999999
 30
0.0
 11
1.670999999999999
 21
12.62499999999999
 31
0.0
  0
LINE
  5
39
100
AcDbEntity
  8
USP-GEO
100
AcDbLine
 10
5.079000000000002
 20
12.87499999999999
 30
0.0
 11
6.499999999999994
 21
12.87499999999999
 31
0.0
  0
LINE
  5
3A
100
AcDbEntity
  8
USP-GEO
100
AcDbLine
 10
5.000000000000003
 20
12.62499999999999
 30
0.0
 11
5.000000000000003
 21
9.374999999999998
 31
0.0
  0
LINE
  5
3B
100
AcDbEntity
  8
USP-GEO
100
AcDbLine
 10
5.079000000000005
 20
9.374999999999998
 30
0.0
 11
5.079000000000004
 21
12.62499999999999
 31
0.0
  0
LINE
  5
3C
100
AcDbEntity
  8
USP-GEO
100
AcDbLine
 10
5.079000000000005
 20
9.124999999999998
 30
0.0
 11
5.079000000000005
 21
9.374999999999998
 31
0.0
  0
LINE
  5
3D
100
AcDbEntity
  8
USP-GEO
100
AcDbLine
 10
5.000000000000003
 20
9.374999999999998
 30
0.0
 11
5.000000000000003
 21
9.124999999999998
 31
0.0
  0
LINE
  5
3E
100
AcDbEntity
  8
USP-GEO
100
AcDbLine
 10
5.000000000000003
 20
9.124999999999998
 30
0.0
 11
5.079000000000004
 21
9.124999999999998
 31
0.0
  0
ARC
  5
3F
100
AcDbEntity
  8
USP-GEO
100
AcDbCircle
 10
5.001306830466102
 20
9.000000000000001
 30
0.0
 40
0.128847050800551
100
AcDbArc
 50
284.0362434679278
 51
75.96375653207179
  0
LINE
  5
40
100
AcDbEntity
  8
USP-GEO
100
AcDbLine
 10
5.000000000000003
 20
9.374999999999998
 30
0.0
 11
5.079000000000005
 21
9.374999999999998
 31
0.0
  0
LINE
  5
41
100
AcDbEntity
  8
USP-GEO
100
AcDbLine
 10
5.000000000000001
 20
12.87499999999999
 30
0.0
 11
5.079000000000004
 21
12.87499999999999
 31
0.0
  0
LINE
  5
42
100
AcDbEntity
  8
USP-GEO
100
AcDbLine
 10
5.000000000000003
 20
12.62499999999999
 30
0.0
 11
5.079000000000004
 21
12.62499999999999
 31
0.0
  0
LINE
  5
43
100
AcDbEntity
  8
USP-GEO
100
AcDbLine
 10
5.000000000000001
 20
12.87499999999999
 30
0.0
 11
5.000000000000001
 21
12.62499999999999
 31
0.0
  0
LINE
  5
44
100
AcDbEntity
  8
USP-GEO
100
AcDbLine
 10
5.079000000000004
 20
12.62499999999999
 30
0.0
 11
5.079000000000004
 21
12.87499999999999
 31
0.0
  0
LINE
  5
45
100
AcDbEntity
  8
USP-GEO
100
AcDbLine
 10
6.499999999999994
 20
12.87499999999999
 30
0.0
 11
6.749999999999994
 21
12.62499999999999
 31
0.0
  0
ENDBLK
  5
48
100
AcDbEntity
  8
0
100
AcDbBlockEnd
  0
BLOCK
  5
66
100
AcDbEntity
  8
0
100
AcDbBlockBegin
  2
LUGT2_T
 70
     0
 10
0.0
 20
0.0
 30
0.0
  3
LUGT2_T
  1

  0
LINE
  5
4B
100
AcDbEntity
  8
USP-GEO
100
AcDbLine
 10
1.750000000000004
 20
1.420999999999999
 30
0.0
 11
5.000000000000005
 21
1.420999999999999
 31
0.0
  0
LINE
  5
4C
100
AcDbEntity
  8
USP-GEO
100
AcDbLine
 10
1.750000000000002
 20
1.5
 30
0.0
 11
5.000000000000005
 21
1.5
 31
0.0
  0
TEXT
  5
4D
100
AcDbEntity
  8
USP-TXT
100
AcDbText
 10
0.3601756222615648
 20
-2.019249150927681
 30
0.0
 40
0.375
  1
LUGT2 - TOP VIEW
 72
     1
 11
3.360175622261564
 21
-2.019249150927681
 31
0.0
100
AcDbText
  0
LINE
  5
4E
100
AcDbEntity
  8
USP-GEO
100
AcDbLine
 10
-0.0000000000000001
 20
1.420999999999992
 30
0.0
 11
0.25
 21
1.420999999999992
 31
0.0
  0
LINE
  5
4F
100
AcDbEntity
  8
USP-GEO
100
AcDbLine
 10
0.2499999999999995
 20
1.499999999999992
 30
0.0
 11
-0.0000000000000001
 21
1.499999999999992
 31
0.0
  0
LINE
  5
50
100
AcDbEntity
  8
USP-GEO
100
AcDbLine
 10
0.0000000000000004
 20
1.499999999999992
 30
0.0
 11
0.0000000000000004
 21
1.420999999999992
 31
0.0
  0
LINE
  5
51
100
AcDbEntity
  8
USP-GEO
100
AcDbLine
 10
1.750000000000004
 20
1.499999999999992
 30
0.0
 11
1.750000000000004
 21
0.2499999999999964
 31
0.0
  0
LINE
  5
52
100
AcDbEntity
  8
USP-GEO
100
AcDbLine
 10
1.671000000000003
 20
1.420999999999992
 30
0.0
 11
1.671000000000003
 21
0.2499999999999964
 31
0.0
  0
LINE
  5
53
100
AcDbEntity
  8
USP-GEO
100
AcDbLine
 10
1.750000000000002
 20
-0.0000000000000036
 30
0.0
 11
1.750000000000002
 21
0.2499999999999964
 31
0.0
  0
LINE
  5
54
100
AcDbEntity
  8
USP-GEO
100
AcDbLine
 10
1.671000000000002
 20
0.2499999999999964
 30
0.0
 11
1.671000000000002
 21
-0.0000000000000036
 31
0.0
  0
LINE
  5
55
100
AcDbEntity
  8
USP-GEO
100
AcDbLine
 10
1.750000000000002
 20
-0.0000000000000036
 30
0.0
 11
1.671000000000002
 21
-0.0000000000000036
 31
0.0
  0
LINE
  5
56
100
AcDbEntity
  8
USP-GEO
100
AcDbLine
 10
1.750000000000003
 20
0.2499999999999964
 30
0.0
 11
1.671000000000002
 21
0.2499999999999964
 31
0.0
  0
LINE
  5
57
100
AcDbEntity
  8
USP-GEO
100
AcDbLine
 10
0.25
 20
1.420999999999992
 30
0.0
 11
1.671000000000002
 21
1.420999999999992
 31
0.0
  0
LINE
  5
58
100
AcDbEntity
  8
USP-GEO
100
AcDbLine
 10
1.750000000000004
 20
1.499999999999992
 30
0.0
 11
0.2499999999999995
 21
1.499999999999992
 31
0.0
  0
LINE
  5
59
100
AcDbEntity
  8
USP-GEO
100
AcDbLine
 10
0.2499999999999995
 20
1.499999999999992
 30
0.0
 11
0.2499999999999995
 21
1.420999999999992
 31
0.0
  0
LINE
  5
5A
100
AcDbEntity
  8
USP-GEO
100
AcDbLine
 10
5.079000000000005
 20
1.420999999999992
 30
0.0
 11
6.499999999999998
 21
1.420999999999992
 31
0.0
  0
LINE
  5
5B
100
AcDbEntity
  8
USP-GEO
100
AcDbLine
 10
6.499999999999998
 20
1.499999999999992
 30
0.0
 11
5.000000000000005
 21
1.499999999999992
 31
0.0
  0
LINE
  5
5C
100
AcDbEntity
  8
USP-GEO
100
AcDbLine
 10
5.000000000000005
 20
1.499999999999989
 30
0.0
 11
5.000000000000005
 21
0.2499999999999858
 31
0.0
  0
LINE
  5
5D
100
AcDbEntity
  8
USP-GEO
100
AcDbLine
 10
5.079000000000006
 20
0.2499999999999858
 30
0.0
 11
5.079000000000006
 21
1.420999999999988
 31
0.0
  0
LINE
  5
5E
100
AcDbEntity
  8
USP-GEO
100
AcDbLine
 10
5.000000000000005
 20
0.2499999999999858
 30
0.0
 11
5.000000000000005
 21
-0.0000000000000107
 31
0.0
  0
LINE
  5
5F
100
AcDbEntity
  8
USP-GEO
100
AcDbLine
 10
5.079000000000005
 20
-0.0000000000000142
 30
0.0
 11
5.079000000000005
 21
0.2499999999999858
 31
0.0
  0
LINE
  5
60
100
AcDbEntity
  8
USP-GEO
100
AcDbLine
 10
5.000000000000005
 20
-0.0000000000000107
 30
0.0
 11
5.079000000000006
 21
-0.0000000000000107
 31
0.0
  0
LINE
  5
61
100
AcDbEntity
  8
USP-GEO
100
AcDbLine
 10
5.000000000000005
 20
0.2499999999999858
 30
0.0
 11
5.079000000000005
 21
0.2499999999999858
 31
0.0
  0
LINE
  5
62
100
AcDbEntity
  8
USP-GEO
100
AcDbLine
 10
6.499999999999998
 20
1.420999999999992
 30
0.0
 11
6.749999999999998
 21
1.420999999999992
 31
0.0
  0
LINE
  5
63
100
AcDbEntity
  8
USP-GEO
100
AcDbLine
 10
6.499999999999998
 20
1.499999999999992
 30
0.0
 11
6.749999999999998
 21
1.499999999999992
 31
0.0
  0
LINE
  5
64
100
AcDbEntity
  8
USP-GEO
100
AcDbLine
 10
6.499999999999998
 20
1.499999999999992
 30
0.0
 11
6.499999999999998
 21
1.420999999999992
 31
0.0
  0
LINE
  5
65
100
AcDbEntity
  8
USP-GEO
100
AcDbLine
 10
6.749999999999996
 20
1.499999999999992
 30
0.0
 11
6.749999999999996
 21
1.420999999999992
 31
0.0
  0
ENDBLK
  5
67
100
AcDbEntity
  8
0
100
AcDbBlockEnd
  0
BLOCK
  5
8B
100
AcDbEntity
  8
0
100
AcDbBlockBegin
  2
LUGT2_S
 70
     0
 10
0.0
 20
0.0
 30
0.0
  3
LUGT2_S
  1

  0
LINE
  5
6A
100
AcDbEntity
  8
USP-GEO
100
AcDbLine
 10
1.420999999999999
 20
12.62499999999999
 30
0.0
 11
1.421000000000008
 21
6.875
 31
0.0
  0
LINE
  5
6B
100
AcDbEntity
  8
USP-GEO
100
AcDbLine
 10
1.500000000000007
 20
6.875000000000001
 30
0.0
 11
1.499999999999998
 21
12.62499999999999
 31
0.0
  0
TEXT
  5
6C
100
AcDbEntity
  8
USP-TXT
100
AcDbText
 10
-1.889089450378239
 20
-2.034509868514295
 30
0.0
 40
0.375
  1
LUGT2 - SIDE VIEW
 72
     1
 11
1.23591054962176
 21
-2.034509868514295
 31
0.0
100
AcDbText
  0
LINE
  5
6D
100
AcDbEntity
  8
USP-GEO
100
AcDbLine
 10
1.421000000000011
 20
4.792893218813453
 30
0.0
 11
1.421000000000018
 21
0.2500000000000004
 31
0.0
  0
LINE
  5
6E
100
AcDbEntity
  8
USP-GEO
100
AcDbLine
 10
1.500000000000019
 20
0.2500000000000009
 30
0.0
 11
1.500000000000012
 21
4.792893218813453
 31
0.0
  0
LINE
  5
6F
100
AcDbEntity
  8
USP-GEO
100
AcDbLine
 10
1.421000000000018
 20
0.2500000000000004
 30
0.0
 11
1.421000000000018
 21
0.0
 31
0.0
  0
LINE
  5
70
100
AcDbEntity
  8
USP-GEO
100
AcDbLine
 10
1.500000000000019
 20
0.2500000000000009
 30
0.0
 11
1.500000000000019
 21
0.0000000000000004
 31
0.0
  0
LINE
  5
71
100
AcDbEntity
  8
USP-GEO
100
AcDbLine
 10
1.500000000000019
 20
0.0
 30
0.0
 11
1.421000000000018
 21
0.0
 31
0.0
  0
LINE
  5
72
100
AcDbEntity
  8
USP-GEO
100
AcDbLine
 10
1.500000000000019
 20
0.2500000000000009
 30
0.0
 11
1.421000000000018
 21
0.2500000000000009
 31
0.0
  0
LINE
  5
73
100
AcDbEntity
  8
USP-GEO
100
AcDbLine
 10
1.421000000000013
 20
5.146446609406725
 30
0.0
 11
1.421000000000013
 21
4.792893218813453
 31
0.0
  0
LINE
  5
74
100
AcDbEntity
  8
USP-GEO
100
AcDbLine
 10
1.500000000000014
 20
5.146446609406726
 30
0.0
 11
1.500000000000014
 21
4.792893218813446
 31
0.0
  0
LINE
  5
75
100
AcDbEntity
  8
USP-GEO
100
AcDbLine
 10
1.500000000000012
 20
4.792893218813453
 30
0.0
 11
1.421000000000011
 21
4.792893218813453
 31
0.0
  0
LINE
  5
76
100
AcDbEntity
  8
USP-GEO
100
AcDbLine
 10
1.421000000000008
 20
6.875000000000001
 30
0.0
 11
1.421000000000011
 21
5.146446609406726
 31
0.0
  0
LINE
  5
77
100
AcDbEntity
  8
USP-GEO
100
AcDbLine
 10
1.500000000000007
 20
6.875000000000003
 30
0.0
 11
1.50000000000001
 21
5.146446609406725
 31
0.0
  0
LINE
  5
78
100
AcDbEntity
  8
USP-GEO
100
AcDbLine
 10
1.50000000000001
 20
5.146446609406726
 30
0.0
 11
1.421000000000011
 21
5.146446609406726
 31
0.0
  0
LINE
  5
79
100
AcDbEntity
  8
USP-GEO
100
AcDbLine
 10
1.500000000000007
 20
6.875000000000001
 30
0.0
 11
1.421000000000008
 21
6.875000000000001
 31
0.0
  0
LINE
  5
7A
100
AcDbEntity
  8
USP-GEO
100
AcDbLine
 10
0.2499999999999929
 20
12.87499999999999
 30
0.0
 11
1.420999999999999
 21
12.87499999999999
 31
0.0
  0
LINE
  5
7B
100
AcDbEntity
  8
USP-GEO
100
AcDbLine
 10
1.421000000000004
 20
9.124999999999992
 30
0.0
 11
0.25
 21
9.124999999999998
 31
0.0
  0
CIRCLE
  5
7C
100
AcDbEntity
  8
USP-GEO
100
AcDbCircle
 10
0.9339927928875937
 20
11.59797682290085
 30
0.0
 40
0.082
  0
LINE
  5
7D
100
AcDbEntity
  8
USP-GEO
100
AcDbLine
 10
0.0
 20
9.374999999999998
 30
0.0
 11
-0.0000000000000053
 21
12.62499999999999
 31
0.0
  0
LINE
  5
7E
100
AcDbEntity
  8
USP-GEO
100
AcDbLine
 10
0.25
 20
9.124999999999998
 30
0.0
 11
0.0
 21
9.374999999999998
 31
0.0
  0
CIRCLE
  5
7F
100
AcDbEntity
  8
USP-GEO
100
AcDbCircle
 10
0.3000000000000007
 20
9.597976822900848
 30
0.0
 40
0.082
  0
CIRCLE
  5
80
100
AcDbEntity
  8
USP-GEO
100
AcDbCircle
 10
0.9339927928875955
 20
9.847976822900848
 30
0.0
 40
0.082
  0
CIRCLE
  5
81
100
AcDbEntity
  8
USP-GEO
100
AcDbCircle
 10
0.2999999999999971
 20
10.47297682290084
 30
0.0
 40
0.082
  0
CIRCLE
  5
82
100
AcDbEntity
  8
USP-GEO
100
AcDbCircle
 10
0.2999999999999971
 20
11.34797682290084
 30
0.0
 40
0.082
  0
CIRCLE
  5
83
100
AcDbEntity
  8
USP-GEO
100
AcDbCircle
 10
0.9339927928875955
 20
10.72297682290085
 30
0.0
 40
0.082
  0
CIRCLE
  5
84
100
AcDbEntity
  8
USP-GEO
100
AcDbCircle
 10
0.2999999999999971
 20
12.22297682290085
 30
0.0
 40
0.082
  0
LINE
  5
85
100
AcDbEntity
  8
USP-GEO
100
AcDbLine
 10
-0.0000000000000053
 20
12.62499999999999
 30
0.0
 11
0.2499999999999929
 21
12.87499999999999
 31
0.0
  0
CIRCLE
  5
86
100
AcDbEntity
  8
USP-GEO
100
AcDbCircle
 10
0.9339927928875937
 20
12.49999999999999
 30
0.0
 40
0.082
  0
LINE
  5
87
100
AcDbEntity
  8
USP-GEO
100
AcDbLine
 10
1.5
 20
12.62499999999999
 30
0.0
 11
1.420999999999999
 21
12.62499999999999
 31
0.0
  0
LINE
  5
88
100
AcDbEntity
  8
USP-GEO
100
AcDbLine
 10
1.5
 20
12.87499999999999
 30
0.0
 11
1.420999999999999
 21
12.87499999999999
 31
0.0
  0
LINE
  5
89
100
AcDbEntity
  8
USP-GEO
100
AcDbLine
 10
1.420999999999999
 20
12.87499999999999
 30
0.0
 11
1.420999999999999
 21
12.62499999999999
 31
0.0
  0
LINE
  5
8A
100
AcDbEntity
  8
USP-GEO
100
AcDbLine
 10
1.5
 20
12.87499999999999
 30
0.0
 11
1.5
 21
12.62499999999999
 31
0.0
  0
ENDBLK
  5
8C
100
AcDbEntity
  8
0
100
AcDbBlockEnd
  0
ENDSEC
  0
SECTION
  2
ENTITIES
  0
INSERT
  5
3
100
AcDbEntity
  8
USP
100
AcDbBlockReference
  2
LUGT2_F
 10
0.0156787188489216
 20
2.035754630786859
 30
0.0
  0
INSERT
  5
49
100
AcDbEntity
  8
USP
100
AcDbBlockReference
  2
LUGT2_T
 10
0.015678718848918
 20
19.45666939110733
 30
0.0
  0
INSERT
  5
68
100
AcDbEntity
  8
USP
100
AcDbBlockReference
  2
LUGT2_S
 10
11.96373203144653
 20
2.035754630786859
 30
0.0
  0
ENDSEC
  0
SECTION
  2
OBJECTS
  0
DICTIONARY
  5
A5
102
{ACAD_XDICTIONARY
360
A6
102
}
100
AcDbDictionary
  3
ACAD_GROUP
350
A3
  3
ACAD_MLINESTYLE
350
A4
  0
DICTIONARY
  5
8D
100
AcDbDictionary
280
     1
  3
ACAD_LAYOUTSELFREF
360
8E
  0
DICTIONARY
  5
92
100
AcDbDictionary
280
     1
  3
ACAD_LAYOUTSELFREF
360
93
  0
DICTIONARY
  5
A6
100
AcDbDictionary
280
     1
  3
ACAD_XREC_ROUNDTRIP
360
A7
  0
DICTIONARY
  5
A3
102
{ACAD_REACTORS
330
A5
102
}
100
AcDbDictionary
  0
DICTIONARY
  5
A4
102
{ACAD_REACTORS
330
A5
102
}
100
AcDbDictionary
  3
STANDARD
350
A8
  0
XRECORD
  5
8E
102
{ACAD_REACTORS
330
8D
102
}
100
AcDbXrecord
340
18
  0
XRECORD
  5
93
102
{ACAD_REACTORS
330
92
102
}
100
AcDbXrecord
340
15
  0
XRECORD
  5
A7
102
{ACAD_REACTORS
330
A6
102
}
100
AcDbXrecord
102
EXTNAMES
  1
ACDBVARIABLEDICTIONARY
  2
AcDbVariableDictionary
  0
MLINESTYLE
  5
A8
102
{ACAD_REACTORS
330
A4
102
}
100
AcDbMlineStyle
  2
STANDARD
 70
     0
  3

 62
     0
 51
90.0
 52
90.0
 71
     2
 49
0.5
 62
   256
  6
BYLAYER
 49
-0.5
 62
   256
  6
BYLAYER
  0
ENDSEC
  0
EOF
