  0
SECTION
  2
HEADER
  9
$ACADVER
  1
AC1014
  9
$ACADMAINTVER
 70
     9
  9
$DWGCODEPAGE
  3
ANSI_1252
  9
$INSBASE
 10
0.0
 20
0.0
 30
0.0
  9
$EXTMIN
 10
0.0004088091480199
 20
0.0003925455907741
 30
0.0
  9
$EXTMAX
 10
13.39692283922579
 20
12.86400782534701
 30
0.0
  9
$LIMMIN
 10
0.0
 20
0.0
  9
$LIMMAX
 10
12.0
 20
9.0
  9
$ORTHOMODE
 70
     0
  9
$REGENMODE
 70
     1
  9
$FILLMODE
 70
     1
  9
$QTEXTMODE
 70
     0
  9
$MIRRTEXT
 70
     1
  9
$DRAGMODE
 70
     2
  9
$LTSCALE
 40
1.0
  9
$OSMODE
 70
    37
  9
$ATTMODE
 70
     1
  9
$TEXTSIZE
 40
0.75
  9
$TRACEWID
 40
0.05
  9
$TEXTSTYLE
  7
STANDARD
  9
$CLAYER
  8
0
  9
$CELTYPE
  6
BYLAYER
  9
$CECOLOR
 62
   256
  9
$CELTSCALE
 40
1.0
  9
$DELOBJ
 70
     1
  9
$DISPSILH
 70
     0
  9
$DIMSCALE
 40
1.0
  9
$DIMASZ
 40
0.18
  9
$DIMEXO
 40
0.0625
  9
$DIMDLI
 40
0.38
  9
$DIMRND
 40
0.0
  9
$DIMDLE
 40
0.0
  9
$DIMEXE
 40
0.18
  9
$DIMTP
 40
0.0
  9
$DIMTM
 40
0.0
  9
$DIMTXT
 40
0.18
  9
$DIMCEN
 40
0.09
  9
$DIMTSZ
 40
0.0
  9
$DIMTOL
 70
     0
  9
$DIMLIM
 70
     0
  9
$DIMTIH
 70
     1
  9
$DIMTOH
 70
     1
  9
$DIMSE1
 70
     0
  9
$DIMSE2
 70
     0
  9
$DIMTAD
 70
     0
  9
$DIMZIN
 70
     0
  9
$DIMBLK
  1

  9
$DIMASO
 70
     1
  9
$DIMSHO
 70
     1
  9
$DIMPOST
  1

  9
$DIMAPOST
  1

  9
$DIMALT
 70
     0
  9
$DIMALTD
 70
     2
  9
$DIMALTF
 40
25.4
  9
$DIMLFAC
 40
1.0
  9
$DIMTOFL
 70
     0
  9
$DIMTVP
 40
0.0
  9
$DIMTIX
 70
     0
  9
$DIMSOXD
 70
     0
  9
$DIMSAH
 70
     0
  9
$DIMBLK1
  1

  9
$DIMBLK2
  1

  9
$DIMSTYLE
  2
STANDARD
  9
$DIMCLRD
 70
     0
  9
$DIMCLRE
 70
     0
  9
$DIMCLRT
 70
     0
  9
$DIMTFAC
 40
1.0
  9
$DIMGAP
 40
0.09
  9
$DIMJUST
 70
     0
  9
$DIMSD1
 70
     0
  9
$DIMSD2
 70
     0
  9
$DIMTOLJ
 70
     1
  9
$DIMTZIN
 70
     0
  9
$DIMALTZ
 70
     0
  9
$DIMALTTZ
 70
     0
  9
$DIMFIT
 70
     3
  9
$DIMUPT
 70
     0
  9
$DIMUNIT
 70
     2
  9
$DIMDEC
 70
     4
  9
$DIMTDEC
 70
     4
  9
$DIMALTU
 70
     2
  9
$DIMALTTD
 70
     2
  9
$DIMTXSTY
  7
STANDARD
  9
$DIMAUNIT
 70
     0
  9
$LUNITS
 70
     2
  9
$LUPREC
 70
     4
  9
$SKETCHINC
 40
0.1
  9
$FILLETRAD
 40
0.5
  9
$AUNITS
 70
     0
  9
$AUPREC
 70
     0
  9
$MENU
  1
.
  9
$ELEVATION
 40
0.0
  9
$PELEVATION
 40
0.0
  9
$THICKNESS
 40
0.0
  9
$LIMCHECK
 70
     0
  9
$BLIPMODE
 70
     0
  9
$CHAMFERA
 40
0.5
  9
$CHAMFERB
 40
0.5
  9
$CHAMFERC
 40
1.0
  9
$CHAMFERD
 40
0.0
  9
$SKPOLY
 70
     0
  9
$TDCREATE
 40
2451703.861962152
  9
$TDUPDATE
 40
2452759.745930983
  9
$TDINDWG
 40
0.0392191204
  9
$TDUSRTIMER
 40
0.0392184259
  9
$USRTIMER
 70
     1
  9
$ANGBASE
 50
0.0
  9
$ANGDIR
 70
     0
  9
$PDMODE
 70
     0
  9
$PDSIZE
 40
0.0
  9
$PLINEWID
 40
0.0
  9
$COORDS
 70
     1
  9
$SPLFRAME
 70
     0
  9
$SPLINETYPE
 70
     6
  9
$SPLINESEGS
 70
     8
  9
$ATTDIA
 70
     0
  9
$ATTREQ
 70
     1
  9
$HANDLING
 70
     1
  9
$HANDSEED
  5
83
  9
$SURFTAB1
 70
     6
  9
$SURFTAB2
 70
     6
  9
$SURFTYPE
 70
     6
  9
$SURFU
 70
     6
  9
$SURFV
 70
     6
  9
$UCSNAME
  2

  9
$UCSORG
 10
0.0
 20
0.0
 30
0.0
  9
$UCSXDIR
 10
1.0
 20
0.0
 30
0.0
  9
$UCSYDIR
 10
0.0
 20
1.0
 30
0.0
  9
$PUCSNAME
  2

  9
$PUCSORG
 10
0.0
 20
0.0
 30
0.0
  9
$PUCSXDIR
 10
1.0
 20
0.0
 30
0.0
  9
$PUCSYDIR
 10
0.0
 20
1.0
 30
0.0
  9
$USERI1
 70
     0
  9
$USERI2
 70
     0
  9
$USERI3
 70
     0
  9
$USERI4
 70
     0
  9
$USERI5
 70
     0
  9
$USERR1
 40
0.0
  9
$USERR2
 40
0.0
  9
$USERR3
 40
0.0
  9
$USERR4
 40
0.0
  9
$USERR5
 40
0.0
  9
$WORLDVIEW
 70
     1
  9
$SHADEDGE
 70
     3
  9
$SHADEDIF
 70
    70
  9
$TILEMODE
 70
     1
  9
$MAXACTVP
 70
    48
  9
$PINSBASE
 10
0.0
 20
0.0
 30
0.0
  9
$PLIMCHECK
 70
     0
  9
$PEXTMIN
 10
1.000000000000000E+20
 20
1.000000000000000E+20
 30
1.000000000000000E+20
  9
$PEXTMAX
 10
-1.000000000000000E+20
 20
-1.000000000000000E+20
 30
-1.000000000000000E+20
  9
$PLIMMIN
 10
0.0
 20
0.0
  9
$PLIMMAX
 10
12.0
 20
9.0
  9
$UNITMODE
 70
     0
  9
$VISRETAIN
 70
     1
  9
$PLINEGEN
 70
     0
  9
$PSLTSCALE
 70
     1
  9
$TREEDEPTH
 70
  3020
  9
$PICKSTYLE
 70
     1
  9
$CMLSTYLE
  2
STANDARD
  9
$CMLJUST
 70
     0
  9
$CMLSCALE
 40
1.0
  9
$PROXYGRAPHICS
 70
     1
  9
$MEASUREMENT
 70
     0
  0
ENDSEC
  0
SECTION
  2
CLASSES
  0
CLASS
  1
ACDBDICTIONARYWDFLT
  2
AcDbDictionaryWithDefault
  3
AutoCAD 2000
 90
        0
280
     1
281
     0
  0
CLASS
  1
ACDBPLACEHOLDER
  2
AcDbPlaceHolder
  3
AutoCAD 2000
 90
        0
280
     1
281
     0
  0
CLASS
  1
LAYOUT
  2
AcDbLayout
  3
AutoCAD 2000
 90
        0
280
     1
281
     0
  0
CLASS
  1
LONG_TRANSACTION
  2
AcDbLongTransaction
  3
AutoCAD 2000
 90
        0
280
     1
281
     0
  0
CLASS
  1
LWPOLYLINE
  2
AcDbPolyline
  3
"AutoCAD"
 90
        0
280
     1
281
     1
  0
CLASS
  1
HATCH
  2
AcDbHatch
  3
"ACAD_SEDONA"
 90
        0
280
     1
281
     1
  0
CLASS
  1
XRECORD
  2
AcDbXrecord
  3
"<Built In>"
 90
        0
280
     0
281
     0
  0
CLASS
  1
LONG_TRANSACTION
  2
AcDbLongTransaction
  3
AutoCAD 2000
 90
        0
280
     1
281
     0
  0
CLASS
  1
LWPOLYLINE
  2
AcDbPolyline
  3
"AutoCAD"
 90
        0
280
     1
281
     1
  0
CLASS
  1
HATCH
  2
AcDbHatch
  3
"ACAD_SEDONA"
 90
        0
280
     1
281
     1
  0
CLASS
  1
XRECORD
  2
AcDbXrecord
  3
"<Built In>"
 90
        0
280
     0
281
     0
  0
CLASS
  1
LONG_TRANSACTION
  2
AcDbLongTransaction
  3
AutoCAD 2000
 90
        0
280
     1
281
     0
  0
CLASS
  1
LWPOLYLINE
  2
AcDbPolyline
  3
"AutoCAD"
 90
        0
280
     1
281
     1
  0
CLASS
  1
HATCH
  2
AcDbHatch
  3
"ACAD_SEDONA"
 90
        0
280
     1
281
     1
  0
CLASS
  1
XRECORD
  2
AcDbXrecord
  3
"<Built In>"
 90
        0
280
     0
281
     0
  0
CLASS
  1
LONG_TRANSACTION
  2
AcDbLongTransaction
  3
AutoCAD 2000
 90
        0
280
     1
281
     0
  0
CLASS
  1
LWPOLYLINE
  2
AcDbPolyline
  3
"AutoCAD"
 90
        0
280
     1
281
     1
  0
CLASS
  1
HATCH
  2
AcDbHatch
  3
"ACAD_SEDONA"
 90
        0
280
     1
281
     1
  0
CLASS
  1
XRECORD
  2
AcDbXrecord
  3
"<Built In>"
 90
        0
280
     0
281
     0
  0
CLASS
  1
LONG_TRANSACTION
  2
AcDbLongTransaction
  3
AutoCAD 2000
 90
        0
280
     1
281
     0
  0
CLASS
  1
LWPOLYLINE
  2
AcDbPolyline
  3
"AutoCAD"
 90
        0
280
     1
281
     1
  0
CLASS
  1
HATCH
  2
AcDbHatch
  3
"ACAD_SEDONA"
 90
        0
280
     1
281
     1
  0
CLASS
  1
XRECORD
  2
AcDbXrecord
  3
"<Built In>"
 90
        0
280
     0
281
     0
  0
CLASS
  1
DICTIONARYVAR
  2
AcDbDictionaryVar
  3
"AutoCAD"
 90
        0
280
     0
281
     0
  0
CLASS
  1
LONG_TRANSACTION
  2
AcDbLongTransaction
  3
AutoCAD 2000
 90
        0
280
     0
281
     0
  0
CLASS
  1
LWPOLYLINE
  2
AcDbPolyline
  3
"AutoCAD"
 90
        0
280
     0
281
     1
  0
CLASS
  1
HATCH
  2
AcDbHatch
  3
"ACAD_SEDONA"
 90
        0
280
     0
281
     1
  0
CLASS
  1
XRECORD
  2
AcDbXrecord
  3
"<Built In>"
 90
        0
280
     0
281
     0
  0
CLASS
  1
LONG_TRANSACTION
  2
AcDbLongTransaction
  3
AutoCAD 2000
 90
        0
280
     0
281
     0
  0
CLASS
  1
LWPOLYLINE
  2
AcDbPolyline
  3
"AutoCAD"
 90
        0
280
     0
281
     1
  0
CLASS
  1
HATCH
  2
AcDbHatch
  3
"ACAD_SEDONA"
 90
        0
280
     0
281
     1
  0
CLASS
  1
XRECORD
  2
AcDbXrecord
  3
"<Built In>"
 90
        0
280
     0
281
     0
  0
ENDSEC
  0
SECTION
  2
TABLES
  0
TABLE
  2
VPORT
  5
63
100
AcDbSymbolTable
 70
     1
  0
VPORT
  5
7F
100
AcDbSymbolTableRecord
100
AcDbViewportTableRecord
  2
*ACTIVE
 70
     0
 10
0.0
 20
0.0
 11
1.0
 21
1.0
 12
6.698972565241041
 22
6.590926665140989
 13
0.0
 23
0.0
 14
0.5
 24
0.5
 15
0.5
 25
0.5
 16
0.0
 26
0.0
 36
1.0
 17
0.0
 27
0.0
 37
0.0
 40
13.27582190507317
 41
1.457627118644067
 42
50.0
 43
0.0
 44
0.0
 50
0.0
 51
0.0
 71
     0
 72
   100
 73
     1
 74
     3
 75
     0
 76
     0
 77
     0
 78
     0
  0
ENDTAB
  0
TABLE
  2
LTYPE
  5
5C
100
AcDbSymbolTable
 70
     2
  0
LTYPE
  5
5D
102
{ACAD_XDICTIONARY
360
5E
102
}
100
AcDbSymbolTableRecord
100
AcDbLinetypeTableRecord
  2
BYBLOCK
 70
     0
  3

 72
    65
 73
     0
 40
0.0
  0
LTYPE
  5
5F
102
{ACAD_XDICTIONARY
360
60
102
}
100
AcDbSymbolTableRecord
100
AcDbLinetypeTableRecord
  2
BYLAYER
 70
     0
  3

 72
    65
 73
     0
 40
0.0
  0
LTYPE
  5
5
102
{ACAD_XDICTIONARY
360
6
102
}
100
AcDbSymbolTableRecord
100
AcDbLinetypeTableRecord
  2
CONTINUOUS
 70
     0
  3
Solid line
 72
    65
 73
     0
 40
0.0
  0
LTYPE
  5
3D
100
AcDbSymbolTableRecord
100
AcDbLinetypeTableRecord
  2
HIDDEN
 70
     0
  3
Hidden __ __ __ __ __ __ __ __ __ __ __ __ __ _
 72
    65
 73
     2
 40
0.375
 49
0.25
 74
     0
 49
-0.125
 74
     0
  0
ENDTAB
  0
TABLE
  2
LAYER
  5
5A
100
AcDbSymbolTable
 70
     5
  0
LAYER
  5
2A
100
AcDbSymbolTableRecord
100
AcDbLayerTableRecord
  2
0
 70
     0
 62
     7
  6
CONTINUOUS
  0
LAYER
  5
3C
100
AcDbSymbolTableRecord
100
AcDbLayerTableRecord
  2
USP-HID
 70
     0
 62
     7
  6
HIDDEN
  0
LAYER
  5
9
100
AcDbSymbolTableRecord
100
AcDbLayerTableRecord
  2
USP-GEO
 70
     0
 62
     7
  6
CONTINUOUS
  0
LAYER
  5
C
100
AcDbSymbolTableRecord
100
AcDbLayerTableRecord
  2
USP-TXT
 70
     0
 62
     7
  6
CONTINUOUS
  0
LAYER
  5
4
100
AcDbSymbolTableRecord
100
AcDbLayerTableRecord
  2
USP
 70
     0
 62
     7
  6
CONTINUOUS
  0
ENDTAB
  0
TABLE
  2
STYLE
  5
5B
100
AcDbSymbolTable
 70
     1
  0
STYLE
  5
D
102
{ACAD_XDICTIONARY
360
E
102
}
100
AcDbSymbolTableRecord
100
AcDbTextStyleTableRecord
  2
STANDARD
 70
     0
 40
0.0
 41
1.0
 50
0.0
 71
     0
 42
0.75
  3
txt
  4

  0
ENDTAB
  0
TABLE
  2
VIEW
  5
61
100
AcDbSymbolTable
 70
     0
  0
ENDTAB
  0
TABLE
  2
UCS
  5
62
100
AcDbSymbolTable
 70
     0
  0
ENDTAB
  0
TABLE
  2
APPID
  5
65
100
AcDbSymbolTable
 70
     1
  0
APPID
  5
66
100
AcDbSymbolTableRecord
100
AcDbRegAppTableRecord
  2
ACAD
 70
     0
  0
ENDTAB
  0
TABLE
  2
DIMSTYLE
  5
67
100
AcDbSymbolTable
 70
     1
  0
DIMSTYLE
105
70
102
{ACAD_XDICTIONARY
360
71
102
}
100
AcDbSymbolTableRecord
100
AcDbDimStyleTableRecord
  2
STANDARD
 70
     0
  3

  4

  5

  6

  7

 40
1.0
 41
0.18
 42
0.0625
 43
0.38
 44
0.18
 45
0.0
 46
0.0
 47
0.0
 48
0.0
140
0.18
141
0.09
142
0.0
143
25.4
144
1.0
145
0.0
146
1.0
147
0.09
 71
     0
 72
     0
 73
     1
 74
     1
 75
     0
 76
     0
 77
     0
 78
     0
170
     0
171
     2
172
     0
173
     0
174
     0
175
     0
176
     0
177
     0
178
     0
270
     2
271
     4
272
     4
273
     2
274
     2
340
D
275
     0
280
     0
281
     0
282
     0
283
     1
284
     0
285
     0
286
     0
287
     3
288
     0
  0
ENDTAB
  0
TABLE
  2
BLOCK_RECORD
  5
1
100
AcDbSymbolTable
 70
     2
  0
BLOCK_RECORD
  5
2
102
{ACAD_XDICTIONARY
360
51
102
}
100
AcDbSymbolTableRecord
100
AcDbBlockTableRecord
  2
*MODEL_SPACE
  0
BLOCK_RECORD
  5
55
102
{ACAD_XDICTIONARY
360
56
102
}
100
AcDbSymbolTableRecord
100
AcDbBlockTableRecord
  2
*PAPER_SPACE
  0
BLOCK_RECORD
  5
7
100
AcDbSymbolTableRecord
100
AcDbBlockTableRecord
  2
LTW12_F
  0
BLOCK_RECORD
  5
2D
100
AcDbSymbolTableRecord
100
AcDbBlockTableRecord
  2
LTW12_S
  0
ENDTAB
  0
ENDSEC
  0
SECTION
  2
BLOCKS
  0
BLOCK
  5
53
100
AcDbEntity
  8
0
100
AcDbBlockBegin
  2
*MODEL_SPACE
 70
     0
 10
0.0
 20
0.0
 30
0.0
  3
*MODEL_SPACE
  1

  0
ENDBLK
  5
54
100
AcDbEntity
  8
0
100
AcDbBlockEnd
  0
BLOCK
  5
58
100
AcDbEntity
 67
     1
  8
0
100
AcDbBlockBegin
  2
*PAPER_SPACE
 70
     0
 10
0.0
 20
0.0
 30
0.0
  3
*PAPER_SPACE
  1

  0
ENDBLK
  5
59
100
AcDbEntity
 67
     1
  8
0
100
AcDbBlockEnd
  0
BLOCK
  5
29
100
AcDbEntity
  8
0
100
AcDbBlockBegin
  2
LTW12_F
 70
     0
 10
0.0
 20
0.0
 30
0.0
  3
LTW12_F
  1

  0
ARC
  5
8
100
AcDbEntity
  8
USP-GEO
100
AcDbCircle
 10
2.249999999999986
 20
4.499999999999942
 30
0.0
 40
1.0
100
AcDbArc
 50
151.0449756281391
 51
180.0
  0
ARC
  5
A
100
AcDbEntity
  8
USP-GEO
100
AcDbCircle
 10
0.9999999999999861
 20
4.499999999999943
 30
0.0
 40
1.0
100
AcDbArc
 50
148.3392222039455
 51
180.0
  0
TEXT
  5
B
100
AcDbEntity
  8
USP-TXT
100
AcDbText
 10
-2.750000000000007
 20
-0.8636152797562886
 30
0.0
 40
0.375
  1
LTW12 - FRONT VIEW
 72
     1
 11
0.6249999999999925
 21
-0.8636152797562886
 31
0.0
100
AcDbText
  0
LINE
  5
F
100
AcDbEntity
  8
USP-GEO
100
AcDbLine
 10
-0.0000000000000004
 20
0.1767766952966099
 30
0.0
 11
0.0
 21
3.499999999999886
 31
0.0
  0
LINE
  5
10
100
AcDbEntity
  8
USP-GEO
100
AcDbLine
 10
1.249999999999985
 20
0.1767766952966383
 30
0.0
 11
1.249999999999986
 21
3.812499999999943
 31
0.0
  0
LINE
  5
11
100
AcDbEntity
  8
USP-GEO
100
AcDbLine
 10
1.073223304703347
 20
0.0
 30
0.0
 11
0.1767766952966379
 21
0.0
 31
0.0
  0
CIRCLE
  5
12
100
AcDbEntity
  8
USP-GEO
100
AcDbCircle
 10
0.3749999999999716
 20
1.30000000000001
 30
0.0
 40
0.082
  0
CIRCLE
  5
13
100
AcDbEntity
  8
USP-GEO
100
AcDbCircle
 10
0.2499999999999711
 20
0.3000000000000105
 30
0.0
 40
0.082
  0
LINE
  5
14
100
AcDbEntity
  8
USP-GEO
100
AcDbLine
 10
-0.0000000000000004
 20
0.1767766952966099
 30
0.0
 11
0.1767766952966236
 21
0.0
 31
0.0
  0
LINE
  5
15
100
AcDbEntity
  8
USP-GEO
100
AcDbLine
 10
1.249999999999985
 20
0.1767766952966383
 30
0.0
 11
1.073223304703347
 21
0.0
 31
0.0
  0
CIRCLE
  5
16
100
AcDbEntity
  8
USP-GEO
100
AcDbCircle
 10
0.6249999999999716
 20
0.6249999999999992
 30
0.0
 40
0.156
  0
CIRCLE
  5
17
100
AcDbEntity
  8
USP-GEO
100
AcDbCircle
 10
0.9999999999999715
 20
0.6750000000000105
 30
0.0
 40
0.082
  0
CIRCLE
  5
18
100
AcDbEntity
  8
USP-GEO
100
AcDbCircle
 10
0.8749999999999715
 20
1.67500000000001
 30
0.0
 40
0.082
  0
CIRCLE
  5
19
100
AcDbEntity
  8
USP-GEO
100
AcDbCircle
 10
0.2499999999999716
 20
2.30000000000001
 30
0.0
 40
0.082
  0
LINE
  5
1A
100
AcDbEntity
  8
USP-GEO
100
AcDbLine
 10
0.0
 20
3.937499999999943
 30
0.0
 11
0.0000000000000004
 21
4.499999999999943
 31
0.0
  0
LINE
  5
1B
100
AcDbEntity
  8
USP-GEO
100
AcDbLine
 10
0.0
 20
3.499999999999943
 30
0.0
 11
0.0
 21
3.812499999999943
 31
0.0
  0
ARC
  5
1C
100
AcDbEntity
  8
USP-GEO
100
AcDbCircle
 10
0.0000000000000004
 20
3.874999999999942
 30
0.0
 40
0.0625
100
AcDbArc
 50
270.0
 51
89.99999999999998
  0
CIRCLE
  5
1D
100
AcDbEntity
  8
USP-GEO
100
AcDbCircle
 10
0.9999999999999573
 20
2.67500000000001
 30
0.0
 40
0.082
  0
LINE
  5
1E
100
AcDbEntity
  8
USP-GEO
100
AcDbLine
 10
1.249999999999986
 20
3.937499999999943
 30
0.0
 11
1.249999999999986
 21
4.499999999999942
 31
0.0
  0
LINE
  5
1F
100
AcDbEntity
  8
USP-GEO
100
AcDbLine
 10
1.249999999999987
 20
3.480368699987629
 30
0.0
 11
1.249999999999985
 21
3.499999999999943
 31
0.0
  0
ARC
  5
20
100
AcDbEntity
  8
USP-GEO
100
AcDbCircle
 10
1.249999999999986
 20
3.874999999999942
 30
0.0
 40
0.0625
100
AcDbArc
 50
89.99999999999998
 51
270.0
  0
LINE
  5
21
100
AcDbEntity
  8
USP-GEO
100
AcDbLine
 10
1.426999999999985
 20
5.070582422771793
 30
0.0
 11
1.426999999999987
 21
11.99999999999994
 31
0.0
  0
LINE
  5
22
100
AcDbEntity
  8
USP-GEO
100
AcDbLine
 10
1.374999999999986
 20
4.984122918275885
 30
0.0
 11
1.374999999999987
 21
11.99999999999994
 31
0.0
  0
LINE
  5
23
100
AcDbEntity
  8
USP-GEO
100
AcDbLine
 10
0.1488293748330425
 20
5.024889099575176
 30
0.0
 11
1.351170625166944
 21
6.975110900424708
 31
0.0
  0
ARC
  5
24
100
AcDbEntity
  8
USP-GEO
100
AcDbCircle
 10
2.249999999999986
 20
4.499999999999942
 30
0.0
 40
1.0
100
AcDbArc
 50
148.3392222039455
 51
151.0449756281391
  0
LINE
  5
25
100
AcDbEntity
  8
USP-GEO
100
AcDbLine
 10
1.398829374833042
 20
5.024889099575175
 30
0.0
 11
1.426999999999987
 21
5.070582422771795
 31
0.0
  0
ARC
  5
26
100
AcDbEntity
  8
USP-GEO
100
AcDbCircle
 10
0.4999999999999867
 20
7.499999999999942
 30
0.0
 40
1.0
100
AcDbArc
 50
328.339222210613
 51
331.0449756281409
  0
LINE
  5
27
100
AcDbEntity
  8
USP-GEO
100
AcDbLine
 10
1.426999999999987
 20
11.8232233047033
 30
0.0
 11
1.374999999999987
 21
11.8232233047033
 31
0.0
  0
LINE
  5
28
100
AcDbEntity
  8
USP-GEO
100
AcDbLine
 10
1.426999999999987
 20
11.99999999999994
 30
0.0
 11
1.374999999999987
 21
11.99999999999994
 31
0.0
  0
ENDBLK
  5
2B
100
AcDbEntity
  8
0
100
AcDbBlockEnd
  0
BLOCK
  5
4F
100
AcDbEntity
  8
0
100
AcDbBlockBegin
  2
LTW12_S
 70
     0
 10
0.0
 20
0.0
 30
0.0
  3
LTW12_S
  1

  0
TEXT
  5
2E
100
AcDbEntity
  8
USP-TXT
100
AcDbText
 10
-2.500000000000007
 20
-0.8636152797562814
 30
0.0
 40
0.375
  1
LTW12 - SIDE VIEW
 72
     1
 11
0.6249999999999929
 21
-0.8636152797562814
 31
0.0
100
AcDbText
  0
ARC
  5
2F
100
AcDbEntity
  8
USP-GEO
100
AcDbCircle
 10
0.4999999999999983
 20
4.49999999999995
 30
0.0
 40
1.0
100
AcDbArc
 50
22.02810335137639
 51
28.95502437186045
  0
LINE
  5
30
100
AcDbEntity
  8
USP-GEO
 48
0.5
100
AcDbLine
 10
1.426999999999999
 20
4.875061328318404
 30
0.0
 11
1.426999999999999
 21
6.929417577228075
 31
0.0
  0
LINE
  5
31
100
AcDbEntity
  8
USP-GEO
100
AcDbLine
 10
1.375
 20
0.0000000000000071
 30
0.0
 11
1.375
 21
4.984122918275879
 31
0.0
  0
LINE
  5
32
100
AcDbEntity
  8
USP-GEO
100
AcDbLine
 10
1.426999999999999
 20
0.0000000000000071
 30
0.0
 11
1.426999999999996
 21
4.875061328318405
 31
0.0
  0
LINE
  5
33
100
AcDbEntity
  8
USP-GEO
100
AcDbLine
 10
1.426999999999999
 20
0.1767766952966454
 30
0.0
 11
1.374999999999996
 21
0.1767766952966454
 31
0.0
  0
LINE
  5
34
100
AcDbEntity
  8
USP-GEO
100
AcDbLine
 10
1.426999999999999
 20
0.0000000000000053
 30
0.0
 11
1.375
 21
0.0
 31
0.0
  0
LINE
  5
35
100
AcDbEntity
  8
USP-GEO
100
AcDbLine
 10
1.249999999999985
 20
8.18749999999995
 30
0.0
 11
1.249999999999985
 21
11.82322330470331
 31
0.0
  0
LINE
  5
36
100
AcDbEntity
  8
USP-GEO
100
AcDbLine
 10
0.0
 20
8.18749999999995
 30
0.0
 11
0.0
 21
11.82322330470332
 31
0.0
  0
LINE
  5
37
100
AcDbEntity
  8
USP-GEO
100
AcDbLine
 10
1.249999999999985
 20
7.49999999999995
 30
0.0
 11
1.249999999999985
 21
8.06249999999995
 31
0.0
  0
LINE
  5
38
100
AcDbEntity
  8
USP-GEO
100
AcDbLine
 10
0.0
 20
7.49999999999995
 30
0.0
 11
0.0
 21
8.06249999999995
 31
0.0
  0
LINE
  5
39
100
AcDbEntity
  8
USP-GEO
100
AcDbLine
 10
1.351170625166943
 20
5.024889099575183
 30
0.0
 11
0.148829374833042
 21
6.975110900424716
 31
0.0
  0
ARC
  5
3A
100
AcDbEntity
  8
USP-GEO
100
AcDbCircle
 10
1.0
 20
7.49999999999995
 30
0.0
 40
1.0
100
AcDbArc
 50
180.0
 51
211.6607777893869
  0
LINE
  5
3B
100
AcDbEntity
  8
USP-HID
 48
0.5
100
AcDbLine
 10
1.375
 20
4.984122918275875
 30
0.0
 11
1.375
 21
7.015877081724035
 31
0.0
  0
ARC
  5
3E
100
AcDbEntity
  8
USP-GEO
100
AcDbCircle
 10
0.4999999999999983
 20
4.49999999999995
 30
0.0
 40
1.0
100
AcDbArc
 50
28.95502437186045
 51
31.66077779605438
  0
ARC
  5
3F
100
AcDbEntity
  8
USP-GEO
100
AcDbCircle
 10
2.25
 20
7.49999999999995
 30
0.0
 40
1.0
100
AcDbArc
 50
180.0
 51
208.955024371859
  0
LINE
  5
40
100
AcDbEntity
  8
USP-GEO
100
AcDbLine
 10
1.435000000000002
 20
6.916441415591378
 30
0.0
 11
1.398829374833042
 21
6.975110900424716
 31
0.0
  0
ARC
  5
41
100
AcDbEntity
  8
USP-GEO
100
AcDbCircle
 10
2.25
 20
7.49999999999995
 30
0.0
 40
1.0
100
AcDbArc
 50
208.955024371859
 51
211.6607777893869
  0
CIRCLE
  5
42
100
AcDbEntity
  8
USP-GEO
100
AcDbCircle
 10
1.000000000000014
 20
9.699999999999938
 30
0.0
 40
0.082
  0
CIRCLE
  5
43
100
AcDbEntity
  8
USP-GEO
100
AcDbCircle
 10
0.8750000000000142
 20
10.69999999999993
 30
0.0
 40
0.082
  0
ARC
  5
44
100
AcDbEntity
  8
USP-GEO
100
AcDbCircle
 10
0.0
 20
8.12499999999995
 30
0.0
 40
0.0625
100
AcDbArc
 50
270.0
 51
90.0
  0
LINE
  5
45
100
AcDbEntity
  8
USP-GEO
100
AcDbLine
 10
0.0
 20
8.49999999999995
 30
0.0
 11
0.0000000000000036
 21
8.633312767912855
 31
0.0
  0
CIRCLE
  5
46
100
AcDbEntity
  8
USP-GEO
100
AcDbCircle
 10
0.2500000000000284
 20
9.324999999999938
 30
0.0
 40
0.082
  0
CIRCLE
  5
47
100
AcDbEntity
  8
USP-GEO
100
AcDbCircle
 10
0.3750000000000142
 20
10.32499999999993
 30
0.0
 40
0.082
  0
ARC
  5
48
100
AcDbEntity
  8
USP-GEO
100
AcDbCircle
 10
1.249999999999985
 20
8.12499999999995
 30
0.0
 40
0.0625
100
AcDbArc
 50
90.0
 51
270.0
  0
CIRCLE
  5
49
100
AcDbEntity
  8
USP-GEO
100
AcDbCircle
 10
1.000000000000014
 20
11.69999999999993
 30
0.0
 40
0.082
  0
LINE
  5
4A
100
AcDbEntity
  8
USP-GEO
100
AcDbLine
 10
0.1767766952966383
 20
11.99999999999995
 30
0.0
 11
1.073223304703347
 21
11.99999999999995
 31
0.0
  0
LINE
  5
4B
100
AcDbEntity
  8
USP-GEO
100
AcDbLine
 10
0.0
 20
11.82322330470332
 30
0.0
 11
0.1767766952966241
 21
11.99999999999995
 31
0.0
  0
CIRCLE
  5
4C
100
AcDbEntity
  8
USP-GEO
100
AcDbCircle
 10
0.6250000000000142
 20
11.37499999999995
 30
0.0
 40
0.156
  0
CIRCLE
  5
4D
100
AcDbEntity
  8
USP-GEO
100
AcDbCircle
 10
0.2500000000000142
 20
11.32499999999993
 30
0.0
 40
0.082
  0
LINE
  5
4E
100
AcDbEntity
  8
USP-GEO
100
AcDbLine
 10
1.249999999999985
 20
11.82322330470331
 30
0.0
 11
1.073223304703347
 21
11.99999999999995
 31
0.0
  0
ENDBLK
  5
50
100
AcDbEntity
  8
0
100
AcDbBlockEnd
  0
ENDSEC
  0
SECTION
  2
ENTITIES
  0
INSERT
  5
3
100
AcDbEntity
  8
USP
100
AcDbBlockReference
  2
LTW12_F
 10
2.750408809148027
 20
0.8640078253470644
 30
0.0
  0
INSERT
  5
2C
100
AcDbEntity
  8
USP
100
AcDbBlockReference
  2
LTW12_S
 10
9.646922839225796
 20
0.8640078253470555
 30
0.0
  0
ENDSEC
  0
SECTION
  2
OBJECTS
  0
DICTIONARY
  5
6C
102
{ACAD_XDICTIONARY
360
6D
102
}
100
AcDbDictionary
  3
ACAD_GROUP
350
69
  3
ACAD_MLINESTYLE
350
6A
  0
DICTIONARY
  5
5E
100
AcDbDictionary
280
     1
  0
DICTIONARY
  5
60
100
AcDbDictionary
280
     1
  0
DICTIONARY
  5
6
100
AcDbDictionary
280
     1
  0
DICTIONARY
  5
E
100
AcDbDictionary
280
     1
  0
DICTIONARY
  5
71
100
AcDbDictionary
280
     1
  0
DICTIONARY
  5
51
100
AcDbDictionary
280
     1
  3
ACAD_LAYOUTSELFREF
360
52
  0
DICTIONARY
  5
56
100
AcDbDictionary
280
     1
  3
ACAD_LAYOUTSELFREF
360
57
  0
DICTIONARY
  5
6D
100
AcDbDictionary
280
     1
  3
ACAD_XREC_ROUNDTRIP
360
6E
  0
DICTIONARY
  5
69
102
{ACAD_REACTORS
330
6C
102
}
100
AcDbDictionary
  0
DICTIONARY
  5
6A
102
{ACAD_XDICTIONARY
360
6B
102
}
102
{ACAD_REACTORS
330
6C
102
}
100
AcDbDictionary
  3
STANDARD
350
6F
  0
XRECORD
  5
52
102
{ACAD_REACTORS
330
51
102
}
100
AcDbXrecord
340
2
  0
XRECORD
  5
57
102
{ACAD_REACTORS
330
56
102
}
100
AcDbXrecord
340
57
  0
XRECORD
  5
6E
102
{ACAD_REACTORS
330
6D
102
}
100
AcDbXrecord
102
EXTNAMES
  1
ACDBVARIABLEDICTIONARY
  2
AcDbVariableDictionary
  0
DICTIONARY
  5
6B
100
AcDbDictionary
280
     1
  0
MLINESTYLE
  5
6F
102
{ACAD_REACTORS
330
6A
102
}
100
AcDbMlineStyle
  2
STANDARD
 70
     0
  3

 62
   256
 51
90.0
 52
90.0
 71
     2
 49
0.5
 62
   256
  6
BYLAYER
 49
-0.5
 62
   256
  6
BYLAYER
  0
ENDSEC
  0
EOF
