  0
SECTION
  2
HEADER
  9
$ACADVER
  1
AC1014
  9
$ACADMAINTVER
 70
     9
  9
$DWGCODEPAGE
  3
ANSI_1252
  9
$INSBASE
 10
0.0
 20
0.0
 30
0.0
  9
$EXTMIN
 10
0.0009925635042691
 20
0.0014011318812663
 30
0.0
  9
$EXTMAX
 10
32.52664075767741
 20
45.91710492775362
 30
0.0
  9
$LIMMIN
 10
0.0
 20
0.0
  9
$LIMMAX
 10
12.0
 20
9.0
  9
$ORTHOMODE
 70
     0
  9
$REGENMODE
 70
     1
  9
$FILLMODE
 70
     1
  9
$QTEXTMODE
 70
     0
  9
$MIRRTEXT
 70
     0
  9
$DRAGMODE
 70
     2
  9
$LTSCALE
 40
1.0
  9
$OSMODE
 70
    37
  9
$ATTMODE
 70
     1
  9
$TEXTSIZE
 40
0.75
  9
$TRACEWID
 40
0.05
  9
$TEXTSTYLE
  7
STANDARD
  9
$CLAYER
  8
0
  9
$CELTYPE
  6
BYLAYER
  9
$CECOLOR
 62
   256
  9
$CELTSCALE
 40
1.0
  9
$DELOBJ
 70
     1
  9
$DISPSILH
 70
     0
  9
$DIMSCALE
 40
1.0
  9
$DIMASZ
 40
0.18
  9
$DIMEXO
 40
0.0625
  9
$DIMDLI
 40
0.38
  9
$DIMRND
 40
0.0
  9
$DIMDLE
 40
0.0
  9
$DIMEXE
 40
0.18
  9
$DIMTP
 40
0.0
  9
$DIMTM
 40
0.0
  9
$DIMTXT
 40
0.18
  9
$DIMCEN
 40
0.09
  9
$DIMTSZ
 40
0.0
  9
$DIMTOL
 70
     0
  9
$DIMLIM
 70
     0
  9
$DIMTIH
 70
     1
  9
$DIMTOH
 70
     1
  9
$DIMSE1
 70
     0
  9
$DIMSE2
 70
     0
  9
$DIMTAD
 70
     0
  9
$DIMZIN
 70
     0
  9
$DIMBLK
  1

  9
$DIMASO
 70
     1
  9
$DIMSHO
 70
     1
  9
$DIMPOST
  1

  9
$DIMAPOST
  1

  9
$DIMALT
 70
     0
  9
$DIMALTD
 70
     2
  9
$DIMALTF
 40
25.4
  9
$DIMLFAC
 40
1.0
  9
$DIMTOFL
 70
     0
  9
$DIMTVP
 40
0.0
  9
$DIMTIX
 70
     0
  9
$DIMSOXD
 70
     0
  9
$DIMSAH
 70
     0
  9
$DIMBLK1
  1

  9
$DIMBLK2
  1

  9
$DIMSTYLE
  2
STANDARD
  9
$DIMCLRD
 70
     0
  9
$DIMCLRE
 70
     0
  9
$DIMCLRT
 70
     0
  9
$DIMTFAC
 40
1.0
  9
$DIMGAP
 40
0.09
  9
$DIMJUST
 70
     0
  9
$DIMSD1
 70
     0
  9
$DIMSD2
 70
     0
  9
$DIMTOLJ
 70
     1
  9
$DIMTZIN
 70
     0
  9
$DIMALTZ
 70
     0
  9
$DIMALTTZ
 70
     0
  9
$DIMFIT
 70
     3
  9
$DIMUPT
 70
     0
  9
$DIMUNIT
 70
     2
  9
$DIMDEC
 70
     4
  9
$DIMTDEC
 70
     4
  9
$DIMALTU
 70
     2
  9
$DIMALTTD
 70
     2
  9
$DIMTXSTY
  7
STANDARD
  9
$DIMAUNIT
 70
     0
  9
$LUNITS
 70
     2
  9
$LUPREC
 70
     4
  9
$SKETCHINC
 40
0.1
  9
$FILLETRAD
 40
0.5
  9
$AUNITS
 70
     0
  9
$AUPREC
 70
     0
  9
$MENU
  1
.
  9
$ELEVATION
 40
0.0
  9
$PELEVATION
 40
0.0
  9
$THICKNESS
 40
0.0
  9
$LIMCHECK
 70
     0
  9
$BLIPMODE
 70
     0
  9
$CHAMFERA
 40
0.5
  9
$CHAMFERB
 40
0.5
  9
$CHAMFERC
 40
1.0
  9
$CHAMFERD
 40
0.0
  9
$SKPOLY
 70
     0
  9
$TDCREATE
 40
2451703.861962152
  9
$TDUPDATE
 40
2452759.745772928
  9
$TDINDWG
 40
0.0726326620
  9
$TDUSRTIMER
 40
0.0726319676
  9
$USRTIMER
 70
     1
  9
$ANGBASE
 50
0.0
  9
$ANGDIR
 70
     0
  9
$PDMODE
 70
     0
  9
$PDSIZE
 40
0.0
  9
$PLINEWID
 40
0.0
  9
$COORDS
 70
     1
  9
$SPLFRAME
 70
     0
  9
$SPLINETYPE
 70
     6
  9
$SPLINESEGS
 70
     8
  9
$ATTDIA
 70
     0
  9
$ATTREQ
 70
     1
  9
$HANDLING
 70
     1
  9
$HANDSEED
  5
139
  9
$SURFTAB1
 70
     6
  9
$SURFTAB2
 70
     6
  9
$SURFTYPE
 70
     6
  9
$SURFU
 70
     6
  9
$SURFV
 70
     6
  9
$UCSNAME
  2

  9
$UCSORG
 10
0.0
 20
0.0
 30
0.0
  9
$UCSXDIR
 10
1.0
 20
0.0
 30
0.0
  9
$UCSYDIR
 10
0.0
 20
1.0
 30
0.0
  9
$PUCSNAME
  2

  9
$PUCSORG
 10
0.0
 20
0.0
 30
0.0
  9
$PUCSXDIR
 10
1.0
 20
0.0
 30
0.0
  9
$PUCSYDIR
 10
0.0
 20
1.0
 30
0.0
  9
$USERI1
 70
     0
  9
$USERI2
 70
     0
  9
$USERI3
 70
     0
  9
$USERI4
 70
     0
  9
$USERI5
 70
     0
  9
$USERR1
 40
0.0
  9
$USERR2
 40
0.0
  9
$USERR3
 40
0.0
  9
$USERR4
 40
0.0
  9
$USERR5
 40
0.0
  9
$WORLDVIEW
 70
     1
  9
$SHADEDGE
 70
     3
  9
$SHADEDIF
 70
    70
  9
$TILEMODE
 70
     1
  9
$MAXACTVP
 70
    48
  9
$PINSBASE
 10
0.0
 20
0.0
 30
0.0
  9
$PLIMCHECK
 70
     0
  9
$PEXTMIN
 10
1.000000000000000E+20
 20
1.000000000000000E+20
 30
1.000000000000000E+20
  9
$PEXTMAX
 10
-1.000000000000000E+20
 20
-1.000000000000000E+20
 30
-1.000000000000000E+20
  9
$PLIMMIN
 10
0.0
 20
0.0
  9
$PLIMMAX
 10
12.0
 20
9.0
  9
$UNITMODE
 70
     0
  9
$VISRETAIN
 70
     1
  9
$PLINEGEN
 70
     0
  9
$PSLTSCALE
 70
     1
  9
$TREEDEPTH
 70
  3020
  9
$PICKSTYLE
 70
     1
  9
$CMLSTYLE
  2
STANDARD
  9
$CMLJUST
 70
     0
  9
$CMLSCALE
 40
1.0
  9
$PROXYGRAPHICS
 70
     1
  9
$MEASUREMENT
 70
     0
  0
ENDSEC
  0
SECTION
  2
CLASSES
  0
CLASS
  1
ACDBDICTIONARYWDFLT
  2
AcDbDictionaryWithDefault
  3
AutoCAD 2000
 90
        0
280
     1
281
     0
  0
CLASS
  1
ACDBPLACEHOLDER
  2
AcDbPlaceHolder
  3
AutoCAD 2000
 90
        0
280
     1
281
     0
  0
CLASS
  1
LAYOUT
  2
AcDbLayout
  3
AutoCAD 2000
 90
        0
280
     1
281
     0
  0
CLASS
  1
LONG_TRANSACTION
  2
AcDbLongTransaction
  3
AutoCAD 2000
 90
        0
280
     1
281
     0
  0
CLASS
  1
LWPOLYLINE
  2
AcDbPolyline
  3
"AutoCAD"
 90
        0
280
     1
281
     1
  0
CLASS
  1
HATCH
  2
AcDbHatch
  3
"ACAD_SEDONA"
 90
        0
280
     1
281
     1
  0
CLASS
  1
XRECORD
  2
AcDbXrecord
  3
"<Built In>"
 90
        0
280
     0
281
     0
  0
CLASS
  1
LONG_TRANSACTION
  2
AcDbLongTransaction
  3
AutoCAD 2000
 90
        0
280
     1
281
     0
  0
CLASS
  1
LWPOLYLINE
  2
AcDbPolyline
  3
"AutoCAD"
 90
        0
280
     1
281
     1
  0
CLASS
  1
HATCH
  2
AcDbHatch
  3
"ACAD_SEDONA"
 90
        0
280
     1
281
     1
  0
CLASS
  1
XRECORD
  2
AcDbXrecord
  3
"<Built In>"
 90
        0
280
     0
281
     0
  0
CLASS
  1
LONG_TRANSACTION
  2
AcDbLongTransaction
  3
AutoCAD 2000
 90
        0
280
     1
281
     0
  0
CLASS
  1
LWPOLYLINE
  2
AcDbPolyline
  3
"AutoCAD"
 90
        0
280
     1
281
     1
  0
CLASS
  1
HATCH
  2
AcDbHatch
  3
"ACAD_SEDONA"
 90
        0
280
     1
281
     1
  0
CLASS
  1
XRECORD
  2
AcDbXrecord
  3
"<Built In>"
 90
        0
280
     0
281
     0
  0
CLASS
  1
LONG_TRANSACTION
  2
AcDbLongTransaction
  3
AutoCAD 2000
 90
        0
280
     1
281
     0
  0
CLASS
  1
LWPOLYLINE
  2
AcDbPolyline
  3
"AutoCAD"
 90
        0
280
     1
281
     1
  0
CLASS
  1
HATCH
  2
AcDbHatch
  3
"ACAD_SEDONA"
 90
        0
280
     1
281
     1
  0
CLASS
  1
XRECORD
  2
AcDbXrecord
  3
"<Built In>"
 90
        0
280
     0
281
     0
  0
CLASS
  1
LONG_TRANSACTION
  2
AcDbLongTransaction
  3
AutoCAD 2000
 90
        0
280
     1
281
     0
  0
CLASS
  1
LWPOLYLINE
  2
AcDbPolyline
  3
"AutoCAD"
 90
        0
280
     1
281
     1
  0
CLASS
  1
HATCH
  2
AcDbHatch
  3
"ACAD_SEDONA"
 90
        0
280
     1
281
     1
  0
CLASS
  1
XRECORD
  2
AcDbXrecord
  3
"<Built In>"
 90
        0
280
     0
281
     0
  0
CLASS
  1
DICTIONARYVAR
  2
AcDbDictionaryVar
  3
"AutoCAD"
 90
        0
280
     0
281
     0
  0
CLASS
  1
LONG_TRANSACTION
  2
AcDbLongTransaction
  3
AutoCAD 2000
 90
        0
280
     0
281
     0
  0
CLASS
  1
LWPOLYLINE
  2
AcDbPolyline
  3
"AutoCAD"
 90
        0
280
     0
281
     1
  0
CLASS
  1
HATCH
  2
AcDbHatch
  3
"ACAD_SEDONA"
 90
        0
280
     0
281
     1
  0
CLASS
  1
XRECORD
  2
AcDbXrecord
  3
"<Built In>"
 90
        0
280
     0
281
     0
  0
CLASS
  1
LONG_TRANSACTION
  2
AcDbLongTransaction
  3
AutoCAD 2000
 90
        0
280
     0
281
     0
  0
CLASS
  1
LWPOLYLINE
  2
AcDbPolyline
  3
"AutoCAD"
 90
        0
280
     0
281
     1
  0
CLASS
  1
HATCH
  2
AcDbHatch
  3
"ACAD_SEDONA"
 90
        0
280
     0
281
     1
  0
CLASS
  1
XRECORD
  2
AcDbXrecord
  3
"<Built In>"
 90
        0
280
     0
281
     0
  0
ENDSEC
  0
SECTION
  2
TABLES
  0
TABLE
  2
VPORT
  5
119
100
AcDbSymbolTable
 70
     1
  0
VPORT
  5
135
100
AcDbSymbolTableRecord
100
AcDbViewportTableRecord
  2
*ACTIVE
 70
     0
 10
0.0
 20
0.0
 11
1.0
 21
1.0
 12
16.26456139891631
 22
23.52581523295556
 13
0.0
 23
0.0
 14
0.5
 24
0.5
 15
0.5
 25
0.5
 16
0.0
 26
0.0
 36
1.0
 17
0.0
 27
0.0
 37
0.0
 40
47.38704420066468
 41
1.457627118644067
 42
50.0
 43
0.0
 44
0.0
 50
0.0
 51
0.0
 71
     0
 72
   100
 73
     1
 74
     2
 75
     0
 76
     0
 77
     0
 78
     0
  0
ENDTAB
  0
TABLE
  2
LTYPE
  5
112
100
AcDbSymbolTable
 70
     1
  0
LTYPE
  5
113
102
{ACAD_XDICTIONARY
360
114
102
}
100
AcDbSymbolTableRecord
100
AcDbLinetypeTableRecord
  2
BYBLOCK
 70
     0
  3

 72
    65
 73
     0
 40
0.0
  0
LTYPE
  5
115
102
{ACAD_XDICTIONARY
360
116
102
}
100
AcDbSymbolTableRecord
100
AcDbLinetypeTableRecord
  2
BYLAYER
 70
     0
  3

 72
    65
 73
     0
 40
0.0
  0
LTYPE
  5
5
102
{ACAD_XDICTIONARY
360
6
102
}
100
AcDbSymbolTableRecord
100
AcDbLinetypeTableRecord
  2
CONTINUOUS
 70
     0
  3
Solid line
 72
    65
 73
     0
 40
0.0
  0
ENDTAB
  0
TABLE
  2
LAYER
  5
110
100
AcDbSymbolTable
 70
     4
  0
LAYER
  5
46
100
AcDbSymbolTableRecord
100
AcDbLayerTableRecord
  2
0
 70
     0
 62
     7
  6
CONTINUOUS
  0
LAYER
  5
D
100
AcDbSymbolTableRecord
100
AcDbLayerTableRecord
  2
USP-GEO
 70
     0
 62
     7
  6
CONTINUOUS
  0
LAYER
  5
9
100
AcDbSymbolTableRecord
100
AcDbLayerTableRecord
  2
USP-TXT
 70
     0
 62
     7
  6
CONTINUOUS
  0
LAYER
  5
4
100
AcDbSymbolTableRecord
100
AcDbLayerTableRecord
  2
USP
 70
     0
 62
     7
  6
CONTINUOUS
  0
ENDTAB
  0
TABLE
  2
STYLE
  5
111
100
AcDbSymbolTable
 70
     1
  0
STYLE
  5
A
102
{ACAD_XDICTIONARY
360
B
102
}
100
AcDbSymbolTableRecord
100
AcDbTextStyleTableRecord
  2
STANDARD
 70
     0
 40
0.0
 41
1.0
 50
0.0
 71
     0
 42
0.75
  3
txt
  4

  0
ENDTAB
  0
TABLE
  2
VIEW
  5
117
100
AcDbSymbolTable
 70
     0
  0
ENDTAB
  0
TABLE
  2
UCS
  5
118
100
AcDbSymbolTable
 70
     0
  0
ENDTAB
  0
TABLE
  2
APPID
  5
11B
100
AcDbSymbolTable
 70
     1
  0
APPID
  5
11C
100
AcDbSymbolTableRecord
100
AcDbRegAppTableRecord
  2
ACAD
 70
     0
  0
ENDTAB
  0
TABLE
  2
DIMSTYLE
  5
11D
100
AcDbSymbolTable
 70
     1
  0
DIMSTYLE
105
126
102
{ACAD_XDICTIONARY
360
127
102
}
100
AcDbSymbolTableRecord
100
AcDbDimStyleTableRecord
  2
STANDARD
 70
     0
  3

  4

  5

  6

  7

 40
1.0
 41
0.18
 42
0.0625
 43
0.38
 44
0.18
 45
0.0
 46
0.0
 47
0.0
 48
0.0
140
0.18
141
0.09
142
0.0
143
25.4
144
1.0
145
0.0
146
1.0
147
0.09
 71
     0
 72
     0
 73
     1
 74
     1
 75
     0
 76
     0
 77
     0
 78
     0
170
     0
171
     2
172
     0
173
     0
174
     0
175
     0
176
     0
177
     0
178
     0
270
     2
271
     4
272
     4
273
     2
274
     2
340
A
275
     0
280
     0
281
     0
282
     0
283
     1
284
     0
285
     0
286
     0
287
     3
288
     0
  0
ENDTAB
  0
TABLE
  2
BLOCK_RECORD
  5
1
100
AcDbSymbolTable
 70
     4
  0
BLOCK_RECORD
  5
2
102
{ACAD_XDICTIONARY
360
107
102
}
100
AcDbSymbolTableRecord
100
AcDbBlockTableRecord
  2
*MODEL_SPACE
  0
BLOCK_RECORD
  5
10B
102
{ACAD_XDICTIONARY
360
10C
102
}
100
AcDbSymbolTableRecord
100
AcDbBlockTableRecord
  2
*PAPER_SPACE
  0
BLOCK_RECORD
  5
7
100
AcDbSymbolTableRecord
100
AcDbBlockTableRecord
  2
LFTA6_F-R
  0
BLOCK_RECORD
  5
49
100
AcDbSymbolTableRecord
100
AcDbBlockTableRecord
  2
LFTA6_S-R
  0
BLOCK_RECORD
  5
8A
100
AcDbSymbolTableRecord
100
AcDbBlockTableRecord
  2
LFTA6_F-L
  0
BLOCK_RECORD
  5
C7
100
AcDbSymbolTableRecord
100
AcDbBlockTableRecord
  2
LFTA6_S-L
  0
ENDTAB
  0
ENDSEC
  0
SECTION
  2
BLOCKS
  0
BLOCK
  5
109
100
AcDbEntity
  8
0
100
AcDbBlockBegin
  2
*MODEL_SPACE
 70
     0
 10
0.0
 20
0.0
 30
0.0
  3
*MODEL_SPACE
  1

  0
ENDBLK
  5
10A
100
AcDbEntity
  8
0
100
AcDbBlockEnd
  0
BLOCK
  5
10E
100
AcDbEntity
 67
     1
  8
0
100
AcDbBlockBegin
  2
*PAPER_SPACE
 70
     0
 10
0.0
 20
0.0
 30
0.0
  3
*PAPER_SPACE
  1

  0
ENDBLK
  5
10F
100
AcDbEntity
 67
     1
  8
0
100
AcDbBlockEnd
  0
BLOCK
  5
45
100
AcDbEntity
  8
0
100
AcDbBlockBegin
  2
LFTA6_F-R
 70
     0
 10
0.0
 20
0.0
 30
0.0
  3
LFTA6_F-R
  1

  0
TEXT
  5
8
100
AcDbEntity
  8
USP-TXT
100
AcDbText
 10
-6.561992360231606
 20
-1.979372277750133
 30
0.0
 40
0.75
  1
LFTA6 (R) - FRONT VIEW
 72
     1
 11
1.438007639768393
 21
-1.979372277750133
 31
0.0
100
AcDbText
  0
LINE
  5
C
100
AcDbEntity
  8
USP-GEO
100
AcDbLine
 10
0.0630000000000024
 20
6.125126183186868
 30
0.0
 11
0.0630000000000024
 21
10.32159999999999
 31
0.0
210
0.0000000000000002
220
1.0
230
0.0
  0
LINE
  5
E
100
AcDbEntity
  8
USP-GEO
100
AcDbLine
 10
0.0
 20
10.32159999999999
 30
0.0
 11
0.0
 21
6.125126183186882
 31
0.0
210
0.0000000000000002
220
1.0
230
0.0
  0
LINE
  5
F
100
AcDbEntity
  8
USP-GEO
100
AcDbLine
 10
0.0630000000000024
 20
0.1875
 30
0.0
 11
0.0630000000000024
 21
3.6875
 31
0.0
210
0.0000000000000002
220
1.0
230
0.0
  0
LINE
  5
10
100
AcDbEntity
  8
USP-GEO
100
AcDbLine
 10
0.0
 20
0.1875
 30
0.0
 11
0.0
 21
3.687499999999992
 31
0.0
210
0.0000000000000002
220
1.0
230
0.0
  0
LINE
  5
11
100
AcDbEntity
  8
USP-GEO
100
AcDbLine
 10
0.0630000000000024
 20
0.0
 30
0.0
 11
0.0630000000000024
 21
0.1875
 31
0.0
210
0.0000000000000002
220
1.0
230
0.0
  0
LINE
  5
12
100
AcDbEntity
  8
USP-GEO
100
AcDbLine
 10
0.0
 20
0.1875
 30
0.0
 11
0.0
 21
0.0
 31
0.0
210
0.0000000000000002
220
1.0
230
0.0
  0
LINE
  5
13
100
AcDbEntity
  8
USP-GEO
100
AcDbLine
 10
0.0
 20
0.0
 30
0.0
 11
0.0630000000000024
 21
0.0
 31
0.0
210
0.0000000000000002
220
1.0
230
0.0
  0
LINE
  5
14
100
AcDbEntity
  8
USP-GEO
100
AcDbLine
 10
0.0
 20
0.1875
 30
0.0
 11
0.0630000000000024
 21
0.1875
 31
0.0
210
0.0000000000000002
220
1.0
230
0.0
  0
LINE
  5
15
100
AcDbEntity
  8
USP-GEO
100
AcDbLine
 10
0.0630000000000024
 20
3.9375
 30
0.0
 11
0.0630000000000024
 21
5.936119072605141
 31
0.0
210
0.0000000000000002
220
1.0
230
0.0
  0
LINE
  5
16
100
AcDbEntity
  8
USP-GEO
100
AcDbLine
 10
0.0
 20
3.9375
 30
0.0
 11
0.0
 21
5.936119072605126
 31
0.0
210
0.0000000000000002
220
1.0
230
0.0
  0
LINE
  5
17
100
AcDbEntity
  8
USP-GEO
100
AcDbLine
 10
0.0630000000000024
 20
3.6875
 30
0.0
 11
0.0630000000000024
 21
3.71875
 31
0.0
210
0.0000000000000002
220
1.0
230
0.0
  0
LINE
  5
18
100
AcDbEntity
  8
USP-GEO
100
AcDbLine
 10
0.0630000000000024
 20
3.90625
 30
0.0
 11
0.0630000000000024
 21
3.9375
 31
0.0
210
0.0000000000000002
220
1.0
230
0.0
  0
LINE
  5
19
100
AcDbEntity
  8
USP-GEO
100
AcDbLine
 10
0.0630000000000024
 20
3.71875
 30
0.0
 11
0.0630000000000024
 21
3.90625
 31
0.0
210
0.0000000000000002
220
1.0
230
0.0
  0
LINE
  5
1A
100
AcDbEntity
  8
USP-GEO
100
AcDbLine
 10
0.0
 20
3.718749999999992
 30
0.0
 11
0.0
 21
3.6875
 31
0.0
210
0.0000000000000002
220
1.0
230
0.0
  0
LINE
  5
1B
100
AcDbEntity
  8
USP-GEO
100
AcDbLine
 10
0.0
 20
3.9375
 30
0.0
 11
0.0
 21
3.90625
 31
0.0
210
0.0000000000000002
220
1.0
230
0.0
  0
LINE
  5
1C
100
AcDbEntity
  8
USP-GEO
100
AcDbLine
 10
0.0
 20
3.718749999999992
 30
0.0
 11
0.0
 21
3.90625
 31
0.0
210
0.0000000000000002
220
1.0
230
0.0
  0
LINE
  5
1D
100
AcDbEntity
  8
USP-GEO
100
AcDbLine
 10
0.0
 20
3.687499999999992
 30
0.0
 11
0.0630000000000024
 21
3.687499999999992
 31
0.0
210
0.0000000000000002
220
1.0
230
0.0
  0
LINE
  5
1E
100
AcDbEntity
  8
USP-GEO
100
AcDbLine
 10
0.0
 20
3.9375
 30
0.0
 11
0.0630000000000024
 21
3.9375
 31
0.0
210
0.0000000000000002
220
1.0
230
0.0
  0
LINE
  5
1F
100
AcDbEntity
  8
USP-GEO
100
AcDbLine
 10
0.0630000000000024
 20
5.936119072605141
 30
0.0
 11
0.0630000000000024
 21
6.125126183186868
 31
0.0
210
0.0000000000000002
220
1.0
230
0.0
  0
LINE
  5
20
100
AcDbEntity
  8
USP-GEO
100
AcDbLine
 10
0.0
 20
5.936119072605126
 30
0.0
 11
0.0
 21
6.125126183186868
 31
0.0
210
0.0000000000000002
220
1.0
230
0.0
  0
LINE
  5
21
100
AcDbEntity
  8
USP-GEO
100
AcDbLine
 10
2.563000000000002
 20
18.93753728755948
 30
0.0
 11
2.563000000000002
 21
12.53128728755948
 31
0.0
210
0.0000000000000002
220
1.0
230
0.0
  0
LINE
  5
22
100
AcDbEntity
  8
USP-GEO
100
AcDbLine
 10
0.3130152795367707
 20
12.53128728755948
 30
0.0
 11
0.3130152795367778
 21
18.93756347074635
 31
0.0
210
0.0000000000000002
220
1.0
230
0.0
  0
LINE
  5
23
100
AcDbEntity
  8
USP-GEO
100
AcDbLine
 10
2.511884720463228
 20
10.66241110437261
 30
0.0
 11
0.0630000000000024
 21
6.465974575118966
 31
0.0
210
0.0000000000000002
220
1.0
230
0.0
  0
LINE
  5
24
100
AcDbEntity
  8
USP-GEO
100
AcDbLine
 10
0.6385015169677076
 20
9.534008460976185
 30
0.0
 11
0.7165015169677105
 21
9.669108423966566
 31
0.0
210
0.0000000000000002
220
1.0
230
0.0
  0
LINE
  5
25
100
AcDbEntity
  8
USP-GEO
100
AcDbLine
 10
0.7736014799580886
 20
9.456008460976196
 30
0.0
 11
0.6385015169677076
 21
9.534008460976199
 31
0.0
210
0.0000000000000002
220
1.0
230
0.0
  0
LINE
  5
26
100
AcDbEntity
  8
USP-GEO
100
AcDbLine
 10
0.7165015169677105
 20
9.669108423966566
 30
0.0
 11
0.8516014799580915
 21
9.591108423966563
 31
0.0
210
0.0000000000000002
220
1.0
230
0.0
  0
LINE
  5
27
100
AcDbEntity
  8
USP-GEO
100
AcDbLine
 10
0.8516014799580844
 20
9.591108423966563
 30
0.0
 11
0.7736014799580886
 21
9.456008460976196
 31
0.0
210
0.0000000000000002
220
1.0
230
0.0
  0
LINE
  5
28
100
AcDbEntity
  8
USP-GEO
100
AcDbLine
 10
0.3130152795367778
 20
10.85144439814123
 30
0.0
 11
0.3130152795367778
 21
12.28128728755948
 31
0.0
210
0.0000000000000002
220
1.0
230
0.0
  0
LINE
  5
29
100
AcDbEntity
  8
USP-GEO
100
AcDbLine
 10
0.0630000000000024
 20
10.32159999999999
 30
0.0
 11
0.2619000000000042
 21
10.66243728755948
 31
0.0
210
0.0000000000000002
220
1.0
230
0.0
  0
LINE
  5
2A
100
AcDbEntity
  8
USP-GEO
100
AcDbLine
 10
0.0
 20
10.32159999999999
 30
0.0
 11
0.0630000000000024
 21
10.32159999999999
 31
0.0
210
0.0000000000000002
220
1.0
230
0.0
  0
ARC
  5
2B
100
AcDbEntity
  8
USP-GEO
100
AcDbCircle
 10
-0.0619847204632222
 20
10.85144439814123
 30
0.0
 40
0.375
100
AcDbArc
 50
329.7337495225814
 51
0.0
  0
CIRCLE
  5
2C
100
AcDbEntity
  8
USP-GEO
100
AcDbCircle
 10
0.6880000000000024
 20
10.87503728755949
 30
0.0
 40
0.082
  0
LINE
  5
2D
100
AcDbEntity
  8
USP-GEO
100
AcDbLine
 10
0.3130152795367707
 20
12.28128728755948
 30
0.0
 11
0.3442652795367778
 21
12.28128728755948
 31
0.0
210
0.0000000000000002
220
1.0
230
0.0
  0
ARC
  5
2E
100
AcDbEntity
  8
USP-GEO
100
AcDbCircle
 10
0.3442652795367707
 20
12.31253728755948
 30
0.0
 40
0.03125
100
AcDbArc
 50
270.0000000000065
 51
0.0
  0
ARC
  5
2F
100
AcDbEntity
  8
USP-GEO
100
AcDbCircle
 10
0.3442652795367778
 20
12.50003728755948
 30
0.0
 40
0.03125
100
AcDbArc
 50
359.9999999999934
 51
90.00000000000319
  0
LINE
  5
30
100
AcDbEntity
  8
USP-GEO
100
AcDbLine
 10
0.3442652795367707
 20
12.53128728755948
 30
0.0
 11
0.3130152795367707
 21
12.53128728755948
 31
0.0
210
0.0000000000000002
220
1.0
230
0.0
  0
LINE
  5
31
100
AcDbEntity
  8
USP-GEO
100
AcDbLine
 10
0.3755152795367778
 20
12.31253728755948
 30
0.0
 11
0.3755152795367778
 21
12.50003728755948
 31
0.0
210
0.0000000000000002
220
1.0
230
0.0
  0
CIRCLE
  5
32
100
AcDbEntity
  8
USP-GEO
100
AcDbCircle
 10
0.6880000000000166
 20
13.25003728755951
 30
0.0
 40
0.082
  0
LINE
  5
33
100
AcDbEntity
  8
USP-GEO
100
AcDbLine
 10
2.563000000000002
 20
12.28128728755948
 30
0.0
 11
2.563000000000002
 21
10.85141821495435
 31
0.0
210
0.0000000000000002
220
1.0
230
0.0
  0
ARC
  5
34
100
AcDbEntity
  8
USP-GEO
100
AcDbCircle
 10
2.188000000000002
 20
10.85141821495435
 30
0.0
 40
0.375
100
AcDbArc
 50
329.7337495225808
 51
359.9999999999993
  0
ARC
  5
35
100
AcDbEntity
  8
USP-GEO
100
AcDbCircle
 10
2.531750000000002
 20
12.31253728755948
 30
0.0
 40
0.03125
100
AcDbArc
 50
179.9999999999934
 51
270.0000000000065
  0
LINE
  5
36
100
AcDbEntity
  8
USP-GEO
100
AcDbLine
 10
2.531750000000002
 20
12.28128728755948
 30
0.0
 11
2.563000000000002
 21
12.28128728755948
 31
0.0
210
0.0000000000000002
220
1.0
230
0.0
  0
ARC
  5
37
100
AcDbEntity
  8
USP-GEO
100
AcDbCircle
 10
2.531750000000002
 20
12.50003728755948
 30
0.0
 40
0.03125
100
AcDbArc
 50
90.00000000000319
 51
180.0
  0
LINE
  5
38
100
AcDbEntity
  8
USP-GEO
100
AcDbLine
 10
2.563000000000002
 20
12.53128728755948
 30
0.0
 11
2.531750000000002
 21
12.53128728755948
 31
0.0
210
0.0000000000000002
220
1.0
230
0.0
  0
LINE
  5
39
100
AcDbEntity
  8
USP-GEO
100
AcDbLine
 10
2.500500000000002
 20
12.50003728755948
 30
0.0
 11
2.500500000000002
 21
12.31253728755948
 31
0.0
210
0.0000000000000002
220
1.0
230
0.0
  0
LINE
  5
3A
100
AcDbEntity
  8
USP-GEO
100
AcDbLine
 10
0.5005152795240875
 20
19.1250612887993
 30
0.0
 11
2.375500000012699
 21
19.12503946950653
 31
0.0
210
0.0000000000000002
220
1.0
230
0.0
  0
CIRCLE
  5
3B
100
AcDbEntity
  8
USP-GEO
100
AcDbCircle
 10
1.438000000000002
 20
17.00003728755951
 30
0.0
 40
0.082
  0
CIRCLE
  5
3C
100
AcDbEntity
  8
USP-GEO
100
AcDbCircle
 10
1.438000000000016
 20
14.75003728755951
 30
0.0
 40
0.082
  0
CIRCLE
  5
3D
100
AcDbEntity
  8
USP-GEO
100
AcDbCircle
 10
0.6880000000000166
 20
15.50003728755951
 30
0.0
 40
0.082
  0
CIRCLE
  5
3E
100
AcDbEntity
  8
USP-GEO
100
AcDbCircle
 10
0.6880000000000024
 20
17.75003728755949
 30
0.0
 40
0.082
  0
CIRCLE
  5
3F
100
AcDbEntity
  8
USP-GEO
100
AcDbCircle
 10
1.438000000000009
 20
18.31253728755948
 30
0.0
 40
0.156
  0
LINE
  5
40
100
AcDbEntity
  8
USP-GEO
100
AcDbLine
 10
0.3130152795367778
 20
18.93756347074635
 30
0.0
 11
0.5005152795240875
 21
19.1250612887993
 31
0.0
210
0.0000000000000002
220
1.0
230
0.0
  0
CIRCLE
  5
41
100
AcDbEntity
  8
USP-GEO
100
AcDbCircle
 10
2.188000000000009
 20
14.00003728755949
 30
0.0
 40
0.082
  0
CIRCLE
  5
42
100
AcDbEntity
  8
USP-GEO
100
AcDbCircle
 10
2.188000000000009
 20
16.25003728755951
 30
0.0
 40
0.082
  0
CIRCLE
  5
43
100
AcDbEntity
  8
USP-GEO
100
AcDbCircle
 10
2.188000000000009
 20
18.75003728755949
 30
0.0
 40
0.082
  0
LINE
  5
44
100
AcDbEntity
  8
USP-GEO
100
AcDbLine
 10
2.375500000012699
 20
19.12503946950653
 30
0.0
 11
2.563000000000002
 21
18.93753728755948
 31
0.0
210
0.0000000000000002
220
1.0
230
0.0
  0
ENDBLK
  5
47
100
AcDbEntity
  8
0
100
AcDbBlockEnd
  0
BLOCK
  5
87
100
AcDbEntity
  8
0
100
AcDbBlockBegin
  2
LFTA6_S-R
 70
     0
 10
0.0
 20
0.0
 30
0.0
  3
LFTA6_S-R
  1

  0
LINE
  5
4A
100
AcDbEntity
  8
USP-GEO
100
AcDbLine
 10
2.50000001343875
 20
6.465937282609676
 30
0.0
 11
2.301115292246024
 21
6.125126178662757
 31
0.0
210
0.0000000021404607
220
1.0
230
0.0
  0
LINE
  5
4B
100
AcDbEntity
  8
USP-GEO
100
AcDbLine
 10
0.0511152922460241
 20
6.125126183478801
 30
0.0
 11
2.500000021691633
 21
10.32159999505018
 31
0.0
210
0.0000000021404607
220
1.0
230
0.0
  0
TEXT
  5
4C
100
AcDbEntity
  8
USP-TXT
100
AcDbText
 10
-6.375000000401342
 20
-1.979327246943473
 30
0.0
 40
0.75
  1
LFTA6 (R) - SIDE VIEW
 72
     1
 11
1.124999999598657
 21
-1.979327246943473
 31
0.0
100
AcDbText
  0
LINE
  5
4D
100
AcDbEntity
  8
USP-GEO
100
AcDbLine
 10
2.25
 20
0.1874999955852985
 30
0.0
 11
2.062499999598657
 21
-0.0000000040133727
 31
0.0
210
0.0000000021404607
220
1.0
230
0.0
  0
CIRCLE
  5
4E
100
AcDbEntity
  8
USP-GEO
100
AcDbCircle
 10
-0.5000000054849352
 20
2.749999999331112
 30
0.0
 40
0.082
210
0.0
220
0.0
230
-1.0
  0
LINE
  5
4F
100
AcDbEntity
  8
USP-GEO
100
AcDbLine
 10
0.0
 20
0.1875000004013287
 30
0.0
 11
0.0000000074916073
 21
3.687500000401328
 31
0.0
210
0.0000000021404607
220
1.0
230
0.0
  0
CIRCLE
  5
50
100
AcDbEntity
  8
USP-GEO
100
AcDbCircle
 10
-1.125000001337781
 20
0.8124999979933136
 30
0.0
 40
0.156
210
0.0
220
0.0
230
-1.0
  0
LINE
  5
51
100
AcDbEntity
  8
USP-GEO
100
AcDbLine
 10
2.062499999598657
 20
-0.0000000040133727
 30
0.0
 11
0.187499999598657
 21
0.0
 31
0.0
210
0.0000000021404607
220
1.0
230
0.0
  0
LINE
  5
52
100
AcDbEntity
  8
USP-GEO
100
AcDbLine
 10
0.187499999598657
 20
0.0
 30
0.0
 11
0.0
 21
0.1875000004013287
 31
0.0
210
0.0000000021404607
220
1.0
230
0.0
  0
CIRCLE
  5
53
100
AcDbEntity
  8
USP-GEO
100
AcDbCircle
 10
-1.875000000401342
 20
0.3749999963879702
 30
0.0
 40
0.082
210
0.0
220
0.0
230
-1.0
  0
CIRCLE
  5
54
100
AcDbEntity
  8
USP-GEO
100
AcDbCircle
 10
-0.3750000022742341
 20
1.249999999598657
 30
0.0
 40
0.082
210
0.0
220
0.0
230
-1.0
  0
CIRCLE
  5
55
100
AcDbEntity
  8
USP-GEO
100
AcDbCircle
 10
-1.750000003612029
 20
1.874999996655517
 30
0.0
 40
0.082
210
0.0
220
0.0
230
-1.0
  0
LINE
  5
56
100
AcDbEntity
  8
USP-GEO
100
AcDbLine
 10
0.0000000080267171
 20
3.937500000401328
 30
0.0
 11
0.0000000123046817
 21
5.936119073006469
 31
0.0
210
0.0000000021404607
220
1.0
230
0.0
  0
CIRCLE
  5
57
100
AcDbEntity
  8
USP-GEO
100
AcDbCircle
 10
-0.375000008695622
 20
4.24999999959866
 30
0.0
 40
0.082
210
0.0
220
0.0
230
-1.0
  0
LINE
  5
58
100
AcDbEntity
  8
USP-GEO
100
AcDbLine
 10
0.0000000074916073
 20
3.687500000401328
 30
0.0
 11
0.0312500074916073
 21
3.687500000334438
 31
0.0
210
0.0000000021404607
220
1.0
230
0.0
  0
ARC
  5
59
100
AcDbEntity
  8
USP-GEO
100
AcDbCircle
 10
-0.0312500075584978
 20
3.718750000334456
 30
0.0
 40
0.03125
210
0.0
220
0.0
230
-1.0
100
AcDbArc
 50
180.0000001226401
 51
270.0000001226393
  0
ARC
  5
5A
100
AcDbEntity
  8
USP-GEO
100
AcDbCircle
 10
-0.0312500079598408
 20
3.906250000334456
 30
0.0
 40
0.03125
210
0.0
220
0.0
230
-1.0
100
AcDbArc
 50
90.00000012263933
 51
180.0000001226401
  0
LINE
  5
5B
100
AcDbEntity
  8
USP-GEO
100
AcDbLine
 10
0.0312500080267171
 20
3.937500000334438
 30
0.0
 11
0.0000000080267171
 21
3.937500000401328
 31
0.0
210
0.0000000021404607
220
1.0
230
0.0
  0
LINE
  5
5C
100
AcDbEntity
  8
USP-GEO
100
AcDbLine
 10
0.0625000075584978
 20
3.718750000267547
 30
0.0
 11
0.0625000079598408
 21
3.906250000267547
 31
0.0
210
0.0000000021404607
220
1.0
230
0.0
  0
CIRCLE
  5
5D
100
AcDbEntity
  8
USP-GEO
100
AcDbCircle
 10
-1.875000006822716
 20
3.374999996387973
 30
0.0
 40
0.082
210
0.0
220
0.0
230
-1.0
  0
CIRCLE
  5
5E
100
AcDbEntity
  8
USP-GEO
100
AcDbCircle
 10
-0.5000000119063089
 20
5.749999999331098
 30
0.0
 40
0.082
210
0.0
220
0.0
230
-1.0
  0
ARC
  5
5F
100
AcDbEntity
  8
USP-GEO
100
AcDbCircle
 10
-0.3750000123046959
 20
5.936119072203798
 30
0.0
 40
0.3750000000000001
210
0.0
220
0.0
230
-1.0
100
AcDbArc
 50
0.0000001226407636
 51
30.26625060005765
  0
CIRCLE
  5
60
100
AcDbEntity
  8
USP-GEO
100
AcDbCircle
 10
-1.750000010033403
 20
4.874999996655517
 30
0.0
 40
0.082
210
0.0
220
0.0
230
-1.0
  0
LINE
  5
61
100
AcDbEntity
  8
USP-GEO
100
AcDbLine
 10
2.250000007491607
 20
3.687499995585298
 30
0.0
 11
2.25
 21
0.1874999955852985
 31
0.0
210
0.0000000021404607
220
1.0
230
0.0
  0
LINE
  5
62
100
AcDbEntity
  8
USP-GEO
100
AcDbLine
 10
2.250000012304695
 20
5.936119068190425
 30
0.0
 11
2.250000008026717
 21
3.937499995585298
 31
0.0
210
0.0000000021404607
220
1.0
230
0.0
  0
ARC
  5
63
100
AcDbEntity
  8
USP-GEO
100
AcDbCircle
 10
-2.218750007558497
 20
3.718749995652188
 30
0.0
 40
0.03125
210
0.0
220
0.0
230
-1.0
100
AcDbArc
 50
270.0000001226328
 51
0.0000001226393387
  0
LINE
  5
64
100
AcDbEntity
  8
USP-GEO
100
AcDbLine
 10
2.218750007491607
 20
3.687499995652188
 30
0.0
 11
2.250000007491607
 21
3.687499995585298
 31
0.0
210
0.0000000021404607
220
1.0
230
0.0
  0
LINE
  5
65
100
AcDbEntity
  8
USP-GEO
100
AcDbLine
 10
2.250000008026717
 20
3.937499995585298
 30
0.0
 11
2.218750008026717
 21
3.937499995652188
 31
0.0
210
0.0000000021404607
220
1.0
230
0.0
  0
ARC
  5
66
100
AcDbEntity
  8
USP-GEO
100
AcDbCircle
 10
-2.21875000795984
 20
3.906249995652188
 30
0.0
 40
0.03125
210
0.0
220
0.0
230
-1.0
100
AcDbArc
 50
0.0000001226458525
 51
90.00000012263933
  0
LINE
  5
67
100
AcDbEntity
  8
USP-GEO
100
AcDbLine
 10
2.18750000795984
 20
3.906249995719079
 30
0.0
 11
2.187500007558497
 21
3.718749995719079
 31
0.0
210
0.0000000021404607
220
1.0
230
0.0
  0
ARC
  5
68
100
AcDbEntity
  8
USP-GEO
100
AcDbCircle
 10
-2.625000012304681
 20
5.936119067387753
 30
0.0
 40
0.3750000000000001
210
0.0
220
0.0
230
-1.0
100
AcDbArc
 50
0.0000001226389316
 51
30.26625060005765
  0
LINE
  5
69
100
AcDbEntity
  8
USP-GEO
100
AcDbLine
 10
1.939099916228983
 20
7.278549977745957
 30
0.0
 11
1.861099915939803
 21
7.143450014922539
 31
0.0
210
0.0000000021404607
220
1.0
230
0.0
  0
LINE
  5
6A
100
AcDbEntity
  8
USP-GEO
100
AcDbLine
 10
1.861099915939803
 20
7.143450014922539
 30
0.0
 11
1.725999953116399
 21
7.221450015211718
 31
0.0
210
0.0000000021404607
220
1.0
230
0.0
  0
LINE
  5
6B
100
AcDbEntity
  8
USP-GEO
100
AcDbLine
 10
1.803999953405565
 20
7.356549978035136
 30
0.0
 11
1.939099916228983
 21
7.278549977745957
 31
0.0
210
0.0000000021404607
220
1.0
230
0.0
  0
LINE
  5
6C
100
AcDbEntity
  8
USP-GEO
100
AcDbLine
 10
1.725999953116385
 20
7.221450015211718
 30
0.0
 11
1.803999953405565
 21
7.356549978035136
 31
0.0
210
0.0000000021404607
220
1.0
230
0.0
  0
LINE
  5
6D
100
AcDbEntity
  8
USP-GEO
100
AcDbLine
 10
2.500000040133727
 20
18.93753728260967
 30
0.0
 11
2.500000026421389
 21
12.53128728260965
 31
0.0
210
0.0000000021404607
220
1.0
230
0.0
  0
LINE
  5
6E
100
AcDbEntity
  8
USP-GEO
100
AcDbLine
 10
2.563000026421377
 20
12.53128728247481
 30
0.0
 11
2.563000040133715
 21
18.93753728247481
 31
0.0
210
0.0000000021404607
220
1.0
230
0.0
  0
LINE
  5
6F
100
AcDbEntity
  8
USP-GEO
100
AcDbLine
 10
2.500000022421133
 20
10.66241109942278
 30
0.0
 11
2.500000013438835
 21
6.465974570169155
 31
0.0
210
0.0000000021404607
220
1.0
230
0.0
  0
LINE
  5
70
100
AcDbEntity
  8
USP-GEO
100
AcDbLine
 10
2.563000013438823
 20
6.465974570034308
 30
0.0
 11
2.563000022421135
 21
10.66241109928794
 31
0.0
210
0.0000000021404607
220
1.0
230
0.0
  0
LINE
  5
71
100
AcDbEntity
  8
USP-GEO
100
AcDbLine
 10
2.563000013438738
 20
6.465937282474815
 30
0.0
 11
2.50000001343875
 21
6.465937282609662
 31
0.0
210
0.0000000021404607
220
1.0
230
0.0
  0
LINE
  5
72
100
AcDbEntity
  8
USP-GEO
100
AcDbLine
 10
2.563000013438823
 20
6.465974570034294
 30
0.0
 11
2.500000013438835
 21
6.465974570169155
 31
0.0
210
0.0000000021404607
220
1.0
230
0.0
  0
LINE
  5
73
100
AcDbEntity
  8
USP-GEO
100
AcDbLine
 10
2.563000013438823
 20
6.465974570034308
 30
0.0
 11
2.563000013438738
 21
6.465937282474815
 31
0.0
210
0.0000000021404607
220
1.0
230
0.0
  0
LINE
  5
74
100
AcDbEntity
  8
USP-GEO
100
AcDbLine
 10
2.500000025886265
 20
12.28128728260967
 30
0.0
 11
2.500000022825702
 21
10.85141821000452
 31
0.0
210
0.0000000021404607
220
1.0
230
0.0
  0
LINE
  5
75
100
AcDbEntity
  8
USP-GEO
100
AcDbLine
 10
2.56300002282569
 20
10.85141820986968
 30
0.0
 11
2.563000025886267
 21
12.28128728247481
 31
0.0
210
0.0000000021404607
220
1.0
230
0.0
  0
LINE
  5
76
100
AcDbEntity
  8
USP-GEO
100
AcDbLine
 10
2.500000022825702
 20
10.85141821000452
 30
0.0
 11
2.500000022421133
 21
10.66241109942278
 31
0.0
210
0.0000000021404607
220
1.0
230
0.0
  0
LINE
  5
77
100
AcDbEntity
  8
USP-GEO
100
AcDbLine
 10
2.56300002282569
 20
10.85141820986968
 30
0.0
 11
2.563000022421135
 21
10.66241109928794
 31
0.0
210
0.0000000021404607
220
1.0
230
0.0
  0
LINE
  5
78
100
AcDbEntity
  8
USP-GEO
100
AcDbLine
 10
2.563000025886267
 20
12.28128728247481
 30
0.0
 11
2.500000025886265
 21
12.28128728260967
 31
0.0
210
0.0000000021404607
220
1.0
230
0.0
  0
LINE
  5
79
100
AcDbEntity
  8
USP-GEO
100
AcDbLine
 10
2.500000025953156
 20
12.31253728260965
 30
0.0
 11
2.500000025886265
 21
12.28128728260967
 31
0.0
210
0.0000000021404607
220
1.0
230
0.0
  0
LINE
  5
7A
100
AcDbEntity
  8
USP-GEO
100
AcDbLine
 10
2.563000025886267
 20
12.28128728247481
 30
0.0
 11
2.563000025953158
 21
12.31253728247481
 31
0.0
210
0.0000000021404607
220
1.0
230
0.0
  0
LINE
  5
7B
100
AcDbEntity
  8
USP-GEO
100
AcDbLine
 10
2.500000026421389
 20
12.53128728260965
 30
0.0
 11
2.500000026354499
 21
12.50003728260965
 31
0.0
210
0.0000000021404607
220
1.0
230
0.0
  0
LINE
  5
7C
100
AcDbEntity
  8
USP-GEO
100
AcDbLine
 10
2.563000026421377
 20
12.53128728247481
 30
0.0
 11
2.500000026421389
 21
12.53128728260965
 31
0.0
210
0.0000000021404607
220
1.0
230
0.0
  0
LINE
  5
7D
100
AcDbEntity
  8
USP-GEO
100
AcDbLine
 10
2.563000026354501
 20
12.50003728247481
 30
0.0
 11
2.563000026421377
 21
12.53128728247481
 31
0.0
210
0.0000000021404607
220
1.0
230
0.0
  0
LINE
  5
7E
100
AcDbEntity
  8
USP-GEO
100
AcDbLine
 10
2.500000026354499
 20
12.50003728260965
 30
0.0
 11
2.500000025953156
 21
12.31253728260965
 31
0.0
210
0.0000000021404607
220
1.0
230
0.0
  0
LINE
  5
7F
100
AcDbEntity
  8
USP-GEO
100
AcDbLine
 10
2.563000025953158
 20
12.31253728247481
 30
0.0
 11
2.563000026354501
 21
12.50003728247481
 31
0.0
210
0.0000000021404607
220
1.0
230
0.0
  0
LINE
  5
80
100
AcDbEntity
  8
USP-GEO
100
AcDbLine
 10
2.563000040535058
 20
19.12503946442187
 30
0.0
 11
2.50000004053507
 21
19.12503946455672
 31
0.0
210
0.0000000021404607
220
1.0
230
0.0
  0
LINE
  5
81
100
AcDbEntity
  8
USP-GEO
100
AcDbLine
 10
2.500000040535098
 20
19.12506128384947
 30
0.0
 11
2.50000004053507
 21
19.12503946455672
 31
0.0
210
0.0000000021404607
220
1.0
230
0.0
  0
LINE
  5
82
100
AcDbEntity
  8
USP-GEO
100
AcDbLine
 10
2.563000040535115
 20
19.12506128371463
 30
0.0
 11
2.500000040535098
 21
19.12506128384949
 31
0.0
210
0.0000000021404607
220
1.0
230
0.0
  0
LINE
  5
83
100
AcDbEntity
  8
USP-GEO
100
AcDbLine
 10
2.563000040535058
 20
19.12503946442187
 30
0.0
 11
2.563000040535115
 21
19.12506128371463
 31
0.0
210
0.0000000021404607
220
1.0
230
0.0
  0
LINE
  5
84
100
AcDbEntity
  8
USP-GEO
100
AcDbLine
 10
2.563000040133715
 20
18.93753728247481
 30
0.0
 11
2.500000040133727
 21
18.93753728260967
 31
0.0
210
0.0000000021404607
220
1.0
230
0.0
  0
LINE
  5
85
100
AcDbEntity
  8
USP-GEO
100
AcDbLine
 10
2.50000004053507
 20
19.12503946455672
 30
0.0
 11
2.500000040133727
 21
18.93753728260967
 31
0.0
210
0.0000000021404607
220
1.0
230
0.0
  0
LINE
  5
86
100
AcDbEntity
  8
USP-GEO
100
AcDbLine
 10
2.563000040535058
 20
19.12503946442187
 30
0.0
 11
2.563000040133715
 21
18.93753728247481
 31
0.0
210
0.0000000021404607
220
1.0
230
0.0
  0
ENDBLK
  5
88
100
AcDbEntity
  8
0
100
AcDbBlockEnd
  0
BLOCK
  5
C4
100
AcDbEntity
  8
0
100
AcDbBlockBegin
  2
LFTA6_F-L
 70
     0
 10
0.0
 20
0.0
 30
0.0
  3
LFTA6_F-L
  1

  0
LINE
  5
8B
100
AcDbEntity
  8
USP-GEO
100
AcDbLine
 10
0.0
 20
18.9375612887993
 30
0.0
 11
0.0
 21
15.4375612887993
 31
0.0
210
-0.0000000000000001
220
-1.0
230
0.0
  0
LINE
  5
8C
100
AcDbEntity
  8
USP-GEO
100
AcDbLine
 10
0.0630000000000024
 20
18.9375612887993
 30
0.0
 11
0.0630000000000024
 21
15.4375612887993
 31
0.0
210
-0.0000000000000001
220
-1.0
230
0.0
  0
TEXT
  5
8D
100
AcDbEntity
  8
USP-TXT
100
AcDbText
 10
-6.561992360231613
 20
-1.979503063214036
 30
0.0
 40
0.75
  1
LFTA6 (L) - FRONT VIEW
 72
     1
 11
1.438007639768386
 21
-1.979503063214036
 31
0.0
100
AcDbText
  0
LINE
  5
8E
100
AcDbEntity
  8
USP-GEO
100
AcDbLine
 10
0.3130152795367707
 20
6.593774001239815
 30
0.0
 11
0.3130152795367707
 21
0.1874978180529467
 31
0.0
210
-0.0000000000000001
220
-1.0
230
0.0
  0
LINE
  5
8F
100
AcDbEntity
  8
USP-GEO
100
AcDbLine
 10
2.563000000000002
 20
0.1875240012398151
 30
0.0
 11
2.563000000000002
 21
6.593774001239815
 31
0.0
210
-0.0000000000000001
220
-1.0
230
0.0
  0
LINE
  5
90
100
AcDbEntity
  8
USP-GEO
100
AcDbLine
 10
0.5005152795240804
 20
0.0
 30
0.0
 11
2.375500000012692
 21
0.0000218192927619
 31
0.0
210
-0.0000000000000001
220
-1.0
230
0.0
  0
LINE
  5
91
100
AcDbEntity
  8
USP-GEO
100
AcDbLine
 10
0.3130152795367707
 20
0.1874978180529467
 30
0.0
 11
0.5005152795240804
 21
0.0
 31
0.0
210
-0.0000000000000001
220
-1.0
230
0.0
  0
CIRCLE
  5
92
100
AcDbEntity
  8
USP-GEO
100
AcDbCircle
 10
0.6880000000000024
 20
1.375024001239813
 30
0.0
 40
0.082
  0
CIRCLE
  5
93
100
AcDbEntity
  8
USP-GEO
100
AcDbCircle
 10
1.438000000000002
 20
0.8125240012398133
 30
0.0
 40
0.156
  0
CIRCLE
  5
94
100
AcDbEntity
  8
USP-GEO
100
AcDbCircle
 10
1.438000000000002
 20
2.125024001239791
 30
0.0
 40
0.082
  0
LINE
  5
95
100
AcDbEntity
  8
USP-GEO
100
AcDbLine
 10
2.375500000012692
 20
0.0000218192927619
 30
0.0
 11
2.562999999999995
 21
0.1875240012398151
 31
0.0
210
-0.0000000000000001
220
-1.0
230
0.0
  0
CIRCLE
  5
96
100
AcDbEntity
  8
USP-GEO
100
AcDbCircle
 10
2.188000000000002
 20
0.3750240012398063
 30
0.0
 40
0.082
  0
LINE
  5
97
100
AcDbEntity
  8
USP-GEO
100
AcDbLine
 10
2.511884720463228
 20
8.462650184426692
 30
0.0
 11
0.0630000000000024
 21
12.65908671368033
 31
0.0
210
-0.0000000000000001
220
-1.0
230
0.0
  0
LINE
  5
98
100
AcDbEntity
  8
USP-GEO
100
AcDbLine
 10
0.0
 20
8.803461288799304
 30
0.0
 11
0.0
 21
12.99993510561242
 31
0.0
210
-0.0000000000000001
220
-1.0
230
0.0
  0
LINE
  5
99
100
AcDbEntity
  8
USP-GEO
100
AcDbLine
 10
0.0630000000000024
 20
12.99993510561243
 30
0.0
 11
0.0630000000000024
 21
8.803461288799304
 31
0.0
210
-0.0000000000000001
220
-1.0
230
0.0
  0
LINE
  5
9A
100
AcDbEntity
  8
USP-GEO
100
AcDbLine
 10
0.8516014799580844
 20
9.533952864832741
 30
0.0
 11
0.7736014799580886
 21
9.669052827823108
 31
0.0
210
-0.0000000000000001
220
-1.0
230
0.0
  0
LINE
  5
9B
100
AcDbEntity
  8
USP-GEO
100
AcDbLine
 10
0.6385015169677147
 20
9.591052827823112
 30
0.0
 11
0.7165015169677176
 21
9.455952864832738
 31
0.0
210
-0.0000000000000001
220
-1.0
230
0.0
  0
CIRCLE
  5
9C
100
AcDbEntity
  8
USP-GEO
100
AcDbCircle
 10
0.6880000000000095
 20
3.625024001239799
 30
0.0
 40
0.082
  0
CIRCLE
  5
9D
100
AcDbEntity
  8
USP-GEO
100
AcDbCircle
 10
1.438000000000009
 20
4.375024001239792
 30
0.0
 40
0.082
  0
CIRCLE
  5
9E
100
AcDbEntity
  8
USP-GEO
100
AcDbCircle
 10
0.6880000000000095
 20
5.875024001239792
 30
0.0
 40
0.082
  0
LINE
  5
9F
100
AcDbEntity
  8
USP-GEO
100
AcDbLine
 10
0.3130152795367778
 20
8.273616890658075
 30
0.0
 11
0.3130152795367778
 21
6.843774001239815
 31
0.0
210
-0.0000000000000001
220
-1.0
230
0.0
  0
LINE
  5
A0
100
AcDbEntity
  8
USP-GEO
100
AcDbLine
 10
0.3755152795367778
 20
6.812524001239815
 30
0.0
 11
0.3755152795367778
 21
6.625024001239815
 31
0.0
210
-0.0000000000000001
220
-1.0
230
0.0
  0
LINE
  5
A1
100
AcDbEntity
  8
USP-GEO
100
AcDbLine
 10
0.3442652795367707
 20
6.593774001239815
 30
0.0
 11
0.3130152795367707
 21
6.593774001239815
 31
0.0
210
-0.0000000000000001
220
-1.0
230
0.0
  0
ARC
  5
A2
100
AcDbEntity
  8
USP-GEO
100
AcDbCircle
 10
0.3442652795367707
 20
6.625024001239813
 30
0.0
 40
0.03125
100
AcDbArc
 50
269.9999999999968
 51
0.0000000000065011
  0
ARC
  5
A3
100
AcDbEntity
  8
USP-GEO
100
AcDbCircle
 10
0.3442652795367707
 20
6.812524001239813
 30
0.0
 40
0.03125
100
AcDbArc
 50
0.0
 51
89.99999999999353
  0
LINE
  5
A4
100
AcDbEntity
  8
USP-GEO
100
AcDbLine
 10
0.3130152795367707
 20
6.843774001239815
 30
0.0
 11
0.3442652795367778
 21
6.843774001239815
 31
0.0
210
-0.0000000000000001
220
-1.0
230
0.0
  0
LINE
  5
A5
100
AcDbEntity
  8
USP-GEO
100
AcDbLine
 10
0.0630000000000024
 20
8.803461288799304
 30
0.0
 11
0.2619000000000042
 21
8.462624001239817
 31
0.0
210
-0.0000000000000001
220
-1.0
230
0.0
  0
LINE
  5
A6
100
AcDbEntity
  8
USP-GEO
100
AcDbLine
 10
0.0
 20
8.803461288799304
 30
0.0
 11
0.0630000000000024
 21
8.803461288799304
 31
0.0
210
-0.0000000000000001
220
-1.0
230
0.0
  0
ARC
  5
A7
100
AcDbEntity
  8
USP-GEO
100
AcDbCircle
 10
-0.0619847204632293
 20
8.273616890658074
 30
0.0
 40
0.375
100
AcDbArc
 50
0.0
 51
30.26625047741847
  0
CIRCLE
  5
A8
100
AcDbEntity
  8
USP-GEO
100
AcDbCircle
 10
0.6879999999999953
 20
8.250024001239813
 30
0.0
 40
0.082
  0
LINE
  5
A9
100
AcDbEntity
  8
USP-GEO
100
AcDbLine
 10
0.7165015169677176
 20
9.455952864832738
 30
0.0
 11
0.8516014799580915
 21
9.533952864832734
 31
0.0
210
-0.0000000000000001
220
-1.0
230
0.0
  0
CIRCLE
  5
AA
100
AcDbEntity
  8
USP-GEO
100
AcDbCircle
 10
2.188000000000002
 20
2.875024001239798
 30
0.0
 40
0.082
  0
CIRCLE
  5
AB
100
AcDbEntity
  8
USP-GEO
100
AcDbCircle
 10
2.188000000000002
 20
5.125024001239799
 30
0.0
 40
0.082
  0
LINE
  5
AC
100
AcDbEntity
  8
USP-GEO
100
AcDbLine
 10
2.563000000000002
 20
6.843774001239815
 30
0.0
 11
2.563000000000002
 21
8.273643073844951
 31
0.0
210
-0.0000000000000001
220
-1.0
230
0.0
  0
LINE
  5
AD
100
AcDbEntity
  8
USP-GEO
100
AcDbLine
 10
2.500500000000002
 20
6.625024001239815
 30
0.0
 11
2.500500000000002
 21
6.812524001239815
 31
0.0
210
-0.0000000000000001
220
-1.0
230
0.0
  0
LINE
  5
AE
100
AcDbEntity
  8
USP-GEO
100
AcDbLine
 10
2.563000000000002
 20
6.593774001239815
 30
0.0
 11
2.531750000000002
 21
6.593774001239815
 31
0.0
210
-0.0000000000000001
220
-1.0
230
0.0
  0
ARC
  5
AF
100
AcDbEntity
  8
USP-GEO
100
AcDbCircle
 10
2.531750000000002
 20
6.625024001239811
 30
0.0
 40
0.03125
100
AcDbArc
 50
180.0
 51
269.9999999999968
  0
LINE
  5
B0
100
AcDbEntity
  8
USP-GEO
100
AcDbLine
 10
2.531750000000002
 20
6.843774001239815
 30
0.0
 11
2.563000000000002
 21
6.843774001239815
 31
0.0
210
-0.0000000000000001
220
-1.0
230
0.0
  0
ARC
  5
B1
100
AcDbEntity
  8
USP-GEO
100
AcDbCircle
 10
2.531749999999995
 20
6.812524001239811
 30
0.0
 40
0.03125
100
AcDbArc
 50
89.99999999999353
 51
180.0000000000065
  0
ARC
  5
B2
100
AcDbEntity
  8
USP-GEO
100
AcDbCircle
 10
2.188000000000002
 20
8.27364307384494
 30
0.0
 40
0.375
100
AcDbArc
 50
0.0000000000006107
 51
30.26625047741916
  0
LINE
  5
B3
100
AcDbEntity
  8
USP-GEO
100
AcDbLine
 10
0.0
 20
13.18894221619417
 30
0.0
 11
0.0
 21
12.99993510561243
 31
0.0
210
-0.0000000000000001
220
-1.0
230
0.0
  0
LINE
  5
B4
100
AcDbEntity
  8
USP-GEO
100
AcDbLine
 10
0.0630000000000024
 20
13.18894221619416
 30
0.0
 11
0.0630000000000024
 21
12.99993510561243
 31
0.0
210
-0.0000000000000001
220
-1.0
230
0.0
  0
LINE
  5
B5
100
AcDbEntity
  8
USP-GEO
100
AcDbLine
 10
0.7736014799580886
 20
9.669052827823108
 30
0.0
 11
0.6385015169677147
 21
9.591052827823105
 31
0.0
210
-0.0000000000000001
220
-1.0
230
0.0
  0
LINE
  5
B6
100
AcDbEntity
  8
USP-GEO
100
AcDbLine
 10
0.0
 20
15.1875612887993
 30
0.0
 11
0.0
 21
13.18894221619417
 31
0.0
210
-0.0000000000000001
220
-1.0
230
0.0
  0
LINE
  5
B7
100
AcDbEntity
  8
USP-GEO
100
AcDbLine
 10
0.0630000000000024
 20
15.1875612887993
 30
0.0
 11
0.0630000000000024
 21
13.18894221619416
 31
0.0
210
-0.0000000000000001
220
-1.0
230
0.0
  0
LINE
  5
B8
100
AcDbEntity
  8
USP-GEO
100
AcDbLine
 10
0.0
 20
15.1875612887993
 30
0.0
 11
0.0630000000000024
 21
15.1875612887993
 31
0.0
210
-0.0000000000000001
220
-1.0
230
0.0
  0
LINE
  5
B9
100
AcDbEntity
  8
USP-GEO
100
AcDbLine
 10
0.0
 20
15.4375612887993
 30
0.0
 11
0.0630000000000024
 21
15.4375612887993
 31
0.0
210
-0.0000000000000001
220
-1.0
230
0.0
  0
LINE
  5
BA
100
AcDbEntity
  8
USP-GEO
100
AcDbLine
 10
0.0
 20
15.40631128879931
 30
0.0
 11
0.0
 21
15.2188112887993
 31
0.0
210
-0.0000000000000001
220
-1.0
230
0.0
  0
LINE
  5
BB
100
AcDbEntity
  8
USP-GEO
100
AcDbLine
 10
0.0
 20
15.1875612887993
 30
0.0
 11
0.0
 21
15.2188112887993
 31
0.0
210
-0.0000000000000001
220
-1.0
230
0.0
  0
LINE
  5
BC
100
AcDbEntity
  8
USP-GEO
100
AcDbLine
 10
0.0000000000000071
 20
15.40631128879931
 30
0.0
 11
0.0000000000000071
 21
15.4375612887993
 31
0.0
210
-0.0000000000000001
220
-1.0
230
0.0
  0
LINE
  5
BD
100
AcDbEntity
  8
USP-GEO
100
AcDbLine
 10
0.0630000000000024
 20
15.4063112887993
 30
0.0
 11
0.0630000000000024
 21
15.2188112887993
 31
0.0
210
-0.0000000000000001
220
-1.0
230
0.0
  0
LINE
  5
BE
100
AcDbEntity
  8
USP-GEO
100
AcDbLine
 10
0.0630000000000024
 20
15.2188112887993
 30
0.0
 11
0.0630000000000024
 21
15.1875612887993
 31
0.0
210
-0.0000000000000001
220
-1.0
230
0.0
  0
LINE
  5
BF
100
AcDbEntity
  8
USP-GEO
100
AcDbLine
 10
0.0630000000000024
 20
15.4375612887993
 30
0.0
 11
0.0630000000000024
 21
15.4063112887993
 31
0.0
210
-0.0000000000000001
220
-1.0
230
0.0
  0
LINE
  5
C0
100
AcDbEntity
  8
USP-GEO
100
AcDbLine
 10
0.0
 20
18.9375612887993
 30
0.0
 11
0.0630000000000024
 21
18.9375612887993
 31
0.0
210
-0.0000000000000001
220
-1.0
230
0.0
  0
LINE
  5
C1
100
AcDbEntity
  8
USP-GEO
100
AcDbLine
 10
0.0
 20
19.1250612887993
 30
0.0
 11
0.0630000000000024
 21
19.1250612887993
 31
0.0
210
-0.0000000000000001
220
-1.0
230
0.0
  0
LINE
  5
C2
100
AcDbEntity
  8
USP-GEO
100
AcDbLine
 10
0.0
 20
18.9375612887993
 30
0.0
 11
0.0
 21
19.1250612887993
 31
0.0
210
-0.0000000000000001
220
-1.0
230
0.0
  0
LINE
  5
C3
100
AcDbEntity
  8
USP-GEO
100
AcDbLine
 10
0.0630000000000024
 20
19.1250612887993
 30
0.0
 11
0.0630000000000024
 21
18.9375612887993
 31
0.0
210
-0.0000000000000001
220
-1.0
230
0.0
  0
ENDBLK
  5
C5
100
AcDbEntity
  8
0
100
AcDbBlockEnd
  0
BLOCK
  5
105
100
AcDbEntity
  8
0
100
AcDbBlockBegin
  2
LFTA6_S-L
 70
     0
 10
0.0
 20
0.0
 30
0.0
  3
LFTA6_S-L
  1

  0
LINE
  5
C8
100
AcDbEntity
  8
USP-GEO
100
AcDbLine
 10
-0.0000000074915931
 20
18.93756128344816
 30
0.0
 11
0.0
 21
15.43756128344816
 31
0.0
210
0.0000000021404603
220
-1.0
230
0.0
  0
LINE
  5
C9
100
AcDbEntity
  8
USP-GEO
100
AcDbLine
 10
2.25
 20
15.43756128826419
 30
0.0
 11
2.249999992508406
 21
18.93756128826419
 31
0.0
210
0.0000000021404603
220
-1.0
230
0.0
  0
LINE
  5
CA
100
AcDbEntity
  8
USP-GEO
100
AcDbLine
 10
2.563000018929784
 20
6.593774001374669
 30
0.0
 11
2.563000032642094
 21
0.1875240013746762
 31
0.0
210
0.0000000021404603
220
-1.0
230
0.0
  0
LINE
  5
CB
100
AcDbEntity
  8
USP-GEO
100
AcDbLine
 10
2.500000032642105
 20
0.1875240012398223
 30
0.0
 11
2.500000018929782
 21
6.593774001239822
 31
0.0
210
0.0000000021404603
220
-1.0
230
0.0
  0
TEXT
  5
CC
100
AcDbEntity
  8
USP-TXT
100
AcDbText
 10
-6.375000007892936
 20
-1.979548098970507
 30
0.0
 40
0.75
  1
LFTA6 (L) - SIDE VIEW
 72
     1
 11
1.124999992107063
 21
-1.979548098970507
 31
0.0
100
AcDbText
  0
LINE
  5
CD
100
AcDbEntity
  8
USP-GEO
100
AcDbLine
 10
2.563000033043437
 20
0.0000218194276158
 30
0.0
 11
2.563000032642094
 21
0.1875240013746762
 31
0.0
210
0.0000000021404603
220
-1.0
230
0.0
  0
LINE
  5
CE
100
AcDbEntity
  8
USP-GEO
100
AcDbLine
 10
2.500000033043448
 20
0.000021819292769
 30
0.0
 11
2.500000032642105
 21
0.1875240012398223
 31
0.0
210
0.0000000021404603
220
-1.0
230
0.0
  0
LINE
  5
CF
100
AcDbEntity
  8
USP-GEO
100
AcDbLine
 10
2.563000032642094
 20
0.1875240013746762
 30
0.0
 11
2.500000032642105
 21
0.1875240012398223
 31
0.0
210
0.0000000021404603
220
-1.0
230
0.0
  0
LINE
  5
D0
100
AcDbEntity
  8
USP-GEO
100
AcDbLine
 10
2.563000033043437
 20
0.0000218194276158
 30
0.0
 11
2.563000033043493
 21
0.0000000001348539
 31
0.0
210
0.0000000021404603
220
-1.0
230
0.0
  0
LINE
  5
D1
100
AcDbEntity
  8
USP-GEO
100
AcDbLine
 10
2.563000033043493
 20
0.0000000001348539
 30
0.0
 11
2.500000033043491
 21
0.0
 31
0.0
210
0.0000000021404603
220
-1.0
230
0.0
  0
LINE
  5
D2
100
AcDbEntity
  8
USP-GEO
100
AcDbLine
 10
2.500000033043491
 20
0.0000000000000071
 30
0.0
 11
2.500000033043448
 21
0.000021819292769
 31
0.0
210
0.0000000021404603
220
-1.0
230
0.0
  0
LINE
  5
D3
100
AcDbEntity
  8
USP-GEO
100
AcDbLine
 10
2.563000033043437
 20
0.0000218194276158
 30
0.0
 11
2.500000033043448
 21
0.0000218192927619
 31
0.0
210
0.0000000021404603
220
-1.0
230
0.0
  0
LINE
  5
D4
100
AcDbEntity
  8
USP-GEO
100
AcDbLine
 10
0.0511152847544167
 20
12.99993510037069
 30
0.0
 11
2.500000014200026
 21
8.803461288799312
 31
0.0
210
0.0000000021404603
220
-1.0
230
0.0
  0
ARC
  5
D5
100
AcDbEntity
  8
USP-GEO
100
AcDbCircle
 10
-0.3750000048130744
 20
13.18894221164569
 30
0.0
 40
0.3750000000000001
210
0.0
220
0.0
230
-1.0
100
AcDbArc
 50
329.7337493999423
 51
359.9999998773592
  0
LINE
  5
D6
100
AcDbEntity
  8
USP-GEO
100
AcDbLine
 10
1.86109990844821
 20
11.98161126892695
 30
0.0
 11
1.725999945624792
 21
11.90361126863777
 31
0.0
210
0.0000000021404603
220
-1.0
230
0.0
  0
LINE
  5
D7
100
AcDbEntity
  8
USP-GEO
100
AcDbLine
 10
1.725999945624778
 20
11.90361126863777
 30
0.0
 11
1.803999945913972
 21
11.76851130581435
 31
0.0
210
0.0000000021404603
220
-1.0
230
0.0
  0
LINE
  5
D8
100
AcDbEntity
  8
USP-GEO
100
AcDbLine
 10
1.803999945913972
 20
11.76851130581435
 30
0.0
 11
1.939099908737375
 21
11.84651130610353
 31
0.0
210
0.0000000021404603
220
-1.0
230
0.0
  0
LINE
  5
D9
100
AcDbEntity
  8
USP-GEO
100
AcDbLine
 10
1.939099908737375
 20
11.84651130610353
 30
0.0
 11
1.86109990844821
 21
11.98161126892695
 31
0.0
210
0.0000000021404603
220
-1.0
230
0.0
  0
LINE
  5
DA
100
AcDbEntity
  8
USP-GEO
100
AcDbLine
 10
0.0000000005351239
 20
15.18756128344816
 30
0.0
 11
0.0000000048130744
 21
13.18894221084302
 31
0.0
210
0.0000000021404603
220
-1.0
230
0.0
  0
CIRCLE
  5
DB
100
AcDbEntity
  8
USP-GEO
100
AcDbCircle
 10
-0.3750000012040147
 20
14.87506128425082
 30
0.0
 40
0.082
210
0.0
220
0.0
230
-1.0
  0
CIRCLE
  5
DC
100
AcDbEntity
  8
USP-GEO
100
AcDbCircle
 10
-0.5000000044147015
 20
13.37506128451839
 30
0.0
 40
0.082
210
0.0
220
0.0
230
-1.0
  0
CIRCLE
  5
DD
100
AcDbEntity
  8
USP-GEO
100
AcDbCircle
 10
-1.750000002541796
 20
14.25006128719396
 30
0.0
 40
0.082
210
0.0
220
0.0
230
-1.0
  0
LINE
  5
DE
100
AcDbEntity
  8
USP-GEO
100
AcDbLine
 10
0.0625000000669047
 20
15.40631128358194
 30
0.0
 11
0.0625000004682477
 21
15.21881128358194
 31
0.0
210
0.0000000021404603
220
-1.0
230
0.0
  0
LINE
  5
DF
100
AcDbEntity
  8
USP-GEO
100
AcDbLine
 10
0.031250000535124
 20
15.18756128351505
 30
0.0
 11
0.0000000005351239
 21
15.18756128344816
 31
0.0
210
0.0000000021404603
220
-1.0
230
0.0
  0
ARC
  5
E0
100
AcDbEntity
  8
USP-GEO
100
AcDbCircle
 10
-0.0312500004682193
 20
15.21881128351503
 30
0.0
 40
0.03125
210
0.0
220
0.0
230
-1.0
100
AcDbArc
 50
179.9999998773598
 51
269.9999998773606
  0
ARC
  5
E1
100
AcDbEntity
  8
USP-GEO
100
AcDbCircle
 10
-0.0312500000668905
 20
15.40631128351503
 30
0.0
 40
0.03125
210
0.0
220
0.0
230
-1.0
100
AcDbArc
 50
89.99999987736066
 51
179.9999998773598
  0
LINE
  5
E2
100
AcDbEntity
  8
USP-GEO
100
AcDbLine
 10
0.0
 20
15.43756128344816
 30
0.0
 11
0.03125
 21
15.43756128351505
 31
0.0
210
0.0000000021404603
220
-1.0
230
0.0
  0
CIRCLE
  5
E3
100
AcDbEntity
  8
USP-GEO
100
AcDbCircle
 10
-0.4999999979933137
 20
16.37506128451837
 30
0.0
 40
0.082
210
0.0
220
0.0
230
-1.0
  0
CIRCLE
  5
E4
100
AcDbEntity
  8
USP-GEO
100
AcDbCircle
 10
-1.874999999331109
 20
15.75006128746151
 30
0.0
 40
0.082
210
0.0
220
0.0
230
-1.0
  0
LINE
  5
E5
100
AcDbEntity
  8
USP-GEO
100
AcDbLine
 10
2.56300000594723
 20
12.65908671381518
 30
0.0
 11
2.563000014929528
 21
8.462650184561553
 31
0.0
210
0.0000000021404603
220
-1.0
230
0.0
  0
LINE
  5
E6
100
AcDbEntity
  8
USP-GEO
100
AcDbLine
 10
2.500000014929526
 20
8.462650184426692
 30
0.0
 11
2.500000005947228
 21
12.65908671368033
 31
0.0
210
0.0000000021404603
220
-1.0
230
0.0
  0
LINE
  5
E7
100
AcDbEntity
  8
USP-GEO
100
AcDbLine
 10
2.563000015334083
 20
8.273643073979812
 30
0.0
 11
2.56300001839466
 21
6.843774001374669
 31
0.0
210
0.0000000021404603
220
-1.0
230
0.0
  0
LINE
  5
E8
100
AcDbEntity
  8
USP-GEO
100
AcDbLine
 10
2.500000018394672
 20
6.843774001239822
 30
0.0
 11
2.500000015334094
 21
8.273643073844951
 31
0.0
210
0.0000000021404603
220
-1.0
230
0.0
  0
LINE
  5
E9
100
AcDbEntity
  8
USP-GEO
100
AcDbLine
 10
2.563000018461551
 20
6.812524001374669
 30
0.0
 11
2.563000018862894
 21
6.625024001374669
 31
0.0
210
0.0000000021404603
220
-1.0
230
0.0
  0
LINE
  5
EA
100
AcDbEntity
  8
USP-GEO
100
AcDbLine
 10
2.500000018862891
 20
6.625024001239822
 30
0.0
 11
2.500000018461548
 21
6.812524001239822
 31
0.0
210
0.0000000021404603
220
-1.0
230
0.0
  0
LINE
  5
EB
100
AcDbEntity
  8
USP-GEO
100
AcDbLine
 10
2.563000018862894
 20
6.625024001374669
 30
0.0
 11
2.563000018929784
 21
6.593774001374669
 31
0.0
210
0.0000000021404603
220
-1.0
230
0.0
  0
LINE
  5
EC
100
AcDbEntity
  8
USP-GEO
100
AcDbLine
 10
2.563000018929784
 20
6.593774001374669
 30
0.0
 11
2.500000018929782
 21
6.593774001239822
 31
0.0
210
0.0000000021404603
220
-1.0
230
0.0
  0
LINE
  5
ED
100
AcDbEntity
  8
USP-GEO
100
AcDbLine
 10
2.500000018929782
 20
6.593774001239822
 30
0.0
 11
2.500000018862891
 21
6.625024001239822
 31
0.0
210
0.0000000021404603
220
-1.0
230
0.0
  0
LINE
  5
EE
100
AcDbEntity
  8
USP-GEO
100
AcDbLine
 10
2.56300001839466
 20
6.843774001374669
 30
0.0
 11
2.563000018461551
 21
6.812524001374669
 31
0.0
210
0.0000000021404603
220
-1.0
230
0.0
  0
LINE
  5
EF
100
AcDbEntity
  8
USP-GEO
100
AcDbLine
 10
2.500000018461548
 20
6.812524001239822
 30
0.0
 11
2.500000018394658
 21
6.843774001239822
 31
0.0
210
0.0000000021404603
220
-1.0
230
0.0
  0
LINE
  5
F0
100
AcDbEntity
  8
USP-GEO
100
AcDbLine
 10
2.56300001839466
 20
6.843774001374669
 30
0.0
 11
2.500000018394672
 21
6.843774001239822
 31
0.0
210
0.0000000021404603
220
-1.0
230
0.0
  0
LINE
  5
F1
100
AcDbEntity
  8
USP-GEO
100
AcDbLine
 10
2.563000015334097
 20
8.273643073979812
 30
0.0
 11
2.563000014929528
 21
8.462650184561553
 31
0.0
210
0.0000000021404603
220
-1.0
230
0.0
  0
LINE
  5
F2
100
AcDbEntity
  8
USP-GEO
100
AcDbLine
 10
2.500000015334094
 20
8.273643073844951
 30
0.0
 11
2.500000014929526
 21
8.462650184426692
 31
0.0
210
0.0000000021404603
220
-1.0
230
0.0
  0
ARC
  5
F3
100
AcDbEntity
  8
USP-GEO
100
AcDbCircle
 10
-2.625000004813074
 20
13.18894221646173
 30
0.0
 40
0.3750000000000001
210
0.0
220
0.0
230
-1.0
100
AcDbArc
 50
329.7337493999423
 51
359.999999877361
  0
LINE
  5
F4
100
AcDbEntity
  8
USP-GEO
100
AcDbLine
 10
2.500000005947157
 20
12.65912400123981
 30
0.0
 11
2.301115284754416
 21
12.99993510518673
 31
0.0
210
0.0000000021404603
220
-1.0
230
0.0
  0
LINE
  5
F5
100
AcDbEntity
  8
USP-GEO
100
AcDbLine
 10
2.56300000594723
 20
12.65908671381518
 30
0.0
 11
2.563000005947145
 21
12.65912400137467
 31
0.0
210
0.0000000021404603
220
-1.0
230
0.0
  0
LINE
  5
F6
100
AcDbEntity
  8
USP-GEO
100
AcDbLine
 10
2.56300000594723
 20
12.65908671381519
 30
0.0
 11
2.500000005947228
 21
12.65908671368033
 31
0.0
210
0.0000000021404603
220
-1.0
230
0.0
  0
LINE
  5
F7
100
AcDbEntity
  8
USP-GEO
100
AcDbLine
 10
2.563000005947145
 20
12.65912400137467
 30
0.0
 11
2.500000005947157
 21
12.65912400123983
 31
0.0
210
0.0000000021404603
220
-1.0
230
0.0
  0
LINE
  5
F8
100
AcDbEntity
  8
USP-GEO
100
AcDbLine
 10
2.250000004813088
 20
13.18894221565906
 30
0.0
 11
2.250000000535123
 21
15.18756128826419
 31
0.0
210
0.0000000021404603
220
-1.0
230
0.0
  0
LINE
  5
F9
100
AcDbEntity
  8
USP-GEO
100
AcDbLine
 10
2.187500000468247
 20
15.21881128813041
 30
0.0
 11
2.187500000066904
 21
15.40631128813041
 31
0.0
210
0.0000000021404603
220
-1.0
230
0.0
  0
ARC
  5
FA
100
AcDbEntity
  8
USP-GEO
100
AcDbCircle
 10
-2.218750000468233
 20
15.21881128819729
 30
0.0
 40
0.03125
210
0.0
220
0.0
230
-1.0
100
AcDbArc
 50
269.9999998773606
 51
359.9999998773541
  0
LINE
  5
FB
100
AcDbEntity
  8
USP-GEO
100
AcDbLine
 10
2.250000000535123
 20
15.18756128826419
 30
0.0
 11
2.218750000535123
 21
15.1875612881973
 31
0.0
210
0.0000000021404603
220
-1.0
230
0.0
  0
LINE
  5
FC
100
AcDbEntity
  8
USP-GEO
100
AcDbLine
 10
2.21875
 20
15.4375612881973
 30
0.0
 11
2.25
 21
15.43756128826419
 31
0.0
210
0.0000000021404603
220
-1.0
230
0.0
  0
ARC
  5
FD
100
AcDbEntity
  8
USP-GEO
100
AcDbCircle
 10
-2.21875000006689
 20
15.40631128819729
 30
0.0
 40
0.03125
210
0.0
220
0.0
230
-1.0
100
AcDbArc
 50
359.9999998773606
 51
89.99999987736718
  0
LINE
  5
FE
100
AcDbEntity
  8
USP-GEO
100
AcDbLine
 10
2.249999992508406
 20
18.93756128826419
 30
0.0
 11
2.062499992107063
 21
19.12506128786286
 31
0.0
210
0.0000000021404603
220
-1.0
230
0.0
  0
CIRCLE
  5
FF
100
AcDbEntity
  8
USP-GEO
100
AcDbCircle
 10
-0.3749999947826268
 20
17.87506128425083
 30
0.0
 40
0.082
210
0.0
220
0.0
230
-1.0
  0
CIRCLE
  5
100
100
AcDbEntity
  8
USP-GEO
100
AcDbCircle
 10
-1.749999996120422
 20
17.25006128719396
 30
0.0
 40
0.082
210
0.0
220
0.0
230
-1.0
  0
CIRCLE
  5
101
100
AcDbEntity
  8
USP-GEO
100
AcDbCircle
 10
-1.124999993846174
 20
18.31256128585617
 30
0.0
 40
0.156
210
0.0
220
0.0
230
-1.0
  0
LINE
  5
102
100
AcDbEntity
  8
USP-GEO
100
AcDbLine
 10
2.062499992107063
 20
19.12506128786286
 30
0.0
 11
0.1874999921070639
 21
19.12506128384949
 31
0.0
210
0.0000000021404603
220
-1.0
230
0.0
  0
LINE
  5
103
100
AcDbEntity
  8
USP-GEO
100
AcDbLine
 10
0.1874999921070639
 20
19.12506128384949
 30
0.0
 11
-0.0000000074915931
 21
18.93756128344816
 31
0.0
210
0.0000000021404603
220
-1.0
230
0.0
  0
CIRCLE
  5
104
100
AcDbEntity
  8
USP-GEO
100
AcDbCircle
 10
-1.874999992909721
 20
18.75006128746151
 30
0.0
 40
0.082
210
0.0
220
0.0
230
-1.0
  0
ENDBLK
  5
106
100
AcDbEntity
  8
0
100
AcDbBlockEnd
  0
ENDSEC
  0
SECTION
  2
ENTITIES
  0
INSERT
  5
3
100
AcDbEntity
  8
USP
100
AcDbBlockReference
  2
LFTA6_F-R
 10
6.562984923735875
 20
26.79204363895432
 30
0.0
  0
INSERT
  5
48
100
AcDbEntity
  8
USP
100
AcDbBlockReference
  2
LFTA6_S-R
 10
23.90164075807875
 20
26.79199860814766
 30
0.0
  0
INSERT
  5
89
100
AcDbEntity
  8
USP
100
AcDbBlockReference
  2
LFTA6_F-L
 10
6.562984923735882
 20
1.980904195095302
 30
0.0
  0
INSERT
  5
C6
100
AcDbEntity
  8
USP
100
AcDbBlockReference
  2
LFTA6_S-L
 10
23.90164076557034
 20
1.980949230851773
 30
0.0
  0
ENDSEC
  0
SECTION
  2
OBJECTS
  0
DICTIONARY
  5
122
102
{ACAD_XDICTIONARY
360
123
102
}
100
AcDbDictionary
  3
ACAD_GROUP
350
11F
  3
ACAD_MLINESTYLE
350
120
  0
DICTIONARY
  5
114
100
AcDbDictionary
280
     1
  0
DICTIONARY
  5
116
100
AcDbDictionary
280
     1
  0
DICTIONARY
  5
6
100
AcDbDictionary
280
     1
  0
DICTIONARY
  5
B
100
AcDbDictionary
280
     1
  0
DICTIONARY
  5
127
100
AcDbDictionary
280
     1
  0
DICTIONARY
  5
107
100
AcDbDictionary
280
     1
  3
ACAD_LAYOUTSELFREF
360
108
  0
DICTIONARY
  5
10C
100
AcDbDictionary
280
     1
  3
ACAD_LAYOUTSELFREF
360
10D
  0
DICTIONARY
  5
123
100
AcDbDictionary
280
     1
  3
ACAD_XREC_ROUNDTRIP
360
124
  0
DICTIONARY
  5
11F
102
{ACAD_REACTORS
330
122
102
}
100
AcDbDictionary
  0
DICTIONARY
  5
120
102
{ACAD_XDICTIONARY
360
121
102
}
102
{ACAD_REACTORS
330
122
102
}
100
AcDbDictionary
  3
STANDARD
350
125
  0
XRECORD
  5
108
102
{ACAD_REACTORS
330
107
102
}
100
AcDbXrecord
340
2
  0
XRECORD
  5
10D
102
{ACAD_REACTORS
330
10C
102
}
100
AcDbXrecord
340
10D
  0
XRECORD
  5
124
102
{ACAD_REACTORS
330
123
102
}
100
AcDbXrecord
102
EXTNAMES
  1
ACDBVARIABLEDICTIONARY
  2
AcDbVariableDictionary
  0
DICTIONARY
  5
121
100
AcDbDictionary
280
     1
  0
MLINESTYLE
  5
125
102
{ACAD_REACTORS
330
120
102
}
100
AcDbMlineStyle
  2
STANDARD
 70
     0
  3

 62
   256
 51
90.0
 52
90.0
 71
     2
 49
0.5
 62
   256
  6
BYLAYER
 49
-0.5
 62
   256
  6
BYLAYER
  0
ENDSEC
  0
EOF
