  0
SECTION
  2
HEADER
  9
$ACADVER
  1
AC1014
  9
$ACADMAINTVER
 70
     9
  9
$DWGCODEPAGE
  3
ANSI_1252
  9
$INSBASE
 10
0.0
 20
0.0
 30
0.0
  9
$EXTMIN
 10
0.0125502478939167
 20
0.0006735934731026
 30
0.0
  9
$EXTMAX
 10
72.01824210188263
 20
7.73276418118526
 30
4.196879291630274
  9
$LIMMIN
 10
0.0
 20
0.0
  9
$LIMMAX
 10
12.0
 20
9.0
  9
$ORTHOMODE
 70
     1
  9
$REGENMODE
 70
     1
  9
$FILLMODE
 70
     1
  9
$QTEXTMODE
 70
     0
  9
$MIRRTEXT
 70
     0
  9
$DRAGMODE
 70
     2
  9
$LTSCALE
 40
1.5
  9
$OSMODE
 70
     0
  9
$ATTMODE
 70
     1
  9
$TEXTSIZE
 40
0.75
  9
$TRACEWID
 40
0.05
  9
$TEXTSTYLE
  7
STANDARD
  9
$CLAYER
  8
USP
  9
$CELTYPE
  6
BYLAYER
  9
$CECOLOR
 62
   256
  9
$CELTSCALE
 40
1.0
  9
$DELOBJ
 70
     1
  9
$DISPSILH
 70
     1
  9
$DIMSCALE
 40
3.0
  9
$DIMASZ
 40
0.125
  9
$DIMEXO
 40
0.0625
  9
$DIMDLI
 40
0.37890625
  9
$DIMRND
 40
0.0
  9
$DIMDLE
 40
0.0
  9
$DIMEXE
 40
0.09375
  9
$DIMTP
 40
0.0
  9
$DIMTM
 40
0.0
  9
$DIMTXT
 40
0.109375
  9
$DIMCEN
 40
0.0
  9
$DIMTSZ
 40
0.0
  9
$DIMTOL
 70
     0
  9
$DIMLIM
 70
     0
  9
$DIMTIH
 70
     1
  9
$DIMTOH
 70
     1
  9
$DIMSE1
 70
     0
  9
$DIMSE2
 70
     0
  9
$DIMTAD
 70
     0
  9
$DIMZIN
 70
     8
  9
$DIMBLK
  1

  9
$DIMASO
 70
     1
  9
$DIMSHO
 70
     1
  9
$DIMPOST
  1

  9
$DIMAPOST
  1

  9
$DIMALT
 70
     0
  9
$DIMALTD
 70
     2
  9
$DIMALTF
 40
25.4
  9
$DIMLFAC
 40
1.0
  9
$DIMTOFL
 70
     0
  9
$DIMTVP
 40
0.0
  9
$DIMTIX
 70
     0
  9
$DIMSOXD
 70
     0
  9
$DIMSAH
 70
     0
  9
$DIMBLK1
  1

  9
$DIMBLK2
  1

  9
$DIMSTYLE
  2
STANDARD
  9
$DIMCLRD
 70
     0
  9
$DIMCLRE
 70
     0
  9
$DIMCLRT
 70
   256
  9
$DIMTFAC
 40
1.0
  9
$DIMGAP
 40
0.08984375
  9
$DIMJUST
 70
     0
  9
$DIMSD1
 70
     0
  9
$DIMSD2
 70
     0
  9
$DIMTOLJ
 70
     1
  9
$DIMTZIN
 70
     0
  9
$DIMALTZ
 70
     0
  9
$DIMALTTZ
 70
     0
  9
$DIMFIT
 70
     3
  9
$DIMUPT
 70
     1
  9
$DIMUNIT
 70
     7
  9
$DIMDEC
 70
     4
  9
$DIMTDEC
 70
     4
  9
$DIMALTU
 70
     2
  9
$DIMALTTD
 70
     2
  9
$DIMTXSTY
  7
STANDARD
  9
$DIMAUNIT
 70
     0
  9
$LUNITS
 70
     5
  9
$LUPREC
 70
     6
  9
$SKETCHINC
 40
0.1
  9
$FILLETRAD
 40
0.0
  9
$AUNITS
 70
     0
  9
$AUPREC
 70
     1
  9
$MENU
  1
CUSTOM
  9
$ELEVATION
 40
0.0
  9
$PELEVATION
 40
0.0
  9
$THICKNESS
 40
0.0
  9
$LIMCHECK
 70
     0
  9
$BLIPMODE
 70
     0
  9
$CHAMFERA
 40
0.0
  9
$CHAMFERB
 40
0.0
  9
$CHAMFERC
 40
0.0
  9
$CHAMFERD
 40
0.0
  9
$SKPOLY
 70
     0
  9
$TDCREATE
 40
2451263.663231366
  9
$TDUPDATE
 40
2452768.665116643
  9
$TDINDWG
 40
0.6285124537
  9
$TDUSRTIMER
 40
0.6285124537
  9
$USRTIMER
 70
     1
  9
$ANGBASE
 50
0.0
  9
$ANGDIR
 70
     0
  9
$PDMODE
 70
     0
  9
$PDSIZE
 40
0.0
  9
$PLINEWID
 40
0.0
  9
$COORDS
 70
     2
  9
$SPLFRAME
 70
     0
  9
$SPLINETYPE
 70
     6
  9
$SPLINESEGS
 70
     8
  9
$ATTDIA
 70
     0
  9
$ATTREQ
 70
     0
  9
$HANDLING
 70
     1
  9
$HANDSEED
  5
7E
  9
$SURFTAB1
 70
     6
  9
$SURFTAB2
 70
     6
  9
$SURFTYPE
 70
     6
  9
$SURFU
 70
     6
  9
$SURFV
 70
     6
  9
$UCSNAME
  2

  9
$UCSORG
 10
0.0
 20
0.0
 30
0.0
  9
$UCSXDIR
 10
1.0
 20
0.0
 30
0.0
  9
$UCSYDIR
 10
0.0
 20
1.0
 30
0.0
  9
$PUCSNAME
  2

  9
$PUCSORG
 10
0.0
 20
0.0
 30
0.0
  9
$PUCSXDIR
 10
1.0
 20
0.0
 30
0.0
  9
$PUCSYDIR
 10
0.0
 20
1.0
 30
0.0
  9
$USERI1
 70
     0
  9
$USERI2
 70
     0
  9
$USERI3
 70
     0
  9
$USERI4
 70
     0
  9
$USERI5
 70
     0
  9
$USERR1
 40
0.0
  9
$USERR2
 40
0.0
  9
$USERR3
 40
0.0
  9
$USERR4
 40
0.0
  9
$USERR5
 40
0.0
  9
$WORLDVIEW
 70
     1
  9
$SHADEDGE
 70
     3
  9
$SHADEDIF
 70
    70
  9
$TILEMODE
 70
     1
  9
$MAXACTVP
 70
    16
  9
$PINSBASE
 10
0.0
 20
0.0
 30
0.0
  9
$PLIMCHECK
 70
     0
  9
$PEXTMIN
 10
1.000000000000000E+20
 20
1.000000000000000E+20
 30
1.000000000000000E+20
  9
$PEXTMAX
 10
-1.000000000000000E+20
 20
-1.000000000000000E+20
 30
-1.000000000000000E+20
  9
$PLIMMIN
 10
0.0
 20
0.0
  9
$PLIMMAX
 10
12.0
 20
9.0
  9
$UNITMODE
 70
     0
  9
$VISRETAIN
 70
     0
  9
$PLINEGEN
 70
     0
  9
$PSLTSCALE
 70
     0
  9
$TREEDEPTH
 70
  3020
  9
$PICKSTYLE
 70
     0
  9
$CMLSTYLE
  2
STANDARD
  9
$CMLJUST
 70
     0
  9
$CMLSCALE
 40
1.0
  9
$PROXYGRAPHICS
 70
     1
  9
$MEASUREMENT
 70
     0
  0
ENDSEC
  0
SECTION
  2
CLASSES
  0
CLASS
  1
ACDBDICTIONARYWDFLT
  2
AcDbDictionaryWithDefault
  3
AutoCAD 2000
 90
        0
280
     0
281
     0
  0
CLASS
  1
ACDBPLACEHOLDER
  2
AcDbPlaceHolder
  3
AutoCAD 2000
 90
        0
280
     0
281
     0
  0
CLASS
  1
LAYOUT
  2
AcDbLayout
  3
AutoCAD 2000
 90
        0
280
     0
281
     0
  0
CLASS
  1
DICTIONARYVAR
  2
AcDbDictionaryVar
  3
"AutoCAD"
 90
        0
280
     0
281
     0
  0
CLASS
  1
LONG_TRANSACTION
  2
AcDbLongTransaction
  3
AutoCAD 2000
 90
        0
280
     0
281
     0
  0
CLASS
  1
LWPOLYLINE
  2
AcDbPolyline
  3
"AutoCAD"
 90
        0
280
     0
281
     1
  0
CLASS
  1
HATCH
  2
AcDbHatch
  3
"ACAD_SEDONA"
 90
        0
280
     0
281
     1
  0
CLASS
  1
XRECORD
  2
AcDbXrecord
  3
"<Built In>"
 90
        0
280
     0
281
     0
  0
CLASS
  1
LONG_TRANSACTION
  2
AcDbLongTransaction
  3
AutoCAD 2000
 90
        0
280
     0
281
     0
  0
CLASS
  1
LWPOLYLINE
  2
AcDbPolyline
  3
"AutoCAD"
 90
        0
280
     0
281
     1
  0
CLASS
  1
HATCH
  2
AcDbHatch
  3
"ACAD_SEDONA"
 90
        0
280
     0
281
     1
  0
CLASS
  1
XRECORD
  2
AcDbXrecord
  3
"<Built In>"
 90
        0
280
     0
281
     0
  0
ENDSEC
  0
SECTION
  2
TABLES
  0
TABLE
  2
VPORT
  5
6E
100
AcDbSymbolTable
 70
     1
  0
VPORT
  5
6F
100
AcDbSymbolTableRecord
100
AcDbViewportTableRecord
  2
*ACTIVE
 70
     0
 10
0.0
 20
0.0
 11
1.0
 21
1.0
 12
18.23199006865388
 22
-1.993862277195134
 13
0.0
 23
0.0
 14
1.0
 24
1.0
 15
0.0
 25
0.0
 16
0.0
 26
0.0
 36
1.0
 17
18.06596660309899
 27
8.119903606830565
 37
5.823974399722915
 40
69.38209598183817
 41
1.457627118644067
 42
50.0
 43
10.55307667737539
 44
10.55307667737539
 50
0.0
 51
0.0
 71
     0
 72
   100
 73
     1
 74
     1
 75
     0
 76
     0
 77
     0
 78
     0
  0
ENDTAB
  0
TABLE
  2
LTYPE
  5
69
100
AcDbSymbolTable
 70
     1
  0
LTYPE
  5
6A
100
AcDbSymbolTableRecord
100
AcDbLinetypeTableRecord
  2
BYBLOCK
 70
     0
  3

 72
    65
 73
     0
 40
0.0
  0
LTYPE
  5
6B
100
AcDbSymbolTableRecord
100
AcDbLinetypeTableRecord
  2
BYLAYER
 70
     0
  3

 72
    65
 73
     0
 40
0.0
  0
LTYPE
  5
5
100
AcDbSymbolTableRecord
100
AcDbLinetypeTableRecord
  2
CONTINUOUS
 70
     0
  3
Solid line
 72
    65
 73
     0
 40
0.0
  0
ENDTAB
  0
TABLE
  2
LAYER
  5
67
100
AcDbSymbolTable
 70
     4
  0
LAYER
  5
5C
100
AcDbSymbolTableRecord
100
AcDbLayerTableRecord
  2
0
 70
     0
 62
     7
  6
CONTINUOUS
  0
LAYER
  5
8
102
{ACAD_XDICTIONARY
360
9
102
}
100
AcDbSymbolTableRecord
100
AcDbLayerTableRecord
  2
USP-GEO
 70
     0
 62
     7
  6
CONTINUOUS
  0
LAYER
  5
D
102
{ACAD_XDICTIONARY
360
E
102
}
100
AcDbSymbolTableRecord
100
AcDbLayerTableRecord
  2
USP-TXT
 70
     0
 62
     7
  6
CONTINUOUS
  0
LAYER
  5
4
100
AcDbSymbolTableRecord
100
AcDbLayerTableRecord
  2
USP
 70
     0
 62
     7
  6
CONTINUOUS
  0
ENDTAB
  0
TABLE
  2
STYLE
  5
68
100
AcDbSymbolTable
 70
     1
  0
STYLE
  5
10
100
AcDbSymbolTableRecord
100
AcDbTextStyleTableRecord
  2
STANDARD
 70
     0
 40
0.0
 41
1.0
 50
0.0
 71
     0
 42
0.75
  3
txt
  4

  0
ENDTAB
  0
TABLE
  2
VIEW
  5
6C
100
AcDbSymbolTable
 70
     0
  0
ENDTAB
  0
TABLE
  2
UCS
  5
6D
100
AcDbSymbolTable
 70
     0
  0
ENDTAB
  0
TABLE
  2
APPID
  5
70
100
AcDbSymbolTable
 70
     1
  0
APPID
  5
71
100
AcDbSymbolTableRecord
100
AcDbRegAppTableRecord
  2
ACAD
 70
     0
  0
ENDTAB
  0
TABLE
  2
DIMSTYLE
  5
72
100
AcDbSymbolTable
 70
     1
  0
DIMSTYLE
105
7A
100
AcDbSymbolTableRecord
100
AcDbDimStyleTableRecord
  2
STANDARD
 70
     0
  3

  4

  5

  6

  7

 40
1.0
 41
0.18
 42
0.0625
 43
0.38
 44
0.18
 45
0.0
 46
0.0
 47
0.0
 48
0.0
140
0.18
141
0.09
142
0.0
143
25.4
144
1.0
145
0.0
146
1.0
147
0.09
 71
     0
 72
     0
 73
     1
 74
     1
 75
     0
 76
     0
 77
     0
 78
     0
170
     0
171
     2
172
     0
173
     0
174
     0
175
     0
176
     0
177
     0
178
     0
270
     2
271
     4
272
     4
273
     2
274
     2
340
10
275
     0
280
     0
281
     0
282
     0
283
     1
284
     0
285
     0
286
     0
287
     3
288
     0
  0
ENDTAB
  0
TABLE
  2
BLOCK_RECORD
  5
1
100
AcDbSymbolTable
 70
     1
  0
BLOCK_RECORD
  5
2
102
{ACAD_XDICTIONARY
360
5E
102
}
100
AcDbSymbolTableRecord
100
AcDbBlockTableRecord
  2
*MODEL_SPACE
  0
BLOCK_RECORD
  5
62
102
{ACAD_XDICTIONARY
360
63
102
}
100
AcDbSymbolTableRecord
100
AcDbBlockTableRecord
  2
*PAPER_SPACE
  0
BLOCK_RECORD
  5
6
100
AcDbSymbolTableRecord
100
AcDbBlockTableRecord
  2
KSTI272_F
  0
ENDTAB
  0
ENDSEC
  0
SECTION
  2
BLOCKS
  0
BLOCK
  5
60
100
AcDbEntity
  8
0
100
AcDbBlockBegin
  2
*MODEL_SPACE
 70
     0
 10
0.0
 20
0.0
 30
0.0
  3
*MODEL_SPACE
  1

  0
ENDBLK
  5
61
100
AcDbEntity
  8
0
100
AcDbBlockEnd
  0
BLOCK
  5
65
100
AcDbEntity
 67
     1
  8
0
100
AcDbBlockBegin
  2
*PAPER_SPACE
 70
     0
 10
0.0
 20
0.0
 30
0.0
  3
*PAPER_SPACE
  1

  0
ENDBLK
  5
66
100
AcDbEntity
 67
     1
  8
0
100
AcDbBlockEnd
  0
BLOCK
  5
5B
100
AcDbEntity
  8
0
100
AcDbBlockBegin
  2
KSTI272_F
 70
     0
 10
0.0
 20
0.0
 30
0.0
  3
KSTI272_F
  1

  0
LINE
  5
7
100
AcDbEntity
  8
USP-GEO
100
AcDbLine
 10
0.0
 20
2.060965353424311
 30
0.0
 11
72.00569185398872
 21
2.060965353424311
 31
0.0
  0
LINE
  5
B
100
AcDbEntity
  8
USP-GEO
100
AcDbLine
 10
72.00569185398872
 20
0.0
 30
0.0
 11
0.0
 21
0.0
 31
0.0
  0
TEXT
  5
C
100
AcDbEntity
  8
USP-TXT
100
AcDbText
 10
31.08617926032769
 20
-5.671125234287845
 30
4.196879291630274
 40
0.5
  1
KSTI272 - FRONT VIEW
 72
     1
 11
36.00284592699435
 21
-5.671125234287845
 31
4.196879291630274
100
AcDbText
  0
CIRCLE
  5
11
100
AcDbEntity
  8
USP-GEO
100
AcDbCircle
 10
13.48840329751467
 20
0.7707358249170575
 30
0.0
 40
0.078
  0
LINE
  5
12
100
AcDbEntity
  8
USP-GEO
100
AcDbLine
 10
0.0
 20
0.0
 30
0.0
 11
0.0
 21
2.060965353424311
 31
0.0
  0
CIRCLE
  5
13
100
AcDbEntity
  8
USP-GEO
100
AcDbCircle
 10
2.488403297514675
 20
1.645735824917057
 30
0.0
 40
0.078
  0
CIRCLE
  5
14
100
AcDbEntity
  8
USP-GEO
100
AcDbCircle
 10
5.488403297514675
 20
1.645735824917057
 30
0.0
 40
0.078
  0
CIRCLE
  5
15
100
AcDbEntity
  8
USP-GEO
100
AcDbCircle
 10
8.488403297514675
 20
1.645735824917057
 30
0.0
 40
0.078
  0
CIRCLE
  5
16
100
AcDbEntity
  8
USP-GEO
100
AcDbCircle
 10
11.48840329751467
 20
1.645735824917057
 30
0.0
 40
0.078
  0
CIRCLE
  5
17
100
AcDbEntity
  8
USP-GEO
100
AcDbCircle
 10
0.4884032975146754
 20
0.3957358249170575
 30
0.0
 40
0.078
  0
CIRCLE
  5
18
100
AcDbEntity
  8
USP-GEO
100
AcDbCircle
 10
1.488403297514675
 20
0.7707358249170575
 30
0.0
 40
0.078
  0
CIRCLE
  5
19
100
AcDbEntity
  8
USP-GEO
100
AcDbCircle
 10
3.488403297514675
 20
0.3957358249170575
 30
0.0
 40
0.078
  0
CIRCLE
  5
1A
100
AcDbEntity
  8
USP-GEO
100
AcDbCircle
 10
6.488403297514675
 20
0.3957358249170575
 30
0.0
 40
0.078
  0
CIRCLE
  5
1B
100
AcDbEntity
  8
USP-GEO
100
AcDbCircle
 10
7.488403297514675
 20
0.7707358249170575
 30
0.0
 40
0.078
  0
CIRCLE
  5
1C
100
AcDbEntity
  8
USP-GEO
100
AcDbCircle
 10
4.488403297514675
 20
1.270735824917057
 30
0.0
 40
0.078
  0
CIRCLE
  5
1D
100
AcDbEntity
  8
USP-GEO
100
AcDbCircle
 10
9.488403297514675
 20
0.3957358249170575
 30
0.0
 40
0.078
  0
CIRCLE
  5
1E
100
AcDbEntity
  8
USP-GEO
100
AcDbCircle
 10
12.48840329751467
 20
0.3957358249170575
 30
0.0
 40
0.078
  0
CIRCLE
  5
1F
100
AcDbEntity
  8
USP-GEO
100
AcDbCircle
 10
10.48840329751467
 20
1.270735824917057
 30
0.0
 40
0.078
  0
CIRCLE
  5
20
100
AcDbEntity
  8
USP-GEO
100
AcDbCircle
 10
29.51610511182044
 20
1.645735824917057
 30
0.0
 40
0.078
  0
CIRCLE
  5
21
100
AcDbEntity
  8
USP-GEO
100
AcDbCircle
 10
32.51610511182043
 20
1.645735824917057
 30
0.0
 40
0.078
  0
CIRCLE
  5
22
100
AcDbEntity
  8
USP-GEO
100
AcDbCircle
 10
35.51610511182043
 20
1.645735824917057
 30
0.0
 40
0.078
  0
CIRCLE
  5
23
100
AcDbEntity
  8
USP-GEO
100
AcDbCircle
 10
14.48840329751467
 20
1.645735824917057
 30
0.0
 40
0.078
  0
CIRCLE
  5
24
100
AcDbEntity
  8
USP-GEO
100
AcDbCircle
 10
17.48840329751467
 20
1.645735824917057
 30
0.0
 40
0.078
  0
CIRCLE
  5
25
100
AcDbEntity
  8
USP-GEO
100
AcDbCircle
 10
20.48840329751467
 20
1.645735824917057
 30
0.0
 40
0.078
  0
CIRCLE
  5
26
100
AcDbEntity
  8
USP-GEO
100
AcDbCircle
 10
23.48840329751467
 20
1.645735824917057
 30
0.0
 40
0.078
  0
CIRCLE
  5
27
100
AcDbEntity
  8
USP-GEO
100
AcDbCircle
 10
26.48840329751467
 20
1.645735824917057
 30
0.0
 40
0.078
  0
CIRCLE
  5
28
100
AcDbEntity
  8
USP-GEO
100
AcDbCircle
 10
15.48840329751467
 20
0.3957358249170575
 30
0.0
 40
0.078
  0
CIRCLE
  5
29
100
AcDbEntity
  8
USP-GEO
100
AcDbCircle
 10
18.48840329751467
 20
0.3957358249170575
 30
0.0
 40
0.078
  0
CIRCLE
  5
2A
100
AcDbEntity
  8
USP-GEO
100
AcDbCircle
 10
16.48840329751467
 20
1.270735824917057
 30
0.0
 40
0.078
  0
CIRCLE
  5
2B
100
AcDbEntity
  8
USP-GEO
100
AcDbCircle
 10
21.48840329751467
 20
0.3957358249170575
 30
0.0
 40
0.078
  0
CIRCLE
  5
2C
100
AcDbEntity
  8
USP-GEO
100
AcDbCircle
 10
19.48840329751467
 20
0.7707358249170575
 30
0.0
 40
0.078
  0
CIRCLE
  5
2D
100
AcDbEntity
  8
USP-GEO
100
AcDbCircle
 10
24.48840329751467
 20
0.3957358249170575
 30
0.0
 40
0.078
  0
CIRCLE
  5
2E
100
AcDbEntity
  8
USP-GEO
100
AcDbCircle
 10
22.48840329751467
 20
1.270735824917057
 30
0.0
 40
0.078
  0
CIRCLE
  5
2F
100
AcDbEntity
  8
USP-GEO
100
AcDbCircle
 10
27.51610511182045
 20
0.3957358249170575
 30
0.0
 40
0.078
  0
CIRCLE
  5
30
100
AcDbEntity
  8
USP-GEO
100
AcDbCircle
 10
25.48840329751467
 20
0.7707358249170575
 30
0.0
 40
0.078
  0
CIRCLE
  5
31
100
AcDbEntity
  8
USP-GEO
100
AcDbCircle
 10
28.51610511182044
 20
1.270735824917057
 30
0.0
 40
0.078
  0
CIRCLE
  5
32
100
AcDbEntity
  8
USP-GEO
100
AcDbCircle
 10
30.51610511182044
 20
0.3957358249170575
 30
0.0
 40
0.078
  0
CIRCLE
  5
33
100
AcDbEntity
  8
USP-GEO
100
AcDbCircle
 10
31.51610511182044
 20
0.7707358249170575
 30
0.0
 40
0.078
  0
CIRCLE
  5
34
100
AcDbEntity
  8
USP-GEO
100
AcDbCircle
 10
33.51610511182043
 20
0.3957358249170575
 30
0.0
 40
0.078
  0
CIRCLE
  5
35
100
AcDbEntity
  8
USP-GEO
100
AcDbCircle
 10
34.51610511182043
 20
1.270735824917057
 30
0.0
 40
0.078
  0
CIRCLE
  5
36
100
AcDbEntity
  8
USP-GEO
100
AcDbCircle
 10
58.51610511182045
 20
1.270735824917057
 30
0.0
 40
0.078
  0
CIRCLE
  5
37
100
AcDbEntity
  8
USP-GEO
100
AcDbCircle
 10
38.51610511182043
 20
1.645735824917057
 30
0.0
 40
0.078
  0
CIRCLE
  5
38
100
AcDbEntity
  8
USP-GEO
100
AcDbCircle
 10
41.51610511182044
 20
1.645735824917057
 30
0.0
 40
0.078
  0
CIRCLE
  5
39
100
AcDbEntity
  8
USP-GEO
100
AcDbCircle
 10
44.51610511182043
 20
1.645735824917057
 30
0.0
 40
0.078
  0
CIRCLE
  5
3A
100
AcDbEntity
  8
USP-GEO
100
AcDbCircle
 10
47.51610511182044
 20
1.645735824917057
 30
0.0
 40
0.078
  0
CIRCLE
  5
3B
100
AcDbEntity
  8
USP-GEO
100
AcDbCircle
 10
50.51610511182044
 20
1.645735824917057
 30
0.0
 40
0.078
  0
CIRCLE
  5
3C
100
AcDbEntity
  8
USP-GEO
100
AcDbCircle
 10
53.51610511182045
 20
1.645735824917057
 30
0.0
 40
0.078
  0
CIRCLE
  5
3D
100
AcDbEntity
  8
USP-GEO
100
AcDbCircle
 10
56.51610511182044
 20
1.645735824917057
 30
0.0
 40
0.078
  0
CIRCLE
  5
3E
100
AcDbEntity
  8
USP-GEO
100
AcDbCircle
 10
36.51610511182044
 20
0.3957358249170575
 30
0.0
 40
0.078
  0
CIRCLE
  5
3F
100
AcDbEntity
  8
USP-GEO
100
AcDbCircle
 10
37.51610511182043
 20
0.7707358249170575
 30
0.0
 40
0.078
  0
CIRCLE
  5
40
100
AcDbEntity
  8
USP-GEO
100
AcDbCircle
 10
39.51610511182043
 20
0.3957358249170575
 30
0.0
 40
0.078
  0
CIRCLE
  5
41
100
AcDbEntity
  8
USP-GEO
100
AcDbCircle
 10
40.51610511182043
 20
1.270735824917057
 30
0.0
 40
0.078
  0
CIRCLE
  5
42
100
AcDbEntity
  8
USP-GEO
100
AcDbCircle
 10
42.51610511182043
 20
0.3957358249170575
 30
0.0
 40
0.078
  0
CIRCLE
  5
43
100
AcDbEntity
  8
USP-GEO
100
AcDbCircle
 10
43.51610511182044
 20
0.7707358249170575
 30
0.0
 40
0.078
  0
CIRCLE
  5
44
100
AcDbEntity
  8
USP-GEO
100
AcDbCircle
 10
45.51610511182043
 20
0.3957358249170575
 30
0.0
 40
0.078
  0
CIRCLE
  5
45
100
AcDbEntity
  8
USP-GEO
100
AcDbCircle
 10
46.51610511182044
 20
1.270735824917057
 30
0.0
 40
0.078
  0
CIRCLE
  5
46
100
AcDbEntity
  8
USP-GEO
100
AcDbCircle
 10
48.51610511182045
 20
0.3957358249170575
 30
0.0
 40
0.078
  0
CIRCLE
  5
47
100
AcDbEntity
  8
USP-GEO
100
AcDbCircle
 10
49.51610511182044
 20
0.7707358249170575
 30
0.0
 40
0.078
  0
CIRCLE
  5
48
100
AcDbEntity
  8
USP-GEO
100
AcDbCircle
 10
51.51610511182044
 20
0.3957358249170575
 30
0.0
 40
0.078
  0
CIRCLE
  5
49
100
AcDbEntity
  8
USP-GEO
100
AcDbCircle
 10
52.51610511182044
 20
1.270735824917057
 30
0.0
 40
0.078
  0
CIRCLE
  5
4A
100
AcDbEntity
  8
USP-GEO
100
AcDbCircle
 10
54.51610511182044
 20
0.3957358249170575
 30
0.0
 40
0.078
  0
CIRCLE
  5
4B
100
AcDbEntity
  8
USP-GEO
100
AcDbCircle
 10
55.51610511182044
 20
0.7707358249170575
 30
0.0
 40
0.078
  0
CIRCLE
  5
4C
100
AcDbEntity
  8
USP-GEO
100
AcDbCircle
 10
57.51610511182044
 20
0.3957358249170575
 30
0.0
 40
0.078
  0
LINE
  5
4D
100
AcDbEntity
  8
USP-GEO
100
AcDbLine
 10
72.00569185398872
 20
2.060965353424311
 30
0.0
 11
72.00569185398872
 21
0.0
 31
0.0
  0
CIRCLE
  5
4E
100
AcDbEntity
  8
USP-GEO
100
AcDbCircle
 10
59.51610511182044
 20
1.645735824917057
 30
0.0
 40
0.078
  0
CIRCLE
  5
4F
100
AcDbEntity
  8
USP-GEO
100
AcDbCircle
 10
62.51610511182044
 20
1.645735824917057
 30
0.0
 40
0.078
  0
CIRCLE
  5
50
100
AcDbEntity
  8
USP-GEO
100
AcDbCircle
 10
65.51610511182045
 20
1.645735824917057
 30
0.0
 40
0.078
  0
CIRCLE
  5
51
100
AcDbEntity
  8
USP-GEO
100
AcDbCircle
 10
68.51610511182045
 20
1.645735824917057
 30
0.0
 40
0.078
  0
CIRCLE
  5
52
100
AcDbEntity
  8
USP-GEO
100
AcDbCircle
 10
71.51610511182045
 20
1.645735824917057
 30
0.0
 40
0.078
  0
CIRCLE
  5
53
100
AcDbEntity
  8
USP-GEO
100
AcDbCircle
 10
60.51610511182044
 20
0.3957358249170575
 30
0.0
 40
0.078
  0
CIRCLE
  5
54
100
AcDbEntity
  8
USP-GEO
100
AcDbCircle
 10
63.51610511182045
 20
0.3957358249170575
 30
0.0
 40
0.078
  0
CIRCLE
  5
55
100
AcDbEntity
  8
USP-GEO
100
AcDbCircle
 10
61.51610511182044
 20
0.7707358249170575
 30
0.0
 40
0.078
  0
CIRCLE
  5
56
100
AcDbEntity
  8
USP-GEO
100
AcDbCircle
 10
66.51610511182045
 20
0.3957358249170575
 30
0.0
 40
0.078
  0
CIRCLE
  5
57
100
AcDbEntity
  8
USP-GEO
100
AcDbCircle
 10
69.51610511182045
 20
0.3957358249170575
 30
0.0
 40
0.078
  0
CIRCLE
  5
58
100
AcDbEntity
  8
USP-GEO
100
AcDbCircle
 10
67.51610511182045
 20
0.7707358249170575
 30
0.0
 40
0.078
  0
CIRCLE
  5
59
100
AcDbEntity
  8
USP-GEO
100
AcDbCircle
 10
64.51610511182045
 20
1.270735824917057
 30
0.0
 40
0.078
  0
CIRCLE
  5
5A
100
AcDbEntity
  8
USP-GEO
100
AcDbCircle
 10
70.51610511182045
 20
1.270735824917057
 30
0.0
 40
0.078
  0
ENDBLK
  5
5D
100
AcDbEntity
  8
0
100
AcDbBlockEnd
  0
ENDSEC
  0
SECTION
  2
ENTITIES
  0
INSERT
  5
3
100
AcDbEntity
  8
USP
100
AcDbBlockReference
  2
KSTI272_F
 10
0.0125502478939167
 20
5.671798827760948
 30
0.0
  0
ENDSEC
  0
SECTION
  2
OBJECTS
  0
DICTIONARY
  5
76
102
{ACAD_XDICTIONARY
360
77
102
}
100
AcDbDictionary
  3
ACAD_GROUP
350
74
  3
ACAD_MLINESTYLE
350
75
  0
DICTIONARY
  5
9
100
AcDbDictionary
280
     1
  3
ACAD_XREC_ROUNDTRIP
360
A
  0
DICTIONARY
  5
E
100
AcDbDictionary
280
     1
  3
ACAD_XREC_ROUNDTRIP
360
F
  0
DICTIONARY
  5
5E
100
AcDbDictionary
280
     1
  3
ACAD_LAYOUTSELFREF
360
5F
  0
DICTIONARY
  5
63
100
AcDbDictionary
280
     1
  3
ACAD_LAYOUTSELFREF
360
64
  0
DICTIONARY
  5
77
100
AcDbDictionary
280
     1
  3
ACAD_XREC_ROUNDTRIP
360
78
  0
DICTIONARY
  5
74
102
{ACAD_REACTORS
330
76
102
}
100
AcDbDictionary
  0
DICTIONARY
  5
75
102
{ACAD_REACTORS
330
76
102
}
100
AcDbDictionary
  3
STANDARD
350
79
  0
XRECORD
  5
A
102
{ACAD_REACTORS
330
9
102
}
100
AcDbXrecord
102
EXTNAMES
  1
USP-GEO
  2
USP-Geo
  0
XRECORD
  5
F
102
{ACAD_REACTORS
330
E
102
}
100
AcDbXrecord
102
EXTNAMES
  1
USP-TXT
  2
USP-Txt
  0
XRECORD
  5
5F
102
{ACAD_REACTORS
330
5E
102
}
100
AcDbXrecord
340
18
  0
XRECORD
  5
64
102
{ACAD_REACTORS
330
63
102
}
100
AcDbXrecord
340
15
  0
XRECORD
  5
78
102
{ACAD_REACTORS
330
77
102
}
100
AcDbXrecord
102
EXTNAMES
  1
ACDBVARIABLEDICTIONARY
  2
AcDbVariableDictionary
  0
MLINESTYLE
  5
79
102
{ACAD_REACTORS
330
75
102
}
100
AcDbMlineStyle
  2
STANDARD
 70
     0
  3

 62
     0
 51
90.0
 52
90.0
 71
     2
 49
0.5
 62
   256
  6
BYLAYER
 49
-0.5
 62
   256
  6
BYLAYER
  0
ENDSEC
  0
EOF
