  0
SECTION
  2
HEADER
  9
$ACADVER
  1
AC1014
  9
$ACADMAINTVER
 70
     9
  9
$DWGCODEPAGE
  3
ANSI_1252
  9
$INSBASE
 10
0.0
 20
0.0
 30
0.0
  9
$EXTMIN
 10
0.0101970385992216
 20
0.0006735934731026
 30
0.0
  9
$EXTMAX
 10
47.99469222148082
 20
5.832494477987827
 30
4.196879291630274
  9
$LIMMIN
 10
0.0
 20
0.0
  9
$LIMMAX
 10
12.0
 20
9.0
  9
$ORTHOMODE
 70
     0
  9
$REGENMODE
 70
     1
  9
$FILLMODE
 70
     1
  9
$QTEXTMODE
 70
     0
  9
$MIRRTEXT
 70
     0
  9
$DRAGMODE
 70
     2
  9
$LTSCALE
 40
1.5
  9
$OSMODE
 70
     0
  9
$ATTMODE
 70
     1
  9
$TEXTSIZE
 40
0.75
  9
$TRACEWID
 40
0.05
  9
$TEXTSTYLE
  7
STANDARD
  9
$CLAYER
  8
USP
  9
$CELTYPE
  6
BYLAYER
  9
$CECOLOR
 62
   256
  9
$CELTSCALE
 40
1.0
  9
$DELOBJ
 70
     1
  9
$DISPSILH
 70
     1
  9
$DIMSCALE
 40
3.0
  9
$DIMASZ
 40
0.125
  9
$DIMEXO
 40
0.0625
  9
$DIMDLI
 40
0.37890625
  9
$DIMRND
 40
0.0
  9
$DIMDLE
 40
0.0
  9
$DIMEXE
 40
0.09375
  9
$DIMTP
 40
0.0
  9
$DIMTM
 40
0.0
  9
$DIMTXT
 40
0.109375
  9
$DIMCEN
 40
0.0
  9
$DIMTSZ
 40
0.0
  9
$DIMTOL
 70
     0
  9
$DIMLIM
 70
     0
  9
$DIMTIH
 70
     1
  9
$DIMTOH
 70
     1
  9
$DIMSE1
 70
     0
  9
$DIMSE2
 70
     0
  9
$DIMTAD
 70
     0
  9
$DIMZIN
 70
     8
  9
$DIMBLK
  1

  9
$DIMASO
 70
     1
  9
$DIMSHO
 70
     1
  9
$DIMPOST
  1

  9
$DIMAPOST
  1

  9
$DIMALT
 70
     0
  9
$DIMALTD
 70
     2
  9
$DIMALTF
 40
25.4
  9
$DIMLFAC
 40
1.0
  9
$DIMTOFL
 70
     0
  9
$DIMTVP
 40
0.0
  9
$DIMTIX
 70
     0
  9
$DIMSOXD
 70
     0
  9
$DIMSAH
 70
     0
  9
$DIMBLK1
  1

  9
$DIMBLK2
  1

  9
$DIMSTYLE
  2
STANDARD
  9
$DIMCLRD
 70
     0
  9
$DIMCLRE
 70
     0
  9
$DIMCLRT
 70
   256
  9
$DIMTFAC
 40
1.0
  9
$DIMGAP
 40
0.08984375
  9
$DIMJUST
 70
     0
  9
$DIMSD1
 70
     0
  9
$DIMSD2
 70
     0
  9
$DIMTOLJ
 70
     1
  9
$DIMTZIN
 70
     0
  9
$DIMALTZ
 70
     0
  9
$DIMALTTZ
 70
     0
  9
$DIMFIT
 70
     3
  9
$DIMUPT
 70
     1
  9
$DIMUNIT
 70
     7
  9
$DIMDEC
 70
     4
  9
$DIMTDEC
 70
     4
  9
$DIMALTU
 70
     2
  9
$DIMALTTD
 70
     2
  9
$DIMTXSTY
  7
STANDARD
  9
$DIMAUNIT
 70
     0
  9
$LUNITS
 70
     5
  9
$LUPREC
 70
     6
  9
$SKETCHINC
 40
0.1
  9
$FILLETRAD
 40
0.0
  9
$AUNITS
 70
     0
  9
$AUPREC
 70
     1
  9
$MENU
  1
CUSTOM
  9
$ELEVATION
 40
0.0
  9
$PELEVATION
 40
0.0
  9
$THICKNESS
 40
0.0
  9
$LIMCHECK
 70
     0
  9
$BLIPMODE
 70
     0
  9
$CHAMFERA
 40
0.0
  9
$CHAMFERB
 40
0.0
  9
$CHAMFERC
 40
0.0
  9
$CHAMFERD
 40
0.0
  9
$SKPOLY
 70
     0
  9
$TDCREATE
 40
2451263.663231366
  9
$TDUPDATE
 40
2452768.663990694
  9
$TDINDWG
 40
0.6168636690
  9
$TDUSRTIMER
 40
0.6168636690
  9
$USRTIMER
 70
     1
  9
$ANGBASE
 50
0.0
  9
$ANGDIR
 70
     0
  9
$PDMODE
 70
     0
  9
$PDSIZE
 40
0.0
  9
$PLINEWID
 40
0.0
  9
$COORDS
 70
     2
  9
$SPLFRAME
 70
     0
  9
$SPLINETYPE
 70
     6
  9
$SPLINESEGS
 70
     8
  9
$ATTDIA
 70
     0
  9
$ATTREQ
 70
     0
  9
$HANDLING
 70
     1
  9
$HANDSEED
  5
66
  9
$SURFTAB1
 70
     6
  9
$SURFTAB2
 70
     6
  9
$SURFTYPE
 70
     6
  9
$SURFU
 70
     6
  9
$SURFV
 70
     6
  9
$UCSNAME
  2

  9
$UCSORG
 10
0.0
 20
0.0
 30
0.0
  9
$UCSXDIR
 10
1.0
 20
0.0
 30
0.0
  9
$UCSYDIR
 10
0.0
 20
1.0
 30
0.0
  9
$PUCSNAME
  2

  9
$PUCSORG
 10
0.0
 20
0.0
 30
0.0
  9
$PUCSXDIR
 10
1.0
 20
0.0
 30
0.0
  9
$PUCSYDIR
 10
0.0
 20
1.0
 30
0.0
  9
$USERI1
 70
     0
  9
$USERI2
 70
     0
  9
$USERI3
 70
     0
  9
$USERI4
 70
     0
  9
$USERI5
 70
     0
  9
$USERR1
 40
0.0
  9
$USERR2
 40
0.0
  9
$USERR3
 40
0.0
  9
$USERR4
 40
0.0
  9
$USERR5
 40
0.0
  9
$WORLDVIEW
 70
     1
  9
$SHADEDGE
 70
     3
  9
$SHADEDIF
 70
    70
  9
$TILEMODE
 70
     1
  9
$MAXACTVP
 70
    16
  9
$PINSBASE
 10
0.0
 20
0.0
 30
0.0
  9
$PLIMCHECK
 70
     0
  9
$PEXTMIN
 10
1.000000000000000E+20
 20
1.000000000000000E+20
 30
1.000000000000000E+20
  9
$PEXTMAX
 10
-1.000000000000000E+20
 20
-1.000000000000000E+20
 30
-1.000000000000000E+20
  9
$PLIMMIN
 10
0.0
 20
0.0
  9
$PLIMMAX
 10
12.0
 20
9.0
  9
$UNITMODE
 70
     0
  9
$VISRETAIN
 70
     0
  9
$PLINEGEN
 70
     0
  9
$PSLTSCALE
 70
     0
  9
$TREEDEPTH
 70
  3020
  9
$PICKSTYLE
 70
     0
  9
$CMLSTYLE
  2
STANDARD
  9
$CMLJUST
 70
     0
  9
$CMLSCALE
 40
1.0
  9
$PROXYGRAPHICS
 70
     1
  9
$MEASUREMENT
 70
     0
  0
ENDSEC
  0
SECTION
  2
CLASSES
  0
CLASS
  1
ACDBDICTIONARYWDFLT
  2
AcDbDictionaryWithDefault
  3
AutoCAD 2000
 90
        0
280
     0
281
     0
  0
CLASS
  1
ACDBPLACEHOLDER
  2
AcDbPlaceHolder
  3
AutoCAD 2000
 90
        0
280
     0
281
     0
  0
CLASS
  1
LAYOUT
  2
AcDbLayout
  3
AutoCAD 2000
 90
        0
280
     0
281
     0
  0
CLASS
  1
DICTIONARYVAR
  2
AcDbDictionaryVar
  3
"AutoCAD"
 90
        0
280
     0
281
     0
  0
CLASS
  1
LONG_TRANSACTION
  2
AcDbLongTransaction
  3
AutoCAD 2000
 90
        0
280
     0
281
     0
  0
CLASS
  1
LWPOLYLINE
  2
AcDbPolyline
  3
"AutoCAD"
 90
        0
280
     0
281
     1
  0
CLASS
  1
HATCH
  2
AcDbHatch
  3
"ACAD_SEDONA"
 90
        0
280
     0
281
     1
  0
CLASS
  1
XRECORD
  2
AcDbXrecord
  3
"<Built In>"
 90
        0
280
     0
281
     0
  0
CLASS
  1
LONG_TRANSACTION
  2
AcDbLongTransaction
  3
AutoCAD 2000
 90
        0
280
     0
281
     0
  0
CLASS
  1
LWPOLYLINE
  2
AcDbPolyline
  3
"AutoCAD"
 90
        0
280
     0
281
     1
  0
CLASS
  1
HATCH
  2
AcDbHatch
  3
"ACAD_SEDONA"
 90
        0
280
     0
281
     1
  0
CLASS
  1
XRECORD
  2
AcDbXrecord
  3
"<Built In>"
 90
        0
280
     0
281
     0
  0
ENDSEC
  0
SECTION
  2
TABLES
  0
TABLE
  2
VPORT
  5
56
100
AcDbSymbolTable
 70
     1
  0
VPORT
  5
57
100
AcDbSymbolTableRecord
100
AcDbViewportTableRecord
  2
*ACTIVE
 70
     0
 10
0.0
 20
0.0
 11
1.0
 21
1.0
 12
5.972253503403557
 22
-2.965601545523274
 13
0.0
 23
0.0
 14
1.0
 24
1.0
 15
0.0
 25
0.0
 16
0.0
 26
0.0
 36
1.0
 17
18.06596660309899
 27
8.119903606830565
 37
5.823974399722915
 40
46.2361344596166
 41
1.457627118644067
 42
50.0
 43
10.55307667737539
 44
10.55307667737539
 50
0.0
 51
0.0
 71
     0
 72
   100
 73
     1
 74
     1
 75
     0
 76
     0
 77
     0
 78
     0
  0
ENDTAB
  0
TABLE
  2
LTYPE
  5
51
100
AcDbSymbolTable
 70
     1
  0
LTYPE
  5
52
100
AcDbSymbolTableRecord
100
AcDbLinetypeTableRecord
  2
BYBLOCK
 70
     0
  3

 72
    65
 73
     0
 40
0.0
  0
LTYPE
  5
53
100
AcDbSymbolTableRecord
100
AcDbLinetypeTableRecord
  2
BYLAYER
 70
     0
  3

 72
    65
 73
     0
 40
0.0
  0
LTYPE
  5
5
100
AcDbSymbolTableRecord
100
AcDbLinetypeTableRecord
  2
CONTINUOUS
 70
     0
  3
Solid line
 72
    65
 73
     0
 40
0.0
  0
ENDTAB
  0
TABLE
  2
LAYER
  5
4F
100
AcDbSymbolTable
 70
     4
  0
LAYER
  5
44
100
AcDbSymbolTableRecord
100
AcDbLayerTableRecord
  2
0
 70
     0
 62
     7
  6
CONTINUOUS
  0
LAYER
  5
D
102
{ACAD_XDICTIONARY
360
E
102
}
100
AcDbSymbolTableRecord
100
AcDbLayerTableRecord
  2
USP-GEO
 70
     0
 62
     7
  6
CONTINUOUS
  0
LAYER
  5
8
102
{ACAD_XDICTIONARY
360
9
102
}
100
AcDbSymbolTableRecord
100
AcDbLayerTableRecord
  2
USP-TXT
 70
     0
 62
     7
  6
CONTINUOUS
  0
LAYER
  5
4
100
AcDbSymbolTableRecord
100
AcDbLayerTableRecord
  2
USP
 70
     0
 62
     7
  6
CONTINUOUS
  0
ENDTAB
  0
TABLE
  2
STYLE
  5
50
100
AcDbSymbolTable
 70
     1
  0
STYLE
  5
B
100
AcDbSymbolTableRecord
100
AcDbTextStyleTableRecord
  2
STANDARD
 70
     0
 40
0.0
 41
1.0
 50
0.0
 71
     0
 42
0.75
  3
txt
  4

  0
ENDTAB
  0
TABLE
  2
VIEW
  5
54
100
AcDbSymbolTable
 70
     0
  0
ENDTAB
  0
TABLE
  2
UCS
  5
55
100
AcDbSymbolTable
 70
     0
  0
ENDTAB
  0
TABLE
  2
APPID
  5
58
100
AcDbSymbolTable
 70
     1
  0
APPID
  5
59
100
AcDbSymbolTableRecord
100
AcDbRegAppTableRecord
  2
ACAD
 70
     0
  0
ENDTAB
  0
TABLE
  2
DIMSTYLE
  5
5A
100
AcDbSymbolTable
 70
     1
  0
DIMSTYLE
105
62
100
AcDbSymbolTableRecord
100
AcDbDimStyleTableRecord
  2
STANDARD
 70
     0
  3

  4

  5

  6

  7

 40
1.0
 41
0.18
 42
0.0625
 43
0.38
 44
0.18
 45
0.0
 46
0.0
 47
0.0
 48
0.0
140
0.18
141
0.09
142
0.0
143
25.4
144
1.0
145
0.0
146
1.0
147
0.09
 71
     0
 72
     0
 73
     1
 74
     1
 75
     0
 76
     0
 77
     0
 78
     0
170
     0
171
     2
172
     0
173
     0
174
     0
175
     0
176
     0
177
     0
178
     0
270
     2
271
     4
272
     4
273
     2
274
     2
340
B
275
     0
280
     0
281
     0
282
     0
283
     1
284
     0
285
     0
286
     0
287
     3
288
     0
  0
ENDTAB
  0
TABLE
  2
BLOCK_RECORD
  5
1
100
AcDbSymbolTable
 70
     1
  0
BLOCK_RECORD
  5
2
102
{ACAD_XDICTIONARY
360
46
102
}
100
AcDbSymbolTableRecord
100
AcDbBlockTableRecord
  2
*MODEL_SPACE
  0
BLOCK_RECORD
  5
4A
102
{ACAD_XDICTIONARY
360
4B
102
}
100
AcDbSymbolTableRecord
100
AcDbBlockTableRecord
  2
*PAPER_SPACE
  0
BLOCK_RECORD
  5
6
100
AcDbSymbolTableRecord
100
AcDbBlockTableRecord
  2
KSTI248_F
  0
ENDTAB
  0
ENDSEC
  0
SECTION
  2
BLOCKS
  0
BLOCK
  5
48
100
AcDbEntity
  8
0
100
AcDbBlockBegin
  2
*MODEL_SPACE
 70
     0
 10
0.0
 20
0.0
 30
0.0
  3
*MODEL_SPACE
  1

  0
ENDBLK
  5
49
100
AcDbEntity
  8
0
100
AcDbBlockEnd
  0
BLOCK
  5
4D
100
AcDbEntity
 67
     1
  8
0
100
AcDbBlockBegin
  2
*PAPER_SPACE
 70
     0
 10
0.0
 20
0.0
 30
0.0
  3
*PAPER_SPACE
  1

  0
ENDBLK
  5
4E
100
AcDbEntity
 67
     1
  8
0
100
AcDbBlockEnd
  0
BLOCK
  5
43
100
AcDbEntity
  8
0
100
AcDbBlockBegin
  2
KSTI248_F
 70
     0
 10
0.0
 20
0.0
 30
0.0
  3
KSTI248_F
  1

  0
TEXT
  5
7
100
AcDbEntity
  8
USP-TXT
100
AcDbText
 10
19.07558092477413
 20
-3.787689621125029
 30
4.196879291630274
 40
0.5
  1
KSTI248 - FRONT VIEW
 72
     1
 11
23.99224759144079
 21
-3.787689621125029
 31
4.196879291630274
100
AcDbText
  0
LWPOLYLINE
  5
C
100
AcDbEntity
  8
USP-GEO
100
AcDbPolyline
 90
        2
 70
   128
 43
0.0
 10
0.0
 20
2.044131263389695
 10
47.98449518288159
 20
2.044131263389695
  0
LWPOLYLINE
  5
10
100
AcDbEntity
  8
USP-GEO
100
AcDbPolyline
 90
        2
 70
   128
 43
0.0
 10
47.98449518288159
 20
0.0
 10
0.0
 20
0.0
  0
LWPOLYLINE
  5
11
100
AcDbEntity
  8
USP-GEO
100
AcDbPolyline
 90
        2
 70
   128
 43
0.0
 10
0.0
 20
0.0
 10
0.0
 20
2.044131263389695
  0
CIRCLE
  5
12
100
AcDbEntity
  8
USP-GEO
100
AcDbCircle
 10
1.491652812678081
 20
0.764999107694198
 30
0.0
 40
0.078
  0
CIRCLE
  5
13
100
AcDbEntity
  8
USP-GEO
100
AcDbCircle
 10
7.491652812678081
 20
0.764999107694198
 30
0.0
 40
0.078
  0
CIRCLE
  5
14
100
AcDbEntity
  8
USP-GEO
100
AcDbCircle
 10
13.49165281267808
 20
0.764999107694198
 30
0.0
 40
0.078
  0
CIRCLE
  5
15
100
AcDbEntity
  8
USP-GEO
100
AcDbCircle
 10
19.49165281267807
 20
0.764999107694198
 30
0.0
 40
0.078
  0
CIRCLE
  5
16
100
AcDbEntity
  8
USP-GEO
100
AcDbCircle
 10
0.4916528126780813
 20
0.389999107694198
 30
0.0
 40
0.078
  0
CIRCLE
  5
17
100
AcDbEntity
  8
USP-GEO
100
AcDbCircle
 10
3.491652812678081
 20
0.389999107694198
 30
0.0
 40
0.078
  0
CIRCLE
  5
18
100
AcDbEntity
  8
USP-GEO
100
AcDbCircle
 10
6.491652812678081
 20
0.389999107694198
 30
0.0
 40
0.078
  0
CIRCLE
  5
19
100
AcDbEntity
  8
USP-GEO
100
AcDbCircle
 10
9.491652812678081
 20
0.389999107694198
 30
0.0
 40
0.078
  0
CIRCLE
  5
1A
100
AcDbEntity
  8
USP-GEO
100
AcDbCircle
 10
12.49165281267808
 20
0.389999107694198
 30
0.0
 40
0.078
  0
CIRCLE
  5
1B
100
AcDbEntity
  8
USP-GEO
100
AcDbCircle
 10
15.49165281267808
 20
0.389999107694198
 30
0.0
 40
0.078
  0
CIRCLE
  5
1C
100
AcDbEntity
  8
USP-GEO
100
AcDbCircle
 10
18.49165281267808
 20
0.389999107694198
 30
0.0
 40
0.078
  0
CIRCLE
  5
1D
100
AcDbEntity
  8
USP-GEO
100
AcDbCircle
 10
21.49165281267808
 20
0.389999107694198
 30
0.0
 40
0.078
  0
CIRCLE
  5
1E
100
AcDbEntity
  8
USP-GEO
100
AcDbCircle
 10
4.491652812678081
 20
1.264999107694197
 30
0.0
 40
0.078
  0
CIRCLE
  5
1F
100
AcDbEntity
  8
USP-GEO
100
AcDbCircle
 10
2.491652812678081
 20
1.639999107694197
 30
0.0
 40
0.078
  0
CIRCLE
  5
20
100
AcDbEntity
  8
USP-GEO
100
AcDbCircle
 10
5.491652812678081
 20
1.639999107694197
 30
0.0
 40
0.078
  0
CIRCLE
  5
21
100
AcDbEntity
  8
USP-GEO
100
AcDbCircle
 10
8.491652812678081
 20
1.639999107694197
 30
0.0
 40
0.078
  0
CIRCLE
  5
22
100
AcDbEntity
  8
USP-GEO
100
AcDbCircle
 10
16.49165281267808
 20
1.264999107694197
 30
0.0
 40
0.078
  0
CIRCLE
  5
23
100
AcDbEntity
  8
USP-GEO
100
AcDbCircle
 10
10.49165281267808
 20
1.264999107694197
 30
0.0
 40
0.078
  0
CIRCLE
  5
24
100
AcDbEntity
  8
USP-GEO
100
AcDbCircle
 10
11.49165281267808
 20
1.639999107694197
 30
0.0
 40
0.078
  0
CIRCLE
  5
25
100
AcDbEntity
  8
USP-GEO
100
AcDbCircle
 10
14.49165281267808
 20
1.639999107694197
 30
0.0
 40
0.078
  0
CIRCLE
  5
26
100
AcDbEntity
  8
USP-GEO
100
AcDbCircle
 10
17.49165281267807
 20
1.639999107694197
 30
0.0
 40
0.078
  0
CIRCLE
  5
27
100
AcDbEntity
  8
USP-GEO
100
AcDbCircle
 10
22.49165281267808
 20
1.264999107694197
 30
0.0
 40
0.078
  0
CIRCLE
  5
28
100
AcDbEntity
  8
USP-GEO
100
AcDbCircle
 10
20.49165281267808
 20
1.639999107694197
 30
0.0
 40
0.078
  0
CIRCLE
  5
29
100
AcDbEntity
  8
USP-GEO
100
AcDbCircle
 10
23.49165281267807
 20
1.639999107694197
 30
0.0
 40
0.078
  0
LWPOLYLINE
  5
2A
100
AcDbEntity
  8
USP-GEO
100
AcDbPolyline
 90
        2
 70
   128
 43
0.0
 10
47.98449518288159
 20
2.044131263389695
 10
47.98449518288159
 20
0.0
  0
CIRCLE
  5
2B
100
AcDbEntity
  8
USP-GEO
100
AcDbCircle
 10
25.49165281267808
 20
0.764999107694198
 30
0.0
 40
0.078
  0
CIRCLE
  5
2C
100
AcDbEntity
  8
USP-GEO
100
AcDbCircle
 10
31.49165281267808
 20
0.764999107694198
 30
0.0
 40
0.078
  0
CIRCLE
  5
2D
100
AcDbEntity
  8
USP-GEO
100
AcDbCircle
 10
37.49165281267807
 20
0.764999107694198
 30
0.0
 40
0.078
  0
CIRCLE
  5
2E
100
AcDbEntity
  8
USP-GEO
100
AcDbCircle
 10
43.49165281267807
 20
0.764999107694198
 30
0.0
 40
0.078
  0
CIRCLE
  5
2F
100
AcDbEntity
  8
USP-GEO
100
AcDbCircle
 10
24.49165281267807
 20
0.389999107694198
 30
0.0
 40
0.078
  0
CIRCLE
  5
30
100
AcDbEntity
  8
USP-GEO
100
AcDbCircle
 10
27.49165281267808
 20
0.389999107694198
 30
0.0
 40
0.078
  0
CIRCLE
  5
31
100
AcDbEntity
  8
USP-GEO
100
AcDbCircle
 10
30.49165281267808
 20
0.389999107694198
 30
0.0
 40
0.078
  0
CIRCLE
  5
32
100
AcDbEntity
  8
USP-GEO
100
AcDbCircle
 10
33.49165281267807
 20
0.389999107694198
 30
0.0
 40
0.078
  0
CIRCLE
  5
33
100
AcDbEntity
  8
USP-GEO
100
AcDbCircle
 10
36.49165281267807
 20
0.389999107694198
 30
0.0
 40
0.078
  0
CIRCLE
  5
34
100
AcDbEntity
  8
USP-GEO
100
AcDbCircle
 10
39.49165281267807
 20
0.389999107694198
 30
0.0
 40
0.078
  0
CIRCLE
  5
35
100
AcDbEntity
  8
USP-GEO
100
AcDbCircle
 10
42.49165281267807
 20
0.389999107694198
 30
0.0
 40
0.078
  0
CIRCLE
  5
36
100
AcDbEntity
  8
USP-GEO
100
AcDbCircle
 10
45.49165281267807
 20
0.389999107694198
 30
0.0
 40
0.078
  0
CIRCLE
  5
37
100
AcDbEntity
  8
USP-GEO
100
AcDbCircle
 10
26.49165281267808
 20
1.639999107694197
 30
0.0
 40
0.078
  0
CIRCLE
  5
38
100
AcDbEntity
  8
USP-GEO
100
AcDbCircle
 10
28.49165281267808
 20
1.264999107694197
 30
0.0
 40
0.078
  0
CIRCLE
  5
39
100
AcDbEntity
  8
USP-GEO
100
AcDbCircle
 10
29.49165281267807
 20
1.639999107694197
 30
0.0
 40
0.078
  0
CIRCLE
  5
3A
100
AcDbEntity
  8
USP-GEO
100
AcDbCircle
 10
34.49165281267807
 20
1.264999107694197
 30
0.0
 40
0.078
  0
CIRCLE
  5
3B
100
AcDbEntity
  8
USP-GEO
100
AcDbCircle
 10
32.49165281267807
 20
1.639999107694197
 30
0.0
 40
0.078
  0
CIRCLE
  5
3C
100
AcDbEntity
  8
USP-GEO
100
AcDbCircle
 10
35.49165281267807
 20
1.639999107694197
 30
0.0
 40
0.078
  0
CIRCLE
  5
3D
100
AcDbEntity
  8
USP-GEO
100
AcDbCircle
 10
38.49165281267807
 20
1.639999107694197
 30
0.0
 40
0.078
  0
CIRCLE
  5
3E
100
AcDbEntity
  8
USP-GEO
100
AcDbCircle
 10
46.49165281267808
 20
1.264999107694197
 30
0.0
 40
0.078
  0
CIRCLE
  5
3F
100
AcDbEntity
  8
USP-GEO
100
AcDbCircle
 10
40.49165281267807
 20
1.264999107694197
 30
0.0
 40
0.078
  0
CIRCLE
  5
40
100
AcDbEntity
  8
USP-GEO
100
AcDbCircle
 10
41.49165281267808
 20
1.639999107694197
 30
0.0
 40
0.078
  0
CIRCLE
  5
41
100
AcDbEntity
  8
USP-GEO
100
AcDbCircle
 10
44.49165281267807
 20
1.639999107694197
 30
0.0
 40
0.078
  0
CIRCLE
  5
42
100
AcDbEntity
  8
USP-GEO
100
AcDbCircle
 10
47.49165281267807
 20
1.639999107694197
 30
0.0
 40
0.078
  0
ENDBLK
  5
45
100
AcDbEntity
  8
0
100
AcDbBlockEnd
  0
ENDSEC
  0
SECTION
  2
ENTITIES
  0
INSERT
  5
3
100
AcDbEntity
  8
USP
100
AcDbBlockReference
  2
KSTI248_F
 10
0.0101970385992216
 20
3.788363214598131
 30
0.0
  0
ENDSEC
  0
SECTION
  2
OBJECTS
  0
DICTIONARY
  5
5E
102
{ACAD_XDICTIONARY
360
5F
102
}
100
AcDbDictionary
  3
ACAD_GROUP
350
5C
  3
ACAD_MLINESTYLE
350
5D
  0
DICTIONARY
  5
E
100
AcDbDictionary
280
     1
  3
ACAD_XREC_ROUNDTRIP
360
F
  0
DICTIONARY
  5
9
100
AcDbDictionary
280
     1
  3
ACAD_XREC_ROUNDTRIP
360
A
  0
DICTIONARY
  5
46
100
AcDbDictionary
280
     1
  3
ACAD_LAYOUTSELFREF
360
47
  0
DICTIONARY
  5
4B
100
AcDbDictionary
280
     1
  3
ACAD_LAYOUTSELFREF
360
4C
  0
DICTIONARY
  5
5F
100
AcDbDictionary
280
     1
  3
ACAD_XREC_ROUNDTRIP
360
60
  0
DICTIONARY
  5
5C
102
{ACAD_REACTORS
330
5E
102
}
100
AcDbDictionary
  0
DICTIONARY
  5
5D
102
{ACAD_REACTORS
330
5E
102
}
100
AcDbDictionary
  3
STANDARD
350
61
  0
XRECORD
  5
F
102
{ACAD_REACTORS
330
E
102
}
100
AcDbXrecord
102
EXTNAMES
  1
USP-GEO
  2
USP-Geo
  0
XRECORD
  5
A
102
{ACAD_REACTORS
330
9
102
}
100
AcDbXrecord
102
EXTNAMES
  1
USP-TXT
  2
USP-Txt
  0
XRECORD
  5
47
102
{ACAD_REACTORS
330
46
102
}
100
AcDbXrecord
340
18
  0
XRECORD
  5
4C
102
{ACAD_REACTORS
330
4B
102
}
100
AcDbXrecord
340
15
  0
XRECORD
  5
60
102
{ACAD_REACTORS
330
5F
102
}
100
AcDbXrecord
102
EXTNAMES
  1
ACDBVARIABLEDICTIONARY
  2
AcDbVariableDictionary
  0
MLINESTYLE
  5
61
102
{ACAD_REACTORS
330
5D
102
}
100
AcDbMlineStyle
  2
STANDARD
 70
     0
  3

 62
     0
 51
90.0
 52
90.0
 71
     2
 49
0.5
 62
   256
  6
BYLAYER
 49
-0.5
 62
   256
  6
BYLAYER
  0
ENDSEC
  0
EOF
