  0
SECTION
  2
HEADER
  9
$ACADVER
  1
AC1014
  9
$ACADMAINTVER
 70
     9
  9
$DWGCODEPAGE
  3
ANSI_1252
  9
$INSBASE
 10
0.0
 20
0.0
 30
0.0
  9
$EXTMIN
 10
0.0002727845464676
 20
0.0014877210356516
 30
0.0
  9
$EXTMAX
 10
32.16531997080398
 20
5.367077757971411
 30
0.0
  9
$LIMMIN
 10
0.0
 20
0.0
  9
$LIMMAX
 10
12.0
 20
9.0
  9
$ORTHOMODE
 70
     0
  9
$REGENMODE
 70
     1
  9
$FILLMODE
 70
     1
  9
$QTEXTMODE
 70
     0
  9
$MIRRTEXT
 70
     0
  9
$DRAGMODE
 70
     2
  9
$LTSCALE
 40
1.5
  9
$OSMODE
 70
    37
  9
$ATTMODE
 70
     1
  9
$TEXTSIZE
 40
0.625
  9
$TRACEWID
 40
0.05
  9
$TEXTSTYLE
  7
STANDARD
  9
$CLAYER
  8
0
  9
$CELTYPE
  6
BYLAYER
  9
$CECOLOR
 62
   256
  9
$CELTSCALE
 40
1.0
  9
$DELOBJ
 70
     1
  9
$DISPSILH
 70
     1
  9
$DIMSCALE
 40
6.0
  9
$DIMASZ
 40
0.125
  9
$DIMEXO
 40
0.0625
  9
$DIMDLI
 40
0.37890625
  9
$DIMRND
 40
0.0
  9
$DIMDLE
 40
0.0
  9
$DIMEXE
 40
0.09375
  9
$DIMTP
 40
0.0
  9
$DIMTM
 40
0.0
  9
$DIMTXT
 40
0.109375
  9
$DIMCEN
 40
0.0
  9
$DIMTSZ
 40
0.0
  9
$DIMTOL
 70
     0
  9
$DIMLIM
 70
     0
  9
$DIMTIH
 70
     1
  9
$DIMTOH
 70
     1
  9
$DIMSE1
 70
     0
  9
$DIMSE2
 70
     0
  9
$DIMTAD
 70
     0
  9
$DIMZIN
 70
     8
  9
$DIMBLK
  1

  9
$DIMASO
 70
     1
  9
$DIMSHO
 70
     1
  9
$DIMPOST
  1

  9
$DIMAPOST
  1

  9
$DIMALT
 70
     0
  9
$DIMALTD
 70
     2
  9
$DIMALTF
 40
25.4
  9
$DIMLFAC
 40
1.0
  9
$DIMTOFL
 70
     0
  9
$DIMTVP
 40
0.0
  9
$DIMTIX
 70
     0
  9
$DIMSOXD
 70
     0
  9
$DIMSAH
 70
     0
  9
$DIMBLK1
  1

  9
$DIMBLK2
  1

  9
$DIMSTYLE
  2
STANDARD
  9
$DIMCLRD
 70
     0
  9
$DIMCLRE
 70
     0
  9
$DIMCLRT
 70
   256
  9
$DIMTFAC
 40
1.0
  9
$DIMGAP
 40
0.08984375
  9
$DIMJUST
 70
     0
  9
$DIMSD1
 70
     0
  9
$DIMSD2
 70
     0
  9
$DIMTOLJ
 70
     1
  9
$DIMTZIN
 70
     0
  9
$DIMALTZ
 70
     0
  9
$DIMALTTZ
 70
     0
  9
$DIMFIT
 70
     3
  9
$DIMUPT
 70
     1
  9
$DIMUNIT
 70
     7
  9
$DIMDEC
 70
     4
  9
$DIMTDEC
 70
     4
  9
$DIMALTU
 70
     2
  9
$DIMALTTD
 70
     2
  9
$DIMTXSTY
  7
STANDARD
  9
$DIMAUNIT
 70
     0
  9
$LUNITS
 70
     5
  9
$LUPREC
 70
     6
  9
$SKETCHINC
 40
0.1
  9
$FILLETRAD
 40
0.0
  9
$AUNITS
 70
     0
  9
$AUPREC
 70
     1
  9
$MENU
  1
CUSTOM
  9
$ELEVATION
 40
0.0
  9
$PELEVATION
 40
0.0
  9
$THICKNESS
 40
0.0
  9
$LIMCHECK
 70
     0
  9
$BLIPMODE
 70
     0
  9
$CHAMFERA
 40
0.0
  9
$CHAMFERB
 40
0.0
  9
$CHAMFERC
 40
0.0
  9
$CHAMFERD
 40
0.0
  9
$SKPOLY
 70
     0
  9
$TDCREATE
 40
2451263.663231366
  9
$TDUPDATE
 40
2452759.745620833
  9
$TDINDWG
 40
0.1164185417
  9
$TDUSRTIMER
 40
0.1164185417
  9
$USRTIMER
 70
     1
  9
$ANGBASE
 50
0.0
  9
$ANGDIR
 70
     0
  9
$PDMODE
 70
     0
  9
$PDSIZE
 40
0.0
  9
$PLINEWID
 40
0.0
  9
$COORDS
 70
     1
  9
$SPLFRAME
 70
     0
  9
$SPLINETYPE
 70
     6
  9
$SPLINESEGS
 70
     8
  9
$ATTDIA
 70
     0
  9
$ATTREQ
 70
     1
  9
$HANDLING
 70
     1
  9
$HANDSEED
  5
B6
  9
$SURFTAB1
 70
     6
  9
$SURFTAB2
 70
     6
  9
$SURFTYPE
 70
     6
  9
$SURFU
 70
     6
  9
$SURFV
 70
     6
  9
$UCSNAME
  2

  9
$UCSORG
 10
0.0
 20
0.0
 30
0.0
  9
$UCSXDIR
 10
1.0
 20
0.0
 30
0.0
  9
$UCSYDIR
 10
0.0
 20
1.0
 30
0.0
  9
$PUCSNAME
  2

  9
$PUCSORG
 10
0.0
 20
0.0
 30
0.0
  9
$PUCSXDIR
 10
1.0
 20
0.0
 30
0.0
  9
$PUCSYDIR
 10
0.0
 20
1.0
 30
0.0
  9
$USERI1
 70
     0
  9
$USERI2
 70
     0
  9
$USERI3
 70
     0
  9
$USERI4
 70
     0
  9
$USERI5
 70
     0
  9
$USERR1
 40
0.0
  9
$USERR2
 40
0.0
  9
$USERR3
 40
0.0
  9
$USERR4
 40
0.0
  9
$USERR5
 40
0.0
  9
$WORLDVIEW
 70
     1
  9
$SHADEDGE
 70
     3
  9
$SHADEDIF
 70
    70
  9
$TILEMODE
 70
     1
  9
$MAXACTVP
 70
    16
  9
$PINSBASE
 10
0.0
 20
0.0
 30
0.0
  9
$PLIMCHECK
 70
     0
  9
$PEXTMIN
 10
1.000000000000000E+20
 20
1.000000000000000E+20
 30
1.000000000000000E+20
  9
$PEXTMAX
 10
-1.000000000000000E+20
 20
-1.000000000000000E+20
 30
-1.000000000000000E+20
  9
$PLIMMIN
 10
0.0
 20
0.0
  9
$PLIMMAX
 10
12.0
 20
9.0
  9
$UNITMODE
 70
     0
  9
$VISRETAIN
 70
     0
  9
$PLINEGEN
 70
     0
  9
$PSLTSCALE
 70
     0
  9
$TREEDEPTH
 70
  3020
  9
$PICKSTYLE
 70
     1
  9
$CMLSTYLE
  2
STANDARD
  9
$CMLJUST
 70
     0
  9
$CMLSCALE
 40
1.0
  9
$PROXYGRAPHICS
 70
     1
  9
$MEASUREMENT
 70
     0
  0
ENDSEC
  0
SECTION
  2
CLASSES
  0
CLASS
  1
ACDBDICTIONARYWDFLT
  2
AcDbDictionaryWithDefault
  3
AutoCAD 2000
 90
        0
280
     0
281
     0
  0
CLASS
  1
ACDBPLACEHOLDER
  2
AcDbPlaceHolder
  3
AutoCAD 2000
 90
        0
280
     0
281
     0
  0
CLASS
  1
LAYOUT
  2
AcDbLayout
  3
AutoCAD 2000
 90
        0
280
     0
281
     0
  0
CLASS
  1
DICTIONARYVAR
  2
AcDbDictionaryVar
  3
"AutoCAD"
 90
        0
280
     0
281
     0
  0
CLASS
  1
LONG_TRANSACTION
  2
AcDbLongTransaction
  3
AutoCAD 2000
 90
        0
280
     0
281
     0
  0
CLASS
  1
LWPOLYLINE
  2
AcDbPolyline
  3
"AutoCAD"
 90
        0
280
     0
281
     1
  0
CLASS
  1
HATCH
  2
AcDbHatch
  3
"ACAD_SEDONA"
 90
        0
280
     0
281
     1
  0
CLASS
  1
XRECORD
  2
AcDbXrecord
  3
"<Built In>"
 90
        0
280
     0
281
     0
  0
CLASS
  1
LONG_TRANSACTION
  2
AcDbLongTransaction
  3
AutoCAD 2000
 90
        0
280
     0
281
     0
  0
CLASS
  1
LWPOLYLINE
  2
AcDbPolyline
  3
"AutoCAD"
 90
        0
280
     0
281
     1
  0
CLASS
  1
HATCH
  2
AcDbHatch
  3
"ACAD_SEDONA"
 90
        0
280
     0
281
     1
  0
CLASS
  1
XRECORD
  2
AcDbXrecord
  3
"<Built In>"
 90
        0
280
     0
281
     0
  0
ENDSEC
  0
SECTION
  2
TABLES
  0
TABLE
  2
VPORT
  5
98
100
AcDbSymbolTable
 70
     1
  0
VPORT
  5
B2
100
AcDbSymbolTableRecord
100
AcDbViewportTableRecord
  2
*ACTIVE
 70
     0
 10
0.0
 20
0.0
 11
1.0
 21
1.0
 12
-7.013370582029267
 22
13.21893958674263
 13
0.0
 23
0.0
 14
1.0
 24
1.0
 15
0.0
 25
0.0
 16
0.0
 26
0.0
 36
1.0
 17
23.09603071721725
 27
-10.27010416511325
 37
-10.44050274849355
 40
22.17800568258608
 41
1.457627118644067
 42
50.0
 43
10.55307667737539
 44
10.55307667737539
 50
0.0
 51
0.0
 71
     0
 72
   100
 73
     1
 74
     1
 75
     0
 76
     0
 77
     0
 78
     0
  0
ENDTAB
  0
TABLE
  2
LTYPE
  5
93
100
AcDbSymbolTable
 70
     1
  0
LTYPE
  5
94
100
AcDbSymbolTableRecord
100
AcDbLinetypeTableRecord
  2
BYBLOCK
 70
     0
  3

 72
    65
 73
     0
 40
0.0
  0
LTYPE
  5
95
100
AcDbSymbolTableRecord
100
AcDbLinetypeTableRecord
  2
BYLAYER
 70
     0
  3

 72
    65
 73
     0
 40
0.0
  0
LTYPE
  5
5
100
AcDbSymbolTableRecord
100
AcDbLinetypeTableRecord
  2
CONTINUOUS
 70
     0
  3
Solid line
 72
    65
 73
     0
 40
0.0
  0
ENDTAB
  0
TABLE
  2
LAYER
  5
91
100
AcDbSymbolTable
 70
     4
  0
LAYER
  5
86
100
AcDbSymbolTableRecord
100
AcDbLayerTableRecord
  2
0
 70
     0
 62
     7
  6
CONTINUOUS
  0
LAYER
  5
8
100
AcDbSymbolTableRecord
100
AcDbLayerTableRecord
  2
USP-GEO
 70
     0
 62
     7
  6
CONTINUOUS
  0
LAYER
  5
23
100
AcDbSymbolTableRecord
100
AcDbLayerTableRecord
  2
USP-TXT
 70
     0
 62
     7
  6
CONTINUOUS
  0
LAYER
  5
4
100
AcDbSymbolTableRecord
100
AcDbLayerTableRecord
  2
USP
 70
     0
 62
     7
  6
CONTINUOUS
  0
ENDTAB
  0
TABLE
  2
STYLE
  5
92
100
AcDbSymbolTable
 70
     1
  0
STYLE
  5
24
100
AcDbSymbolTableRecord
100
AcDbTextStyleTableRecord
  2
STANDARD
 70
     0
 40
0.0
 41
1.0
 50
0.0
 71
     0
 42
0.625
  3
txt
  4

  0
ENDTAB
  0
TABLE
  2
VIEW
  5
96
100
AcDbSymbolTable
 70
     0
  0
ENDTAB
  0
TABLE
  2
UCS
  5
97
100
AcDbSymbolTable
 70
     0
  0
ENDTAB
  0
TABLE
  2
APPID
  5
9A
100
AcDbSymbolTable
 70
     1
  0
APPID
  5
9B
100
AcDbSymbolTableRecord
100
AcDbRegAppTableRecord
  2
ACAD
 70
     0
  0
ENDTAB
  0
TABLE
  2
DIMSTYLE
  5
9C
100
AcDbSymbolTable
 70
     1
  0
DIMSTYLE
105
A4
100
AcDbSymbolTableRecord
100
AcDbDimStyleTableRecord
  2
STANDARD
 70
     0
  3

  4

  5

  6

  7

 40
1.0
 41
0.18
 42
0.0625
 43
0.38
 44
0.18
 45
0.0
 46
0.0
 47
0.0
 48
0.0
140
0.18
141
0.09
142
0.0
143
25.4
144
1.0
145
0.0
146
1.0
147
0.09
 71
     0
 72
     0
 73
     1
 74
     1
 75
     0
 76
     0
 77
     0
 78
     0
170
     0
171
     2
172
     0
173
     0
174
     0
175
     0
176
     0
177
     0
178
     0
270
     2
271
     4
272
     4
273
     2
274
     2
340
24
275
     0
280
     0
281
     0
282
     0
283
     1
284
     0
285
     0
286
     0
287
     3
288
     0
  0
ENDTAB
  0
TABLE
  2
BLOCK_RECORD
  5
1
100
AcDbSymbolTable
 70
     1
  0
BLOCK_RECORD
  5
2
102
{ACAD_XDICTIONARY
360
88
102
}
100
AcDbSymbolTableRecord
100
AcDbBlockTableRecord
  2
*MODEL_SPACE
  0
BLOCK_RECORD
  5
8C
102
{ACAD_XDICTIONARY
360
8D
102
}
100
AcDbSymbolTableRecord
100
AcDbBlockTableRecord
  2
*PAPER_SPACE
  0
BLOCK_RECORD
  5
6
100
AcDbSymbolTableRecord
100
AcDbBlockTableRecord
  2
KST234_T
  0
ENDTAB
  0
ENDSEC
  0
SECTION
  2
BLOCKS
  0
BLOCK
  5
8A
100
AcDbEntity
  8
0
100
AcDbBlockBegin
  2
*MODEL_SPACE
 70
     0
 10
0.0
 20
0.0
 30
0.0
  3
*MODEL_SPACE
  1

  0
ENDBLK
  5
8B
100
AcDbEntity
  8
0
100
AcDbBlockEnd
  0
BLOCK
  5
8F
100
AcDbEntity
 67
     1
  8
0
100
AcDbBlockBegin
  2
*PAPER_SPACE
 70
     0
 10
0.0
 20
0.0
 30
0.0
  3
*PAPER_SPACE
  1

  0
ENDBLK
  5
90
100
AcDbEntity
 67
     1
  8
0
100
AcDbBlockEnd
  0
BLOCK
  5
85
100
AcDbEntity
  8
0
100
AcDbBlockBegin
  2
KST234_T
 70
     0
 10
0.0
 20
0.0
 30
0.0
  3
KST234_T
  1

  0
LINE
  5
7
100
AcDbEntity
  8
USP-GEO
100
AcDbLine
 10
4.863547186257619
 20
1.750500000000002
 30
0.0
 11
6.176547186257636
 21
1.750499999999973
 31
0.0
  0
LINE
  5
9
100
AcDbEntity
  8
USP-GEO
100
AcDbLine
 10
4.863547186257619
 20
0.0
 30
0.0
 11
6.176547186257636
 21
-0.0000000000000426
 31
0.0
  0
LINE
  5
A
100
AcDbEntity
  8
USP-GEO
100
AcDbLine
 10
1.613547186257619
 20
1.750500000000002
 30
0.0
 11
2.926547186257636
 21
1.750499999999973
 31
0.0
  0
LINE
  5
B
100
AcDbEntity
  8
USP-GEO
100
AcDbLine
 10
1.613547186257648
 20
0.0
 30
0.0
 11
2.926547186257636
 21
-0.0000000000000426
 31
0.0
  0
LINE
  5
C
100
AcDbEntity
  8
USP-GEO
100
AcDbLine
 10
1.301547186257664
 20
2.062499999999971
 30
0.0
 11
1.613547186257619
 21
1.750500000000002
 31
0.0
  0
LINE
  5
D
100
AcDbEntity
  8
USP-GEO
100
AcDbLine
 10
0.0000000000000568
 20
2.062500000000014
 30
0.0
 11
0.0
 21
0.3120000000000118
 31
0.0
  0
LINE
  5
E
100
AcDbEntity
  8
USP-GEO
100
AcDbLine
 10
0.0
 20
0.3120000000000118
 30
0.0
 11
1.301547186257664
 21
0.3119999999999692
 31
0.0
  0
CIRCLE
  5
F
100
AcDbEntity
  8
USP-GEO
100
AcDbCircle
 10
0.2700471862576137
 20
0.5819999999999795
 30
0.0
 40
0.09
  0
CIRCLE
  5
10
100
AcDbEntity
  8
USP-GEO
100
AcDbCircle
 10
0.2700471862576705
 20
1.792500000000003
 30
0.0
 40
0.09
  0
LINE
  5
11
100
AcDbEntity
  8
USP-GEO
100
AcDbLine
 10
1.301547186257664
 20
0.3119999999999692
 30
0.0
 11
1.613547186257648
 21
0.0
 31
0.0
  0
CIRCLE
  5
12
100
AcDbEntity
  8
USP-GEO
100
AcDbCircle
 10
1.895047186257642
 20
0.4500000000000029
 30
0.0
 40
0.09
  0
CIRCLE
  5
13
100
AcDbEntity
  8
USP-GEO
100
AcDbCircle
 10
1.020047186257642
 20
1.612499999999997
 30
0.0
 40
0.09
  0
LINE
  5
14
100
AcDbEntity
  8
USP-GEO
100
AcDbLine
 10
0.0000000000000568
 20
2.062500000000014
 30
0.0
 11
1.301547186257664
 21
2.062499999999971
 31
0.0
  0
LINE
  5
15
100
AcDbEntity
  8
USP-GEO
100
AcDbLine
 10
4.551547186257664
 20
2.062499999999971
 30
0.0
 11
4.863547186257619
 21
1.750500000000002
 31
0.0
  0
LINE
  5
16
100
AcDbEntity
  8
USP-GEO
100
AcDbLine
 10
2.926547186257636
 20
1.750499999999973
 30
0.0
 11
3.238547186257676
 21
2.062500000000014
 31
0.0
  0
LINE
  5
17
100
AcDbEntity
  8
USP-GEO
100
AcDbLine
 10
3.238547186257676
 20
0.3119999999999976
 30
0.0
 11
4.551547186257693
 21
0.3119999999999692
 31
0.0
  0
LINE
  5
18
100
AcDbEntity
  8
USP-GEO
100
AcDbLine
 10
2.926547186257636
 20
-0.0000000000000426
 30
0.0
 11
3.238547186257676
 21
0.3119999999999976
 31
0.0
  0
CIRCLE
  5
19
100
AcDbEntity
  8
USP-GEO
100
AcDbCircle
 10
2.645047186257613
 20
0.269999999999996
 30
0.0
 40
0.09
  0
CIRCLE
  5
1A
100
AcDbEntity
  8
USP-GEO
100
AcDbCircle
 10
3.52004718625767
 20
1.792500000000003
 30
0.0
 40
0.09
  0
CIRCLE
  5
1B
100
AcDbEntity
  8
USP-GEO
100
AcDbCircle
 10
5.145047186257642
 20
0.4500000000000029
 30
0.0
 40
0.09
  0
LINE
  5
1C
100
AcDbEntity
  8
USP-GEO
100
AcDbLine
 10
4.551547186257693
 20
0.3119999999999692
 30
0.0
 11
4.863547186257619
 21
0.0
 31
0.0
  0
CIRCLE
  5
1D
100
AcDbEntity
  8
USP-GEO
100
AcDbCircle
 10
5.895047186257613
 20
0.269999999999996
 30
0.0
 40
0.09
  0
CIRCLE
  5
1E
100
AcDbEntity
  8
USP-GEO
100
AcDbCircle
 10
4.270047186257642
 20
1.612499999999997
 30
0.0
 40
0.09
  0
LINE
  5
1F
100
AcDbEntity
  8
USP-GEO
100
AcDbLine
 10
3.238547186257676
 20
2.062500000000014
 30
0.0
 11
4.551547186257664
 21
2.062499999999971
 31
0.0
  0
LINE
  5
20
100
AcDbEntity
  8
USP-GEO
100
AcDbLine
 10
20.80149999999997
 20
2.062499999999957
 30
0.0
 11
21.11349999999993
 21
1.750500000000002
 31
0.0
  0
LINE
  5
21
100
AcDbEntity
  8
USP-GEO
100
AcDbLine
 10
20.8015
 20
0.311999999999955
 30
0.0
 11
21.11349999999995
 21
-0.0000000000000142
 31
0.0
  0
TEXT
  5
22
100
AcDbEntity
  8
USP-TXT
100
AcDbText
 10
11.1355744136246
 20
-3.303090036935746
 30
0.0
 40
0.546875
  1
KST234 - TOP VIEW
 72
     1
 11
15.7840119136246
 21
-3.303090036935746
 31
0.0
100
AcDbText
  0
LINE
  5
25
100
AcDbEntity
  8
USP-GEO
100
AcDbLine
 10
12.98854718625761
 20
2.062500000000014
 30
0.0
 11
14.30154718625763
 21
2.062499999999971
 31
0.0
  0
LINE
  5
26
100
AcDbEntity
  8
USP-GEO
100
AcDbLine
 10
12.98854718625761
 20
0.3119999999999976
 30
0.0
 11
14.30154718625763
 21
0.3119999999999692
 31
0.0
  0
LINE
  5
27
100
AcDbEntity
  8
USP-GEO
100
AcDbLine
 10
9.738547186257619
 20
2.062500000000014
 30
0.0
 11
11.05154718625763
 21
2.062499999999971
 31
0.0
  0
LINE
  5
28
100
AcDbEntity
  8
USP-GEO
100
AcDbLine
 10
9.738547186257619
 20
0.3119999999999976
 30
0.0
 11
11.05154718625763
 21
0.3119999999999692
 31
0.0
  0
LINE
  5
29
100
AcDbEntity
  8
USP-GEO
100
AcDbLine
 10
7.801547186257664
 20
2.062499999999957
 30
0.0
 11
8.113547186257619
 21
1.750500000000002
 31
0.0
  0
LINE
  5
2A
100
AcDbEntity
  8
USP-GEO
100
AcDbLine
 10
9.426547186257579
 20
1.750499999999973
 30
0.0
 11
9.738547186257619
 21
2.062500000000014
 31
0.0
  0
LINE
  5
2B
100
AcDbEntity
  8
USP-GEO
100
AcDbLine
 10
6.176547186257636
 20
1.750499999999973
 30
0.0
 11
6.488547186257676
 21
2.062500000000014
 31
0.0
  0
LINE
  5
2C
100
AcDbEntity
  8
USP-GEO
100
AcDbLine
 10
7.801547186257693
 20
0.3119999999999692
 30
0.0
 11
8.113547186257619
 21
0.0
 31
0.0
  0
LINE
  5
2D
100
AcDbEntity
  8
USP-GEO
100
AcDbLine
 10
6.488547186257676
 20
0.3120000000000118
 30
0.0
 11
7.801547186257693
 21
0.3119999999999692
 31
0.0
  0
LINE
  5
2E
100
AcDbEntity
  8
USP-GEO
100
AcDbLine
 10
6.176547186257636
 20
-0.0000000000000426
 30
0.0
 11
6.488547186257676
 21
0.3120000000000118
 31
0.0
  0
CIRCLE
  5
2F
100
AcDbEntity
  8
USP-GEO
100
AcDbCircle
 10
6.77004718625767
 20
1.792500000000003
 30
0.0
 40
0.09
  0
CIRCLE
  5
30
100
AcDbEntity
  8
USP-GEO
100
AcDbCircle
 10
7.520047186257642
 20
1.612499999999997
 30
0.0
 40
0.09
  0
LINE
  5
31
100
AcDbEntity
  8
USP-GEO
100
AcDbLine
 10
8.113547186257619
 20
0.0
 30
0.0
 11
9.426547186257579
 21
-0.0000000000000426
 31
0.0
  0
CIRCLE
  5
32
100
AcDbEntity
  8
USP-GEO
100
AcDbCircle
 10
8.395047186257642
 20
0.4500000000000029
 30
0.0
 40
0.09
  0
CIRCLE
  5
33
100
AcDbEntity
  8
USP-GEO
100
AcDbCircle
 10
9.145047186257613
 20
0.269999999999996
 30
0.0
 40
0.09
  0
LINE
  5
34
100
AcDbEntity
  8
USP-GEO
100
AcDbLine
 10
9.426547186257579
 20
-0.0000000000000426
 30
0.0
 11
9.738547186257619
 21
0.3119999999999976
 31
0.0
  0
LINE
  5
35
100
AcDbEntity
  8
USP-GEO
100
AcDbLine
 10
8.113547186257619
 20
1.750500000000002
 30
0.0
 11
9.426547186257579
 21
1.750499999999973
 31
0.0
  0
LINE
  5
36
100
AcDbEntity
  8
USP-GEO
100
AcDbLine
 10
6.488547186257676
 20
2.062500000000014
 30
0.0
 11
7.801547186257664
 21
2.062499999999957
 31
0.0
  0
LINE
  5
37
100
AcDbEntity
  8
USP-GEO
100
AcDbLine
 10
12.67654718625758
 20
1.750499999999973
 30
0.0
 11
12.98854718625761
 21
2.062500000000014
 31
0.0
  0
LINE
  5
38
100
AcDbEntity
  8
USP-GEO
100
AcDbLine
 10
11.05154718625763
 20
2.062499999999971
 30
0.0
 11
11.36354718625759
 21
1.750500000000002
 31
0.0
  0
LINE
  5
39
100
AcDbEntity
  8
USP-GEO
100
AcDbLine
 10
11.36354718625759
 20
1.750500000000002
 30
0.0
 11
12.67654718625758
 21
1.750499999999973
 31
0.0
  0
CIRCLE
  5
3A
100
AcDbEntity
  8
USP-GEO
100
AcDbCircle
 10
11.64504718625758
 20
0.4500000000000029
 30
0.0
 40
0.09
  0
LINE
  5
3B
100
AcDbEntity
  8
USP-GEO
100
AcDbLine
 10
11.36354718625759
 20
0.0
 30
0.0
 11
12.67654718625758
 21
-0.0000000000000426
 31
0.0
  0
LINE
  5
3C
100
AcDbEntity
  8
USP-GEO
100
AcDbLine
 10
11.05154718625763
 20
0.3119999999999692
 30
0.0
 11
11.36354718625759
 21
0.0
 31
0.0
  0
CIRCLE
  5
3D
100
AcDbEntity
  8
USP-GEO
100
AcDbCircle
 10
10.77004718625758
 20
1.612499999999997
 30
0.0
 40
0.09
  0
CIRCLE
  5
3E
100
AcDbEntity
  8
USP-GEO
100
AcDbCircle
 10
10.02004718625761
 20
1.792500000000003
 30
0.0
 40
0.09
  0
CIRCLE
  5
3F
100
AcDbEntity
  8
USP-GEO
100
AcDbCircle
 10
12.39504718625755
 20
0.269999999999996
 30
0.0
 40
0.09
  0
LINE
  5
40
100
AcDbEntity
  8
USP-GEO
100
AcDbLine
 10
12.67654718625758
 20
-0.0000000000000426
 30
0.0
 11
12.98854718625761
 21
0.3119999999999976
 31
0.0
  0
CIRCLE
  5
41
100
AcDbEntity
  8
USP-GEO
100
AcDbCircle
 10
13.27004718625761
 20
1.792500000000003
 30
0.0
 40
0.09
  0
LINE
  5
42
100
AcDbEntity
  8
USP-GEO
100
AcDbLine
 10
16.23850000000001
 20
2.0625
 30
0.0
 11
17.55150000000003
 21
2.062499999999957
 31
0.0
  0
LINE
  5
43
100
AcDbEntity
  8
USP-GEO
100
AcDbLine
 10
16.23850000000001
 20
0.3119999999999976
 30
0.0
 11
17.55150000000003
 21
0.3119999999999692
 31
0.0
  0
CIRCLE
  5
44
100
AcDbEntity
  8
USP-GEO
100
AcDbCircle
 10
17.26999999999998
 20
1.612499999999997
 30
0.0
 40
0.09
  0
LINE
  5
45
100
AcDbEntity
  8
USP-GEO
100
AcDbLine
 10
15.9265
 20
1.750499999999959
 30
0.0
 11
16.23850000000001
 21
2.0625
 31
0.0
  0
LINE
  5
46
100
AcDbEntity
  8
USP-GEO
100
AcDbLine
 10
14.30154718625766
 20
2.062499999999957
 30
0.0
 11
14.61354718625759
 21
1.750500000000002
 31
0.0
  0
LINE
  5
47
100
AcDbEntity
  8
USP-GEO
100
AcDbLine
 10
14.61354718625759
 20
1.750500000000002
 30
0.0
 11
15.9265
 21
1.750499999999959
 31
0.0
  0
LINE
  5
48
100
AcDbEntity
  8
USP-GEO
100
AcDbLine
 10
14.61354718625762
 20
-0.0000000000000142
 30
0.0
 11
15.9265
 21
-0.0000000000000426
 31
0.0
  0
LINE
  5
49
100
AcDbEntity
  8
USP-GEO
100
AcDbLine
 10
14.30154718625763
 20
0.3119999999999692
 30
0.0
 11
14.61354718625762
 21
-0.0000000000000142
 31
0.0
  0
CIRCLE
  5
4A
100
AcDbEntity
  8
USP-GEO
100
AcDbCircle
 10
14.89504718625755
 20
0.4500000000000029
 30
0.0
 40
0.09
  0
CIRCLE
  5
4B
100
AcDbEntity
  8
USP-GEO
100
AcDbCircle
 10
14.02004718625758
 20
1.612499999999997
 30
0.0
 40
0.09
  0
CIRCLE
  5
4C
100
AcDbEntity
  8
USP-GEO
100
AcDbCircle
 10
15.64504718625753
 20
0.269999999999996
 30
0.0
 40
0.09
  0
LINE
  5
4D
100
AcDbEntity
  8
USP-GEO
100
AcDbLine
 10
15.9265
 20
-0.0000000000000426
 30
0.0
 11
16.23850000000001
 21
0.3119999999999976
 31
0.0
  0
CIRCLE
  5
4E
100
AcDbEntity
  8
USP-GEO
100
AcDbCircle
 10
16.52000000000001
 20
1.792499999999989
 30
0.0
 40
0.09
  0
LINE
  5
4F
100
AcDbEntity
  8
USP-GEO
100
AcDbLine
 10
17.55150000000003
 20
2.062499999999957
 30
0.0
 11
17.86349999999998
 21
1.750500000000002
 31
0.0
  0
LINE
  5
50
100
AcDbEntity
  8
USP-GEO
100
AcDbLine
 10
19.17649999999994
 20
1.750499999999959
 30
0.0
 11
19.48849999999998
 21
2.0625
 31
0.0
  0
LINE
  5
51
100
AcDbEntity
  8
USP-GEO
100
AcDbLine
 10
17.86349999999998
 20
1.750500000000002
 30
0.0
 11
19.17649999999994
 21
1.750499999999959
 31
0.0
  0
LINE
  5
52
100
AcDbEntity
  8
USP-GEO
100
AcDbLine
 10
17.86349999999998
 20
-0.0000000000000142
 30
0.0
 11
19.17649999999994
 21
-0.0000000000000426
 31
0.0
  0
CIRCLE
  5
53
100
AcDbEntity
  8
USP-GEO
100
AcDbCircle
 10
18.14500000000001
 20
0.4500000000000029
 30
0.0
 40
0.09
  0
LINE
  5
54
100
AcDbEntity
  8
USP-GEO
100
AcDbLine
 10
17.55150000000003
 20
0.3119999999999692
 30
0.0
 11
17.86349999999998
 21
-0.0000000000000142
 31
0.0
  0
CIRCLE
  5
55
100
AcDbEntity
  8
USP-GEO
100
AcDbCircle
 10
18.89499999999998
 20
0.269999999999996
 30
0.0
 40
0.09
  0
LINE
  5
56
100
AcDbEntity
  8
USP-GEO
100
AcDbLine
 10
19.48849999999998
 20
0.3119999999999976
 30
0.0
 11
20.8015
 21
0.311999999999955
 31
0.0
  0
LINE
  5
57
100
AcDbEntity
  8
USP-GEO
100
AcDbLine
 10
19.17649999999994
 20
-0.0000000000000426
 30
0.0
 11
19.48849999999998
 21
0.3119999999999976
 31
0.0
  0
CIRCLE
  5
58
100
AcDbEntity
  8
USP-GEO
100
AcDbCircle
 10
19.76999999999998
 20
1.792499999999989
 30
0.0
 40
0.09
  0
CIRCLE
  5
59
100
AcDbEntity
  8
USP-GEO
100
AcDbCircle
 10
20.51999999999995
 20
1.612499999999997
 30
0.0
 40
0.09
  0
LINE
  5
5A
100
AcDbEntity
  8
USP-GEO
100
AcDbLine
 10
19.48849999999998
 20
2.0625
 30
0.0
 11
20.80149999999997
 21
2.062499999999957
 31
0.0
  0
LINE
  5
5B
100
AcDbEntity
  8
USP-GEO
100
AcDbLine
 10
27.61349999999996
 20
1.750500000000002
 30
0.0
 11
28.92649999999992
 21
1.750499999999959
 31
0.0
  0
LINE
  5
5C
100
AcDbEntity
  8
USP-GEO
100
AcDbLine
 10
27.61349999999996
 20
-0.0000000000000142
 30
0.0
 11
28.92649999999989
 21
-0.0000000000000426
 31
0.0
  0
LINE
  5
5D
100
AcDbEntity
  8
USP-GEO
100
AcDbLine
 10
24.36349999999993
 20
1.750499999999988
 30
0.0
 11
25.67649999999995
 21
1.750499999999959
 31
0.0
  0
LINE
  5
5E
100
AcDbEntity
  8
USP-GEO
100
AcDbLine
 10
24.36349999999993
 20
-0.0000000000000142
 30
0.0
 11
25.67649999999995
 21
-0.0000000000000426
 31
0.0
  0
LINE
  5
5F
100
AcDbEntity
  8
USP-GEO
100
AcDbLine
 10
24.05149999999997
 20
2.062499999999957
 30
0.0
 11
24.36349999999993
 21
1.750499999999988
 31
0.0
  0
LINE
  5
60
100
AcDbEntity
  8
USP-GEO
100
AcDbLine
 10
22.42649999999994
 20
1.750499999999973
 30
0.0
 11
22.73849999999999
 21
2.062500000000014
 31
0.0
  0
LINE
  5
61
100
AcDbEntity
  8
USP-GEO
100
AcDbLine
 10
22.73849999999999
 20
0.3119999999999976
 30
0.0
 11
24.0515
 21
0.3119999999999692
 31
0.0
  0
LINE
  5
62
100
AcDbEntity
  8
USP-GEO
100
AcDbLine
 10
21.11349999999995
 20
-0.0000000000000142
 30
0.0
 11
22.42649999999994
 21
-0.0000000000000426
 31
0.0
  0
CIRCLE
  5
63
100
AcDbEntity
  8
USP-GEO
100
AcDbCircle
 10
21.39499999999995
 20
0.4500000000000029
 30
0.0
 40
0.09
  0
CIRCLE
  5
64
100
AcDbEntity
  8
USP-GEO
100
AcDbCircle
 10
22.14499999999992
 20
0.269999999999996
 30
0.0
 40
0.09
  0
LINE
  5
65
100
AcDbEntity
  8
USP-GEO
100
AcDbLine
 10
22.42649999999994
 20
-0.0000000000000426
 30
0.0
 11
22.73849999999999
 21
0.3119999999999976
 31
0.0
  0
LINE
  5
66
100
AcDbEntity
  8
USP-GEO
100
AcDbLine
 10
21.11349999999993
 20
1.750500000000002
 30
0.0
 11
22.42649999999994
 21
1.750499999999973
 31
0.0
  0
LINE
  5
67
100
AcDbEntity
  8
USP-GEO
100
AcDbLine
 10
24.0515
 20
0.3119999999999692
 30
0.0
 11
24.36349999999993
 21
-0.0000000000000142
 31
0.0
  0
CIRCLE
  5
68
100
AcDbEntity
  8
USP-GEO
100
AcDbCircle
 10
24.64499999999995
 20
0.4500000000000029
 30
0.0
 40
0.09
  0
CIRCLE
  5
69
100
AcDbEntity
  8
USP-GEO
100
AcDbCircle
 10
23.76999999999995
 20
1.612499999999997
 30
0.0
 40
0.09
  0
CIRCLE
  5
6A
100
AcDbEntity
  8
USP-GEO
100
AcDbCircle
 10
23.01999999999998
 20
1.792499999999989
 30
0.0
 40
0.09
  0
LINE
  5
6B
100
AcDbEntity
  8
USP-GEO
100
AcDbLine
 10
22.73849999999999
 20
2.062500000000014
 30
0.0
 11
24.05149999999997
 21
2.062499999999957
 31
0.0
  0
LINE
  5
6C
100
AcDbEntity
  8
USP-GEO
100
AcDbLine
 10
27.3015
 20
2.062499999999957
 30
0.0
 11
27.61349999999996
 21
1.750500000000002
 31
0.0
  0
LINE
  5
6D
100
AcDbEntity
  8
USP-GEO
100
AcDbLine
 10
25.67649999999995
 20
1.750499999999959
 30
0.0
 11
25.98849999999998
 21
2.062500000000014
 31
0.0
  0
LINE
  5
6E
100
AcDbEntity
  8
USP-GEO
100
AcDbLine
 10
25.98849999999998
 20
0.3119999999999976
 30
0.0
 11
27.3015
 21
0.3119999999999692
 31
0.0
  0
LINE
  5
6F
100
AcDbEntity
  8
USP-GEO
100
AcDbLine
 10
25.67649999999995
 20
-0.0000000000000426
 30
0.0
 11
25.98849999999998
 21
0.3119999999999976
 31
0.0
  0
CIRCLE
  5
70
100
AcDbEntity
  8
USP-GEO
100
AcDbCircle
 10
25.39499999999992
 20
0.269999999999996
 30
0.0
 40
0.09
  0
CIRCLE
  5
71
100
AcDbEntity
  8
USP-GEO
100
AcDbCircle
 10
26.26999999999998
 20
1.792499999999989
 30
0.0
 40
0.09
  0
LINE
  5
72
100
AcDbEntity
  8
USP-GEO
100
AcDbLine
 10
27.3015
 20
0.3119999999999692
 30
0.0
 11
27.61349999999996
 21
-0.0000000000000142
 31
0.0
  0
CIRCLE
  5
73
100
AcDbEntity
  8
USP-GEO
100
AcDbCircle
 10
27.89499999999995
 20
0.4500000000000029
 30
0.0
 40
0.09
  0
CIRCLE
  5
74
100
AcDbEntity
  8
USP-GEO
100
AcDbCircle
 10
27.01999999999995
 20
1.612499999999997
 30
0.0
 40
0.09
  0
LINE
  5
75
100
AcDbEntity
  8
USP-GEO
100
AcDbLine
 10
25.98849999999998
 20
2.062500000000014
 30
0.0
 11
27.3015
 21
2.062499999999957
 31
0.0
  0
LINE
  5
76
100
AcDbEntity
  8
USP-GEO
100
AcDbLine
 10
30.55149999999994
 20
2.062499999999957
 30
0.0
 11
30.8634999999999
 21
1.750500000000002
 31
0.0
  0
LINE
  5
77
100
AcDbEntity
  8
USP-GEO
100
AcDbLine
 10
28.92649999999992
 20
1.750499999999959
 30
0.0
 11
29.23849999999993
 21
2.0625
 31
0.0
  0
LINE
  5
78
100
AcDbEntity
  8
USP-GEO
100
AcDbLine
 10
29.23849999999993
 20
0.3119999999999976
 30
0.0
 11
30.55149999999997
 21
0.3119999999999692
 31
0.0
  0
LINE
  5
79
100
AcDbEntity
  8
USP-GEO
100
AcDbLine
 10
28.92649999999989
 20
-0.0000000000000426
 30
0.0
 11
29.23849999999993
 21
0.3119999999999976
 31
0.0
  0
CIRCLE
  5
7A
100
AcDbEntity
  8
USP-GEO
100
AcDbCircle
 10
28.64499999999992
 20
0.269999999999996
 30
0.0
 40
0.09
  0
CIRCLE
  5
7B
100
AcDbEntity
  8
USP-GEO
100
AcDbCircle
 10
29.51999999999992
 20
1.792499999999989
 30
0.0
 40
0.09
  0
CIRCLE
  5
7C
100
AcDbEntity
  8
USP-GEO
100
AcDbCircle
 10
30.26999999999989
 20
1.612499999999997
 30
0.0
 40
0.09
  0
LINE
  5
7D
100
AcDbEntity
  8
USP-GEO
100
AcDbLine
 10
32.16504718625751
 20
-0.0000000000000426
 30
0.0
 11
32.16504718625751
 21
1.750499999999959
 31
0.0
  0
LINE
  5
7E
100
AcDbEntity
  8
USP-GEO
100
AcDbLine
 10
30.8634999999999
 20
-0.0000000000000142
 30
0.0
 11
32.16504718625751
 21
-0.0000000000000426
 31
0.0
  0
LINE
  5
7F
100
AcDbEntity
  8
USP-GEO
100
AcDbLine
 10
30.55149999999997
 20
0.3119999999999692
 30
0.0
 11
30.8634999999999
 21
-0.0000000000000142
 31
0.0
  0
CIRCLE
  5
80
100
AcDbEntity
  8
USP-GEO
100
AcDbCircle
 10
31.14499999999992
 20
0.4500000000000029
 30
0.0
 40
0.09
  0
CIRCLE
  5
81
100
AcDbEntity
  8
USP-GEO
100
AcDbCircle
 10
31.8949999999999
 20
0.269999999999996
 30
0.0
 40
0.09
  0
LINE
  5
82
100
AcDbEntity
  8
USP-GEO
100
AcDbLine
 10
30.8634999999999
 20
1.750500000000002
 30
0.0
 11
32.16504718625751
 21
1.750499999999959
 31
0.0
  0
CIRCLE
  5
83
100
AcDbEntity
  8
USP-GEO
100
AcDbCircle
 10
31.89499999999991
 20
1.480499999999899
 30
0.0
 40
0.09
  0
LINE
  5
84
100
AcDbEntity
  8
USP-GEO
100
AcDbLine
 10
29.23849999999993
 20
2.0625
 30
0.0
 11
30.55149999999994
 21
2.062499999999957
 31
0.0
  0
ENDBLK
  5
87
100
AcDbEntity
  8
0
100
AcDbBlockEnd
  0
ENDSEC
  0
SECTION
  2
ENTITIES
  0
INSERT
  5
3
100
AcDbEntity
  8
USP
100
AcDbBlockReference
  2
KST234_T
 10
0.0002727845464676
 20
3.304577757971397
 30
0.0
  0
ENDSEC
  0
SECTION
  2
OBJECTS
  0
DICTIONARY
  5
A0
102
{ACAD_XDICTIONARY
360
A1
102
}
100
AcDbDictionary
  3
ACAD_GROUP
350
9E
  3
ACAD_MLINESTYLE
350
9F
  0
DICTIONARY
  5
88
100
AcDbDictionary
280
     1
  3
ACAD_LAYOUTSELFREF
360
89
  0
DICTIONARY
  5
8D
100
AcDbDictionary
280
     1
  3
ACAD_LAYOUTSELFREF
360
8E
  0
DICTIONARY
  5
A1
100
AcDbDictionary
280
     1
  3
ACAD_XREC_ROUNDTRIP
360
A2
  0
DICTIONARY
  5
9E
102
{ACAD_REACTORS
330
A0
102
}
100
AcDbDictionary
  0
DICTIONARY
  5
9F
102
{ACAD_REACTORS
330
A0
102
}
100
AcDbDictionary
  3
STANDARD
350
A3
  0
XRECORD
  5
89
102
{ACAD_REACTORS
330
88
102
}
100
AcDbXrecord
340
18
  0
XRECORD
  5
8E
102
{ACAD_REACTORS
330
8D
102
}
100
AcDbXrecord
340
15
  0
XRECORD
  5
A2
102
{ACAD_REACTORS
330
A1
102
}
100
AcDbXrecord
102
EXTNAMES
  1
ACDBVARIABLEDICTIONARY
  2
AcDbVariableDictionary
  0
MLINESTYLE
  5
A3
102
{ACAD_REACTORS
330
9F
102
}
100
AcDbMlineStyle
  2
STANDARD
 70
     0
  3

 62
     0
 51
90.0
 52
90.0
 71
     2
 49
0.5
 62
   256
  6
BYLAYER
 49
-0.5
 62
   256
  6
BYLAYER
  0
ENDSEC
  0
EOF
