  0
SECTION
  2
HEADER
  9
$ACADVER
  1
AC1014
  9
$ACADMAINTVER
 70
     9
  9
$DWGCODEPAGE
  3
ANSI_1252
  9
$INSBASE
 10
0.0
 20
0.0
 30
0.0
  9
$EXTMIN
 10
0.0003666029938216
 20
0.0003851246267104
 30
0.0000000000000084
  9
$EXTMAX
 10
12.04426282334245
 20
12.6210019698527
 30
0.0000000000000091
  9
$LIMMIN
 10
0.0
 20
0.0
  9
$LIMMAX
 10
12.0
 20
9.0
  9
$ORTHOMODE
 70
     0
  9
$REGENMODE
 70
     1
  9
$FILLMODE
 70
     1
  9
$QTEXTMODE
 70
     0
  9
$MIRRTEXT
 70
     1
  9
$DRAGMODE
 70
     2
  9
$LTSCALE
 40
1.0
  9
$OSMODE
 70
    37
  9
$ATTMODE
 70
     1
  9
$TEXTSIZE
 40
0.375
  9
$TRACEWID
 40
0.05
  9
$TEXTSTYLE
  7
STANDARD
  9
$CLAYER
  8
0
  9
$CELTYPE
  6
BYLAYER
  9
$CECOLOR
 62
   256
  9
$CELTSCALE
 40
1.0
  9
$DELOBJ
 70
     1
  9
$DISPSILH
 70
     0
  9
$DIMSCALE
 40
1.0
  9
$DIMASZ
 40
0.18
  9
$DIMEXO
 40
0.0625
  9
$DIMDLI
 40
0.38
  9
$DIMRND
 40
0.0
  9
$DIMDLE
 40
0.0
  9
$DIMEXE
 40
0.18
  9
$DIMTP
 40
0.0
  9
$DIMTM
 40
0.0
  9
$DIMTXT
 40
0.18
  9
$DIMCEN
 40
0.09
  9
$DIMTSZ
 40
0.0
  9
$DIMTOL
 70
     0
  9
$DIMLIM
 70
     0
  9
$DIMTIH
 70
     1
  9
$DIMTOH
 70
     1
  9
$DIMSE1
 70
     0
  9
$DIMSE2
 70
     0
  9
$DIMTAD
 70
     0
  9
$DIMZIN
 70
     0
  9
$DIMBLK
  1

  9
$DIMASO
 70
     1
  9
$DIMSHO
 70
     1
  9
$DIMPOST
  1

  9
$DIMAPOST
  1

  9
$DIMALT
 70
     0
  9
$DIMALTD
 70
     2
  9
$DIMALTF
 40
25.4
  9
$DIMLFAC
 40
1.0
  9
$DIMTOFL
 70
     0
  9
$DIMTVP
 40
0.0
  9
$DIMTIX
 70
     0
  9
$DIMSOXD
 70
     0
  9
$DIMSAH
 70
     0
  9
$DIMBLK1
  1

  9
$DIMBLK2
  1

  9
$DIMSTYLE
  2
STANDARD
  9
$DIMCLRD
 70
     0
  9
$DIMCLRE
 70
     0
  9
$DIMCLRT
 70
     0
  9
$DIMTFAC
 40
1.0
  9
$DIMGAP
 40
0.09
  9
$DIMJUST
 70
     0
  9
$DIMSD1
 70
     0
  9
$DIMSD2
 70
     0
  9
$DIMTOLJ
 70
     1
  9
$DIMTZIN
 70
     0
  9
$DIMALTZ
 70
     0
  9
$DIMALTTZ
 70
     0
  9
$DIMFIT
 70
     3
  9
$DIMUPT
 70
     0
  9
$DIMUNIT
 70
     2
  9
$DIMDEC
 70
     4
  9
$DIMTDEC
 70
     4
  9
$DIMALTU
 70
     2
  9
$DIMALTTD
 70
     2
  9
$DIMTXSTY
  7
STANDARD
  9
$DIMAUNIT
 70
     0
  9
$LUNITS
 70
     2
  9
$LUPREC
 70
     4
  9
$SKETCHINC
 40
0.1
  9
$FILLETRAD
 40
0.5
  9
$AUNITS
 70
     0
  9
$AUPREC
 70
     0
  9
$MENU
  1
.
  9
$ELEVATION
 40
0.0
  9
$PELEVATION
 40
0.0
  9
$THICKNESS
 40
0.0
  9
$LIMCHECK
 70
     0
  9
$BLIPMODE
 70
     0
  9
$CHAMFERA
 40
0.5
  9
$CHAMFERB
 40
0.5
  9
$CHAMFERC
 40
1.0
  9
$CHAMFERD
 40
0.0
  9
$SKPOLY
 70
     0
  9
$TDCREATE
 40
2451667.537949421
  9
$TDUPDATE
 40
2452759.745522453
  9
$TDINDWG
 40
0.1554500810
  9
$TDUSRTIMER
 40
0.1554500810
  9
$USRTIMER
 70
     1
  9
$ANGBASE
 50
0.0
  9
$ANGDIR
 70
     0
  9
$PDMODE
 70
     0
  9
$PDSIZE
 40
0.0
  9
$PLINEWID
 40
0.0
  9
$COORDS
 70
     1
  9
$SPLFRAME
 70
     0
  9
$SPLINETYPE
 70
     6
  9
$SPLINESEGS
 70
     8
  9
$ATTDIA
 70
     0
  9
$ATTREQ
 70
     1
  9
$HANDLING
 70
     1
  9
$HANDSEED
  5
19C
  9
$SURFTAB1
 70
     6
  9
$SURFTAB2
 70
     6
  9
$SURFTYPE
 70
     6
  9
$SURFU
 70
     6
  9
$SURFV
 70
     6
  9
$UCSNAME
  2

  9
$UCSORG
 10
0.0
 20
0.0
 30
0.0
  9
$UCSXDIR
 10
1.0
 20
0.0
 30
0.0
  9
$UCSYDIR
 10
0.0
 20
1.0
 30
0.0
  9
$PUCSNAME
  2

  9
$PUCSORG
 10
0.0
 20
0.0
 30
0.0
  9
$PUCSXDIR
 10
1.0
 20
0.0
 30
0.0
  9
$PUCSYDIR
 10
0.0
 20
1.0
 30
0.0
  9
$USERI1
 70
     0
  9
$USERI2
 70
     0
  9
$USERI3
 70
     0
  9
$USERI4
 70
     0
  9
$USERI5
 70
     0
  9
$USERR1
 40
0.0
  9
$USERR2
 40
0.0
  9
$USERR3
 40
0.0
  9
$USERR4
 40
0.0
  9
$USERR5
 40
0.0
  9
$WORLDVIEW
 70
     1
  9
$SHADEDGE
 70
     3
  9
$SHADEDIF
 70
    70
  9
$TILEMODE
 70
     1
  9
$MAXACTVP
 70
    48
  9
$PINSBASE
 10
0.0
 20
0.0
 30
0.0
  9
$PLIMCHECK
 70
     0
  9
$PEXTMIN
 10
1.000000000000000E+20
 20
1.000000000000000E+20
 30
1.000000000000000E+20
  9
$PEXTMAX
 10
-1.000000000000000E+20
 20
-1.000000000000000E+20
 30
-1.000000000000000E+20
  9
$PLIMMIN
 10
0.0
 20
0.0
  9
$PLIMMAX
 10
12.0
 20
9.0
  9
$UNITMODE
 70
     0
  9
$VISRETAIN
 70
     1
  9
$PLINEGEN
 70
     0
  9
$PSLTSCALE
 70
     1
  9
$TREEDEPTH
 70
  3020
  9
$PICKSTYLE
 70
     1
  9
$CMLSTYLE
  2
STANDARD
  9
$CMLJUST
 70
     0
  9
$CMLSCALE
 40
1.0
  9
$PROXYGRAPHICS
 70
     1
  9
$MEASUREMENT
 70
     0
  0
ENDSEC
  0
SECTION
  2
CLASSES
  0
CLASS
  1
ACDBDICTIONARYWDFLT
  2
AcDbDictionaryWithDefault
  3
AutoCAD 2000
 90
        0
280
     1
281
     0
  0
CLASS
  1
ACDBPLACEHOLDER
  2
AcDbPlaceHolder
  3
AutoCAD 2000
 90
        0
280
     1
281
     0
  0
CLASS
  1
LAYOUT
  2
AcDbLayout
  3
AutoCAD 2000
 90
        0
280
     1
281
     0
  0
CLASS
  1
LONG_TRANSACTION
  2
AcDbLongTransaction
  3
AutoCAD 2000
 90
        0
280
     1
281
     0
  0
CLASS
  1
LWPOLYLINE
  2
AcDbPolyline
  3
"AutoCAD"
 90
        0
280
     1
281
     1
  0
CLASS
  1
HATCH
  2
AcDbHatch
  3
"ACAD_SEDONA"
 90
        0
280
     1
281
     1
  0
CLASS
  1
XRECORD
  2
AcDbXrecord
  3
"<Built In>"
 90
        0
280
     0
281
     0
  0
CLASS
  1
LONG_TRANSACTION
  2
AcDbLongTransaction
  3
AutoCAD 2000
 90
        0
280
     1
281
     0
  0
CLASS
  1
LWPOLYLINE
  2
AcDbPolyline
  3
"AutoCAD"
 90
        0
280
     1
281
     1
  0
CLASS
  1
HATCH
  2
AcDbHatch
  3
"ACAD_SEDONA"
 90
        0
280
     1
281
     1
  0
CLASS
  1
XRECORD
  2
AcDbXrecord
  3
"<Built In>"
 90
        0
280
     0
281
     0
  0
CLASS
  1
LONG_TRANSACTION
  2
AcDbLongTransaction
  3
AutoCAD 2000
 90
        0
280
     1
281
     0
  0
CLASS
  1
LWPOLYLINE
  2
AcDbPolyline
  3
"AutoCAD"
 90
        0
280
     1
281
     1
  0
CLASS
  1
HATCH
  2
AcDbHatch
  3
"ACAD_SEDONA"
 90
        0
280
     1
281
     1
  0
CLASS
  1
XRECORD
  2
AcDbXrecord
  3
"<Built In>"
 90
        0
280
     0
281
     0
  0
CLASS
  1
LONG_TRANSACTION
  2
AcDbLongTransaction
  3
AutoCAD 2000
 90
        0
280
     1
281
     0
  0
CLASS
  1
LWPOLYLINE
  2
AcDbPolyline
  3
"AutoCAD"
 90
        0
280
     1
281
     1
  0
CLASS
  1
HATCH
  2
AcDbHatch
  3
"ACAD_SEDONA"
 90
        0
280
     1
281
     1
  0
CLASS
  1
XRECORD
  2
AcDbXrecord
  3
"<Built In>"
 90
        0
280
     0
281
     0
  0
CLASS
  1
LONG_TRANSACTION
  2
AcDbLongTransaction
  3
AutoCAD 2000
 90
        0
280
     1
281
     0
  0
CLASS
  1
LWPOLYLINE
  2
AcDbPolyline
  3
"AutoCAD"
 90
        0
280
     1
281
     1
  0
CLASS
  1
HATCH
  2
AcDbHatch
  3
"ACAD_SEDONA"
 90
        0
280
     1
281
     1
  0
CLASS
  1
XRECORD
  2
AcDbXrecord
  3
"<Built In>"
 90
        0
280
     0
281
     0
  0
CLASS
  1
LONG_TRANSACTION
  2
AcDbLongTransaction
  3
AutoCAD 2000
 90
        0
280
     1
281
     0
  0
CLASS
  1
LWPOLYLINE
  2
AcDbPolyline
  3
"AutoCAD"
 90
        0
280
     1
281
     1
  0
CLASS
  1
HATCH
  2
AcDbHatch
  3
"ACAD_SEDONA"
 90
        0
280
     1
281
     1
  0
CLASS
  1
XRECORD
  2
AcDbXrecord
  3
"<Built In>"
 90
        0
280
     0
281
     0
  0
CLASS
  1
LONG_TRANSACTION
  2
AcDbLongTransaction
  3
AutoCAD 2000
 90
        0
280
     1
281
     0
  0
CLASS
  1
LWPOLYLINE
  2
AcDbPolyline
  3
"AutoCAD"
 90
        0
280
     1
281
     1
  0
CLASS
  1
HATCH
  2
AcDbHatch
  3
"ACAD_SEDONA"
 90
        0
280
     1
281
     1
  0
CLASS
  1
XRECORD
  2
AcDbXrecord
  3
"<Built In>"
 90
        0
280
     0
281
     0
  0
CLASS
  1
LONG_TRANSACTION
  2
AcDbLongTransaction
  3
AutoCAD 2000
 90
        0
280
     1
281
     0
  0
CLASS
  1
LWPOLYLINE
  2
AcDbPolyline
  3
"AutoCAD"
 90
        0
280
     1
281
     1
  0
CLASS
  1
HATCH
  2
AcDbHatch
  3
"ACAD_SEDONA"
 90
        0
280
     1
281
     1
  0
CLASS
  1
XRECORD
  2
AcDbXrecord
  3
"<Built In>"
 90
        0
280
     0
281
     0
  0
CLASS
  1
LONG_TRANSACTION
  2
AcDbLongTransaction
  3
AutoCAD 2000
 90
        0
280
     1
281
     0
  0
CLASS
  1
LWPOLYLINE
  2
AcDbPolyline
  3
"AutoCAD"
 90
        0
280
     1
281
     1
  0
CLASS
  1
HATCH
  2
AcDbHatch
  3
"ACAD_SEDONA"
 90
        0
280
     1
281
     1
  0
CLASS
  1
XRECORD
  2
AcDbXrecord
  3
"<Built In>"
 90
        0
280
     0
281
     0
  0
CLASS
  1
LONG_TRANSACTION
  2
AcDbLongTransaction
  3
AutoCAD 2000
 90
        0
280
     1
281
     0
  0
CLASS
  1
LWPOLYLINE
  2
AcDbPolyline
  3
"AutoCAD"
 90
        0
280
     1
281
     1
  0
CLASS
  1
HATCH
  2
AcDbHatch
  3
"ACAD_SEDONA"
 90
        0
280
     1
281
     1
  0
CLASS
  1
XRECORD
  2
AcDbXrecord
  3
"<Built In>"
 90
        0
280
     0
281
     0
  0
CLASS
  1
DICTIONARYVAR
  2
AcDbDictionaryVar
  3
"AutoCAD"
 90
        0
280
     0
281
     0
  0
CLASS
  1
LONG_TRANSACTION
  2
AcDbLongTransaction
  3
AutoCAD 2000
 90
        0
280
     0
281
     0
  0
CLASS
  1
LWPOLYLINE
  2
AcDbPolyline
  3
"AutoCAD"
 90
        0
280
     0
281
     1
  0
CLASS
  1
HATCH
  2
AcDbHatch
  3
"ACAD_SEDONA"
 90
        0
280
     0
281
     1
  0
CLASS
  1
XRECORD
  2
AcDbXrecord
  3
"<Built In>"
 90
        0
280
     0
281
     0
  0
CLASS
  1
LONG_TRANSACTION
  2
AcDbLongTransaction
  3
AutoCAD 2000
 90
        0
280
     0
281
     0
  0
CLASS
  1
LWPOLYLINE
  2
AcDbPolyline
  3
"AutoCAD"
 90
        0
280
     0
281
     1
  0
CLASS
  1
HATCH
  2
AcDbHatch
  3
"ACAD_SEDONA"
 90
        0
280
     0
281
     1
  0
CLASS
  1
XRECORD
  2
AcDbXrecord
  3
"<Built In>"
 90
        0
280
     0
281
     0
  0
ENDSEC
  0
SECTION
  2
TABLES
  0
TABLE
  2
VPORT
  5
17C
100
AcDbSymbolTable
 70
     1
  0
VPORT
  5
198
100
AcDbSymbolTableRecord
100
AcDbViewportTableRecord
  2
*ACTIVE
 70
     0
 10
0.0
 20
0.0
 11
1.0
 21
1.0
 12
6.003753381067969
 22
6.466421627946678
 13
0.0
 23
0.0
 14
0.5
 24
0.5
 15
0.5
 25
0.5
 16
0.0
 26
0.0
 36
1.0
 17
0.0
 27
0.0
 37
0.0
 40
13.02503672962608
 41
1.457627118644067
 42
50.0
 43
0.0
 44
0.0
 50
0.0
 51
0.0
 71
     0
 72
   100
 73
     1
 74
     3
 75
     0
 76
     0
 77
     0
 78
     0
  0
ENDTAB
  0
TABLE
  2
LTYPE
  5
175
100
AcDbSymbolTable
 70
     2
  0
LTYPE
  5
176
102
{ACAD_XDICTIONARY
360
177
102
}
100
AcDbSymbolTableRecord
100
AcDbLinetypeTableRecord
  2
BYBLOCK
 70
     0
  3

 72
    65
 73
     0
 40
0.0
  0
LTYPE
  5
178
102
{ACAD_XDICTIONARY
360
179
102
}
100
AcDbSymbolTableRecord
100
AcDbLinetypeTableRecord
  2
BYLAYER
 70
     0
  3

 72
    65
 73
     0
 40
0.0
  0
LTYPE
  5
5
102
{ACAD_XDICTIONARY
360
6
102
}
100
AcDbSymbolTableRecord
100
AcDbLinetypeTableRecord
  2
CONTINUOUS
 70
     0
  3
Solid line
 72
    65
 73
     0
 40
0.0
  0
LTYPE
  5
11A
100
AcDbSymbolTableRecord
100
AcDbLinetypeTableRecord
  2
HIDDEN
 70
     0
  3
Hidden __ __ __ __ __ __ __ __ __ __ __ __ __ _
 72
    65
 73
     2
 40
0.375
 49
0.25
 74
     0
 49
-0.125
 74
     0
  0
ENDTAB
  0
TABLE
  2
LAYER
  5
173
100
AcDbSymbolTable
 70
     5
  0
LAYER
  5
5C
100
AcDbSymbolTableRecord
100
AcDbLayerTableRecord
  2
0
 70
     0
 62
     7
  6
CONTINUOUS
  0
LAYER
  5
4
100
AcDbSymbolTableRecord
100
AcDbLayerTableRecord
  2
USP
 70
     0
 62
     7
  6
CONTINUOUS
  0
LAYER
  5
119
100
AcDbSymbolTableRecord
100
AcDbLayerTableRecord
  2
USP-HID
 70
     0
 62
     7
  6
HIDDEN
  0
LAYER
  5
D
100
AcDbSymbolTableRecord
100
AcDbLayerTableRecord
  2
USP-GEO
 70
     0
 62
     7
  6
CONTINUOUS
  0
LAYER
  5
9
100
AcDbSymbolTableRecord
100
AcDbLayerTableRecord
  2
USP-TXT
 70
     0
 62
     7
  6
CONTINUOUS
  0
ENDTAB
  0
TABLE
  2
STYLE
  5
174
100
AcDbSymbolTable
 70
     1
  0
STYLE
  5
A
102
{ACAD_XDICTIONARY
360
B
102
}
100
AcDbSymbolTableRecord
100
AcDbTextStyleTableRecord
  2
STANDARD
 70
     0
 40
0.0
 41
1.0
 50
0.0
 71
     0
 42
0.375
  3
txt
  4

  0
ENDTAB
  0
TABLE
  2
VIEW
  5
17A
100
AcDbSymbolTable
 70
     0
  0
ENDTAB
  0
TABLE
  2
UCS
  5
17B
100
AcDbSymbolTable
 70
     0
  0
ENDTAB
  0
TABLE
  2
APPID
  5
17E
100
AcDbSymbolTable
 70
     1
  0
APPID
  5
17F
100
AcDbSymbolTableRecord
100
AcDbRegAppTableRecord
  2
ACAD
 70
     0
  0
ENDTAB
  0
TABLE
  2
DIMSTYLE
  5
180
100
AcDbSymbolTable
 70
     1
  0
DIMSTYLE
105
189
102
{ACAD_XDICTIONARY
360
18A
102
}
100
AcDbSymbolTableRecord
100
AcDbDimStyleTableRecord
  2
STANDARD
 70
     0
  3

  4

  5

  6

  7

 40
1.0
 41
0.18
 42
0.0625
 43
0.38
 44
0.18
 45
0.0
 46
0.0
 47
0.0
 48
0.0
140
0.18
141
0.09
142
0.0
143
25.4
144
1.0
145
0.0
146
1.0
147
0.09
 71
     0
 72
     0
 73
     1
 74
     1
 75
     0
 76
     0
 77
     0
 78
     0
170
     0
171
     2
172
     0
173
     0
174
     0
175
     0
176
     0
177
     0
178
     0
270
     2
271
     4
272
     4
273
     2
274
     2
340
A
275
     0
280
     0
281
     0
282
     0
283
     1
284
     0
285
     0
286
     0
287
     3
288
     0
  0
ENDTAB
  0
TABLE
  2
BLOCK_RECORD
  5
1
100
AcDbSymbolTable
 70
     3
  0
BLOCK_RECORD
  5
2
102
{ACAD_XDICTIONARY
360
16A
102
}
100
AcDbSymbolTableRecord
100
AcDbBlockTableRecord
  2
*MODEL_SPACE
  0
BLOCK_RECORD
  5
16E
102
{ACAD_XDICTIONARY
360
16F
102
}
100
AcDbSymbolTableRecord
100
AcDbBlockTableRecord
  2
*PAPER_SPACE
  0
BLOCK_RECORD
  5
7
100
AcDbSymbolTableRecord
100
AcDbBlockTableRecord
  2
JUS48_T
  0
BLOCK_RECORD
  5
5F
100
AcDbSymbolTableRecord
100
AcDbBlockTableRecord
  2
JUS48_F
  0
BLOCK_RECORD
  5
110
100
AcDbSymbolTableRecord
100
AcDbBlockTableRecord
  2
JUS48_S
  0
ENDTAB
  0
ENDSEC
  0
SECTION
  2
BLOCKS
  0
BLOCK
  5
16C
100
AcDbEntity
  8
0
100
AcDbBlockBegin
  2
*MODEL_SPACE
 70
     0
 10
0.0
 20
0.0
 30
0.0
  3
*MODEL_SPACE
  1

  0
ENDBLK
  5
16D
100
AcDbEntity
  8
0
100
AcDbBlockEnd
  0
BLOCK
  5
171
100
AcDbEntity
 67
     1
  8
0
100
AcDbBlockBegin
  2
*PAPER_SPACE
 70
     0
 10
0.0
 20
0.0
 30
0.0
  3
*PAPER_SPACE
  1

  0
ENDBLK
  5
172
100
AcDbEntity
 67
     1
  8
0
100
AcDbBlockEnd
  0
BLOCK
  5
5B
100
AcDbEntity
  8
0
100
AcDbBlockBegin
  2
JUS48_T
 70
     0
 10
0.0
 20
0.0
 30
0.0
  3
JUS48_T
  1

  0
TEXT
  5
8
100
AcDbEntity
  8
USP-TXT
100
AcDbText
 10
0.3103000000000229
 20
-1.08798678665137
 30
0.0
 40
0.31875
  1
JUS48 - TOP VIEW
 72
     1
 11
2.860300000000023
 21
-1.08798678665137
 31
0.0
100
AcDbText
  0
LINE
  5
C
100
AcDbEntity
  8
USP-GEO
100
AcDbLine
 10
4.672800000000052
 20
0.0
 30
0.0
 11
3.985300000000023
 21
0.0
 31
0.0
  0
LINE
  5
E
100
AcDbEntity
  8
USP-GEO
100
AcDbLine
 10
3.985300000000037
 20
2.000000000000014
 30
0.0
 11
4.672800000000052
 21
2.000000000000014
 31
0.0
  0
LINE
  5
F
100
AcDbEntity
  8
USP-GEO
100
AcDbLine
 10
0.5875000000000199
 20
2.297799999999995
 30
0.0
 11
0.6875000000000285
 21
2.355157643635109
 31
0.0
  0
LINE
  5
10
100
AcDbEntity
  8
USP-GEO
100
AcDbLine
 10
0.5875000000000341
 20
2.041028851245343
 30
0.0
 11
0.7874999999999944
 21
2.041028851245343
 31
0.0
  0
LINE
  5
11
100
AcDbEntity
  8
USP-GEO
100
AcDbLine
 10
1.000000000000028
 20
2.250000000000014
 30
0.0
 11
0.0
 21
2.250000000000014
 31
0.0
  0
LINE
  5
12
100
AcDbEntity
  8
USP-GEO
100
AcDbLine
 10
0.0000000000000142
 20
2.29779999999998
 30
0.0
 11
1.047800000000023
 21
2.29779999999998
 31
0.0
  0
LINE
  5
13
100
AcDbEntity
  8
USP-GEO
100
AcDbLine
 10
0.5875000000000341
 20
2.049673383528315
 30
0.0
 11
0.5875000000000341
 21
2.25
 31
0.0
  0
LINE
  5
14
100
AcDbEntity
  8
USP-GEO
100
AcDbLine
 10
0.5875000000000341
 20
2.049673383528315
 30
0.0
 11
0.5875000000000341
 21
2.041028851245329
 31
0.0
  0
LINE
  5
15
100
AcDbEntity
  8
USP-GEO
100
AcDbLine
 10
0.0
 20
2.25
 30
0.0
 11
0.0
 21
2.297799999999995
 31
0.0
  0
LINE
  5
16
100
AcDbEntity
  8
USP-GEO
100
AcDbLine
 10
3.735300000000023
 20
0.0
 30
0.0
 11
1.985300000000009
 21
0.0
 31
0.0
  0
LINE
  5
17
100
AcDbEntity
  8
USP-GEO
100
AcDbLine
 10
1.985300000000023
 20
1.999999999999985
 30
0.0
 11
3.735300000000023
 21
1.999999999999985
 31
0.0
  0
LINE
  5
18
100
AcDbEntity
  8
USP-GEO
100
AcDbLine
 10
1.047800000000009
 20
2.297799999999995
 30
0.0
 11
1.047800000000009
 21
1.25
 31
0.0
  0
LINE
  5
19
100
AcDbEntity
  8
USP-GEO
100
AcDbLine
 10
1.000000000000028
 20
1.25
 30
0.0
 11
1.000000000000028
 21
2.25
 31
0.0
  0
ARC
  5
1A
100
AcDbEntity
  8
USP-GEO
100
AcDbCircle
 10
1.047800000000023
 20
1.15673432041008
 30
0.0
 40
0.2977999999999987
100
AcDbArc
 50
99.23652345544919
 51
209.0169729401734
  0
LINE
  5
1B
100
AcDbEntity
  8
USP-GEO
100
AcDbLine
 10
1.735300000000009
 20
0.0
 30
0.0
 11
1.047800000000009
 21
0.0
 31
0.0
  0
LINE
  5
1C
100
AcDbEntity
  8
USP-GEO
100
AcDbLine
 10
1.000000000000028
 20
1.249999999999985
 30
0.0
 11
1.000000000000028
 21
1.066666666666662
 31
0.0
  0
LINE
  5
1D
100
AcDbEntity
  8
USP-GEO
100
AcDbLine
 10
1.047800000000023
 20
1.249999999999985
 30
0.0
 11
1.047800000000023
 21
1.066666666666662
 31
0.0
  0
LINE
  5
1E
100
AcDbEntity
  8
USP-GEO
100
AcDbLine
 10
1.047800000000023
 20
1.25
 30
0.0
 11
1.000000000000014
 21
1.25
 31
0.0
  0
LINE
  5
1F
100
AcDbEntity
  8
USP-GEO
100
AcDbLine
 10
1.047800000000023
 20
0.8374999999999914
 30
0.0
 11
1.000000000000028
 21
0.8374999999999914
 31
0.0
  0
LINE
  5
20
100
AcDbEntity
  8
USP-GEO
100
AcDbLine
 10
0.78738103176714
 20
1.012280864291795
 30
0.0
 11
0.9033465438817387
 21
0.8963153521771971
 31
0.0
  0
LINE
  5
21
100
AcDbEntity
  8
USP-GEO
100
AcDbLine
 10
1.047800000000009
 20
0.0
 30
0.0
 11
1.000000000000028
 21
0.0
 31
0.0
  0
LINE
  5
22
100
AcDbEntity
  8
USP-GEO
100
AcDbLine
 10
1.000000000000028
 20
0.8374999999999914
 30
0.0
 11
1.000000000000028
 21
0.0467990710866531
 31
0.0
  0
LINE
  5
23
100
AcDbEntity
  8
USP-GEO
100
AcDbLine
 10
1.000000000000028
 20
0.0467990710866531
 30
0.0
 11
1.000000000000028
 21
0.0
 31
0.0
  0
LINE
  5
24
100
AcDbEntity
  8
USP-GEO
100
AcDbLine
 10
1.047800000000023
 20
0.0467990710866531
 30
0.0
 11
1.047800000000023
 21
0.0
 31
0.0
  0
LINE
  5
25
100
AcDbEntity
  8
USP-GEO
100
AcDbLine
 10
1.047800000000023
 20
0.8374999999999914
 30
0.0
 11
1.047800000000023
 21
0.0467990710866531
 31
0.0
  0
ARC
  5
26
100
AcDbEntity
  8
USP-GEO
100
AcDbCircle
 10
1.047800000000023
 20
1.15673432041008
 30
0.0
 40
0.2977999999999987
100
AcDbArc
 50
240.9830270598272
 51
260.7634765445508
  0
LINE
  5
27
100
AcDbEntity
  8
USP-GEO
100
AcDbLine
 10
1.000000000000028
 20
1.066666666666662
 30
0.0
 11
1.000000000000028
 21
0.8374999999999914
 31
0.0
  0
LINE
  5
28
100
AcDbEntity
  8
USP-GEO
100
AcDbLine
 10
1.047800000000023
 20
1.066666666666648
 30
0.0
 11
1.047800000000023
 21
0.8374999999999914
 31
0.0
  0
LINE
  5
29
100
AcDbEntity
  8
USP-GEO
100
AcDbLine
 10
1.985300000000009
 20
0.0000000000000142
 30
0.0
 11
1.985300000000009
 21
0.03125
 31
0.0
  0
ARC
  5
2A
100
AcDbEntity
  8
USP-GEO
100
AcDbCircle
 10
1.954050000000037
 20
0.0312499999999858
 30
0.0
 40
0.03125
100
AcDbArc
 50
0.0000000000130276
 51
90.00000000002605
  0
LINE
  5
2B
100
AcDbEntity
  8
USP-GEO
100
AcDbLine
 10
1.954050000000023
 20
0.0624999999999858
 30
0.0
 11
1.766550000000009
 21
0.0624999999999858
 31
0.0
  0
ARC
  5
2C
100
AcDbEntity
  8
USP-GEO
100
AcDbCircle
 10
1.766550000000009
 20
0.03125
 30
0.0
 40
0.03125
100
AcDbArc
 50
90.0
 51
179.9999999999934
  0
LINE
  5
2D
100
AcDbEntity
  8
USP-GEO
100
AcDbLine
 10
1.735300000000009
 20
0.0312500000000142
 30
0.0
 11
1.735300000000009
 21
0.0
 31
0.0
  0
LINE
  5
2E
100
AcDbEntity
  8
USP-GEO
100
AcDbLine
 10
1.047800000000023
 20
2.000000000000014
 30
0.0
 11
1.735300000000009
 21
2.000000000000014
 31
0.0
  0
LINE
  5
2F
100
AcDbEntity
  8
USP-GEO
100
AcDbLine
 10
0.6875000000000285
 20
2.355157643635095
 30
0.0
 11
0.7875000000000228
 21
2.29779999999998
 31
0.0
  0
LINE
  5
30
100
AcDbEntity
  8
USP-GEO
100
AcDbLine
 10
0.7875000000000086
 20
2.041028851245329
 30
0.0
 11
0.7875000000000086
 21
2.049673383528315
 31
0.0
  0
LINE
  5
31
100
AcDbEntity
  8
USP-GEO
100
AcDbLine
 10
0.7875000000000228
 20
2.25
 30
0.0
 11
0.7875000000000086
 21
2.049673383528315
 31
0.0
  0
LINE
  5
32
100
AcDbEntity
  8
USP-GEO
100
AcDbLine
 10
1.735300000000009
 20
2.0
 30
0.0
 11
1.735300000000009
 21
1.968750000000014
 31
0.0
  0
ARC
  5
33
100
AcDbEntity
  8
USP-GEO
100
AcDbCircle
 10
1.766550000000009
 20
1.968750000000014
 30
0.0
 40
0.03125
100
AcDbArc
 50
179.9999999999934
 51
270.0
  0
LINE
  5
34
100
AcDbEntity
  8
USP-GEO
100
AcDbLine
 10
1.766550000000009
 20
1.9375
 30
0.0
 11
1.954050000000023
 21
1.9375
 31
0.0
  0
ARC
  5
35
100
AcDbEntity
  8
USP-GEO
100
AcDbCircle
 10
1.954050000000023
 20
1.96875
 30
0.0
 40
0.03125
100
AcDbArc
 50
270.0
 51
0.0000000000130276
  0
LINE
  5
36
100
AcDbEntity
  8
USP-GEO
100
AcDbLine
 10
1.985300000000023
 20
1.96875
 30
0.0
 11
1.985300000000023
 21
1.999999999999985
 31
0.0
  0
LINE
  5
37
100
AcDbEntity
  8
USP-GEO
100
AcDbLine
 10
3.985300000000023
 20
0.0
 30
0.0
 11
3.985300000000023
 21
0.03125
 31
0.0
  0
ARC
  5
38
100
AcDbEntity
  8
USP-GEO
100
AcDbCircle
 10
3.954050000000037
 20
0.03125
 30
0.0
 40
0.03125
100
AcDbArc
 50
359.9999999999869
 51
90.00000000002605
  0
LINE
  5
39
100
AcDbEntity
  8
USP-GEO
100
AcDbLine
 10
3.954050000000023
 20
0.0625
 30
0.0
 11
3.766550000000023
 21
0.0625
 31
0.0
  0
ARC
  5
3A
100
AcDbEntity
  8
USP-GEO
100
AcDbCircle
 10
3.766550000000023
 20
0.03125
 30
0.0
 40
0.03125
100
AcDbArc
 50
90.0
 51
180.0
  0
LINE
  5
3B
100
AcDbEntity
  8
USP-GEO
100
AcDbLine
 10
3.735300000000023
 20
0.03125
 30
0.0
 11
3.735300000000023
 21
0.0
 31
0.0
  0
LINE
  5
3C
100
AcDbEntity
  8
USP-GEO
100
AcDbLine
 10
3.735300000000023
 20
2.0
 30
0.0
 11
3.735300000000023
 21
1.968750000000014
 31
0.0
  0
ARC
  5
3D
100
AcDbEntity
  8
USP-GEO
100
AcDbCircle
 10
3.766550000000023
 20
1.96875
 30
0.0
 40
0.03125
100
AcDbArc
 50
179.9999999999869
 51
270.0
  0
LINE
  5
3E
100
AcDbEntity
  8
USP-GEO
100
AcDbLine
 10
3.766550000000023
 20
1.9375
 30
0.0
 11
3.954050000000037
 21
1.9375
 31
0.0
  0
ARC
  5
3F
100
AcDbEntity
  8
USP-GEO
100
AcDbCircle
 10
3.954050000000037
 20
1.968750000000014
 30
0.0
 40
0.03125
100
AcDbArc
 50
270.0
 51
359.9999999999869
  0
LINE
  5
40
100
AcDbEntity
  8
USP-GEO
100
AcDbLine
 10
3.985300000000037
 20
1.96875
 30
0.0
 11
3.985300000000037
 21
1.999999999999985
 31
0.0
  0
LINE
  5
41
100
AcDbEntity
  8
USP-GEO
100
AcDbLine
 10
4.720600000000047
 20
2.250000000000014
 30
0.0
 11
4.720600000000047
 21
1.250000000000014
 31
0.0
  0
LINE
  5
42
100
AcDbEntity
  8
USP-GEO
100
AcDbLine
 10
4.672800000000052
 20
1.25
 30
0.0
 11
4.672800000000052
 21
2.297799999999995
 31
0.0
  0
ARC
  5
43
100
AcDbEntity
  8
USP-GEO
100
AcDbCircle
 10
4.672800000000052
 20
1.156734320410095
 30
0.0
 40
0.2977999999999987
100
AcDbArc
 50
330.9830270598264
 51
80.76347654455082
  0
LINE
  5
44
100
AcDbEntity
  8
USP-GEO
100
AcDbLine
 10
4.672800000000052
 20
1.250000000000014
 30
0.0
 11
4.672800000000052
 21
1.066666666666677
 31
0.0
  0
LINE
  5
45
100
AcDbEntity
  8
USP-GEO
100
AcDbLine
 10
4.720600000000047
 20
1.066666666666677
 30
0.0
 11
4.720600000000047
 21
1.250000000000014
 31
0.0
  0
LINE
  5
46
100
AcDbEntity
  8
USP-GEO
100
AcDbLine
 10
4.720600000000032
 20
1.25
 30
0.0
 11
4.672800000000052
 21
1.25
 31
0.0
  0
LINE
  5
47
100
AcDbEntity
  8
USP-GEO
100
AcDbLine
 10
4.933218968232935
 20
1.01228086429181
 30
0.0
 11
4.817253456118336
 21
0.8963153521772113
 31
0.0
  0
LINE
  5
48
100
AcDbEntity
  8
USP-GEO
100
AcDbLine
 10
4.672800000000052
 20
0.8375000000000056
 30
0.0
 11
4.720600000000032
 21
0.8375000000000056
 31
0.0
  0
LINE
  5
49
100
AcDbEntity
  8
USP-GEO
100
AcDbLine
 10
4.672800000000052
 20
-0.0000000000000142
 30
0.0
 11
4.720600000000047
 21
-0.0000000000000142
 31
0.0
  0
LINE
  5
4A
100
AcDbEntity
  8
USP-GEO
100
AcDbLine
 10
4.672800000000052
 20
0.0467990710866531
 30
0.0
 11
4.672800000000052
 21
0.0
 31
0.0
  0
LINE
  5
4B
100
AcDbEntity
  8
USP-GEO
100
AcDbLine
 10
4.672800000000066
 20
0.8375000000000056
 30
0.0
 11
4.672800000000066
 21
0.0467990710866531
 31
0.0
  0
LINE
  5
4C
100
AcDbEntity
  8
USP-GEO
100
AcDbLine
 10
4.720600000000047
 20
0.0000000000000142
 30
0.0
 11
4.720600000000047
 21
0.0467990710866673
 31
0.0
  0
LINE
  5
4D
100
AcDbEntity
  8
USP-GEO
100
AcDbLine
 10
4.720600000000047
 20
0.0467990710866673
 30
0.0
 11
4.720600000000047
 21
0.8375000000000056
 31
0.0
  0
ARC
  5
4E
100
AcDbEntity
  8
USP-GEO
100
AcDbCircle
 10
4.672800000000052
 20
1.156734320410095
 30
0.0
 40
0.2977999999999987
100
AcDbArc
 50
279.2365234554491
 51
299.0169729401727
  0
LINE
  5
4F
100
AcDbEntity
  8
USP-GEO
100
AcDbLine
 10
4.672800000000037
 20
1.066666666666677
 30
0.0
 11
4.672800000000037
 21
0.8375000000000056
 31
0.0
  0
LINE
  5
50
100
AcDbEntity
  8
USP-GEO
100
AcDbLine
 10
4.720600000000047
 20
0.8374999999999914
 30
0.0
 11
4.720600000000047
 21
1.066666666666677
 31
0.0
  0
LINE
  5
51
100
AcDbEntity
  8
USP-GEO
100
AcDbLine
 10
5.720600000000047
 20
2.250000000000014
 30
0.0
 11
4.720600000000032
 21
2.250000000000014
 31
0.0
  0
LINE
  5
52
100
AcDbEntity
  8
USP-GEO
100
AcDbLine
 10
4.672800000000052
 20
2.297800000000009
 30
0.0
 11
5.720600000000047
 21
2.297800000000009
 31
0.0
  0
LINE
  5
53
100
AcDbEntity
  8
USP-GEO
100
AcDbLine
 10
5.133100000000041
 20
2.250000000000014
 30
0.0
 11
5.133100000000027
 21
2.049673383528343
 31
0.0
  0
LINE
  5
54
100
AcDbEntity
  8
USP-GEO
100
AcDbLine
 10
5.133100000000027
 20
2.041028851245343
 30
0.0
 11
5.133100000000027
 21
2.049673383528329
 31
0.0
  0
LINE
  5
55
100
AcDbEntity
  8
USP-GEO
100
AcDbLine
 10
4.933100000000052
 20
2.297800000000009
 30
0.0
 11
5.033100000000047
 21
2.355157643635109
 31
0.0
  0
LINE
  5
56
100
AcDbEntity
  8
USP-GEO
100
AcDbLine
 10
4.933100000000052
 20
2.049673383528329
 30
0.0
 11
4.933100000000052
 21
2.25
 31
0.0
  0
LINE
  5
57
100
AcDbEntity
  8
USP-GEO
100
AcDbLine
 10
4.933100000000052
 20
2.049673383528329
 30
0.0
 11
4.933100000000052
 21
2.041028851245343
 31
0.0
  0
LINE
  5
58
100
AcDbEntity
  8
USP-GEO
100
AcDbLine
 10
5.033100000000047
 20
2.355157643635109
 30
0.0
 11
5.133100000000041
 21
2.297800000000009
 31
0.0
  0
LINE
  5
59
100
AcDbEntity
  8
USP-GEO
100
AcDbLine
 10
4.933100000000052
 20
2.041028851245343
 30
0.0
 11
5.133100000000013
 21
2.041028851245343
 31
0.0
  0
LINE
  5
5A
100
AcDbEntity
  8
USP-GEO
100
AcDbLine
 10
5.720600000000032
 20
2.297800000000009
 30
0.0
 11
5.720600000000032
 21
2.250000000000014
 31
0.0
  0
ENDBLK
  5
5D
100
AcDbEntity
  8
0
100
AcDbBlockEnd
  0
BLOCK
  5
10D
100
AcDbEntity
  8
0
100
AcDbBlockBegin
  2
JUS48_F
 70
     0
 10
0.0
 20
0.0
 30
0.0
  3
JUS48_F
  1

  0
LINE
  5
60
100
AcDbEntity
  8
USP-GEO
100
AcDbLine
 10
3.735300000000023
 20
0.0477999999999952
 30
0.0000000000000003
 11
1.985300000000009
 21
0.0477999999999952
 31
0.0000000000000001
210
0.0
220
1.0
230
0.0
  0
LINE
  5
61
100
AcDbEntity
  8
USP-GEO
100
AcDbLine
 10
1.985300000000009
 20
0.0
 30
0.0000000000000001
 11
3.735300000000023
 21
0.0
 31
0.0000000000000003
210
0.0
220
1.0
230
0.0
  0
ELLIPSE
  5
62
100
AcDbEntity
  8
USP-GEO
100
AcDbEllipse
 10
0.8453637878244393
 20
4.214931211054945
 30
0.0
 11
0.0
 21
-0.0820000000000036
 31
0.0
210
-0.0000000000000001
220
0.0
230
1.0
 40
0.7071067811865474
 41
0.0000000000000001
 42
6.283185307179586
  0
ELLIPSE
  5
63
100
AcDbEntity
  8
USP-GEO
100
AcDbEllipse
 10
0.880802994038845
 20
4.214931211054931
 30
0.0
 11
0.0000000000000251
 21
0.0820000000000143
 31
0.0
210
-0.0000000000000001
220
0.0
230
1.0
 40
0.7071067811864547
 41
0.3105698314581571
 42
1.570796326794939
  0
ELLIPSE
  5
64
100
AcDbEntity
  8
USP-GEO
100
AcDbEllipse
 10
0.880802994038845
 20
4.214931211054931
 30
0.0
 11
0.0000000000000072
 21
0.0820000000000056
 31
0.0
210
-0.0000000000000001
220
0.0
230
1.0
 40
0.70710678118653
 41
1.570796326794785
 42
2.831022822131679
  0
ELLIPSE
  5
65
100
AcDbEntity
  8
USP-GEO
100
AcDbEllipse
 10
0.8453637878244393
 20
2.047799999999995
 30
0.0
 11
0.0
 21
-0.0820000000000036
 31
0.0
210
-0.0000000000000001
220
0.0
230
1.0
 40
0.7071067811865474
 41
0.0000000000000001
 42
6.283185307179586
  0
ELLIPSE
  5
66
100
AcDbEntity
  8
USP-GEO
100
AcDbEllipse
 10
0.880802994038845
 20
2.047799999999995
 30
0.0
 11
0.0000000000000251
 21
0.0820000000000143
 31
0.0
210
-0.0000000000000001
220
0.0
230
1.0
 40
0.7071067811864547
 41
0.3105698314581571
 42
1.570796326794939
  0
ELLIPSE
  5
67
100
AcDbEntity
  8
USP-GEO
100
AcDbEllipse
 10
0.880802994038845
 20
2.047799999999995
 30
0.0
 11
0.0000000000000072
 21
0.0820000000000056
 31
0.0
210
-0.0000000000000001
220
0.0
230
1.0
 40
0.70710678118653
 41
1.57079632679478
 42
2.831022822131679
  0
ELLIPSE
  5
68
100
AcDbEntity
  8
USP-GEO
100
AcDbEllipse
 10
4.83979700596123
 20
1.92279999999998
 30
0.0000000000000005
 11
0.0000000000000489
 21
0.0819999999999894
 31
0.0
210
-0.0000000000000001
220
0.0
230
1.0
 40
0.7071067811866698
 41
-1.570796326794475
 42
-0.3105698314571387
  0
ELLIPSE
  5
69
100
AcDbEntity
  8
USP-GEO
100
AcDbEllipse
 10
4.83979700596123
 20
1.92279999999998
 30
0.0000000000000005
 11
-0.0000000000000488
 21
0.0819999999999894
 31
0.0
210
-0.0000000000000001
220
0.0
230
1.0
 40
0.70710678118667
 41
-2.831022822132652
 42
-1.57079632679532
  0
ELLIPSE
  5
6A
100
AcDbEntity
  8
USP-GEO
100
AcDbEllipse
 10
4.875236212175636
 20
1.92279999999998
 30
0.0000000000000005
 11
0.0
 21
-0.0820000000000036
 31
0.0
210
-0.0000000000000001
220
0.0
230
1.0
 40
0.7071067811865475
 41
0.0000000000000001
 42
6.283185307179586
  0
ELLIPSE
  5
6B
100
AcDbEntity
  8
USP-GEO
100
AcDbEllipse
 10
4.83979700596123
 20
3.964931211054931
 30
0.0000000000000005
 11
0.0000000000000489
 21
0.0819999999999894
 31
0.0
210
-0.0000000000000001
220
0.0
230
1.0
 40
0.7071067811866698
 41
-1.570796326794475
 42
-0.3105698314571387
  0
ELLIPSE
  5
6C
100
AcDbEntity
  8
USP-GEO
100
AcDbEllipse
 10
4.83979700596123
 20
3.964931211054931
 30
0.0000000000000005
 11
-0.0000000000000488
 21
0.0819999999999894
 31
0.0
210
-0.0000000000000001
220
0.0
230
1.0
 40
0.70710678118667
 41
-2.831022822132653
 42
-1.570796326795317
  0
ELLIPSE
  5
6D
100
AcDbEntity
  8
USP-GEO
100
AcDbEllipse
 10
4.875236212175636
 20
3.964931211054931
 30
0.0000000000000005
 11
0.0
 21
-0.0820000000000036
 31
0.0
210
-0.0000000000000001
220
0.0
230
1.0
 40
0.7071067811865475
 41
0.0000000000000001
 42
6.283185307179586
  0
TEXT
  5
6E
100
AcDbEntity
  8
USP-TXT
100
AcDbText
 10
-0.0084499999999772
 20
-1.08798678665137
 30
0.0000000000000002
 40
0.31875
  1
JUS48 - FRONT VIEW
 72
     1
 11
2.860300000000023
 21
-1.08798678665137
 31
0.0000000000000002
100
AcDbText
  0
ARC
  5
6F
100
AcDbEntity
  8
USP-GEO
100
AcDbCircle
 10
1.047800000000023
 20
2.047799999999995
 30
0.0
 40
0.2977999999999987
100
AcDbArc
 50
99.23652345544919
 51
260.7634765445508
  0
LINE
  5
70
100
AcDbEntity
  8
USP-GEO
100
AcDbLine
 10
1.000000000000028
 20
2.486046378881582
 30
0.0
 11
1.000000000000028
 21
1.068434413820199
 31
0.0
210
0.0
220
1.0
230
0.0
  0
LINE
  5
71
100
AcDbEntity
  8
USP-GEO
100
AcDbLine
 10
1.047800000000023
 20
2.486046378881582
 30
0.0
 11
1.047800000000023
 21
1.068434413820199
 31
0.0
210
0.0
220
1.0
230
0.0
  0
LINE
  5
72
100
AcDbEntity
  8
USP-GEO
100
AcDbLine
 10
1.000000000000014
 20
1.351956806832461
 30
0.0
 11
0.1871962843466406
 21
2.486046378881596
 31
-0.0000000000000001
210
0.0
220
1.0
230
0.0
  0
LINE
  5
73
100
AcDbEntity
  8
USP-GEO
100
AcDbLine
 10
1.000000000000028
 20
0.9227999999999951
 30
0.0
 11
1.000000000000028
 21
0.0
 31
0.0
210
0.0
220
1.0
230
0.0
  0
LINE
  5
74
100
AcDbEntity
  8
USP-GEO
100
AcDbLine
 10
1.047800000000009
 20
0.9227999999999951
 30
0.0
 11
1.047800000000009
 21
0.0477999999999952
 31
0.0
210
0.0
220
1.0
230
0.0
  0
LINE
  5
75
100
AcDbEntity
  8
USP-GEO
100
AcDbLine
 10
1.735300000000009
 20
0.0477999999999952
 30
0.0000000000000001
 11
1.047800000000009
 21
0.0477999999999952
 31
0.0
210
0.0
220
1.0
230
0.0
  0
LINE
  5
76
100
AcDbEntity
  8
USP-GEO
100
AcDbLine
 10
1.000000000000028
 20
0.0
 30
0.0
 11
1.735300000000009
 21
0.0
 31
0.0000000000000001
210
0.0
220
1.0
230
0.0
  0
LINE
  5
77
100
AcDbEntity
  8
USP-GEO
100
AcDbLine
 10
1.766550000000009
 20
0.0477999999999952
 30
0.0000000000000001
 11
1.735300000000009
 21
0.0477999999999952
 31
0.0000000000000001
210
0.0
220
1.0
230
0.0
  0
LINE
  5
78
100
AcDbEntity
  8
USP-GEO
100
AcDbLine
 10
1.954050000000023
 20
0.0477999999999952
 30
0.0000000000000001
 11
1.766550000000009
 21
0.0477999999999952
 31
0.0000000000000001
210
0.0
220
1.0
230
0.0
  0
LINE
  5
79
100
AcDbEntity
  8
USP-GEO
100
AcDbLine
 10
1.985300000000037
 20
0.0477999999999952
 30
0.0000000000000001
 11
1.954050000000023
 21
0.0477999999999952
 31
0.0000000000000001
210
0.0
220
1.0
230
0.0
  0
LINE
  5
7A
100
AcDbEntity
  8
USP-GEO
100
AcDbLine
 10
1.985300000000009
 20
0.0477999999999952
 30
0.0000000000000001
 11
1.985300000000009
 21
0.0
 31
0.0000000000000001
210
0.0
220
1.0
230
0.0
  0
LINE
  5
7B
100
AcDbEntity
  8
USP-GEO
100
AcDbLine
 10
1.735300000000009
 20
0.0477999999999952
 30
0.0000000000000001
 11
1.735300000000009
 21
0.0
 31
0.0000000000000001
210
0.0
220
1.0
230
0.0
  0
LINE
  5
7C
100
AcDbEntity
  8
USP-GEO
100
AcDbLine
 10
1.735300000000009
 20
0.0
 30
0.0000000000000001
 11
1.766550000000009
 21
0.0
 31
0.0000000000000001
210
0.0
220
1.0
230
0.0
  0
LINE
  5
7D
100
AcDbEntity
  8
USP-GEO
100
AcDbLine
 10
1.766550000000009
 20
0.0
 30
0.0000000000000001
 11
1.954050000000023
 21
0.0
 31
0.0000000000000001
210
0.0
220
1.0
230
0.0
  0
LINE
  5
7E
100
AcDbEntity
  8
USP-GEO
100
AcDbLine
 10
1.954050000000023
 20
0.0
 30
0.0000000000000001
 11
1.985300000000023
 21
0.0
 31
0.0000000000000001
210
0.0
220
1.0
230
0.0
  0
LINE
  5
7F
100
AcDbEntity
  8
USP-GEO
100
AcDbLine
 10
1.000000000000028
 20
1.068434413820199
 30
0.0
 11
1.000000000000028
 21
0.9227999999999951
 31
0.0
210
0.0
220
1.0
230
0.0
  0
LINE
  5
80
100
AcDbEntity
  8
USP-GEO
100
AcDbLine
 10
1.047800000000023
 20
1.068434413820199
 30
0.0
 11
1.047800000000023
 21
0.9227999999999951
 31
0.0
210
0.0
220
1.0
230
0.0
  0
LINE
  5
81
100
AcDbEntity
  8
USP-GEO
100
AcDbLine
 10
0.6875000000000285
 20
5.716584382792348
 30
0.0
 11
0.5875000000000341
 21
5.798499587221243
 31
-0.0000000000000001
210
0.0
220
1.0
230
0.0
  0
LINE
  5
82
100
AcDbEntity
  8
USP-GEO
100
AcDbLine
 10
0.6875000000000285
 20
5.622800000000012
 30
0.0
 11
0.5875000000000341
 21
5.722800000000006
 31
-0.0000000000000001
210
0.0
220
1.0
230
0.0
  0
LINE
  5
83
100
AcDbEntity
  8
USP-GEO
100
AcDbLine
 10
0.5875000000000341
 20
6.437871282108403
 30
-0.0000000000000001
 11
0.7875000000000228
 21
6.437871282108403
 31
0.0
210
0.0
220
1.0
230
0.0
  0
LINE
  5
84
100
AcDbEntity
  8
USP-GEO
100
AcDbLine
 10
1.000000000000028
 20
7.047799999999995
 30
0.0
 11
0.0
 21
7.047799999999995
 31
-0.0000000000000001
210
0.0
220
1.0
230
0.0
  0
LINE
  5
85
100
AcDbEntity
  8
USP-GEO
100
AcDbLine
 10
0.0
 20
4.882062422109868
 30
-0.0000000000000001
 11
0.0
 21
5.380668788945058
 31
-0.0000000000000001
210
0.0
220
1.0
230
0.0
  0
ARC
  5
86
100
AcDbEntity
  8
USP-GEO
100
AcDbCircle
 10
0.25
 20
3.547800000000009
 30
-0.0000000000000001
 40
0.2499999999999962
100
AcDbArc
 50
105.4660099534196
 51
180.0000000000016
  0
CIRCLE
  5
87
100
AcDbEntity
  8
USP-GEO
100
AcDbCircle
 10
0.3125000000000142
 20
2.922799999999995
 30
-0.0000000000000001
 40
0.086
  0
ARC
  5
88
100
AcDbEntity
  8
USP-GEO
100
AcDbCircle
 10
1.000000000000014
 20
3.068584034162427
 30
0.0
 40
0.999999999999998
100
AcDbArc
 50
180.0000000000008
 51
215.6292264487
  0
LINE
  5
89
100
AcDbEntity
  8
USP-GEO
100
AcDbLine
 10
0.0
 20
3.068584034162398
 30
-0.0000000000000001
 11
0.0
 21
3.547799999999995
 31
-0.0000000000000001
210
0.0
220
1.0
230
0.0
  0
ARC
  5
8A
100
AcDbEntity
  8
USP-GEO
100
AcDbCircle
 10
0.1000000000000654
 20
4.089931211055017
 30
-0.0000000000000001
 40
0.3124999999999597
100
AcDbArc
 50
285.4660099534104
 51
359.9999999999853
  0
CIRCLE
  5
8B
100
AcDbEntity
  8
USP-GEO
100
AcDbCircle
 10
0.3125000000000142
 20
4.839931211054931
 30
-0.0000000000000001
 40
0.086
  0
LINE
  5
8C
100
AcDbEntity
  8
USP-GEO
100
AcDbLine
 10
0.412500000000037
 20
4.089931211054931
 30
-0.0000000000000001
 11
0.412500000000037
 21
4.339931211054931
 31
-0.0000000000000001
210
0.0
220
1.0
230
0.0
  0
ARC
  5
8D
100
AcDbEntity
  8
USP-GEO
100
AcDbCircle
 10
0.1000000000000227
 20
4.339931211054931
 30
-0.0000000000000001
 40
0.3124999999999979
100
AcDbArc
 50
0.0
 51
74.533990046577
  0
ARC
  5
8E
100
AcDbEntity
  8
USP-GEO
100
AcDbCircle
 10
0.2499999999999858
 20
4.882062422109953
 30
-0.0000000000000001
 40
0.2499999999999579
100
AcDbArc
 50
180.0000000000162
 51
254.5339900465878
  0
ARC
  5
8F
100
AcDbEntity
  8
USP-GEO
100
AcDbCircle
 10
0.1000000000000227
 20
5.922800000000009
 30
-0.0000000000000001
 40
0.312499999999998
100
AcDbArc
 50
285.4660099534255
 51
0.0000000000024427
  0
ARC
  5
90
100
AcDbEntity
  8
USP-GEO
100
AcDbCircle
 10
0.2499999999999858
 20
5.380668788945001
 30
-0.0000000000000001
 40
0.249999999999959
100
AcDbArc
 50
105.4660099534051
 51
179.9999999999853
  0
LINE
  5
91
100
AcDbEntity
  8
USP-GEO
100
AcDbLine
 10
0.5875000000000341
 20
6.151775224097008
 30
-0.0000000000000001
 11
0.5875000000000341
 21
6.437871282108432
 31
-0.0000000000000001
210
0.0
220
1.0
230
0.0
  0
LINE
  5
92
100
AcDbEntity
  8
USP-GEO
100
AcDbLine
 10
0.5875000000000199
 20
5.810845258770427
 30
-0.0000000000000001
 11
0.5875000000000199
 21
6.096941316781837
 31
-0.0000000000000001
210
0.0
220
1.0
230
0.0
  0
LINE
  5
93
100
AcDbEntity
  8
USP-GEO
100
AcDbLine
 10
0.5875000000000341
 20
6.151775224097008
 30
-0.0000000000000001
 11
0.5875000000000341
 21
6.096941316781837
 31
-0.0000000000000001
210
0.0
220
1.0
230
0.0
  0
LINE
  5
94
100
AcDbEntity
  8
USP-GEO
100
AcDbLine
 10
0.5875000000000341
 20
5.722800000000006
 30
-0.0000000000000001
 11
0.5875000000000341
 21
5.810845258770427
 31
-0.0000000000000001
210
0.0
220
1.0
230
0.0
  0
CIRCLE
  5
95
100
AcDbEntity
  8
USP-GEO
100
AcDbCircle
 10
0.3125000000000142
 20
6.672800000000009
 30
-0.0000000000000001
 40
0.086
  0
LINE
  5
96
100
AcDbEntity
  8
USP-GEO
100
AcDbLine
 10
0.4125000000000228
 20
5.922800000000023
 30
-0.0000000000000001
 11
0.4125000000000228
 21
6.172800000000023
 31
-0.0000000000000001
210
0.0
220
1.0
230
0.0
  0
ARC
  5
97
100
AcDbEntity
  8
USP-GEO
100
AcDbCircle
 10
0.1000000000000654
 20
6.172799999999938
 30
-0.0000000000000001
 40
0.3124999999999514
100
AcDbArc
 50
0.0000000000130276
 51
74.53399004658887
  0
ARC
  5
98
100
AcDbEntity
  8
USP-GEO
100
AcDbCircle
 10
0.25
 20
6.71493121105496
 30
-0.0000000000000001
 40
0.2500000000000008
100
AcDbArc
 50
179.9999999999983
 51
254.5339900465803
  0
LINE
  5
99
100
AcDbEntity
  8
USP-GEO
100
AcDbLine
 10
0.0
 20
6.71493121105496
 30
-0.0000000000000001
 11
0.0
 21
7.047799999999995
 31
-0.0000000000000001
210
0.0
220
1.0
230
0.0
  0
LINE
  5
9A
100
AcDbEntity
  8
USP-GEO
100
AcDbLine
 10
1.000000000000014
 20
5.380668788944973
 30
0.0
 11
1.000000000000014
 21
4.882062422109967
 31
0.0
210
0.0
220
1.0
230
0.0
  0
LINE
  5
9B
100
AcDbEntity
  8
USP-GEO
100
AcDbLine
 10
1.047800000000023
 20
5.380668788944973
 30
0.0
 11
1.047800000000023
 21
4.882062422109967
 31
0.0
210
0.0
220
1.0
230
0.0
  0
LINE
  5
9C
100
AcDbEntity
  8
USP-GEO
100
AcDbLine
 10
1.000000000000028
 20
3.788747204913249
 30
0.0
 11
1.000000000000028
 21
3.547799999999895
 31
0.0
210
0.0
220
1.0
230
0.0
  0
LINE
  5
9D
100
AcDbEntity
  8
USP-GEO
100
AcDbLine
 10
1.047800000000023
 20
3.788747204913249
 30
0.0
 11
1.047800000000023
 21
3.547799999999881
 31
0.0
210
0.0
220
1.0
230
0.0
  0
LINE
  5
9E
100
AcDbEntity
  8
USP-GEO
100
AcDbLine
 10
1.000000000000028
 20
3.068584034162398
 30
0.0
 11
1.000000000000028
 21
2.486046378881582
 31
0.0
210
0.0
220
1.0
230
0.0
  0
LINE
  5
9F
100
AcDbEntity
  8
USP-GEO
100
AcDbLine
 10
1.047800000000023
 20
3.068584034162398
 30
0.0
 11
1.047800000000023
 21
2.486046378881582
 31
0.0
210
0.0
220
1.0
230
0.0
  0
LINE
  5
A0
100
AcDbEntity
  8
USP-GEO
100
AcDbLine
 10
1.000000000000014
 20
3.547799999999895
 30
0.0
 11
1.000000000000014
 21
3.068584034162398
 31
0.0
210
0.0
220
1.0
230
0.0
  0
LINE
  5
A1
100
AcDbEntity
  8
USP-GEO
100
AcDbLine
 10
1.047800000000023
 20
3.547799999999881
 30
0.0
 11
1.047800000000023
 21
3.068584034162398
 31
0.0
210
0.0
220
1.0
230
0.0
  0
LINE
  5
A2
100
AcDbEntity
  8
USP-GEO
100
AcDbLine
 10
1.000000000000028
 20
4.089931211054945
 30
0.0
 11
1.000000000000028
 21
3.788747204913249
 31
0.0
210
0.0
220
1.0
230
0.0
  0
LINE
  5
A3
100
AcDbEntity
  8
USP-GEO
100
AcDbLine
 10
1.047800000000023
 20
4.089931211054931
 30
0.0
 11
1.047800000000023
 21
3.788747204913249
 31
0.0
210
0.0
220
1.0
230
0.0
  0
ARC
  5
A4
100
AcDbEntity
  8
USP-GEO
100
AcDbCircle
 10
1.047800000000023
 20
4.214931211054931
 30
0.0
 40
0.2977999999999987
100
AcDbArc
 50
99.23652345544919
 51
260.7634765445508
  0
LINE
  5
A5
100
AcDbEntity
  8
USP-GEO
100
AcDbLine
 10
1.000000000000028
 20
4.882062422109967
 30
0.0
 11
1.000000000000028
 21
4.641115217196627
 31
0.0
210
0.0
220
1.0
230
0.0
  0
LINE
  5
A6
100
AcDbEntity
  8
USP-GEO
100
AcDbLine
 10
1.000000000000028
 20
4.641115217196613
 30
0.0
 11
1.000000000000028
 21
4.339931211054945
 31
0.0
210
0.0
220
1.0
230
0.0
  0
LINE
  5
A7
100
AcDbEntity
  8
USP-GEO
100
AcDbLine
 10
1.000000000000028
 20
4.339931211054945
 30
0.0
 11
1.000000000000028
 21
4.089931211054945
 31
0.0
210
0.0
220
1.0
230
0.0
  0
LINE
  5
A8
100
AcDbEntity
  8
USP-GEO
100
AcDbLine
 10
1.047800000000023
 20
4.339931211054931
 30
0.0
 11
1.047800000000023
 21
4.089931211054931
 31
0.0
210
0.0
220
1.0
230
0.0
  0
LINE
  5
A9
100
AcDbEntity
  8
USP-GEO
100
AcDbLine
 10
1.047800000000023
 20
4.641115217196627
 30
0.0
 11
1.047800000000023
 21
4.339931211054931
 31
0.0
210
0.0
220
1.0
230
0.0
  0
LINE
  5
AA
100
AcDbEntity
  8
USP-GEO
100
AcDbLine
 10
1.047800000000023
 20
4.882062422109967
 30
0.0
 11
1.047800000000023
 21
4.641115217196613
 31
0.0
210
0.0
220
1.0
230
0.0
  0
LINE
  5
AB
100
AcDbEntity
  8
USP-GEO
100
AcDbLine
 10
0.7875000000000228
 20
5.722800000000006
 30
0.0
 11
0.6875000000000285
 21
5.622799999999998
 31
0.0
210
0.0
220
1.0
230
0.0
  0
LINE
  5
AC
100
AcDbEntity
  8
USP-GEO
100
AcDbLine
 10
1.000000000000028
 20
5.922800000000023
 30
0.0
 11
1.000000000000028
 21
5.621615993858313
 31
0.0
210
0.0
220
1.0
230
0.0
  0
LINE
  5
AD
100
AcDbEntity
  8
USP-GEO
100
AcDbLine
 10
1.047800000000023
 20
5.922800000000009
 30
0.0
 11
1.047800000000023
 21
5.621615993858313
 31
0.0
210
0.0
220
1.0
230
0.0
  0
LINE
  5
AE
100
AcDbEntity
  8
USP-GEO
100
AcDbLine
 10
1.000000000000028
 20
5.621615993858313
 30
0.0
 11
1.000000000000028
 21
5.380668788944973
 31
0.0
210
0.0
220
1.0
230
0.0
  0
LINE
  5
AF
100
AcDbEntity
  8
USP-GEO
100
AcDbLine
 10
1.047800000000023
 20
5.621615993858313
 30
0.0
 11
1.047800000000023
 21
5.380668788944973
 31
0.0
210
0.0
220
1.0
230
0.0
  0
LINE
  5
B0
100
AcDbEntity
  8
USP-GEO
100
AcDbLine
 10
1.047800000000023
 20
7.047799999999995
 30
0.0
 11
1.000000000000014
 21
7.047799999999995
 31
0.0
210
0.0
220
1.0
230
0.0
  0
LINE
  5
B1
100
AcDbEntity
  8
USP-GEO
100
AcDbLine
 10
0.7875000000000228
 20
5.798499587221243
 30
0.0
 11
0.6875000000000285
 21
5.716584382792348
 31
0.0
210
0.0
220
1.0
230
0.0
  0
LINE
  5
B2
100
AcDbEntity
  8
USP-GEO
100
AcDbLine
 10
0.7875000000000228
 20
6.096941316781823
 30
0.0
 11
0.7875000000000228
 21
5.810845258770413
 31
0.0
210
0.0
220
1.0
230
0.0
  0
LINE
  5
B3
100
AcDbEntity
  8
USP-GEO
100
AcDbLine
 10
0.7875000000000086
 20
6.096941316781837
 30
0.0
 11
0.7875000000000086
 21
6.151775224097008
 31
0.0
210
0.0
220
1.0
230
0.0
  0
LINE
  5
B4
100
AcDbEntity
  8
USP-GEO
100
AcDbLine
 10
0.7875000000000228
 20
6.437871282108432
 30
0.0
 11
0.7875000000000086
 21
6.151775224097008
 31
0.0
210
0.0
220
1.0
230
0.0
  0
LINE
  5
B5
100
AcDbEntity
  8
USP-GEO
100
AcDbLine
 10
0.7875000000000228
 20
5.810845258770413
 30
0.0
 11
0.7875000000000228
 21
5.722800000000006
 31
0.0
210
0.0
220
1.0
230
0.0
  0
LINE
  5
B6
100
AcDbEntity
  8
USP-GEO
100
AcDbLine
 10
1.000000000000028
 20
6.714931211055045
 30
0.0
 11
1.000000000000028
 21
6.473984006141705
 31
0.0
210
0.0
220
1.0
230
0.0
  0
LINE
  5
B7
100
AcDbEntity
  8
USP-GEO
100
AcDbLine
 10
1.000000000000028
 20
6.473984006141705
 30
0.0
 11
1.000000000000028
 21
6.172800000000023
 31
0.0
210
0.0
220
1.0
230
0.0
  0
LINE
  5
B8
100
AcDbEntity
  8
USP-GEO
100
AcDbLine
 10
1.000000000000028
 20
6.172800000000023
 30
0.0
 11
1.000000000000028
 21
5.922800000000023
 31
0.0
210
0.0
220
1.0
230
0.0
  0
LINE
  5
B9
100
AcDbEntity
  8
USP-GEO
100
AcDbLine
 10
1.047800000000023
 20
6.172800000000009
 30
0.0
 11
1.047800000000023
 21
5.922800000000009
 31
0.0
210
0.0
220
1.0
230
0.0
  0
LINE
  5
BA
100
AcDbEntity
  8
USP-GEO
100
AcDbLine
 10
1.047800000000023
 20
6.473984006141705
 30
0.0
 11
1.047800000000023
 21
6.172800000000009
 31
0.0
210
0.0
220
1.0
230
0.0
  0
LINE
  5
BB
100
AcDbEntity
  8
USP-GEO
100
AcDbLine
 10
1.047800000000023
 20
6.714931211055045
 30
0.0
 11
1.047800000000023
 21
6.473984006141705
 31
0.0
210
0.0
220
1.0
230
0.0
  0
LINE
  5
BC
100
AcDbEntity
  8
USP-GEO
100
AcDbLine
 10
1.000000000000014
 20
7.047799999999995
 30
0.0
 11
1.000000000000014
 21
6.714931211055045
 31
0.0
210
0.0
220
1.0
230
0.0
  0
LINE
  5
BD
100
AcDbEntity
  8
USP-GEO
100
AcDbLine
 10
1.047800000000023
 20
7.047799999999995
 30
0.0
 11
1.047800000000023
 21
6.714931211055045
 31
0.0
210
0.0
220
1.0
230
0.0
  0
LINE
  5
BE
100
AcDbEntity
  8
USP-GEO
100
AcDbLine
 10
4.672800000000052
 20
0.0477999999999952
 30
0.0000000000000004
 11
3.985300000000023
 21
0.0477999999999952
 31
0.0000000000000004
210
0.0
220
1.0
230
0.0
  0
LINE
  5
BF
100
AcDbEntity
  8
USP-GEO
100
AcDbLine
 10
3.985300000000023
 20
0.0
 30
0.0000000000000004
 11
4.720600000000047
 21
0.0
 31
0.0000000000000005
210
0.0
220
1.0
230
0.0
  0
LINE
  5
C0
100
AcDbEntity
  8
USP-GEO
100
AcDbLine
 10
3.766550000000023
 20
0.0477999999999952
 30
0.0000000000000003
 11
3.735300000000023
 21
0.0477999999999952
 31
0.0000000000000003
210
0.0
220
1.0
230
0.0
  0
LINE
  5
C1
100
AcDbEntity
  8
USP-GEO
100
AcDbLine
 10
3.954050000000023
 20
0.0477999999999952
 30
0.0000000000000004
 11
3.766550000000023
 21
0.0477999999999952
 31
0.0000000000000003
210
0.0
220
1.0
230
0.0
  0
LINE
  5
C2
100
AcDbEntity
  8
USP-GEO
100
AcDbLine
 10
3.985300000000037
 20
0.0477999999999952
 30
0.0000000000000004
 11
3.954050000000023
 21
0.0477999999999952
 31
0.0000000000000004
210
0.0
220
1.0
230
0.0
  0
LINE
  5
C3
100
AcDbEntity
  8
USP-GEO
100
AcDbLine
 10
3.735300000000023
 20
0.0477999999999952
 30
0.0000000000000003
 11
3.735300000000023
 21
0.0
 31
0.0000000000000003
210
0.0
220
1.0
230
0.0
  0
LINE
  5
C4
100
AcDbEntity
  8
USP-GEO
100
AcDbLine
 10
3.735300000000023
 20
0.0
 30
0.0000000000000003
 11
3.766550000000023
 21
0.0
 31
0.0000000000000003
210
0.0
220
1.0
230
0.0
  0
LINE
  5
C5
100
AcDbEntity
  8
USP-GEO
100
AcDbLine
 10
3.766550000000023
 20
0.0
 30
0.0000000000000003
 11
3.954050000000023
 21
0.0
 31
0.0000000000000004
210
0.0
220
1.0
230
0.0
  0
LINE
  5
C6
100
AcDbEntity
  8
USP-GEO
100
AcDbLine
 10
3.954050000000023
 20
0.0
 30
0.0000000000000004
 11
3.985300000000037
 21
0.0
 31
0.0000000000000004
210
0.0
220
1.0
230
0.0
  0
LINE
  5
C7
100
AcDbEntity
  8
USP-GEO
100
AcDbLine
 10
3.985300000000023
 20
0.0477999999999952
 30
0.0000000000000004
 11
3.985300000000023
 21
0.0
 31
0.0000000000000004
210
0.0
220
1.0
230
0.0
  0
LINE
  5
C8
100
AcDbEntity
  8
USP-GEO
100
AcDbLine
 10
4.672800000000066
 20
2.486046378881582
 30
0.0000000000000004
 11
4.672800000000066
 21
1.068434413820185
 31
0.0000000000000004
210
0.0
220
1.0
230
0.0
  0
LINE
  5
C9
100
AcDbEntity
  8
USP-GEO
100
AcDbLine
 10
4.720600000000047
 20
1.068434413820185
 30
0.0000000000000005
 11
4.720600000000047
 21
2.486046378881582
 31
0.0000000000000005
210
0.0
220
1.0
230
0.0
  0
LINE
  5
CA
100
AcDbEntity
  8
USP-GEO
100
AcDbLine
 10
5.53340371565342
 20
2.486046378881582
 30
0.0000000000000006
 11
4.720600000000061
 21
1.351956806832447
 31
0.0000000000000005
210
0.0
220
1.0
230
0.0
  0
ARC
  5
CB
100
AcDbEntity
  8
USP-GEO
100
AcDbCircle
 10
4.672800000000052
 20
1.922799999999966
 30
0.0000000000000004
 40
0.2977999999999987
100
AcDbArc
 50
279.2365234554491
 51
80.76347654455082
  0
LINE
  5
CC
100
AcDbEntity
  8
USP-GEO
100
AcDbLine
 10
4.672800000000052
 20
0.9227999999999667
 30
0.0000000000000004
 11
4.672800000000052
 21
0.0477999999999952
 31
0.0000000000000004
210
0.0
220
1.0
230
0.0
  0
LINE
  5
CD
100
AcDbEntity
  8
USP-GEO
100
AcDbLine
 10
4.720600000000047
 20
0.0
 30
0.0000000000000005
 11
4.720600000000047
 21
0.9227999999999667
 31
0.0000000000000005
210
0.0
220
1.0
230
0.0
  0
LINE
  5
CE
100
AcDbEntity
  8
USP-GEO
100
AcDbLine
 10
4.672800000000052
 20
1.068434413820185
 30
0.0000000000000004
 11
4.672800000000052
 21
0.9227999999999667
 31
0.0000000000000004
210
0.0
220
1.0
230
0.0
  0
LINE
  5
CF
100
AcDbEntity
  8
USP-GEO
100
AcDbLine
 10
4.720600000000047
 20
0.9227999999999667
 30
0.0000000000000005
 11
4.720600000000047
 21
1.068434413820185
 31
0.0000000000000005
210
0.0
220
1.0
230
0.0
  0
LINE
  5
D0
100
AcDbEntity
  8
USP-GEO
100
AcDbLine
 10
4.672800000000052
 20
5.371615993858299
 30
0.0000000000000004
 11
4.672800000000052
 21
5.130668788944973
 31
0.0000000000000004
210
0.0
220
1.0
230
0.0
  0
LINE
  5
D1
100
AcDbEntity
  8
USP-GEO
100
AcDbLine
 10
4.720600000000047
 20
5.130668788944973
 30
0.0000000000000005
 11
4.720600000000047
 21
5.371615993858299
 31
0.0000000000000005
210
0.0
220
1.0
230
0.0
  0
ARC
  5
D2
100
AcDbEntity
  8
USP-GEO
100
AcDbCircle
 10
5.470600000000061
 20
5.130668788945058
 30
0.0000000000000005
 40
0.2499999999999961
100
AcDbArc
 50
0.0
 51
74.533990046577
  0
LINE
  5
D3
100
AcDbEntity
  8
USP-GEO
100
AcDbLine
 10
4.672800000000037
 20
3.839931211054931
 30
0.0000000000000004
 11
4.672800000000037
 21
3.538747204913235
 31
0.0000000000000004
210
0.0
220
1.0
230
0.0
  0
LINE
  5
D4
100
AcDbEntity
  8
USP-GEO
100
AcDbLine
 10
4.720600000000047
 20
3.538747204913221
 30
0.0000000000000005
 11
4.720600000000047
 21
3.839931211054931
 31
0.0000000000000005
210
0.0
220
1.0
230
0.0
  0
ARC
  5
D5
100
AcDbEntity
  8
USP-GEO
100
AcDbCircle
 10
5.620599999999981
 20
3.839931211054988
 30
0.0000000000000006
 40
0.3124999999999596
100
AcDbArc
 50
180.000000000013
 51
254.5339900465948
  0
LINE
  5
D6
100
AcDbEntity
  8
USP-GEO
100
AcDbLine
 10
4.672800000000052
 20
3.068584034162398
 30
0.0000000000000004
 11
4.672800000000052
 21
2.486046378881582
 31
0.0000000000000004
210
0.0
220
1.0
230
0.0
  0
LINE
  5
D7
100
AcDbEntity
  8
USP-GEO
100
AcDbLine
 10
4.672800000000052
 20
3.297799999999995
 30
0.0000000000000004
 11
4.672800000000052
 21
3.068584034162398
 31
0.0000000000000004
210
0.0
220
1.0
230
0.0
  0
LINE
  5
D8
100
AcDbEntity
  8
USP-GEO
100
AcDbLine
 10
4.720600000000047
 20
2.486046378881582
 30
0.0000000000000005
 11
4.720600000000047
 21
3.068584034162398
 31
0.0000000000000005
210
0.0
220
1.0
230
0.0
  0
LINE
  5
D9
100
AcDbEntity
  8
USP-GEO
100
AcDbLine
 10
4.720600000000047
 20
3.068584034162398
 30
0.0000000000000005
 11
4.720600000000047
 21
3.297799999999995
 31
0.0000000000000005
210
0.0
220
1.0
230
0.0
  0
LINE
  5
DA
100
AcDbEntity
  8
USP-GEO
100
AcDbLine
 10
4.672800000000037
 20
3.538747204913221
 30
0.0000000000000004
 11
4.672800000000037
 21
3.297799999999995
 31
0.0000000000000004
210
0.0
220
1.0
230
0.0
  0
LINE
  5
DB
100
AcDbEntity
  8
USP-GEO
100
AcDbLine
 10
4.720600000000047
 20
3.297799999999995
 30
0.0000000000000005
 11
4.720600000000047
 21
3.538747204913221
 31
0.0000000000000005
210
0.0
220
1.0
230
0.0
  0
LINE
  5
DC
100
AcDbEntity
  8
USP-GEO
100
AcDbLine
 10
5.720600000000047
 20
3.297799999999995
 30
0.0000000000000006
 11
5.720600000000047
 21
3.068584034162398
 31
0.0000000000000006
210
0.0
220
1.0
230
0.0
  0
ARC
  5
DD
100
AcDbEntity
  8
USP-GEO
100
AcDbCircle
 10
4.720600000000047
 20
3.068584034162398
 30
0.0000000000000005
 40
0.999999999999998
100
AcDbArc
 50
324.3707735512987
 51
359.9999999999992
  0
CIRCLE
  5
DE
100
AcDbEntity
  8
USP-GEO
100
AcDbCircle
 10
5.408100000000032
 20
2.797799999999995
 30
0.0000000000000005
 40
0.086
  0
ARC
  5
DF
100
AcDbEntity
  8
USP-GEO
100
AcDbCircle
 10
5.470600000000061
 20
3.297799999999995
 30
0.0000000000000005
 40
0.2499999999999961
100
AcDbArc
 50
0.0
 51
74.533990046577
  0
LINE
  5
E0
100
AcDbEntity
  8
USP-GEO
100
AcDbLine
 10
4.672800000000052
 20
4.089931211054931
 30
0.0000000000000004
 11
4.672800000000052
 21
3.839931211054931
 31
0.0000000000000004
210
0.0
220
1.0
230
0.0
  0
LINE
  5
E1
100
AcDbEntity
  8
USP-GEO
100
AcDbLine
 10
4.720600000000032
 20
3.839931211054931
 30
0.0000000000000005
 11
4.720600000000032
 21
4.089931211054931
 31
0.0000000000000005
210
0.0
220
1.0
230
0.0
  0
ARC
  5
E2
100
AcDbEntity
  8
USP-GEO
100
AcDbCircle
 10
4.672800000000052
 20
3.964931211054931
 30
0.0000000000000004
 40
0.2977999999999987
100
AcDbArc
 50
279.2365234554491
 51
80.76347654455082
  0
LINE
  5
E3
100
AcDbEntity
  8
USP-GEO
100
AcDbLine
 10
4.672800000000052
 20
4.632062422109953
 30
0.0000000000000004
 11
4.672800000000052
 21
4.391115217196613
 31
0.0000000000000004
210
0.0
220
1.0
230
0.0
  0
LINE
  5
E4
100
AcDbEntity
  8
USP-GEO
100
AcDbLine
 10
4.672800000000052
 20
5.130668788944973
 30
0.0000000000000004
 11
4.672800000000052
 21
4.632062422109953
 31
0.0000000000000004
210
0.0
220
1.0
230
0.0
  0
LINE
  5
E5
100
AcDbEntity
  8
USP-GEO
100
AcDbLine
 10
4.672800000000052
 20
4.391115217196613
 30
0.0000000000000004
 11
4.672800000000052
 21
4.089931211054931
 31
0.0000000000000004
210
0.0
220
1.0
230
0.0
  0
LINE
  5
E6
100
AcDbEntity
  8
USP-GEO
100
AcDbLine
 10
4.720600000000047
 20
4.089931211054931
 30
0.0000000000000005
 11
4.720600000000047
 21
4.391115217196613
 31
0.0000000000000005
210
0.0
220
1.0
230
0.0
  0
LINE
  5
E7
100
AcDbEntity
  8
USP-GEO
100
AcDbLine
 10
4.720600000000047
 20
4.391115217196613
 30
0.0000000000000005
 11
4.720600000000047
 21
4.632062422109953
 31
0.0000000000000005
210
0.0
220
1.0
230
0.0
  0
LINE
  5
E8
100
AcDbEntity
  8
USP-GEO
100
AcDbLine
 10
4.720600000000032
 20
4.632062422109953
 30
0.0000000000000005
 11
4.720600000000032
 21
5.130668788944973
 31
0.0000000000000005
210
0.0
220
1.0
230
0.0
  0
LINE
  5
E9
100
AcDbEntity
  8
USP-GEO
100
AcDbLine
 10
5.308100000000052
 20
4.089931211054931
 30
0.0000000000000005
 11
5.308100000000052
 21
3.839931211054931
 31
0.0000000000000005
210
0.0
220
1.0
230
0.0
  0
LINE
  5
EA
100
AcDbEntity
  8
USP-GEO
100
AcDbLine
 10
5.720600000000047
 20
5.130668788945058
 30
0.0000000000000006
 11
5.720600000000047
 21
4.632062422109868
 31
0.0000000000000006
210
0.0
220
1.0
230
0.0
  0
ARC
  5
EB
100
AcDbEntity
  8
USP-GEO
100
AcDbCircle
 10
5.470600000000104
 20
4.632062422109925
 30
0.0000000000000005
 40
0.2499999999999579
100
AcDbArc
 50
285.4660099534052
 51
359.9999999999837
  0
ARC
  5
EC
100
AcDbEntity
  8
USP-GEO
100
AcDbCircle
 10
5.620600000000038
 20
4.089931211054931
 30
0.0000000000000006
 40
0.312499999999998
100
AcDbArc
 50
105.4660099534222
 51
180.0000000000024
  0
CIRCLE
  5
ED
100
AcDbEntity
  8
USP-GEO
100
AcDbCircle
 10
5.408100000000032
 20
4.589931211054903
 30
0.0000000000000005
 40
0.086
  0
LINE
  5
EE
100
AcDbEntity
  8
USP-GEO
100
AcDbLine
 10
5.720600000000047
 20
7.047799999999995
 30
0.0000000000000006
 11
4.720600000000032
 21
7.047799999999995
 31
0.0000000000000005
210
0.0
220
1.0
230
0.0
  0
LINE
  5
EF
100
AcDbEntity
  8
USP-GEO
100
AcDbLine
 10
5.133100000000041
 20
5.846941316781823
 30
0.0000000000000005
 11
5.133100000000041
 21
5.560845258770399
 31
0.0000000000000005
210
0.0
220
1.0
230
0.0
  0
LINE
  5
F0
100
AcDbEntity
  8
USP-GEO
100
AcDbLine
 10
4.933100000000052
 20
5.560845258770399
 30
0.0000000000000005
 11
4.933100000000052
 21
5.846941316781823
 31
0.0000000000000005
210
0.0
220
1.0
230
0.0
  0
LINE
  5
F1
100
AcDbEntity
  8
USP-GEO
100
AcDbLine
 10
4.672800000000052
 20
5.922799999999995
 30
0.0000000000000004
 11
4.672800000000052
 21
5.672799999999995
 31
0.0000000000000004
210
0.0
220
1.0
230
0.0
  0
LINE
  5
F2
100
AcDbEntity
  8
USP-GEO
100
AcDbLine
 10
4.720600000000032
 20
5.672799999999995
 30
0.0000000000000005
 11
4.720600000000032
 21
5.922799999999995
 31
0.0000000000000005
210
0.0
220
1.0
230
0.0
  0
LINE
  5
F3
100
AcDbEntity
  8
USP-GEO
100
AcDbLine
 10
5.133100000000041
 20
5.560845258770399
 30
0.0000000000000005
 11
5.133100000000041
 21
5.472799999999978
 31
0.0000000000000005
210
0.0
220
1.0
230
0.0
  0
LINE
  5
F4
100
AcDbEntity
  8
USP-GEO
100
AcDbLine
 10
5.033100000000047
 20
5.466584382792333
 30
0.0000000000000005
 11
4.933100000000052
 21
5.548499587221229
 31
0.0000000000000005
210
0.0
220
1.0
230
0.0
  0
LINE
  5
F5
100
AcDbEntity
  8
USP-GEO
100
AcDbLine
 10
4.672800000000052
 20
5.672799999999995
 30
0.0000000000000004
 11
4.672800000000052
 21
5.371615993858313
 31
0.0000000000000004
210
0.0
220
1.0
230
0.0
  0
LINE
  5
F6
100
AcDbEntity
  8
USP-GEO
100
AcDbLine
 10
4.720600000000047
 20
5.371615993858313
 30
0.0000000000000005
 11
4.720600000000047
 21
5.672799999999995
 31
0.0000000000000005
210
0.0
220
1.0
230
0.0
  0
LINE
  5
F7
100
AcDbEntity
  8
USP-GEO
100
AcDbLine
 10
4.933100000000052
 20
5.472799999999978
 30
0.0000000000000005
 11
4.933100000000052
 21
5.560845258770399
 31
0.0000000000000005
210
0.0
220
1.0
230
0.0
  0
LINE
  5
F8
100
AcDbEntity
  8
USP-GEO
100
AcDbLine
 10
5.033100000000047
 20
5.372799999999969
 30
0.0000000000000005
 11
4.933100000000052
 21
5.472799999999978
 31
0.0000000000000005
210
0.0
220
1.0
230
0.0
  0
LINE
  5
F9
100
AcDbEntity
  8
USP-GEO
100
AcDbLine
 10
5.133100000000041
 20
5.548499587221229
 30
0.0000000000000005
 11
5.033100000000047
 21
5.466584382792333
 31
0.0000000000000005
210
0.0
220
1.0
230
0.0
  0
LINE
  5
FA
100
AcDbEntity
  8
USP-GEO
100
AcDbLine
 10
5.133100000000027
 20
5.472799999999992
 30
0.0000000000000005
 11
5.033100000000032
 21
5.372799999999983
 31
0.0000000000000005
210
0.0
220
1.0
230
0.0
  0
LINE
  5
FB
100
AcDbEntity
  8
USP-GEO
100
AcDbLine
 10
4.720600000000032
 20
7.047799999999995
 30
0.0000000000000005
 11
4.672800000000052
 21
7.047799999999995
 31
0.0000000000000004
210
0.0
220
1.0
230
0.0
  0
LINE
  5
FC
100
AcDbEntity
  8
USP-GEO
100
AcDbLine
 10
5.133100000000041
 20
6.187871282108403
 30
0.0000000000000005
 11
5.133100000000027
 21
5.901775224096979
 31
0.0000000000000005
210
0.0
220
1.0
230
0.0
  0
LINE
  5
FD
100
AcDbEntity
  8
USP-GEO
100
AcDbLine
 10
5.133100000000027
 20
5.846941316781823
 30
0.0000000000000005
 11
5.133100000000027
 21
5.901775224096979
 31
0.0000000000000005
210
0.0
220
1.0
230
0.0
  0
LINE
  5
FE
100
AcDbEntity
  8
USP-GEO
100
AcDbLine
 10
4.933100000000052
 20
5.901775224096979
 30
0.0000000000000005
 11
4.933100000000052
 21
6.187871282108403
 31
0.0000000000000005
210
0.0
220
1.0
230
0.0
  0
LINE
  5
FF
100
AcDbEntity
  8
USP-GEO
100
AcDbLine
 10
4.933100000000052
 20
5.901775224096979
 30
0.0000000000000005
 11
4.933100000000052
 21
5.846941316781823
 31
0.0000000000000005
210
0.0
220
1.0
230
0.0
  0
LINE
  5
100
100
AcDbEntity
  8
USP-GEO
100
AcDbLine
 10
4.672800000000037
 20
6.223984006141677
 30
0.0000000000000004
 11
4.672800000000037
 21
5.922799999999995
 31
0.0000000000000004
210
0.0
220
1.0
230
0.0
  0
LINE
  5
101
100
AcDbEntity
  8
USP-GEO
100
AcDbLine
 10
4.672800000000052
 20
6.464931211055045
 30
0.0000000000000004
 11
4.672800000000052
 21
6.223984006141677
 31
0.0000000000000004
210
0.0
220
1.0
230
0.0
  0
LINE
  5
102
100
AcDbEntity
  8
USP-GEO
100
AcDbLine
 10
4.720600000000047
 20
5.922799999999995
 30
0.0000000000000005
 11
4.720600000000047
 21
6.223984006141677
 31
0.0000000000000005
210
0.0
220
1.0
230
0.0
  0
LINE
  5
103
100
AcDbEntity
  8
USP-GEO
100
AcDbLine
 10
4.720600000000047
 20
6.223984006141677
 30
0.0000000000000005
 11
4.720600000000047
 21
6.464931211055045
 31
0.0000000000000005
210
0.0
220
1.0
230
0.0
  0
LINE
  5
104
100
AcDbEntity
  8
USP-GEO
100
AcDbLine
 10
4.933100000000052
 20
6.187871282108403
 30
0.0000000000000005
 11
5.133100000000041
 21
6.187871282108403
 31
0.0000000000000005
210
0.0
220
1.0
230
0.0
  0
LINE
  5
105
100
AcDbEntity
  8
USP-GEO
100
AcDbLine
 10
4.672800000000052
 20
7.047799999999995
 30
0.0000000000000004
 11
4.672800000000052
 21
6.464931211055045
 31
0.0000000000000004
210
0.0
220
1.0
230
0.0
  0
LINE
  5
106
100
AcDbEntity
  8
USP-GEO
100
AcDbLine
 10
4.720600000000032
 20
6.464931211055045
 30
0.0000000000000005
 11
4.720600000000032
 21
7.047799999999995
 31
0.0000000000000005
210
0.0
220
1.0
230
0.0
  0
LINE
  5
107
100
AcDbEntity
  8
USP-GEO
100
AcDbLine
 10
5.308100000000052
 20
5.922799999999995
 30
0.0000000000000005
 11
5.308100000000052
 21
5.672799999999995
 31
0.0000000000000005
210
0.0
220
1.0
230
0.0
  0
ARC
  5
108
100
AcDbEntity
  8
USP-GEO
100
AcDbCircle
 10
5.62060000000001
 20
5.672800000000052
 30
0.0000000000000006
 40
0.312499999999956
100
AcDbArc
 50
180.0000000000089
 51
254.5339900465888
  0
ARC
  5
109
100
AcDbEntity
  8
USP-GEO
100
AcDbCircle
 10
5.470600000000104
 20
6.464931211054988
 30
0.0000000000000005
 40
0.2499999999999543
100
AcDbArc
 50
285.4660099534085
 51
359.9999999999853
  0
ARC
  5
10A
100
AcDbEntity
  8
USP-GEO
100
AcDbCircle
 10
5.620600000000052
 20
5.922799999999995
 30
0.0000000000000006
 40
0.312499999999998
100
AcDbArc
 50
105.4660099534222
 51
180.0
  0
CIRCLE
  5
10B
100
AcDbEntity
  8
USP-GEO
100
AcDbCircle
 10
5.408100000000032
 20
6.422799999999995
 30
0.0000000000000005
 40
0.086
  0
LINE
  5
10C
100
AcDbEntity
  8
USP-GEO
100
AcDbLine
 10
5.720600000000047
 20
7.047799999999995
 30
0.0000000000000006
 11
5.720600000000047
 21
6.464931211054931
 31
0.0000000000000006
210
0.0
220
1.0
230
0.0
  0
ENDBLK
  5
10E
100
AcDbEntity
  8
0
100
AcDbBlockEnd
  0
BLOCK
  5
168
100
AcDbEntity
  8
0
100
AcDbBlockBegin
  2
JUS48_S
 70
     0
 10
0.0
 20
0.0
 30
0.0
  3
JUS48_S
  1

  0
LINE
  5
111
100
AcDbEntity
  8
USP-GEO
100
AcDbLine
 10
2.297799999999995
 20
0.0
 30
0.0000000000000004
 11
0.2977999999999952
 21
0.0
 31
0.0
210
0.0
220
1.0
230
0.0
  0
LINE
  5
112
100
AcDbEntity
  8
USP-GEO
100
AcDbLine
 10
1.047799999999995
 20
7.047799999999995
 30
0.0000000000000001
 11
0.0477999999999952
 21
7.047799999999995
 31
0.0
210
0.0
220
1.0
230
0.0
  0
ELLIPSE
  5
113
100
AcDbEntity
  8
USP-GEO
100
AcDbEllipse
 10
1.343501891765498
 20
4.214931211054945
 30
0.0000000000000002
 11
0.0
 21
-0.0820000000000036
 31
0.0
210
-0.0000000000000002
220
0.0
230
1.0
 40
0.7071067811865474
 41
-0.0000000000000001
 42
6.283185307179586
  0
ELLIPSE
  5
114
100
AcDbEntity
  8
USP-GEO
100
AcDbEllipse
 10
1.308062685551092
 20
4.214931211054931
 30
0.0000000000000002
 11
0.000000000000003
 21
0.0820000000000079
 31
0.0
210
-0.0000000000000002
220
0.0
230
1.0
 40
0.7071067811865098
 41
-2.831022822131501
 42
-0.3105698314576715
  0
ELLIPSE
  5
115
100
AcDbEntity
  8
USP-GEO
100
AcDbEllipse
 10
1.343501891765498
 20
2.047799999999995
 30
0.0000000000000002
 11
0.0
 21
-0.0820000000000036
 31
0.0
210
-0.0000000000000002
220
0.0
230
1.0
 40
0.7071067811865474
 41
-0.0000000000000001
 42
6.283185307179586
  0
ELLIPSE
  5
116
100
AcDbEntity
  8
USP-GEO
100
AcDbEllipse
 10
1.308062685551092
 20
2.047799999999995
 30
0.0000000000000002
 11
0.000000000000018
 21
0.0820000000000045
 31
0.0
210
-0.0000000000000002
220
0.0
230
1.0
 40
0.7071067811865392
 41
-2.831022822131501
 42
-0.3105698314574142
  0
ELLIPSE
  5
117
100
AcDbEntity
  8
USP-GEO
100
AcDbEllipse
 10
1.343501891765484
 20
1.92279999999998
 30
0.0000000000000002
 11
0.0000000000000615
 21
0.0820000000000494
 31
0.0
210
-0.0000000000000002
220
0.0
230
1.0
 40
0.7071067811861519
 41
0.9886479737576621
 42
1.570796326795427
  0
LINE
  5
118
100
AcDbEntity
  8
USP-HID
100
AcDbLine
 10
2.297799999999995
 20
0.0747000000000071
 30
0.0000000000000004
 11
0.2977999999999952
 21
0.0747000000000071
 31
0.0
210
0.0
220
1.0
230
0.0
  0
LINE
  5
11B
100
AcDbEntity
  8
USP-GEO
100
AcDbLine
 10
0.0477999999999952
 20
1.351956806832461
 30
0.0
 11
0.0477999999999952
 21
2.486046378881596
 31
0.0
210
0.0
220
1.0
230
0.0
  0
LINE
  5
11C
100
AcDbEntity
  8
USP-GEO
100
AcDbLine
 10
0.0000000000000142
 20
1.351956806832475
 30
-0.0000000000000001
 11
0.0000000000000142
 21
2.486046378881582
 31
-0.0000000000000001
210
0.0
220
1.0
230
0.0
  0
LINE
  5
11D
100
AcDbEntity
  8
USP-GEO
100
AcDbLine
 10
0.2977999999999952
 20
0.9227999999999951
 30
0.0
 11
0.2977999999999952
 21
0.0
 31
0.0
210
0.0
220
1.0
230
0.0
  0
LINE
  5
11E
100
AcDbEntity
  8
USP-GEO
100
AcDbLine
 10
0.0477999999999952
 20
1.351956806832475
 30
0.0
 11
0.0
 21
1.351956806832475
 31
-0.0000000000000001
210
0.0
220
1.0
230
0.0
  0
ARC
  5
11F
100
AcDbEntity
  8
USP-GEO
100
AcDbCircle
 10
0.0478000000000094
 20
0.9227999999999951
 30
0.0
 40
0.249999999999998
100
AcDbArc
 50
0.0
 51
35.62922644870187
  0
LINE
  5
120
100
AcDbEntity
  8
USP-GEO
100
AcDbLine
 10
0.2510009289133421
 20
1.068434413820199
 30
0.0
 11
0.0477999999999952
 21
1.351956806832475
 31
0.0
210
0.0
220
1.0
230
0.0
  0
LINE
  5
121
100
AcDbEntity
  8
USP-GEO
100
AcDbLine
 10
0.0477999999999952
 20
4.882062422109868
 30
0.0
 11
0.0477999999999952
 21
5.380668788945058
 31
0.0
210
0.0
220
1.0
230
0.0
  0
LINE
  5
122
100
AcDbEntity
  8
USP-GEO
100
AcDbLine
 10
0.0
 20
4.882062422109882
 30
-0.0000000000000001
 11
0.0
 21
5.380668788945072
 31
-0.0000000000000001
210
0.0
220
1.0
230
0.0
  0
LINE
  5
123
100
AcDbEntity
  8
USP-GEO
100
AcDbLine
 10
0.0477999999999952
 20
3.547799999999995
 30
0.0
 11
0.0477999999999952
 21
3.788747204913363
 31
0.0
210
0.0
220
1.0
230
0.0
  0
LINE
  5
124
100
AcDbEntity
  8
USP-GEO
100
AcDbLine
 10
0.0
 20
3.547800000000009
 30
-0.0000000000000001
 11
0.0
 21
3.788747204913363
 31
-0.0000000000000001
210
0.0
220
1.0
230
0.0
  0
LINE
  5
125
100
AcDbEntity
  8
USP-GEO
100
AcDbLine
 10
0.0477999999999952
 20
2.48604637888161
 30
0.0
 11
0.0477999999999952
 21
3.068584034162398
 31
0.0
210
0.0
220
1.0
230
0.0
  0
LINE
  5
126
100
AcDbEntity
  8
USP-GEO
100
AcDbLine
 10
0.0000000000000142
 20
2.486046378881596
 30
-0.0000000000000001
 11
0.0000000000000142
 21
3.068584034162412
 31
-0.0000000000000001
210
0.0
220
1.0
230
0.0
  0
LINE
  5
127
100
AcDbEntity
  8
USP-GEO
100
AcDbLine
 10
0.0477999999999952
 20
3.068584034162398
 30
0.0
 11
0.0477999999999952
 21
3.547799999999995
 31
0.0
210
0.0
220
1.0
230
0.0
  0
LINE
  5
128
100
AcDbEntity
  8
USP-GEO
100
AcDbLine
 10
0.0
 20
3.068584034162412
 30
-0.0000000000000001
 11
0.0
 21
3.547800000000009
 31
-0.0000000000000001
210
0.0
220
1.0
230
0.0
  0
LINE
  5
129
100
AcDbEntity
  8
USP-GEO
100
AcDbLine
 10
0.0477999999999952
 20
3.788747204913349
 30
0.0
 11
0.0477999999999952
 21
4.089931211054931
 31
0.0
210
0.0
220
1.0
230
0.0
  0
LINE
  5
12A
100
AcDbEntity
  8
USP-GEO
100
AcDbLine
 10
0.0000000000000142
 20
3.788747204913363
 30
-0.0000000000000001
 11
0.0000000000000142
 21
4.089931211054931
 31
-0.0000000000000001
210
0.0
220
1.0
230
0.0
  0
LINE
  5
12B
100
AcDbEntity
  8
USP-GEO
100
AcDbLine
 10
0.0477999999999952
 20
4.089931211054931
 30
0.0
 11
0.0477999999999952
 21
4.339931211054931
 31
0.0
210
0.0
220
1.0
230
0.0
  0
LINE
  5
12C
100
AcDbEntity
  8
USP-GEO
100
AcDbLine
 10
0.0477999999999952
 20
4.339931211054931
 30
0.0
 11
0.0477999999999952
 21
4.641115217196613
 31
0.0
210
0.0
220
1.0
230
0.0
  0
LINE
  5
12D
100
AcDbEntity
  8
USP-GEO
100
AcDbLine
 10
0.0477999999999952
 20
4.641115217196627
 30
0.0
 11
0.0477999999999952
 21
4.882062422109868
 31
0.0
210
0.0
220
1.0
230
0.0
  0
CIRCLE
  5
12E
100
AcDbEntity
  8
USP-GEO
100
AcDbCircle
 10
0.2353000000000094
 20
4.735300000000009
 30
0.0
 40
0.1535000000000001
  0
LINE
  5
12F
100
AcDbEntity
  8
USP-GEO
100
AcDbLine
 10
0.0
 20
4.641115217196613
 30
-0.0000000000000001
 11
0.0
 21
4.882062422109896
 31
-0.0000000000000001
210
0.0
220
1.0
230
0.0
  0
LINE
  5
130
100
AcDbEntity
  8
USP-GEO
100
AcDbLine
 10
0.0
 20
4.339931211054945
 30
-0.0000000000000001
 11
0.0
 21
4.641115217196627
 31
-0.0000000000000001
210
0.0
220
1.0
230
0.0
  0
LINE
  5
131
100
AcDbEntity
  8
USP-GEO
100
AcDbLine
 10
0.0
 20
4.089931211054931
 30
-0.0000000000000001
 11
0.0
 21
4.339931211054945
 31
-0.0000000000000001
210
0.0
220
1.0
230
0.0
  0
LINE
  5
132
100
AcDbEntity
  8
USP-GEO
100
AcDbLine
 10
0.0477999999999952
 20
5.621615993858341
 30
0.0
 11
0.0477999999999952
 21
5.922800000000023
 31
0.0
210
0.0
220
1.0
230
0.0
  0
LINE
  5
133
100
AcDbEntity
  8
USP-GEO
100
AcDbLine
 10
0.0
 20
5.621615993858341
 30
-0.0000000000000001
 11
0.0
 21
5.922800000000023
 31
-0.0000000000000001
210
0.0
220
1.0
230
0.0
  0
LINE
  5
134
100
AcDbEntity
  8
USP-GEO
100
AcDbLine
 10
-0.0182021759181055
 20
5.466584382792333
 30
-0.0000000000000001
 11
0.0
 21
5.492579784048132
 31
-0.0000000000000001
210
0.0
220
1.0
230
0.0
  0
LINE
  5
135
100
AcDbEntity
  8
USP-GEO
100
AcDbLine
 10
-0.0182021759181055
 20
5.466584382792333
 30
-0.0000000000000001
 11
-0.0573576436351147
 21
5.494001336449912
 31
-0.0000000000000001
210
0.0
220
1.0
230
0.0
  0
LINE
  5
136
100
AcDbEntity
  8
USP-GEO
100
AcDbLine
 10
-0.0000000000000142
 20
5.575916540878807
 30
-0.0000000000000001
 11
-0.0573576436351147
 21
5.494001336449912
 31
-0.0000000000000001
210
0.0
220
1.0
230
0.0
  0
LINE
  5
137
100
AcDbEntity
  8
USP-GEO
100
AcDbLine
 10
0.0477999999999952
 20
5.380668788945058
 30
0.0
 11
0.0477999999999952
 21
5.621615993858327
 31
0.0
210
0.0
220
1.0
230
0.0
  0
LINE
  5
138
100
AcDbEntity
  8
USP-GEO
100
AcDbLine
 10
0.0
 20
5.380668788945072
 30
-0.0000000000000001
 11
0.0
 21
5.621615993858341
 31
-0.0000000000000001
210
0.0
220
1.0
230
0.0
  0
LINE
  5
139
100
AcDbEntity
  8
USP-GEO
100
AcDbLine
 10
0.0477999999999952
 20
7.047799999999995
 30
0.0
 11
0.0
 21
7.047799999999995
 31
-0.0000000000000001
210
0.0
220
1.0
230
0.0
  0
LINE
  5
13A
100
AcDbEntity
  8
USP-GEO
100
AcDbLine
 10
0.24812661647168
 20
6.151775224097008
 30
0.0
 11
0.0477999999999952
 21
6.437871282108432
 31
0.0
210
0.0
220
1.0
230
0.0
  0
LINE
  5
13B
100
AcDbEntity
  8
USP-GEO
100
AcDbLine
 10
0.0477999999999952
 20
6.354534525277742
 30
0.0
 11
0.1897735911288834
 21
6.151775224097008
 31
0.0
210
0.0
220
1.0
230
0.0
  0
LINE
  5
13C
100
AcDbEntity
  8
USP-GEO
100
AcDbLine
 10
-0.0182021759181055
 20
5.716584382792348
 30
-0.0000000000000001
 11
-0.0573576436351147
 21
5.74400133644994
 31
-0.0000000000000001
210
0.0
220
1.0
230
0.0
  0
LINE
  5
13D
100
AcDbEntity
  8
USP-GEO
100
AcDbLine
 10
0.1897735911288834
 20
6.096941316781823
 30
0.0
 11
0.0477999999999952
 21
5.894182015601089
 31
0.0
210
0.0
220
1.0
230
0.0
  0
LINE
  5
13E
100
AcDbEntity
  8
USP-GEO
100
AcDbLine
 10
0.0
 20
5.825916540878836
 30
-0.0000000000000001
 11
-0.0573576436351147
 21
5.74400133644994
 31
-0.0000000000000001
210
0.0
220
1.0
230
0.0
  0
ARC
  5
13F
100
AcDbEntity
  8
USP-GEO
100
AcDbCircle
 10
0.15061812341186
 20
6.124358270439415
 30
0.0
 40
0.0478
100
AcDbArc
 50
325.0000000000008
 51
34.99999999999623
  0
LINE
  5
140
100
AcDbEntity
  8
USP-GEO
100
AcDbLine
 10
-0.0182021759181055
 20
5.716584382792348
 30
-0.0000000000000001
 11
0.0
 21
5.74257978404816
 31
-0.0000000000000001
210
0.0
220
1.0
230
0.0
  0
LINE
  5
141
100
AcDbEntity
  8
USP-GEO
100
AcDbLine
 10
0.0477999999999952
 20
5.810845258770427
 30
0.0
 11
0.2481266164716658
 21
6.096941316781837
 31
0.0
210
0.0
220
1.0
230
0.0
  0
ARC
  5
142
100
AcDbEntity
  8
USP-GEO
100
AcDbCircle
 10
0.2089711487546566
 20
6.124358270439415
 30
0.0
 40
0.0478
100
AcDbArc
 50
324.9999999999908
 51
34.99999999999916
  0
LINE
  5
143
100
AcDbEntity
  8
USP-GEO
100
AcDbLine
 10
0.0477999999999952
 20
5.922800000000023
 30
0.0
 11
0.0477999999999952
 21
6.172800000000023
 31
0.0
210
0.0
220
1.0
230
0.0
  0
LINE
  5
144
100
AcDbEntity
  8
USP-GEO
100
AcDbLine
 10
0.0477999999999952
 20
6.172800000000023
 30
0.0
 11
0.0477999999999952
 21
6.473984006141591
 31
0.0
210
0.0
220
1.0
230
0.0
  0
LINE
  5
145
100
AcDbEntity
  8
USP-GEO
100
AcDbLine
 10
0.0477999999999952
 20
6.473984006141591
 30
0.0
 11
0.0477999999999952
 21
6.71493121105496
 31
0.0
210
0.0
220
1.0
230
0.0
  0
LINE
  5
146
100
AcDbEntity
  8
USP-GEO
100
AcDbLine
 10
0.0
 20
6.473984006141606
 30
-0.0000000000000001
 11
0.0
 21
6.71493121105496
 31
-0.0000000000000001
210
0.0
220
1.0
230
0.0
  0
LINE
  5
147
100
AcDbEntity
  8
USP-GEO
100
AcDbLine
 10
0.0000000000000142
 20
6.172800000000023
 30
-0.0000000000000001
 11
0.0000000000000142
 21
6.473984006141606
 31
-0.0000000000000001
210
0.0
220
1.0
230
0.0
  0
LINE
  5
148
100
AcDbEntity
  8
USP-GEO
100
AcDbLine
 10
0.0
 20
5.922800000000023
 30
-0.0000000000000001
 11
0.0
 21
6.172800000000023
 31
-0.0000000000000001
210
0.0
220
1.0
230
0.0
  0
LINE
  5
149
100
AcDbEntity
  8
USP-GEO
100
AcDbLine
 10
0.0477999999999952
 20
6.71493121105496
 30
0.0
 11
0.0477999999999952
 21
7.047799999999995
 31
0.0
210
0.0
220
1.0
230
0.0
  0
LINE
  5
14A
100
AcDbEntity
  8
USP-GEO
100
AcDbLine
 10
0.0
 20
6.71493121105496
 30
-0.0000000000000001
 11
0.0
 21
7.047799999999995
 31
-0.0000000000000001
210
0.0
220
1.0
230
0.0
  0
TEXT
  5
14B
100
AcDbEntity
  8
USP-TXT
100
AcDbText
 10
-1.358450000000006
 20
-1.08798678665137
 30
0.0000000000000002
 40
0.31875
  1
JUS48 - SIDE VIEW
 72
     1
 11
1.297799999999995
 21
-1.08798678665137
 31
0.0000000000000002
100
AcDbText
  0
CIRCLE
  5
14C
100
AcDbEntity
  8
USP-GEO
100
AcDbCircle
 10
1.141065679589914
 20
2.047799999999995
 30
0.0000000000000002
 40
0.293938769133981
  0
LINE
  5
14D
100
AcDbEntity
  8
USP-GEO
100
AcDbLine
 10
1.234996284346635
 20
2.486046378881582
 30
0.0000000000000002
 11
2.251000928913342
 21
1.068434413820199
 31
0.0000000000000004
210
0.0
220
1.0
230
0.0
  0
LINE
  5
14E
100
AcDbEntity
  8
USP-GEO
100
AcDbLine
 10
2.297799999999995
 20
0.9227999999999951
 30
0.0000000000000004
 11
2.297799999999995
 21
0.0
 31
0.0000000000000004
210
0.0
220
1.0
230
0.0
  0
ARC
  5
14F
100
AcDbEntity
  8
USP-GEO
100
AcDbCircle
 10
2.047799999999995
 20
0.9227999999999951
 30
0.0000000000000003
 40
0.249999999999998
100
AcDbArc
 50
0.0
 51
35.62922644870007
  0
ARC
  5
150
100
AcDbEntity
  8
USP-GEO
100
AcDbCircle
 10
1.297799999999995
 20
5.130668788944944
 30
0.0000000000000002
 40
0.2499999999999977
100
AcDbArc
 50
105.4660099534204
 51
179.9999999999967
  0
LINE
  5
151
100
AcDbEntity
  8
USP-GEO
100
AcDbLine
 10
1.047799999999995
 20
5.380668788944973
 30
0.0000000000000001
 11
1.047799999999995
 21
4.882062422109967
 31
0.0000000000000001
210
0.0
220
1.0
230
0.0
  0
ARC
  5
152
100
AcDbEntity
  8
USP-GEO
100
AcDbCircle
 10
1.147799999999975
 20
3.839931211054931
 30
0.0000000000000002
 40
0.3125000000000057
100
AcDbArc
 50
285.4660099534222
 51
0.0
  0
ARC
  5
153
100
AcDbEntity
  8
USP-GEO
100
AcDbCircle
 10
1.297800000000023
 20
3.547799999999895
 30
0.0000000000000002
 40
0.250000000000007
100
AcDbArc
 50
105.4660099534237
 51
180.0
  0
ARC
  5
154
100
AcDbEntity
  8
USP-GEO
100
AcDbCircle
 10
1.1410656795899
 20
1.922799999999966
 30
0.0000000000000002
 40
0.2500000000000001
100
AcDbArc
 50
26.30903480974335
 51
48.67096500962522
  0
ARC
  5
155
100
AcDbEntity
  8
USP-GEO
100
AcDbCircle
 10
2.047799999999995
 20
3.068584034162427
 30
0.0000000000000003
 40
0.999999999999998
100
AcDbArc
 50
180.0000000000008
 51
215.6292264487012
  0
ARC
  5
156
100
AcDbEntity
  8
USP-GEO
100
AcDbCircle
 10
1.297799999999924
 20
3.297799999999938
 30
0.0000000000000002
 40
0.2499999999999323
100
AcDbArc
 50
105.4660099534077
 51
179.9999999999869
  0
LINE
  5
157
100
AcDbEntity
  8
USP-GEO
100
AcDbLine
 10
1.047799999999995
 20
3.547799999999895
 30
0.0000000000000001
 11
1.047799999999995
 21
3.068584034162398
 31
0.0000000000000001
210
0.0
220
1.0
230
0.0
  0
ARC
  5
158
100
AcDbEntity
  8
USP-GEO
100
AcDbCircle
 10
1.147799999999989
 20
4.089931211054945
 30
0.0000000000000002
 40
0.3125000000000059
100
AcDbArc
 50
285.4660099534222
 51
0.0
  0
ARC
  5
159
100
AcDbEntity
  8
USP-GEO
100
AcDbCircle
 10
1.147800000000003
 20
4.339931211054931
 30
0.0000000000000002
 40
0.3125000000000012
100
AcDbArc
 50
0.0000000000016284
 51
74.53399004657857
  0
LINE
  5
15A
100
AcDbEntity
  8
USP-GEO
100
AcDbLine
 10
1.460299999999989
 20
4.089931211054931
 30
0.0000000000000002
 11
1.460299999999989
 21
3.839931211054931
 31
0.0000000000000002
210
0.0
220
1.0
230
0.0
  0
CIRCLE
  5
15B
100
AcDbEntity
  8
USP-GEO
100
AcDbCircle
 10
1.141065679589914
 20
4.214931211054931
 30
0.0000000000000002
 40
0.293938769133981
  0
ARC
  5
15C
100
AcDbEntity
  8
USP-GEO
100
AcDbCircle
 10
1.1410656795899
 20
3.964931211054931
 30
0.0000000000000002
 40
0.2500000000000001
100
AcDbArc
 50
263.6191508634921
 51
338.7772229973453
  0
LINE
  5
15D
100
AcDbEntity
  8
USP-GEO
100
AcDbLine
 10
1.460300000000003
 20
4.339931211054945
 30
0.0000000000000002
 11
1.460300000000003
 21
4.089931211054945
 31
0.0000000000000002
210
0.0
220
1.0
230
0.0
  0
ARC
  5
15E
100
AcDbEntity
  8
USP-GEO
100
AcDbCircle
 10
1.1410656795899
 20
3.964931211054931
 30
0.0000000000000002
 40
0.2500000000000001
100
AcDbArc
 50
44.68846250695128
 51
49.07055207076387
  0
ARC
  5
15F
100
AcDbEntity
  8
USP-GEO
100
AcDbCircle
 10
1.29779999999998
 20
4.882062422109981
 30
0.0000000000000002
 40
0.2499999999999976
100
AcDbArc
 50
180.0000000000016
 51
254.5339900465829
  0
ARC
  5
160
100
AcDbEntity
  8
USP-GEO
100
AcDbCircle
 10
1.147799999999989
 20
5.922800000000009
 30
0.0000000000000002
 40
0.3125000000000059
100
AcDbArc
 50
285.4660099534214
 51
0.0000000000016284
  0
ARC
  5
161
100
AcDbEntity
  8
USP-GEO
100
AcDbCircle
 10
1.147800000000003
 20
5.672799999999995
 30
0.0000000000000002
 40
0.3124999999999964
100
AcDbArc
 50
285.4660099534204
 51
0.0000000000016284
  0
ARC
  5
162
100
AcDbEntity
  8
USP-GEO
100
AcDbCircle
 10
1.147800000000003
 20
6.172800000000023
 30
0.0000000000000002
 40
0.3125000000000012
100
AcDbArc
 50
0.0
 51
74.53399004658037
  0
LINE
  5
163
100
AcDbEntity
  8
USP-GEO
100
AcDbLine
 10
1.460299999999989
 20
5.922799999999995
 30
0.0000000000000002
 11
1.460299999999989
 21
5.672799999999995
 31
0.0000000000000002
210
0.0
220
1.0
230
0.0
  0
ARC
  5
164
100
AcDbEntity
  8
USP-GEO
100
AcDbCircle
 10
1.297800000000009
 20
5.380668788944959
 30
0.0000000000000002
 40
0.2500000000000023
100
AcDbArc
 50
105.4660099534214
 51
179.9999999999983
  0
LINE
  5
165
100
AcDbEntity
  8
USP-GEO
100
AcDbLine
 10
1.460300000000003
 20
6.172800000000023
 30
0.0000000000000002
 11
1.460300000000003
 21
5.922800000000023
 31
0.0000000000000002
210
0.0
220
1.0
230
0.0
  0
ARC
  5
166
100
AcDbEntity
  8
USP-GEO
100
AcDbCircle
 10
1.297800000000009
 20
6.714931211055045
 30
0.0000000000000002
 40
0.2500000000000023
100
AcDbArc
 50
180.0
 51
254.5339900465786
  0
LINE
  5
167
100
AcDbEntity
  8
USP-GEO
100
AcDbLine
 10
1.047799999999995
 20
7.047799999999995
 30
0.0000000000000001
 11
1.047799999999995
 21
6.714931211055045
 31
0.0000000000000001
210
0.0
220
1.0
230
0.0
  0
ENDBLK
  5
169
100
AcDbEntity
  8
0
100
AcDbBlockEnd
  0
ENDSEC
  0
SECTION
  2
ENTITIES
  0
INSERT
  5
3
100
AcDbEntity
  8
USP
100
AcDbBlockReference
  2
JUS48_T
 10
6.27801328663901
 20
10.26584432621759
 30
0.0000000000000088
  0
INSERT
  5
5E
100
AcDbEntity
  8
USP
100
AcDbBlockReference
  2
JUS48_F
 10
6.27801328663901
 20
1.088371911278081
 30
0.0000000000000085
  0
INSERT
  5
10F
100
AcDbEntity
  8
USP
100
AcDbBlockReference
  2
JUS48_S
 10
1.358816602993827
 20
1.088371911278081
 30
0.0000000000000088
  0
ENDSEC
  0
SECTION
  2
OBJECTS
  0
DICTIONARY
  5
185
102
{ACAD_XDICTIONARY
360
186
102
}
100
AcDbDictionary
  3
ACAD_GROUP
350
182
  3
ACAD_MLINESTYLE
350
183
  0
DICTIONARY
  5
177
100
AcDbDictionary
280
     1
  0
DICTIONARY
  5
179
100
AcDbDictionary
280
     1
  0
DICTIONARY
  5
6
100
AcDbDictionary
280
     1
  0
DICTIONARY
  5
B
100
AcDbDictionary
280
     1
  0
DICTIONARY
  5
18A
100
AcDbDictionary
280
     1
  0
DICTIONARY
  5
16A
100
AcDbDictionary
280
     1
  3
ACAD_LAYOUTSELFREF
360
16B
  0
DICTIONARY
  5
16F
100
AcDbDictionary
280
     1
  3
ACAD_LAYOUTSELFREF
360
170
  0
DICTIONARY
  5
186
100
AcDbDictionary
280
     1
  3
ACAD_XREC_ROUNDTRIP
360
187
  0
DICTIONARY
  5
182
102
{ACAD_REACTORS
330
185
102
}
100
AcDbDictionary
  0
DICTIONARY
  5
183
102
{ACAD_XDICTIONARY
360
184
102
}
102
{ACAD_REACTORS
330
185
102
}
100
AcDbDictionary
  3
STANDARD
350
188
  0
XRECORD
  5
16B
102
{ACAD_REACTORS
330
16A
102
}
100
AcDbXrecord
340
2
  0
XRECORD
  5
170
102
{ACAD_REACTORS
330
16F
102
}
100
AcDbXrecord
340
170
  0
XRECORD
  5
187
102
{ACAD_REACTORS
330
186
102
}
100
AcDbXrecord
102
EXTNAMES
  1
ACDBVARIABLEDICTIONARY
  2
AcDbVariableDictionary
  0
DICTIONARY
  5
184
100
AcDbDictionary
280
     1
  0
MLINESTYLE
  5
188
102
{ACAD_REACTORS
330
183
102
}
100
AcDbMlineStyle
  2
STANDARD
 70
     0
  3

 62
   256
 51
90.0
 52
90.0
 71
     2
 49
0.5
 62
   256
  6
BYLAYER
 49
-0.5
 62
   256
  6
BYLAYER
  0
ENDSEC
  0
EOF
