  0
SECTION
  2
HEADER
  9
$ACADVER
  1
AC1015
  9
$ACADMAINTVER
 70
    20
  9
$DWGCODEPAGE
  3
ANSI_1252
  9
$INSBASE
 10
0.0
 20
0.0
 30
0.0
  9
$EXTMIN
 10
0.0003661829982491
 20
0.000344322460947
 30
-0.0000000000000002
  9
$EXTMAX
 10
9.395768453206807
 20
11.29608095805796
 30
0.0000000000000043
  9
$LIMMIN
 10
0.0
 20
0.0
  9
$LIMMAX
 10
12.0
 20
9.0
  9
$ORTHOMODE
 70
     0
  9
$REGENMODE
 70
     1
  9
$FILLMODE
 70
     1
  9
$QTEXTMODE
 70
     0
  9
$MIRRTEXT
 70
     1
  9
$LTSCALE
 40
1.0
  9
$ATTMODE
 70
     1
  9
$TEXTSIZE
 40
0.25
  9
$TRACEWID
 40
0.05
  9
$TEXTSTYLE
  7
STANDARD
  9
$CLAYER
  8
0
  9
$CELTYPE
  6
BYLAYER
  9
$CECOLOR
 62
   256
  9
$CELTSCALE
 40
1.0
  9
$DISPSILH
 70
     0
  9
$DIMSCALE
 40
1.0
  9
$DIMASZ
 40
0.18
  9
$DIMEXO
 40
0.0625
  9
$DIMDLI
 40
0.38
  9
$DIMRND
 40
0.0
  9
$DIMDLE
 40
0.0
  9
$DIMEXE
 40
0.18
  9
$DIMTP
 40
0.0
  9
$DIMTM
 40
0.0
  9
$DIMTXT
 40
0.18
  9
$DIMCEN
 40
0.09
  9
$DIMTSZ
 40
0.0
  9
$DIMTOL
 70
     0
  9
$DIMLIM
 70
     0
  9
$DIMTIH
 70
     1
  9
$DIMTOH
 70
     1
  9
$DIMSE1
 70
     0
  9
$DIMSE2
 70
     0
  9
$DIMTAD
 70
     0
  9
$DIMZIN
 70
     0
  9
$DIMBLK
  1

  9
$DIMASO
 70
     1
  9
$DIMSHO
 70
     1
  9
$DIMPOST
  1

  9
$DIMAPOST
  1

  9
$DIMALT
 70
     0
  9
$DIMALTD
 70
     2
  9
$DIMALTF
 40
25.4
  9
$DIMLFAC
 40
1.0
  9
$DIMTOFL
 70
     0
  9
$DIMTVP
 40
0.0
  9
$DIMTIX
 70
     0
  9
$DIMSOXD
 70
     0
  9
$DIMSAH
 70
     0
  9
$DIMBLK1
  1

  9
$DIMBLK2
  1

  9
$DIMSTYLE
  2
STANDARD
  9
$DIMCLRD
 70
     0
  9
$DIMCLRE
 70
     0
  9
$DIMCLRT
 70
     0
  9
$DIMTFAC
 40
1.0
  9
$DIMGAP
 40
0.09
  9
$DIMJUST
 70
     0
  9
$DIMSD1
 70
     0
  9
$DIMSD2
 70
     0
  9
$DIMTOLJ
 70
     1
  9
$DIMTZIN
 70
     0
  9
$DIMALTZ
 70
     0
  9
$DIMALTTZ
 70
     0
  9
$DIMUPT
 70
     0
  9
$DIMDEC
 70
     4
  9
$DIMTDEC
 70
     4
  9
$DIMALTU
 70
     2
  9
$DIMALTTD
 70
     2
  9
$DIMTXSTY
  7
STANDARD
  9
$DIMAUNIT
 70
     0
  9
$DIMADEC
 70
     0
  9
$DIMALTRND
 40
0.0
  9
$DIMAZIN
 70
     0
  9
$DIMDSEP
 70
    46
  9
$DIMATFIT
 70
     3
  9
$DIMFRAC
 70
     0
  9
$DIMLDRBLK
  1

  9
$DIMLUNIT
 70
     2
  9
$DIMLWD
 70
    -2
  9
$DIMLWE
 70
    -2
  9
$DIMTMOVE
 70
     0
  9
$LUNITS
 70
     2
  9
$LUPREC
 70
     4
  9
$SKETCHINC
 40
0.1
  9
$FILLETRAD
 40
0.5
  9
$AUNITS
 70
     0
  9
$AUPREC
 70
     0
  9
$MENU
  1
.
  9
$ELEVATION
 40
0.0
  9
$PELEVATION
 40
0.0
  9
$THICKNESS
 40
0.0
  9
$LIMCHECK
 70
     0
  9
$CHAMFERA
 40
0.5
  9
$CHAMFERB
 40
0.5
  9
$CHAMFERC
 40
1.0
  9
$CHAMFERD
 40
0.0
  9
$SKPOLY
 70
     0
  9
$TDCREATE
 40
2451667.537949422
  9
$TDUCREATE
 40
2451667.746282755
  9
$TDUPDATE
 40
2455846.457042234
  9
$TDUUPDATE
 40
2455846.665375567
  9
$TDINDWG
 40
0.2054456366
  9
$TDUSRTIMER
 40
0.2054456366
  9
$USRTIMER
 70
     1
  9
$ANGBASE
 50
0.0
  9
$ANGDIR
 70
     0
  9
$PDMODE
 70
     0
  9
$PDSIZE
 40
0.0
  9
$PLINEWID
 40
0.0
  9
$SPLFRAME
 70
     0
  9
$SPLINETYPE
 70
     6
  9
$SPLINESEGS
 70
     8
  9
$HANDSEED
  5
194
  9
$SURFTAB1
 70
     6
  9
$SURFTAB2
 70
     6
  9
$SURFTYPE
 70
     6
  9
$SURFU
 70
     6
  9
$SURFV
 70
     6
  9
$UCSBASE
  2

  9
$UCSNAME
  2

  9
$UCSORG
 10
0.0
 20
0.0
 30
0.0
  9
$UCSXDIR
 10
1.0
 20
0.0
 30
0.0
  9
$UCSYDIR
 10
0.0
 20
1.0
 30
0.0
  9
$UCSORTHOREF
  2

  9
$UCSORTHOVIEW
 70
     0
  9
$UCSORGTOP
 10
0.0
 20
0.0
 30
0.0
  9
$UCSORGBOTTOM
 10
0.0
 20
0.0
 30
0.0
  9
$UCSORGLEFT
 10
0.0
 20
0.0
 30
0.0
  9
$UCSORGRIGHT
 10
0.0
 20
0.0
 30
0.0
  9
$UCSORGFRONT
 10
0.0
 20
0.0
 30
0.0
  9
$UCSORGBACK
 10
0.0
 20
0.0
 30
0.0
  9
$PUCSBASE
  2

  9
$PUCSNAME
  2

  9
$PUCSORG
 10
0.0
 20
0.0
 30
0.0
  9
$PUCSXDIR
 10
1.0
 20
0.0
 30
0.0
  9
$PUCSYDIR
 10
0.0
 20
1.0
 30
0.0
  9
$PUCSORTHOREF
  2

  9
$PUCSORTHOVIEW
 70
     0
  9
$PUCSORGTOP
 10
0.0
 20
0.0
 30
0.0
  9
$PUCSORGBOTTOM
 10
0.0
 20
0.0
 30
0.0
  9
$PUCSORGLEFT
 10
0.0
 20
0.0
 30
0.0
  9
$PUCSORGRIGHT
 10
0.0
 20
0.0
 30
0.0
  9
$PUCSORGFRONT
 10
0.0
 20
0.0
 30
0.0
  9
$PUCSORGBACK
 10
0.0
 20
0.0
 30
0.0
  9
$USERI1
 70
     0
  9
$USERI2
 70
     0
  9
$USERI3
 70
     0
  9
$USERI4
 70
     0
  9
$USERI5
 70
     0
  9
$USERR1
 40
0.0
  9
$USERR2
 40
0.0
  9
$USERR3
 40
0.0
  9
$USERR4
 40
0.0
  9
$USERR5
 40
0.0
  9
$WORLDVIEW
 70
     1
  9
$SHADEDGE
 70
     3
  9
$SHADEDIF
 70
    70
  9
$TILEMODE
 70
     1
  9
$MAXACTVP
 70
    48
  9
$PINSBASE
 10
0.0
 20
0.0
 30
0.0
  9
$PLIMCHECK
 70
     0
  9
$PEXTMIN
 10
1.000000000000000E+20
 20
1.000000000000000E+20
 30
1.000000000000000E+20
  9
$PEXTMAX
 10
-1.000000000000000E+20
 20
-1.000000000000000E+20
 30
-1.000000000000000E+20
  9
$PLIMMIN
 10
0.0
 20
0.0
  9
$PLIMMAX
 10
12.0
 20
9.0
  9
$UNITMODE
 70
     0
  9
$VISRETAIN
 70
     1
  9
$PLINEGEN
 70
     0
  9
$PSLTSCALE
 70
     1
  9
$TREEDEPTH
 70
  3020
  9
$CMLSTYLE
  2
STANDARD
  9
$CMLJUST
 70
     0
  9
$CMLSCALE
 40
1.0
  9
$PROXYGRAPHICS
 70
     1
  9
$MEASUREMENT
 70
     0
  9
$CELWEIGHT
370
    -1
  9
$ENDCAPS
280
     0
  9
$JOINSTYLE
280
     0
  9
$LWDISPLAY
290
     0
  9
$INSUNITS
 70
     0
  9
$HYPERLINKBASE
  1

  9
$STYLESHEET
  1

  9
$XEDIT
290
     1
  9
$CEPSNTYPE
380
     0
  9
$PSTYLEMODE
290
     1
  9
$FINGERPRINTGUID
  2
{28F3EED6-2DC4-4A9B-80DC-CDCD4EC434FF}
  9
$VERSIONGUID
  2
{17FAE10B-3637-4412-8DD9-024C91CD419E}
  9
$EXTNAMES
290
     1
  9
$PSVPSCALE
 40
0.0
  9
$OLESTARTUP
290
     0
  0
ENDSEC
  0
SECTION
  2
CLASSES
  0
CLASS
  1
ACDBDICTIONARYWDFLT
  2
AcDbDictionaryWithDefault
  3
ObjectDBX Classes
 90
        0
280
     1
281
     0
  0
CLASS
  1
ACDBPLACEHOLDER
  2
AcDbPlaceHolder
  3
ObjectDBX Classes
 90
        0
280
     0
281
     0
  0
CLASS
  1
LAYOUT
  2
AcDbLayout
  3
ObjectDBX Classes
 90
        0
280
     0
281
     0
  0
CLASS
  1
DICTIONARYVAR
  2
AcDbDictionaryVar
  3
ObjectDBX Classes
 90
        0
280
     0
281
     0
  0
ENDSEC
  0
SECTION
  2
TABLES
  0
TABLE
  2
VPORT
  5
161
330
0
100
AcDbSymbolTable
 70
     2
  0
VPORT
  5
18C
330
161
100
AcDbSymbolTableRecord
100
AcDbViewportTableRecord
  2
*Active
 70
     0
 10
0.0
 20
0.0
 11
1.0
 21
1.0
 12
9.073469281565815
 22
5.778762458292574
 13
0.0
 23
0.0
 14
0.5
 24
0.5
 15
0.5
 25
0.5
 16
0.0
 26
0.0
 36
1.0
 17
0.0
 27
0.0
 37
0.0
 40
11.63991523264213
 41
2.209370424597364
 42
50.0
 43
0.0
 44
0.0
 50
0.0
 51
0.0
 71
     0
 72
   100
 73
     1
 74
     3
 75
     0
 76
     0
 77
     0
 78
     0
281
     0
 65
     1
110
0.0
120
0.0
130
0.0
111
1.0
121
0.0
131
0.0
112
0.0
122
1.0
132
0.0
 79
     0
146
0.0
  0
ENDTAB
  0
TABLE
  2
LTYPE
  5
15A
330
0
100
AcDbSymbolTable
 70
     2
  0
LTYPE
  5
15B
102
{ACAD_XDICTIONARY
360
15C
102
}
330
15A
100
AcDbSymbolTableRecord
100
AcDbLinetypeTableRecord
  2
BYBLOCK
 70
     0
  3

 72
    65
 73
     0
 40
0.0
  0
LTYPE
  5
15D
102
{ACAD_XDICTIONARY
360
15E
102
}
330
15A
100
AcDbSymbolTableRecord
100
AcDbLinetypeTableRecord
  2
BYLAYER
 70
     0
  3

 72
    65
 73
     0
 40
0.0
  0
LTYPE
  5
5
102
{ACAD_XDICTIONARY
360
6
102
}
330
15A
100
AcDbSymbolTableRecord
100
AcDbLinetypeTableRecord
  2
CONTINUOUS
 70
     0
  3
Solid line
 72
    65
 73
     0
 40
0.0
  0
LTYPE
  5
106
330
15A
100
AcDbSymbolTableRecord
100
AcDbLinetypeTableRecord
  2
HIDDEN
 70
     0
  3
Hidden __ __ __ __ __ __ __ __ __ __ __ __ __ _
 72
    65
 73
     2
 40
0.375
 49
0.25
 74
     0
 49
-0.125
 74
     0
  0
ENDTAB
  0
TABLE
  2
LAYER
  5
158
330
0
100
AcDbSymbolTable
 70
     5
  0
LAYER
  5
54
330
158
100
AcDbSymbolTableRecord
100
AcDbLayerTableRecord
  2
0
 70
     0
 62
     7
  6
CONTINUOUS
370
    -3
390
180
  0
LAYER
  5
4
330
158
100
AcDbSymbolTableRecord
100
AcDbLayerTableRecord
  2
USP
 70
     0
 62
     7
  6
CONTINUOUS
370
    -3
390
180
  0
LAYER
  5
105
330
158
100
AcDbSymbolTableRecord
100
AcDbLayerTableRecord
  2
USP-HID
 70
     0
 62
     7
  6
HIDDEN
370
    -3
390
180
  0
LAYER
  5
D
330
158
100
AcDbSymbolTableRecord
100
AcDbLayerTableRecord
  2
USP-GEO
 70
     0
 62
     7
  6
CONTINUOUS
370
    -3
390
180
  0
LAYER
  5
9
330
158
100
AcDbSymbolTableRecord
100
AcDbLayerTableRecord
  2
USP-TXT
 70
     0
 62
     7
  6
CONTINUOUS
370
    -3
390
180
  0
ENDTAB
  0
TABLE
  2
STYLE
  5
159
330
0
100
AcDbSymbolTable
 70
     1
  0
STYLE
  5
A
102
{ACAD_XDICTIONARY
360
B
102
}
330
159
100
AcDbSymbolTableRecord
100
AcDbTextStyleTableRecord
  2
STANDARD
 70
     0
 40
0.0
 41
1.0
 50
0.0
 71
     0
 42
0.25
  3
txt
  4

  0
ENDTAB
  0
TABLE
  2
VIEW
  5
15F
330
0
100
AcDbSymbolTable
 70
     0
  0
ENDTAB
  0
TABLE
  2
UCS
  5
160
330
0
100
AcDbSymbolTable
 70
     0
  0
ENDTAB
  0
TABLE
  2
APPID
  5
163
330
0
100
AcDbSymbolTable
 70
     1
  0
APPID
  5
164
330
163
100
AcDbSymbolTableRecord
100
AcDbRegAppTableRecord
  2
ACAD
 70
     0
  0
ENDTAB
  0
TABLE
  2
DIMSTYLE
  5
165
330
0
100
AcDbSymbolTable
 70
     1
100
AcDbDimStyleTable
 71
     0
  0
DIMSTYLE
105
16E
102
{ACAD_XDICTIONARY
360
16F
102
}
330
165
100
AcDbSymbolTableRecord
100
AcDbDimStyleTableRecord
  2
STANDARD
 70
     0
340
A
  0
ENDTAB
  0
TABLE
  2
BLOCK_RECORD
  5
1
330
0
100
AcDbSymbolTable
 70
     3
  0
BLOCK_RECORD
  5
2
102
{ACAD_XDICTIONARY
360
14F
102
}
330
1
100
AcDbSymbolTableRecord
100
AcDbBlockTableRecord
  2
*MODEL_SPACE
340
185
  0
BLOCK_RECORD
  5
153
102
{ACAD_XDICTIONARY
360
154
102
}
330
1
100
AcDbSymbolTableRecord
100
AcDbBlockTableRecord
  2
*PAPER_SPACE
340
186
  0
BLOCK_RECORD
  5
7
330
1
100
AcDbSymbolTableRecord
100
AcDbBlockTableRecord
  2
JUS28_T
340
0
102
{BLKREFS
331
3
102
}
  0
BLOCK_RECORD
  5
57
330
1
100
AcDbSymbolTableRecord
100
AcDbBlockTableRecord
  2
JUS28_F
340
0
102
{BLKREFS
331
56
102
}
  0
BLOCK_RECORD
  5
FA
330
1
100
AcDbSymbolTableRecord
100
AcDbBlockTableRecord
  2
JUS28_S
340
0
102
{BLKREFS
331
F9
102
}
  0
ENDTAB
  0
ENDSEC
  0
SECTION
  2
BLOCKS
  0
BLOCK
  5
151
330
2
100
AcDbEntity
  8
0
100
AcDbBlockBegin
  2
*MODEL_SPACE
 70
     0
 10
0.0
 20
0.0
 30
0.0
  3
*MODEL_SPACE
  1

  0
ENDBLK
  5
152
330
2
100
AcDbEntity
  8
0
100
AcDbBlockEnd
  0
BLOCK
  5
156
330
153
100
AcDbEntity
 67
     1
  8
0
100
AcDbBlockBegin
  2
*PAPER_SPACE
 70
     0
 10
0.0
 20
0.0
 30
0.0
  3
*PAPER_SPACE
  1

  0
ENDBLK
  5
157
330
153
100
AcDbEntity
 67
     1
  8
0
100
AcDbBlockEnd
  0
BLOCK
  5
53
330
7
100
AcDbEntity
  8
0
100
AcDbBlockBegin
  2
JUS28_T
 70
     0
 10
0.0
 20
0.0
 30
0.0
  3
JUS28_T
  1

  0
TEXT
  5
8
330
7
100
AcDbEntity
  8
USP-TXT
100
AcDbText
 10
-0.1709499999999764
 20
-0.7343278854726947
 30
0.0
 40
0.25
  1
JUS28 - TOP VIEW
 72
     1
 11
1.829050000000023
 21
-0.7343278854726947
 31
0.0
100
AcDbText
  0
LINE
  5
C
330
7
100
AcDbEntity
  8
USP-GEO
100
AcDbLine
 10
0.0
 20
1.938164537035731
 30
0.0
 11
0.9600000000000079
 21
1.938164537035731
 31
0.0
  0
LINE
  5
E
330
7
100
AcDbEntity
  8
USP-GEO
100
AcDbLine
 10
0.967800000000011
 20
1.985964537035727
 30
0.0
 11
0.0
 21
1.985964537035727
 31
0.0
  0
ARC
  5
F
330
7
100
AcDbEntity
  8
USP-GEO
100
AcDbCircle
 10
1.047800000000023
 20
1.088164537035723
 30
0.0
 40
0.25
100
AcDbArc
 50
101.0228231074037
 51
225.522487814069
  0
LINE
  5
10
330
7
100
AcDbEntity
  8
USP-GEO
100
AcDbLine
 10
0.7139999999999987
 20
1.925751506248147
 30
0.0
 11
0.5360000000000014
 21
1.925751506248147
 31
0.0
  0
LINE
  5
11
330
7
100
AcDbEntity
  8
USP-GEO
100
AcDbLine
 10
0.5360000000000014
 20
1.714657219661333
 30
0.0
 11
0.7139999999999987
 21
1.714657219661333
 31
0.0
  0
LINE
  5
12
330
7
100
AcDbEntity
  8
USP-GEO
100
AcDbLine
 10
0.0
 20
1.985964537035727
 30
0.0
 11
0.0
 21
1.938164537035731
 31
0.0
  0
LINE
  5
13
330
7
100
AcDbEntity
  8
USP-GEO
100
AcDbLine
 10
0.5360000000000014
 20
1.73140404418828
 30
0.0
 11
0.5360000000000014
 21
1.925751506248161
 31
0.0
  0
LINE
  5
14
330
7
100
AcDbEntity
  8
USP-GEO
100
AcDbLine
 10
0.5360000000000014
 20
1.714657219661333
 30
0.0
 11
0.5360000000000014
 21
1.73140404418828
 31
0.0
  0
LINE
  5
15
330
7
100
AcDbEntity
  8
USP-GEO
100
AcDbLine
 10
0.5360000000000156
 20
1.925751506248147
 30
0.0
 11
0.5360000000000156
 21
1.938164537035731
 31
0.0
  0
LINE
  5
16
330
7
100
AcDbEntity
  8
USP-GEO
100
AcDbLine
 10
0.7139999999999987
 20
1.714657219661333
 30
0.0
 11
0.7139999999999987
 21
1.73140404418828
 31
0.0
  0
LINE
  5
17
330
7
100
AcDbEntity
  8
USP-GEO
100
AcDbLine
 10
0.7139999999999987
 20
1.73140404418828
 30
0.0
 11
0.7139999999999987
 21
1.925751506248161
 31
0.0
  0
LINE
  5
18
330
7
100
AcDbEntity
  8
USP-GEO
100
AcDbLine
 10
0.7139999999999987
 20
1.938164537035731
 30
0.0
 11
0.7139999999999987
 21
1.925751506248147
 31
0.0
  0
LINE
  5
19
330
7
100
AcDbEntity
  8
USP-GEO
100
AcDbLine
 10
1.137800000000027
 20
0.0
 30
0.0
 11
2.52030000000002
 21
0.0
 31
0.0
  0
LINE
  5
1A
330
7
100
AcDbEntity
  8
USP-GEO
100
AcDbLine
 10
2.52030000000002
 20
1.75
 30
0.0
 11
1.137800000000027
 21
1.75
 31
0.0
  0
LINE
  5
1B
330
7
100
AcDbEntity
  8
USP-GEO
100
AcDbLine
 10
1.0
 20
1.004831203702394
 30
0.0
 11
1.0
 21
0.7756645370357092
 31
0.0
  0
LINE
  5
1C
330
7
100
AcDbEntity
  8
USP-GEO
100
AcDbLine
 10
1.047800000000023
 20
1.004831203702408
 30
0.0
 11
1.047800000000023
 21
0.775664537035695
 31
0.0
  0
LINE
  5
1D
330
7
100
AcDbEntity
  8
USP-GEO
100
AcDbLine
 10
0.8726426826945044
 20
0.9097831641451108
 30
0.0
 11
0.9808958581675568
 21
0.8472831641451108
 31
0.0
  0
ARC
  5
1E
330
7
100
AcDbEntity
  8
USP-GEO
100
AcDbCircle
 10
1.047800000000023
 20
1.088164537035723
 30
0.0
 40
0.25
100
AcDbArc
 50
254.4775121859288
 51
258.9771768925963
  0
LINE
  5
1F
330
7
100
AcDbEntity
  8
USP-GEO
100
AcDbLine
 10
1.047800000000023
 20
0.775664537035695
 30
0.0
 11
1.0
 21
0.775664537035695
 31
0.0
  0
ARC
  5
20
330
7
100
AcDbEntity
  8
USP-GEO
100
AcDbCircle
 10
1.047800000000293
 20
-0.0000000000005116
 30
0.0
 40
0.089999999999718
100
AcDbArc
 50
0.0000000003199892
 51
57.91944109076291
  0
LINE
  5
21
330
7
100
AcDbEntity
  8
USP-GEO
100
AcDbLine
 10
1.047800000000009
 20
0.0513016220255764
 30
0.0
 11
1.000000000000014
 21
0.0513016220255764
 31
0.0
  0
LINE
  5
22
330
7
100
AcDbEntity
  8
USP-GEO
100
AcDbLine
 10
1.087800000000015
 20
0.0762571963810501
 30
0.0
 11
1.047800000000023
 21
0.0762571963810501
 31
0.0
  0
LINE
  5
23
330
7
100
AcDbEntity
  8
USP-GEO
100
AcDbLine
 10
1.087800000000015
 20
0.0762571963810643
 30
0.0
 11
1.095600000000018
 21
0.0762571963810643
 31
0.0
  0
LINE
  5
24
330
7
100
AcDbEntity
  8
USP-GEO
100
AcDbLine
 10
1.000000000000014
 20
0.7756645370357234
 30
0.0
 11
1.000000000000014
 21
0.0513016220255764
 31
0.0
  0
LINE
  5
25
330
7
100
AcDbEntity
  8
USP-GEO
100
AcDbLine
 10
1.047800000000009
 20
0.0513016220255764
 30
0.0
 11
1.047800000000009
 21
0.7756645370357092
 31
0.0
  0
LINE
  5
26
330
7
100
AcDbEntity
  8
USP-GEO
100
AcDbLine
 10
1.0
 20
1.898164537035739
 30
0.0
 11
1.0
 21
1.188164537035717
 31
0.0
  0
LINE
  5
27
330
7
100
AcDbEntity
  8
USP-GEO
100
AcDbLine
 10
1.047800000000009
 20
1.905964537035728
 30
0.0
 11
1.047800000000009
 21
1.188164537035717
 31
0.0
  0
LINE
  5
28
330
7
100
AcDbEntity
  8
USP-GEO
100
AcDbLine
 10
1.000000000000014
 20
1.188164537035731
 30
0.0
 11
1.000000000000014
 21
1.004831203702394
 31
0.0
  0
LINE
  5
29
330
7
100
AcDbEntity
  8
USP-GEO
100
AcDbLine
 10
1.047800000000009
 20
1.188164537035717
 30
0.0
 11
1.000000000000014
 21
1.188164537035717
 31
0.0
  0
LINE
  5
2A
330
7
100
AcDbEntity
  8
USP-GEO
100
AcDbLine
 10
1.047800000000023
 20
1.188164537035717
 30
0.0
 11
1.047800000000023
 21
1.004831203702408
 31
0.0
  0
ARC
  5
2B
330
7
100
AcDbEntity
  8
USP-GEO
100
AcDbCircle
 10
1.047799999999966
 20
1.749999999999928
 30
0.0
 40
0.0900000000000337
100
AcDbArc
 50
302.0805589093505
 51
0.0000000000390827
  0
LINE
  5
2C
330
7
100
AcDbEntity
  8
USP-GEO
100
AcDbLine
 10
1.095600000000004
 20
1.673742803618196
 30
0.0
 11
1.095600000000004
 21
1.604695092532708
 31
0.0
  0
LINE
  5
2D
330
7
100
AcDbEntity
  8
USP-GEO
100
AcDbLine
 10
1.095600000000018
 20
1.604695092532708
 30
0.0
 11
1.087800000000015
 21
1.604695092532708
 31
0.0
  0
ARC
  5
2E
330
7
100
AcDbEntity
  8
USP-GEO
100
AcDbCircle
 10
0.9600000000000079
 20
1.898164537035739
 30
0.0
 40
0.04
100
AcDbArc
 50
0.0
 51
90.0
  0
LINE
  5
2F
330
7
100
AcDbEntity
  8
USP-GEO
100
AcDbLine
 10
1.047800000000023
 20
1.604695092532708
 30
0.0
 11
1.087800000000015
 21
1.604695092532708
 31
0.0
  0
ARC
  5
30
330
7
100
AcDbEntity
  8
USP-GEO
100
AcDbCircle
 10
0.967800000000011
 20
1.905964537035728
 30
0.0
 40
0.0800000000000001
100
AcDbArc
 50
359.9999999999959
 51
89.99999999999429
  0
LINE
  5
31
330
7
100
AcDbEntity
  8
USP-GEO
100
AcDbLine
 10
2.658100000000018
 20
1.004831203702863
 30
0.0
 11
2.658100000000018
 21
0.7756645370361781
 31
0.0
  0
LINE
  5
32
330
7
100
AcDbEntity
  8
USP-GEO
100
AcDbLine
 10
2.610300000000009
 20
1.004831203702877
 30
0.0
 11
2.610300000000009
 21
0.7756645370361781
 31
0.0
  0
LINE
  5
33
330
7
100
AcDbEntity
  8
USP-GEO
100
AcDbLine
 10
2.785457317305514
 20
0.9097831641455798
 30
0.0
 11
2.677204141832461
 21
0.8472831641455798
 31
0.0
  0
ARC
  5
34
330
7
100
AcDbEntity
  8
USP-GEO
100
AcDbCircle
 10
2.610300000000009
 20
1.088164537036192
 30
0.0
 40
0.25
100
AcDbArc
 50
281.0228231074054
 51
285.5224878140697
  0
LINE
  5
35
330
7
100
AcDbEntity
  8
USP-GEO
100
AcDbLine
 10
2.658100000000018
 20
0.7756645370361781
 30
0.0
 11
2.610300000000009
 21
0.7756645370361781
 31
0.0
  0
ARC
  5
36
330
7
100
AcDbEntity
  8
USP-GEO
100
AcDbCircle
 10
2.610299999999995
 20
0.0
 30
0.0
 40
0.089999999999998
100
AcDbArc
 50
122.0805589095667
 51
180.0000000000024
  0
LINE
  5
37
330
7
100
AcDbEntity
  8
USP-GEO
100
AcDbLine
 10
2.562499999999715
 20
0.0762571963815191
 30
0.0
 11
2.570300000000003
 21
0.0762571963815191
 31
0.0
  0
LINE
  5
38
330
7
100
AcDbEntity
  8
USP-GEO
100
AcDbLine
 10
2.610300000000009
 20
0.0513016220260454
 30
0.0
 11
2.658100000000004
 21
0.0513016220260454
 31
0.0
  0
LINE
  5
39
330
7
100
AcDbEntity
  8
USP-GEO
100
AcDbLine
 10
2.610300000000009
 20
0.0762571963815333
 30
0.0
 11
2.570300000000003
 21
0.0762571963815333
 31
0.0
  0
LINE
  5
3A
330
7
100
AcDbEntity
  8
USP-GEO
100
AcDbLine
 10
2.658100000000004
 20
0.7756645370361781
 30
0.0
 11
2.658100000000004
 21
0.0513016220260454
 31
0.0
  0
LINE
  5
3B
330
7
100
AcDbEntity
  8
USP-GEO
100
AcDbLine
 10
2.610300000000009
 20
0.0513016220260454
 30
0.0
 11
2.610300000000009
 21
0.7756645370361781
 31
0.0
  0
LINE
  5
3C
330
7
100
AcDbEntity
  8
USP-GEO
100
AcDbLine
 10
3.658100000000018
 20
1.9381645370362
 30
0.0
 11
2.698099999999996
 21
1.9381645370362
 31
0.0
  0
LINE
  5
3D
330
7
100
AcDbEntity
  8
USP-GEO
100
AcDbLine
 10
2.690300000000007
 20
1.985964537036196
 30
0.0
 11
3.658100000000018
 21
1.985964537036196
 31
0.0
  0
LINE
  5
3E
330
7
100
AcDbEntity
  8
USP-GEO
100
AcDbLine
 10
3.122100000000017
 20
1.925751506248616
 30
0.0
 11
2.94410000000002
 21
1.925751506248616
 31
0.0
  0
LINE
  5
3F
330
7
100
AcDbEntity
  8
USP-GEO
100
AcDbLine
 10
2.94410000000002
 20
1.714657219661802
 30
0.0
 11
3.122100000000017
 21
1.714657219661802
 31
0.0
  0
LINE
  5
40
330
7
100
AcDbEntity
  8
USP-GEO
100
AcDbLine
 10
2.658100000000004
 20
1.898164537036194
 30
0.0
 11
2.658100000000004
 21
1.1881645370362
 31
0.0
  0
LINE
  5
41
330
7
100
AcDbEntity
  8
USP-GEO
100
AcDbLine
 10
2.610300000000023
 20
1.905964537036197
 30
0.0
 11
2.610300000000023
 21
1.1881645370362
 31
0.0
  0
LINE
  5
42
330
7
100
AcDbEntity
  8
USP-GEO
100
AcDbLine
 10
2.658100000000018
 20
1.1881645370362
 30
0.0
 11
2.658100000000018
 21
1.004831203702863
 31
0.0
  0
LINE
  5
43
330
7
100
AcDbEntity
  8
USP-GEO
100
AcDbLine
 10
2.610300000000009
 20
1.1881645370362
 30
0.0
 11
2.610300000000009
 21
1.004831203702877
 31
0.0
  0
LINE
  5
44
330
7
100
AcDbEntity
  8
USP-GEO
100
AcDbLine
 10
2.610300000000009
 20
1.1881645370362
 30
0.0
 11
2.658100000000018
 21
1.1881645370362
 31
0.0
  0
ARC
  5
45
330
7
100
AcDbEntity
  8
USP-GEO
100
AcDbCircle
 10
2.610300000000009
 20
1.088164537036192
 30
0.0
 40
0.25
100
AcDbArc
 50
314.4775121859286
 51
78.97717689259465
  0
ARC
  5
46
330
7
100
AcDbEntity
  8
USP-GEO
100
AcDbCircle
 10
2.610300000000023
 20
1.749999999999985
 30
0.0
 40
0.0899999999999981
100
AcDbArc
 50
179.9999999999975
 51
237.919441090689
  0
LINE
  5
47
330
7
100
AcDbEntity
  8
USP-GEO
100
AcDbLine
 10
2.562500000000014
 20
1.604695092533191
 30
0.0
 11
2.562500000000014
 21
1.673742803618253
 31
0.0
  0
LINE
  5
48
330
7
100
AcDbEntity
  8
USP-GEO
100
AcDbLine
 10
2.94410000000002
 20
1.731404044188749
 30
0.0
 11
2.94410000000002
 21
1.925751506248616
 31
0.0
  0
LINE
  5
49
330
7
100
AcDbEntity
  8
USP-GEO
100
AcDbLine
 10
2.94410000000002
 20
1.714657219661802
 30
0.0
 11
2.94410000000002
 21
1.731404044188749
 31
0.0
  0
LINE
  5
4A
330
7
100
AcDbEntity
  8
USP-GEO
100
AcDbLine
 10
2.944100000000034
 20
1.925751506248616
 30
0.0
 11
2.944100000000034
 21
1.9381645370362
 31
0.0
  0
ARC
  5
4B
330
7
100
AcDbEntity
  8
USP-GEO
100
AcDbCircle
 10
2.69810000000001
 20
1.898164537036194
 30
0.0
 40
0.04
100
AcDbArc
 50
90.00000000002037
 51
180.0000000000016
  0
ARC
  5
4C
330
7
100
AcDbEntity
  8
USP-GEO
100
AcDbCircle
 10
2.690300000000007
 20
1.905964537036197
 30
0.0
 40
0.0800000000000001
100
AcDbArc
 50
90.0
 51
179.9999999999984
  0
LINE
  5
4D
330
7
100
AcDbEntity
  8
USP-GEO
100
AcDbLine
 10
2.570300000000003
 20
1.604695092533191
 30
0.0
 11
2.610300000000009
 21
1.604695092533191
 31
0.0
  0
LINE
  5
4E
330
7
100
AcDbEntity
  8
USP-GEO
100
AcDbLine
 10
2.570300000000003
 20
1.604695092533191
 30
0.0
 11
2.562500000000014
 21
1.604695092533191
 31
0.0
  0
LINE
  5
4F
330
7
100
AcDbEntity
  8
USP-GEO
100
AcDbLine
 10
3.122100000000017
 20
1.714657219661802
 30
0.0
 11
3.122100000000017
 21
1.731404044188749
 31
0.0
  0
LINE
  5
50
330
7
100
AcDbEntity
  8
USP-GEO
100
AcDbLine
 10
3.122100000000017
 20
1.731404044188749
 30
0.0
 11
3.122100000000017
 21
1.92575150624863
 31
0.0
  0
LINE
  5
51
330
7
100
AcDbEntity
  8
USP-GEO
100
AcDbLine
 10
3.122100000000017
 20
1.9381645370362
 30
0.0
 11
3.122100000000017
 21
1.92575150624863
 31
0.0
  0
LINE
  5
52
330
7
100
AcDbEntity
  8
USP-GEO
100
AcDbLine
 10
3.658100000000018
 20
1.98596453703621
 30
0.0
 11
3.658100000000018
 21
1.9381645370362
 31
0.0
  0
ENDBLK
  5
55
330
7
100
AcDbEntity
  8
0
100
AcDbBlockEnd
  0
BLOCK
  5
F7
330
57
100
AcDbEntity
  8
0
100
AcDbBlockBegin
  2
JUS28_F
 70
     0
 10
0.0
 20
0.0
 30
0.0
  3
JUS28_F
  1

  0
ELLIPSE
  5
58
330
57
100
AcDbEntity
  8
USP-GEO
100
AcDbEllipse
 10
2.731330729569009
 20
4.063582580011029
 30
0.0000000000000002
 11
0.0000000000000001
 21
-0.0625000000000019
 31
0.0
210
-0.0000000000000001
220
0.0
230
1.0
 40
0.8660254037844445
 41
-0.000000000000001
 42
6.283185307179585
  0
ELLIPSE
  5
59
330
57
100
AcDbEntity
  8
USP-GEO
100
AcDbEllipse
 10
2.706449089959306
 20
4.063582580011029
 30
0.0000000000000002
 11
0.0
 21
0.0625000000000009
 31
0.0
210
-0.0000000000000001
220
0.0
230
1.0
 40
0.8660254037844399
 41
-2.909672448532074
 42
-1.570796326794769
  0
ELLIPSE
  5
5A
330
57
100
AcDbEntity
  8
USP-GEO
100
AcDbEllipse
 10
2.706449089959306
 20
4.063582580011029
 30
0.0000000000000002
 11
0.0
 21
0.0625000000000009
 31
0.0
210
-0.0000000000000001
220
0.0
230
1.0
 40
0.8660254037844399
 41
-1.570796326794783
 42
-0.2319202050577206
  0
ELLIPSE
  5
5B
330
57
100
AcDbEntity
  8
USP-GEO
100
AcDbEllipse
 10
0.9267692704310377
 20
4.063582580011029
 30
0.0
 11
0.0000000000000001
 21
-0.0625000000000019
 31
0.0
210
-0.0000000000000001
220
0.0
230
1.0
 40
0.8660254037844499
 41
-0.000000000000003
 42
6.283185307179583
  0
ELLIPSE
  5
5C
330
57
100
AcDbEntity
  8
USP-GEO
100
AcDbEllipse
 10
0.9516509100407404
 20
4.063582580011029
 30
0.0
 11
0.0
 21
0.0625000000000009
 31
0.0
210
-0.0000000000000001
220
0.0
230
1.0
 40
0.8660254037844453
 41
1.570796326794853
 42
2.909672448532338
  0
ELLIPSE
  5
5D
330
57
100
AcDbEntity
  8
USP-GEO
100
AcDbEllipse
 10
0.9516509100407404
 20
4.063582580011029
 30
0.0
 11
0.0
 21
0.0625000000000009
 31
0.0
210
-0.0000000000000001
220
0.0
230
1.0
 40
0.8660254037844453
 41
0.2319202050579841
 42
1.570796326794867
  0
ELLIPSE
  5
5E
330
57
100
AcDbEntity
  8
USP-GEO
100
AcDbEllipse
 10
2.731330729569009
 20
2.313582580011058
 30
0.0000000000000002
 11
0.0000000000000001
 21
-0.0625000000000019
 31
0.0
210
-0.0000000000000001
220
0.0
230
1.0
 40
0.8660254037844445
 41
-0.000000000000001
 42
6.283185307179585
  0
ELLIPSE
  5
5F
330
57
100
AcDbEntity
  8
USP-GEO
100
AcDbEllipse
 10
2.706449089959306
 20
2.313582580011058
 30
0.0000000000000002
 11
0.0
 21
0.0625000000000009
 31
0.0
210
-0.0000000000000001
220
0.0
230
1.0
 40
0.8660254037844399
 41
-2.909672448532074
 42
-1.570796326794826
  0
ELLIPSE
  5
60
330
57
100
AcDbEntity
  8
USP-GEO
100
AcDbEllipse
 10
2.706449089959306
 20
2.313582580011058
 30
0.0000000000000002
 11
0.0
 21
0.0625000000000009
 31
0.0
210
-0.0000000000000001
220
0.0
230
1.0
 40
0.8660254037844399
 41
-1.57079632679484
 42
-0.2319202050577206
  0
ELLIPSE
  5
61
330
57
100
AcDbEntity
  8
USP-GEO
100
AcDbEllipse
 10
0.9267692704310377
 20
2.313582580011043
 30
0.0
 11
0.0000000000000001
 21
-0.0625000000000019
 31
0.0
210
-0.0000000000000001
220
0.0
230
1.0
 40
0.8660254037844499
 41
-0.000000000000003
 42
6.283185307179583
  0
ELLIPSE
  5
62
330
57
100
AcDbEntity
  8
USP-GEO
100
AcDbEllipse
 10
0.9516509100407404
 20
2.313582580011058
 30
0.0
 11
0.0
 21
0.0625000000000009
 31
0.0
210
-0.0000000000000001
220
0.0
230
1.0
 40
0.8660254037844453
 41
1.570796326794895
 42
2.909672448532342
  0
ELLIPSE
  5
63
330
57
100
AcDbEntity
  8
USP-GEO
100
AcDbEllipse
 10
0.9516509100407404
 20
2.313582580011058
 30
0.0
 11
0.0
 21
0.0625000000000009
 31
0.0
210
-0.0000000000000001
220
0.0
230
1.0
 40
0.8660254037844453
 41
0.2319202050579877
 42
1.57079632679491
  0
TEXT
  5
64
330
57
100
AcDbEntity
  8
USP-TXT
100
AcDbText
 10
-0.4209499999999618
 20
-0.7343278854726947
 30
0.0000000000000001
 40
0.25
  1
JUS28 - FRONT VIEW
 72
     1
 11
1.829050000000037
 21
-0.7343278854726947
 31
0.0000000000000001
100
AcDbText
  0
LINE
  5
65
330
57
100
AcDbEntity
  8
USP-GEO
100
AcDbLine
 10
0.0
 20
6.711942135623843
 30
-0.0000000000000001
 11
0.9600000000000079
 21
6.711942135623843
 31
0.0
210
0.0
220
1.0
230
0.0
  0
LINE
  5
66
330
57
100
AcDbEntity
  8
USP-GEO
100
AcDbLine
 10
0.7139999999999987
 20
6.457650107022033
 30
-0.0000000000000001
 11
0.5360000000000156
 21
6.457650107022033
 31
-0.0000000000000001
210
0.0
220
1.0
230
0.0
  0
LINE
  5
67
330
57
100
AcDbEntity
  8
USP-GEO
100
AcDbLine
 10
0.9044000000000238
 20
0.4075421356238423
 30
0.0
 11
0.0732233047033901
 21
1.238718830920475
 31
-0.0000000000000001
210
0.0
220
1.0
230
0.0
  0
LINE
  5
68
330
57
100
AcDbEntity
  8
USP-GEO
100
AcDbLine
 10
0.625
 20
5.89637199262124
 30
-0.0000000000000001
 11
0.7139999999999845
 21
5.93778970012616
 31
-0.0000000000000001
210
0.0
220
1.0
230
0.0
  0
LINE
  5
69
330
57
100
AcDbEntity
  8
USP-GEO
100
AcDbLine
 10
0.7250000000000228
 20
5.76194213562384
 30
-0.0000000000000001
 11
0.6250000000000285
 21
5.584342135623842
 31
-0.0000000000000001
210
0.0
220
1.0
230
0.0
  0
ARC
  5
6A
330
57
100
AcDbEntity
  8
USP-GEO
100
AcDbCircle
 10
0.2500000000000284
 20
2.855713791066136
 30
-0.0000000000000001
 40
0.2500000000000004
100
AcDbArc
 50
180.0
 51
254.5339900465803
  0
CIRCLE
  5
6B
330
57
100
AcDbEntity
  8
USP-GEO
100
AcDbCircle
 10
0.3125000000000284
 20
1.561942135623837
 30
-0.0000000000000001
 40
0.086
  0
ARC
  5
6C
330
57
100
AcDbEntity
  8
USP-GEO
100
AcDbCircle
 10
0.2500000000000284
 20
1.415495526217114
 30
-0.0000000000000001
 40
0.2500000000000003
100
AcDbArc
 50
179.9999999999992
 51
224.9999999999994
  0
LINE
  5
6D
330
57
100
AcDbEntity
  8
USP-GEO
100
AcDbLine
 10
0.0000000000000284
 20
1.415495526217114
 30
-0.0000000000000001
 11
0.0000000000000284
 21
1.77145136895605
 31
-0.0000000000000001
210
0.0
220
1.0
230
0.0
  0
ARC
  5
6E
330
57
100
AcDbEntity
  8
USP-GEO
100
AcDbCircle
 10
0.2500000000000284
 20
1.771451368956064
 30
-0.0000000000000001
 40
0.2499999999999996
100
AcDbArc
 50
105.4660099534196
 51
180.0000000000016
  0
ARC
  5
6F
330
57
100
AcDbEntity
  8
USP-GEO
100
AcDbCircle
 10
0.1000000000000227
 20
2.3135825800111
 30
-0.0000000000000001
 40
0.312500000000006
100
AcDbArc
 50
285.4660099534222
 51
74.5339900465778
  0
LINE
  5
70
330
57
100
AcDbEntity
  8
USP-GEO
100
AcDbLine
 10
0.0
 20
4.605713791066179
 30
-0.0000000000000001
 11
0.0
 21
6.711942135623843
 31
-0.0000000000000001
210
0.0
220
1.0
230
0.0
  0
CIRCLE
  5
71
330
57
100
AcDbEntity
  8
USP-GEO
100
AcDbCircle
 10
0.3125
 20
4.551082580011097
 30
-0.0000000000000001
 40
0.086
  0
LINE
  5
72
330
57
100
AcDbEntity
  8
USP-GEO
100
AcDbLine
 10
0.0000000000000284
 20
2.855713791066136
 30
-0.0000000000000001
 11
0.0000000000000284
 21
3.521451368956022
 31
-0.0000000000000001
210
0.0
220
1.0
230
0.0
  0
ARC
  5
73
330
57
100
AcDbEntity
  8
USP-GEO
100
AcDbCircle
 10
0.1000000000000227
 20
4.063582580011072
 30
-0.0000000000000001
 40
0.3125000000000225
100
AcDbArc
 50
285.4660099534238
 51
74.53399004658372
  0
ARC
  5
74
330
57
100
AcDbEntity
  8
USP-GEO
100
AcDbCircle
 10
0.2500000000000284
 20
3.521451368956007
 30
-0.0000000000000001
 40
0.25
100
AcDbArc
 50
105.4660099534196
 51
179.9999999999992
  0
ARC
  5
75
330
57
100
AcDbEntity
  8
USP-GEO
100
AcDbCircle
 10
0.2500000000000284
 20
4.60571379106615
 30
-0.0000000000000001
 40
0.2500000000000218
100
AcDbArc
 50
179.9999999999943
 51
254.5339900465752
  0
LINE
  5
76
330
57
100
AcDbEntity
  8
USP-GEO
100
AcDbLine
 10
0.5360000000000298
 20
6.457650107022047
 30
-0.0000000000000001
 11
0.5360000000000298
 21
6.461942135623843
 31
-0.0000000000000001
210
0.0
220
1.0
230
0.0
  0
CIRCLE
  5
77
330
57
100
AcDbEntity
  8
USP-GEO
100
AcDbCircle
 10
0.3125
 20
6.401082580011106
 30
-0.0000000000000001
 40
0.086
  0
LINE
  5
78
330
57
100
AcDbEntity
  8
USP-GEO
100
AcDbLine
 10
0.5250000000000341
 20
6.461942135623843
 30
-0.0000000000000001
 11
0.5360000000000298
 21
6.461942135623843
 31
-0.0000000000000001
210
0.0
220
1.0
230
0.0
  0
LINE
  5
79
330
57
100
AcDbEntity
  8
USP-GEO
100
AcDbLine
 10
0.5360000000000156
 20
5.93778970012616
 30
-0.0000000000000001
 11
0.6250000000000285
 21
5.89637199262124
 31
-0.0000000000000001
210
0.0
220
1.0
230
0.0
  0
LINE
  5
7A
330
57
100
AcDbEntity
  8
USP-GEO
100
AcDbLine
 10
0.5360000000000156
 20
5.937789700126174
 30
-0.0000000000000001
 11
0.5360000000000156
 21
6.121030428412296
 31
-0.0000000000000001
210
0.0
220
1.0
230
0.0
  0
LINE
  5
7B
330
57
100
AcDbEntity
  8
USP-GEO
100
AcDbLine
 10
0.6250000000000285
 20
5.584342135623842
 30
-0.0000000000000001
 11
0.5250000000000199
 21
5.76194213562384
 31
-0.0000000000000001
210
0.0
220
1.0
230
0.0
  0
LINE
  5
7C
330
57
100
AcDbEntity
  8
USP-GEO
100
AcDbLine
 10
0.5360000000000298
 20
6.121030428412296
 30
-0.0000000000000001
 11
0.5360000000000298
 21
6.457650107022033
 31
-0.0000000000000001
210
0.0
220
1.0
230
0.0
  0
LINE
  5
7D
330
57
100
AcDbEntity
  8
USP-GEO
100
AcDbLine
 10
0.5250000000000057
 20
5.761942135623854
 30
-0.0000000000000001
 11
0.5250000000000057
 21
6.461942135623843
 31
-0.0000000000000001
210
0.0
220
1.0
230
0.0
  0
ARC
  5
7E
330
57
100
AcDbEntity
  8
USP-GEO
100
AcDbCircle
 10
3.408100000000018
 20
2.855713791066136
 30
0.0000000000000003
 40
0.2500000000000004
100
AcDbArc
 50
285.4660099534196
 51
0.0000000000008142
  0
LINE
  5
7F
330
57
100
AcDbEntity
  8
USP-GEO
100
AcDbLine
 10
2.610300000000023
 20
2.61476658615274
 30
0.0000000000000002
 11
2.610300000000023
 21
2.855713791066108
 31
0.0000000000000002
210
0.0
220
1.0
230
0.0
  0
LINE
  5
80
330
57
100
AcDbEntity
  8
USP-GEO
100
AcDbLine
 10
2.658100000000018
 20
2.855713791066108
 30
0.0000000000000002
 11
2.658100000000018
 21
2.614766586152754
 31
0.0000000000000002
210
0.0
220
1.0
230
0.0
  0
LINE
  5
81
330
57
100
AcDbEntity
  8
USP-GEO
100
AcDbLine
 10
1.047800000000023
 20
2.61476658615274
 30
0.0
 11
1.047800000000023
 21
2.855713791066108
 31
0.0
210
0.0
220
1.0
230
0.0
  0
LINE
  5
82
330
57
100
AcDbEntity
  8
USP-GEO
100
AcDbLine
 10
1.000000000000028
 20
2.855713791066108
 30
0.0
 11
1.000000000000028
 21
2.61476658615274
 31
0.0
210
0.0
220
1.0
230
0.0
  0
LINE
  5
83
330
57
100
AcDbEntity
  8
USP-GEO
100
AcDbLine
 10
1.137800000000055
 20
0.0477999999999952
 30
0.0
 11
2.52030000000002
 21
0.0477999999999952
 31
0.0000000000000002
210
0.0
220
1.0
230
0.0
  0
LINE
  5
84
330
57
100
AcDbEntity
  8
USP-GEO
100
AcDbLine
 10
1.137800000000027
 20
0.0
 30
0.0
 11
2.520300000000048
 21
0.0
 31
0.0000000000000002
210
0.0
220
1.0
230
0.0
  0
LINE
  5
85
330
57
100
AcDbEntity
  8
USP-GEO
100
AcDbLine
 10
1.047800000000023
 20
0.1750792206135827
 30
0.0
 11
1.047800000000023
 21
1.238718830920433
 31
0.0
210
0.0
220
1.0
230
0.0
  0
LINE
  5
86
330
57
100
AcDbEntity
  8
USP-GEO
100
AcDbLine
 10
1.000000000000056
 20
1.238718830920447
 30
0.0
 11
1.000000000000056
 21
0.1750792206135827
 31
0.0
210
0.0
220
1.0
230
0.0
  0
LINE
  5
87
330
57
100
AcDbEntity
  8
USP-GEO
100
AcDbLine
 10
1.137800000000055
 20
0.0477999999999952
 30
0.0
 11
1.137800000000055
 21
0.0
 31
0.0
210
0.0
220
1.0
230
0.0
  0
LINE
  5
88
330
57
100
AcDbEntity
  8
USP-GEO
100
AcDbLine
 10
1.095600000000047
 20
0.0478000000000094
 30
0.0
 11
1.137800000000027
 21
0.0477999999999952
 31
0.0
210
0.0
220
1.0
230
0.0
  0
LINE
  5
89
330
57
100
AcDbEntity
  8
USP-GEO
100
AcDbLine
 10
1.047800000000023
 20
0.1750792206135827
 30
0.0
 11
1.000000000000056
 21
0.1750792206135827
 31
0.0
210
0.0
220
1.0
230
0.0
  0
LINE
  5
8A
330
57
100
AcDbEntity
  8
USP-GEO
100
AcDbLine
 10
1.047800000000023
 20
0.0956000000000188
 30
0.0
 11
1.047800000000023
 21
0.1750792206135827
 31
0.0
210
0.0
220
1.0
230
0.0
  0
LINE
  5
8B
330
57
100
AcDbEntity
  8
USP-GEO
100
AcDbLine
 10
1.000000000000028
 20
0.1750792206135969
 30
0.0
 11
1.000000000000028
 21
0.0956000000000188
 31
0.0
210
0.0
220
1.0
230
0.0
  0
LINE
  5
8C
330
57
100
AcDbEntity
  8
USP-GEO
100
AcDbLine
 10
1.095600000000047
 20
0.0
 30
0.0
 11
1.137800000000027
 21
0.0
 31
0.0
210
0.0
220
1.0
230
0.0
  0
LINE
  5
8D
330
57
100
AcDbEntity
  8
USP-GEO
100
AcDbLine
 10
1.000000000000056
 20
0.0956000000000188
 30
0.0
 11
1.000000000000056
 21
0.0799999999999983
 31
0.0
210
0.0
220
1.0
230
0.0
  0
LINE
  5
8E
330
57
100
AcDbEntity
  8
USP-GEO
100
AcDbLine
 10
1.047800000000023
 20
0.0956000000000188
 30
0.0
 11
1.000000000000028
 21
0.0956000000000188
 31
0.0
210
0.0
220
1.0
230
0.0
  0
LINE
  5
8F
330
57
100
AcDbEntity
  8
USP-GEO
100
AcDbLine
 10
1.047800000000023
 20
0.0878000000000015
 30
0.0
 11
1.047800000000023
 21
0.0956000000000188
 31
0.0
210
0.0
220
1.0
230
0.0
  0
LINE
  5
90
330
57
100
AcDbEntity
  8
USP-GEO
100
AcDbLine
 10
1.087800000000015
 20
0.0477999999999952
 30
0.0
 11
1.095600000000047
 21
0.0477999999999952
 31
0.0
210
0.0
220
1.0
230
0.0
  0
LINE
  5
91
330
57
100
AcDbEntity
  8
USP-GEO
100
AcDbLine
 10
1.095600000000047
 20
0.0478000000000094
 30
0.0
 11
1.095600000000047
 21
0.0
 31
0.0
210
0.0
220
1.0
230
0.0
  0
LINE
  5
92
330
57
100
AcDbEntity
  8
USP-GEO
100
AcDbLine
 10
1.08000000000004
 20
0.0
 30
0.0
 11
1.095600000000047
 21
0.0
 31
0.0
210
0.0
220
1.0
230
0.0
  0
ARC
  5
93
330
57
100
AcDbEntity
  8
USP-GEO
100
AcDbCircle
 10
1.08000000000004
 20
0.0800000000000125
 30
0.0
 40
0.08
100
AcDbArc
 50
180.0000000000016
 51
270.0
  0
ARC
  5
94
330
57
100
AcDbEntity
  8
USP-GEO
100
AcDbCircle
 10
1.087800000000015
 20
0.0878000000000015
 30
0.0
 40
0.04
100
AcDbArc
 50
179.9999999999975
 51
270.0
  0
LINE
  5
95
330
57
100
AcDbEntity
  8
USP-GEO
100
AcDbLine
 10
0.9600000000000363
 20
0.4075421356238423
 30
0.0
 11
0.9044000000000096
 21
0.4075421356238423
 31
0.0
210
0.0
220
1.0
230
0.0
  0
LINE
  5
96
330
57
100
AcDbEntity
  8
USP-GEO
100
AcDbLine
 10
1.000000000000028
 20
0.4075421356238281
 30
0.0
 11
0.9600000000000363
 21
0.4075421356238281
 31
0.0
210
0.0
220
1.0
230
0.0
  0
LINE
  5
97
330
57
100
AcDbEntity
  8
USP-GEO
100
AcDbLine
 10
1.047800000000052
 20
1.771451368956007
 30
0.0
 11
1.047800000000052
 21
2.012398573869361
 31
0.0
210
0.0
220
1.0
230
0.0
  0
LINE
  5
98
330
57
100
AcDbEntity
  8
USP-GEO
100
AcDbLine
 10
1.000000000000028
 20
2.012398573869361
 30
0.0
 11
1.000000000000028
 21
1.771451368956007
 31
0.0
210
0.0
220
1.0
230
0.0
  0
LINE
  5
99
330
57
100
AcDbEntity
  8
USP-GEO
100
AcDbLine
 10
1.047800000000023
 20
1.415495526217085
 30
0.0
 11
1.047800000000023
 21
1.771451368956007
 31
0.0
210
0.0
220
1.0
230
0.0
  0
LINE
  5
9A
330
57
100
AcDbEntity
  8
USP-GEO
100
AcDbLine
 10
1.000000000000028
 20
1.771451368956007
 30
0.0
 11
1.000000000000028
 21
1.415495526217085
 31
0.0
210
0.0
220
1.0
230
0.0
  0
LINE
  5
9B
330
57
100
AcDbEntity
  8
USP-GEO
100
AcDbLine
 10
1.047800000000023
 20
1.238718830920433
 30
0.0
 11
1.047800000000023
 21
1.415495526217085
 31
0.0
210
0.0
220
1.0
230
0.0
  0
LINE
  5
9C
330
57
100
AcDbEntity
  8
USP-GEO
100
AcDbLine
 10
1.000000000000028
 20
1.415495526217085
 30
0.0
 11
1.000000000000028
 21
1.238718830920433
 31
0.0
210
0.0
220
1.0
230
0.0
  0
ARC
  5
9D
330
57
100
AcDbEntity
  8
USP-GEO
100
AcDbCircle
 10
1.047800000000023
 20
2.313582580011058
 30
0.0
 40
0.25
100
AcDbArc
 50
101.0228231074037
 51
258.9771768925963
  0
LINE
  5
9E
330
57
100
AcDbEntity
  8
USP-GEO
100
AcDbLine
 10
1.047800000000023
 20
2.012398573869361
 30
0.0
 11
1.047800000000023
 21
2.61476658615274
 31
0.0
210
0.0
220
1.0
230
0.0
  0
LINE
  5
9F
330
57
100
AcDbEntity
  8
USP-GEO
100
AcDbLine
 10
1.000000000000028
 20
2.61476658615274
 30
0.0
 11
1.000000000000028
 21
2.012398573869361
 31
0.0
210
0.0
220
1.0
230
0.0
  0
LINE
  5
A0
330
57
100
AcDbEntity
  8
USP-GEO
100
AcDbLine
 10
2.753700000000009
 20
0.4075421356238281
 30
0.0000000000000002
 11
3.584876695296657
 21
1.238718830920475
 31
0.0000000000000003
210
0.0
220
1.0
230
0.0
  0
LINE
  5
A1
330
57
100
AcDbEntity
  8
USP-GEO
100
AcDbLine
 10
2.610300000000023
 20
0.1750792206135827
 30
0.0000000000000002
 11
2.610300000000023
 21
1.238718830920447
 31
0.0000000000000002
210
0.0
220
1.0
230
0.0
  0
LINE
  5
A2
330
57
100
AcDbEntity
  8
USP-GEO
100
AcDbLine
 10
2.658100000000018
 20
1.238718830920433
 30
0.0000000000000002
 11
2.658100000000018
 21
0.1750792206135827
 31
0.0000000000000002
210
0.0
220
1.0
230
0.0
  0
LINE
  5
A3
330
57
100
AcDbEntity
  8
USP-GEO
100
AcDbLine
 10
2.52030000000002
 20
0.0477999999999952
 30
0.0000000000000002
 11
2.52030000000002
 21
0.0
 31
0.0000000000000002
210
0.0
220
1.0
230
0.0
  0
LINE
  5
A4
330
57
100
AcDbEntity
  8
USP-GEO
100
AcDbLine
 10
2.520300000000034
 20
0.0478000000000094
 30
0.0000000000000002
 11
2.562499999999744
 21
0.0478000000000094
 31
0.0000000000000002
210
0.0
220
1.0
230
0.0
  0
LINE
  5
A5
330
57
100
AcDbEntity
  8
USP-GEO
100
AcDbLine
 10
2.562499999999744
 20
0.0478000000000094
 30
0.0000000000000002
 11
2.562499999999744
 21
0.0
 31
0.0000000000000002
210
0.0
220
1.0
230
0.0
  0
LINE
  5
A6
330
57
100
AcDbEntity
  8
USP-GEO
100
AcDbLine
 10
2.562499999999744
 20
0.0478000000000094
 30
0.0000000000000002
 11
2.570300000000031
 21
0.0478000000000094
 31
0.0000000000000002
210
0.0
220
1.0
230
0.0
  0
LINE
  5
A7
330
57
100
AcDbEntity
  8
USP-GEO
100
AcDbLine
 10
2.610300000000023
 20
0.0878000000000015
 30
0.0000000000000002
 11
2.610300000000023
 21
0.0956000000000188
 31
0.0000000000000002
210
0.0
220
1.0
230
0.0
  0
LINE
  5
A8
330
57
100
AcDbEntity
  8
USP-GEO
100
AcDbLine
 10
2.658100000000018
 20
0.0956000000000188
 30
0.0000000000000002
 11
2.658100000000018
 21
0.0800000000000125
 31
0.0000000000000002
210
0.0
220
1.0
230
0.0
  0
LINE
  5
A9
330
57
100
AcDbEntity
  8
USP-GEO
100
AcDbLine
 10
2.69810000000001
 20
0.4075421356238423
 30
0.0000000000000002
 11
2.753700000000009
 21
0.4075421356238423
 31
0.0000000000000002
210
0.0
220
1.0
230
0.0
  0
LINE
  5
AA
330
57
100
AcDbEntity
  8
USP-GEO
100
AcDbLine
 10
2.610300000000023
 20
0.0956000000000188
 30
0.0000000000000002
 11
2.658100000000018
 21
0.0956000000000188
 31
0.0000000000000002
210
0.0
220
1.0
230
0.0
  0
LINE
  5
AB
330
57
100
AcDbEntity
  8
USP-GEO
100
AcDbLine
 10
2.610300000000023
 20
0.0956000000000188
 30
0.0000000000000002
 11
2.610300000000023
 21
0.1750792206135969
 31
0.0000000000000002
210
0.0
220
1.0
230
0.0
  0
LINE
  5
AC
330
57
100
AcDbEntity
  8
USP-GEO
100
AcDbLine
 10
2.610300000000023
 20
0.1750792206135827
 30
0.0000000000000002
 11
2.658100000000018
 21
0.1750792206135827
 31
0.0000000000000002
210
0.0
220
1.0
230
0.0
  0
LINE
  5
AD
330
57
100
AcDbEntity
  8
USP-GEO
100
AcDbLine
 10
2.658100000000018
 20
0.1750792206135827
 30
0.0000000000000002
 11
2.658100000000018
 21
0.0956000000000188
 31
0.0000000000000002
210
0.0
220
1.0
230
0.0
  0
ARC
  5
AE
330
57
100
AcDbEntity
  8
USP-GEO
100
AcDbCircle
 10
2.578100000000034
 20
0.0799999999999983
 30
0.0000000000000002
 40
0.08
100
AcDbArc
 50
270.0
 51
0.0000000000016284
  0
LINE
  5
AF
330
57
100
AcDbEntity
  8
USP-GEO
100
AcDbLine
 10
2.52030000000002
 20
0.0
 30
0.0000000000000002
 11
2.562499999999744
 21
0.0
 31
0.0000000000000002
210
0.0
220
1.0
230
0.0
  0
LINE
  5
B0
330
57
100
AcDbEntity
  8
USP-GEO
100
AcDbLine
 10
2.562499999999744
 20
0.0
 30
0.0000000000000002
 11
2.578100000000034
 21
0.0
 31
0.0000000000000002
210
0.0
220
1.0
230
0.0
  0
LINE
  5
B1
330
57
100
AcDbEntity
  8
USP-GEO
100
AcDbLine
 10
2.69810000000001
 20
0.4075421356238423
 30
0.0000000000000002
 11
2.658100000000004
 21
0.4075421356238281
 31
0.0000000000000002
210
0.0
220
1.0
230
0.0
  0
ARC
  5
B2
330
57
100
AcDbEntity
  8
USP-GEO
100
AcDbCircle
 10
2.570300000000031
 20
0.0878000000000015
 30
0.0000000000000002
 40
0.04
100
AcDbArc
 50
270.0
 51
0.0000000000040711
  0
LINE
  5
B3
330
57
100
AcDbEntity
  8
USP-GEO
100
AcDbLine
 10
2.610300000000023
 20
1.771451368956007
 30
0.0000000000000002
 11
2.610300000000023
 21
2.012398573869361
 31
0.0000000000000002
210
0.0
220
1.0
230
0.0
  0
LINE
  5
B4
330
57
100
AcDbEntity
  8
USP-GEO
100
AcDbLine
 10
2.658100000000018
 20
2.012398573869361
 30
0.0000000000000002
 11
2.658100000000018
 21
1.771451368956007
 31
0.0000000000000002
210
0.0
220
1.0
230
0.0
  0
LINE
  5
B5
330
57
100
AcDbEntity
  8
USP-GEO
100
AcDbLine
 10
2.610300000000023
 20
1.415495526217085
 30
0.0000000000000002
 11
2.610300000000023
 21
1.771451368956007
 31
0.0000000000000002
210
0.0
220
1.0
230
0.0
  0
LINE
  5
B6
330
57
100
AcDbEntity
  8
USP-GEO
100
AcDbLine
 10
2.658100000000018
 20
1.771451368956007
 30
0.0000000000000002
 11
2.658100000000018
 21
1.415495526217085
 31
0.0000000000000002
210
0.0
220
1.0
230
0.0
  0
LINE
  5
B7
330
57
100
AcDbEntity
  8
USP-GEO
100
AcDbLine
 10
2.610300000000023
 20
1.238718830920447
 30
0.0000000000000002
 11
2.610300000000023
 21
1.415495526217085
 31
0.0000000000000002
210
0.0
220
1.0
230
0.0
  0
LINE
  5
B8
330
57
100
AcDbEntity
  8
USP-GEO
100
AcDbLine
 10
2.658100000000018
 20
1.415495526217085
 30
0.0000000000000002
 11
2.658100000000018
 21
1.238718830920447
 31
0.0000000000000002
210
0.0
220
1.0
230
0.0
  0
ARC
  5
B9
330
57
100
AcDbEntity
  8
USP-GEO
100
AcDbCircle
 10
2.610300000000023
 20
2.313582580011058
 30
0.0000000000000002
 40
0.25
100
AcDbArc
 50
281.0228231074037
 51
78.97717689259626
  0
LINE
  5
BA
330
57
100
AcDbEntity
  8
USP-GEO
100
AcDbLine
 10
2.610300000000023
 20
2.012398573869361
 30
0.0000000000000002
 11
2.610300000000023
 21
2.61476658615274
 31
0.0000000000000002
210
0.0
220
1.0
230
0.0
  0
LINE
  5
BB
330
57
100
AcDbEntity
  8
USP-GEO
100
AcDbLine
 10
2.658100000000018
 20
2.61476658615274
 30
0.0000000000000002
 11
2.658100000000018
 21
2.012398573869361
 31
0.0000000000000002
210
0.0
220
1.0
230
0.0
  0
CIRCLE
  5
BC
330
57
100
AcDbEntity
  8
USP-GEO
100
AcDbCircle
 10
3.345600000000018
 20
1.561942135623837
 30
0.0000000000000003
 40
0.086
  0
ARC
  5
BD
330
57
100
AcDbEntity
  8
USP-GEO
100
AcDbCircle
 10
3.408100000000018
 20
1.415495526217114
 30
0.0000000000000003
 40
0.2500000000000003
100
AcDbArc
 50
315.0000000000006
 51
0.0
  0
LINE
  5
BE
330
57
100
AcDbEntity
  8
USP-GEO
100
AcDbLine
 10
3.658100000000018
 20
1.415495526217114
 30
0.0000000000000003
 11
3.658100000000018
 21
1.771451368956064
 31
0.0000000000000003
210
0.0
220
1.0
230
0.0
  0
ARC
  5
BF
330
57
100
AcDbEntity
  8
USP-GEO
100
AcDbCircle
 10
3.408100000000018
 20
1.771451368956064
 30
0.0000000000000003
 40
0.2499999999999996
100
AcDbArc
 50
359.9999999999992
 51
74.53399004658037
  0
ARC
  5
C0
330
57
100
AcDbEntity
  8
USP-GEO
100
AcDbCircle
 10
3.558100000000024
 20
2.3135825800111
 30
0.0000000000000003
 40
0.312500000000006
100
AcDbArc
 50
105.4660099534222
 51
254.5339900465778
  0
LINE
  5
C1
330
57
100
AcDbEntity
  8
USP-GEO
100
AcDbLine
 10
2.610300000000023
 20
6.711942135623814
 30
0.0000000000000002
 11
2.610300000000023
 21
4.605713791066136
 31
0.0000000000000002
210
0.0
220
1.0
230
0.0
  0
LINE
  5
C2
330
57
100
AcDbEntity
  8
USP-GEO
100
AcDbLine
 10
2.658100000000018
 20
6.711942135623814
 30
0.0000000000000002
 11
2.658100000000018
 21
4.60571379106615
 31
0.0000000000000002
210
0.0
220
1.0
230
0.0
  0
LINE
  5
C3
330
57
100
AcDbEntity
  8
USP-GEO
100
AcDbLine
 10
3.658100000000018
 20
4.605713791066179
 30
0.0000000000000003
 11
3.658100000000018
 21
6.711942135623843
 31
0.0000000000000003
210
0.0
220
1.0
230
0.0
  0
LINE
  5
C4
330
57
100
AcDbEntity
  8
USP-GEO
100
AcDbLine
 10
1.047800000000023
 20
6.7119421356238
 30
0.0
 11
1.047800000000023
 21
4.605713791066136
 31
0.0
210
0.0
220
1.0
230
0.0
  0
LINE
  5
C5
330
57
100
AcDbEntity
  8
USP-GEO
100
AcDbLine
 10
1.000000000000028
 20
6.711942135623814
 30
0.0
 11
1.000000000000028
 21
4.60571379106615
 31
0.0
210
0.0
220
1.0
230
0.0
  0
LINE
  5
C6
330
57
100
AcDbEntity
  8
USP-GEO
100
AcDbLine
 10
1.047800000000023
 20
2.855713791066108
 30
0.0
 11
1.047800000000023
 21
3.521451368955979
 31
0.0
210
0.0
220
1.0
230
0.0
  0
LINE
  5
C7
330
57
100
AcDbEntity
  8
USP-GEO
100
AcDbLine
 10
1.000000000000028
 20
3.521451368955979
 30
0.0
 11
1.000000000000028
 21
2.855713791066108
 31
0.0
210
0.0
220
1.0
230
0.0
  0
LINE
  5
C8
330
57
100
AcDbEntity
  8
USP-GEO
100
AcDbLine
 10
1.047800000000023
 20
3.762398573869305
 30
0.0
 11
1.047800000000023
 21
3.521451368955979
 31
0.0
210
0.0
220
1.0
230
0.0
  0
LINE
  5
C9
330
57
100
AcDbEntity
  8
USP-GEO
100
AcDbLine
 10
1.000000000000028
 20
3.762398573869319
 30
0.0
 11
1.000000000000028
 21
3.521451368955979
 31
0.0
210
0.0
220
1.0
230
0.0
  0
LINE
  5
CA
330
57
100
AcDbEntity
  8
USP-GEO
100
AcDbLine
 10
1.047800000000023
 20
4.36476658615274
 30
0.0
 11
1.047800000000023
 21
3.762398573869319
 31
0.0
210
0.0
220
1.0
230
0.0
  0
LINE
  5
CB
330
57
100
AcDbEntity
  8
USP-GEO
100
AcDbLine
 10
1.000000000000028
 20
4.36476658615274
 30
0.0
 11
1.000000000000028
 21
3.762398573869319
 31
0.0
210
0.0
220
1.0
230
0.0
  0
ARC
  5
CC
330
57
100
AcDbEntity
  8
USP-GEO
100
AcDbCircle
 10
1.047800000000023
 20
4.063582580011029
 30
0.0
 40
0.25
100
AcDbArc
 50
101.0228231074037
 51
258.9771768925963
  0
LINE
  5
CD
330
57
100
AcDbEntity
  8
USP-GEO
100
AcDbLine
 10
1.047800000000023
 20
4.605713791066136
 30
0.0
 11
1.047800000000023
 21
4.36476658615274
 31
0.0
210
0.0
220
1.0
230
0.0
  0
LINE
  5
CE
330
57
100
AcDbEntity
  8
USP-GEO
100
AcDbLine
 10
1.000000000000028
 20
4.60571379106615
 30
0.0
 11
1.000000000000028
 21
4.36476658615274
 31
0.0
210
0.0
220
1.0
230
0.0
  0
LINE
  5
CF
330
57
100
AcDbEntity
  8
USP-GEO
100
AcDbLine
 10
0.7140000000000271
 20
6.461942135623843
 30
-0.0000000000000001
 11
0.7249999999999944
 21
6.461942135623843
 31
-0.0000000000000001
210
0.0
220
1.0
230
0.0
  0
LINE
  5
D0
330
57
100
AcDbEntity
  8
USP-GEO
100
AcDbLine
 10
0.7140000000000271
 20
6.461942135623843
 30
-0.0000000000000001
 11
0.7140000000000271
 21
6.457650107022033
 31
-0.0000000000000001
210
0.0
220
1.0
230
0.0
  0
LINE
  5
D1
330
57
100
AcDbEntity
  8
USP-GEO
100
AcDbLine
 10
0.7140000000000271
 20
5.937789700126174
 30
-0.0000000000000001
 11
0.7140000000000271
 21
6.121030428412296
 31
-0.0000000000000001
210
0.0
220
1.0
230
0.0
  0
LINE
  5
D2
330
57
100
AcDbEntity
  8
USP-GEO
100
AcDbLine
 10
0.7249999999999944
 20
6.461942135623843
 30
-0.0000000000000001
 11
0.7249999999999944
 21
5.761942135623854
 31
-0.0000000000000001
210
0.0
220
1.0
230
0.0
  0
LINE
  5
D3
330
57
100
AcDbEntity
  8
USP-GEO
100
AcDbLine
 10
0.7140000000000271
 20
6.121030428412296
 30
-0.0000000000000001
 11
0.7140000000000271
 21
6.457650107022047
 31
-0.0000000000000001
210
0.0
220
1.0
230
0.0
  0
LINE
  5
D4
330
57
100
AcDbEntity
  8
USP-GEO
100
AcDbLine
 10
2.610300000000023
 20
2.855713791066108
 30
0.0000000000000002
 11
2.610300000000023
 21
3.521451368955979
 31
0.0000000000000002
210
0.0
220
1.0
230
0.0
  0
LINE
  5
D5
330
57
100
AcDbEntity
  8
USP-GEO
100
AcDbLine
 10
2.658100000000018
 20
3.521451368955979
 30
0.0000000000000002
 11
2.658100000000018
 21
2.855713791066108
 31
0.0000000000000002
210
0.0
220
1.0
230
0.0
  0
LINE
  5
D6
330
57
100
AcDbEntity
  8
USP-GEO
100
AcDbLine
 10
2.610300000000023
 20
3.762398573869319
 30
0.0000000000000002
 11
2.610300000000023
 21
3.521451368955979
 31
0.0000000000000002
210
0.0
220
1.0
230
0.0
  0
LINE
  5
D7
330
57
100
AcDbEntity
  8
USP-GEO
100
AcDbLine
 10
2.658100000000018
 20
3.762398573869319
 30
0.0000000000000002
 11
2.658100000000018
 21
3.521451368955979
 31
0.0000000000000002
210
0.0
220
1.0
230
0.0
  0
LINE
  5
D8
330
57
100
AcDbEntity
  8
USP-GEO
100
AcDbLine
 10
2.610300000000023
 20
4.36476658615274
 30
0.0000000000000002
 11
2.610300000000023
 21
3.762398573869319
 31
0.0000000000000002
210
0.0
220
1.0
230
0.0
  0
LINE
  5
D9
330
57
100
AcDbEntity
  8
USP-GEO
100
AcDbLine
 10
2.658100000000018
 20
4.36476658615274
 30
0.0000000000000002
 11
2.658100000000018
 21
3.762398573869319
 31
0.0000000000000002
210
0.0
220
1.0
230
0.0
  0
ARC
  5
DA
330
57
100
AcDbEntity
  8
USP-GEO
100
AcDbCircle
 10
2.610300000000023
 20
4.063582580011029
 30
0.0000000000000002
 40
0.25
100
AcDbArc
 50
281.0228231074037
 51
78.97717689259626
  0
LINE
  5
DB
330
57
100
AcDbEntity
  8
USP-GEO
100
AcDbLine
 10
2.610300000000023
 20
4.605713791066136
 30
0.0000000000000002
 11
2.610300000000023
 21
4.36476658615274
 31
0.0000000000000002
210
0.0
220
1.0
230
0.0
  0
LINE
  5
DC
330
57
100
AcDbEntity
  8
USP-GEO
100
AcDbLine
 10
2.658100000000018
 20
4.60571379106615
 30
0.0000000000000002
 11
2.658100000000018
 21
4.36476658615274
 31
0.0000000000000002
210
0.0
220
1.0
230
0.0
  0
CIRCLE
  5
DD
330
57
100
AcDbEntity
  8
USP-GEO
100
AcDbCircle
 10
3.345600000000018
 20
4.551082580011097
 30
0.0000000000000003
 40
0.086
  0
LINE
  5
DE
330
57
100
AcDbEntity
  8
USP-GEO
100
AcDbLine
 10
3.658100000000018
 20
2.85571379106615
 30
0.0000000000000003
 11
3.658100000000018
 21
3.521451368956022
 31
0.0000000000000003
210
0.0
220
1.0
230
0.0
  0
ARC
  5
DF
330
57
100
AcDbEntity
  8
USP-GEO
100
AcDbCircle
 10
3.558100000000024
 20
4.063582580011072
 30
0.0000000000000003
 40
0.3125000000000225
100
AcDbArc
 50
105.4660099534214
 51
254.5339900465786
  0
ARC
  5
E0
330
57
100
AcDbEntity
  8
USP-GEO
100
AcDbCircle
 10
3.408100000000018
 20
3.521451368956007
 30
0.0000000000000003
 40
0.25
100
AcDbArc
 50
0.0000000000016284
 51
74.53399004658037
  0
ARC
  5
E1
330
57
100
AcDbEntity
  8
USP-GEO
100
AcDbCircle
 10
3.40809999999999
 20
4.605713791066165
 30
0.0000000000000003
 40
0.2500000000000218
100
AcDbArc
 50
285.4660099534248
 51
0.0000000000048853
  0
LINE
  5
E2
330
57
100
AcDbEntity
  8
USP-GEO
100
AcDbLine
 10
3.122099999999988
 20
6.457650107022033
 30
0.0000000000000002
 11
2.944099999999991
 21
6.457650107022033
 31
0.0000000000000002
210
0.0
220
1.0
230
0.0
  0
LINE
  5
E3
330
57
100
AcDbEntity
  8
USP-GEO
100
AcDbLine
 10
3.133100000000027
 20
5.761942135623854
 30
0.0000000000000002
 11
3.033100000000032
 21
5.584342135623842
 31
0.0000000000000002
210
0.0
220
1.0
230
0.0
  0
LINE
  5
E4
330
57
100
AcDbEntity
  8
USP-GEO
100
AcDbLine
 10
3.03309999999999
 20
5.89637199262124
 30
0.0000000000000002
 11
3.122099999999974
 21
5.937789700126174
 31
0.0000000000000002
210
0.0
220
1.0
230
0.0
  0
LINE
  5
E5
330
57
100
AcDbEntity
  8
USP-GEO
100
AcDbLine
 10
2.933100000000024
 20
6.461942135623843
 30
0.0000000000000002
 11
2.94410000000002
 21
6.461942135623843
 31
0.0000000000000002
210
0.0
220
1.0
230
0.0
  0
LINE
  5
E6
330
57
100
AcDbEntity
  8
USP-GEO
100
AcDbLine
 10
2.94410000000002
 20
6.457650107022047
 30
0.0000000000000002
 11
2.94410000000002
 21
6.461942135623843
 31
0.0000000000000002
210
0.0
220
1.0
230
0.0
  0
LINE
  5
E7
330
57
100
AcDbEntity
  8
USP-GEO
100
AcDbLine
 10
3.033100000000032
 20
5.584342135623856
 30
0.0000000000000002
 11
2.933100000000024
 21
5.761942135623854
 31
0.0000000000000002
210
0.0
220
1.0
230
0.0
  0
LINE
  5
E8
330
57
100
AcDbEntity
  8
USP-GEO
100
AcDbLine
 10
2.944100000000005
 20
5.937789700126174
 30
0.0000000000000002
 11
3.033100000000018
 21
5.89637199262124
 31
0.0000000000000002
210
0.0
220
1.0
230
0.0
  0
LINE
  5
E9
330
57
100
AcDbEntity
  8
USP-GEO
100
AcDbLine
 10
2.94410000000002
 20
5.937789700126174
 30
0.0000000000000002
 11
2.94410000000002
 21
6.121030428412296
 31
0.0000000000000002
210
0.0
220
1.0
230
0.0
  0
LINE
  5
EA
330
57
100
AcDbEntity
  8
USP-GEO
100
AcDbLine
 10
2.933100000000024
 20
5.761942135623854
 30
0.0000000000000002
 11
2.933100000000024
 21
6.461942135623843
 31
0.0000000000000002
210
0.0
220
1.0
230
0.0
  0
LINE
  5
EB
330
57
100
AcDbEntity
  8
USP-GEO
100
AcDbLine
 10
2.944099999999991
 20
6.121030428412296
 30
0.0000000000000002
 11
2.944099999999991
 21
6.457650107022047
 31
0.0000000000000002
210
0.0
220
1.0
230
0.0
  0
CIRCLE
  5
EC
330
57
100
AcDbEntity
  8
USP-GEO
100
AcDbCircle
 10
3.345600000000018
 20
6.401082580011106
 30
0.0000000000000003
 40
0.086
  0
LINE
  5
ED
330
57
100
AcDbEntity
  8
USP-GEO
100
AcDbLine
 10
3.122100000000017
 20
6.461942135623843
 30
0.0000000000000002
 11
3.133100000000013
 21
6.461942135623843
 31
0.0000000000000002
210
0.0
220
1.0
230
0.0
  0
LINE
  5
EE
330
57
100
AcDbEntity
  8
USP-GEO
100
AcDbLine
 10
3.122100000000017
 20
6.461942135623857
 30
0.0000000000000002
 11
3.122100000000017
 21
6.457650107022033
 31
0.0000000000000002
210
0.0
220
1.0
230
0.0
  0
LINE
  5
EF
330
57
100
AcDbEntity
  8
USP-GEO
100
AcDbLine
 10
3.122100000000017
 20
5.937789700126174
 30
0.0000000000000002
 11
3.122100000000017
 21
6.121030428412296
 31
0.0000000000000002
210
0.0
220
1.0
230
0.0
  0
LINE
  5
F0
330
57
100
AcDbEntity
  8
USP-GEO
100
AcDbLine
 10
3.133100000000013
 20
6.461942135623843
 30
0.0000000000000002
 11
3.133100000000013
 21
5.761942135623854
 31
0.0000000000000002
210
0.0
220
1.0
230
0.0
  0
LINE
  5
F1
330
57
100
AcDbEntity
  8
USP-GEO
100
AcDbLine
 10
3.122099999999988
 20
6.121030428412296
 30
0.0000000000000002
 11
3.122099999999988
 21
6.457650107022047
 31
0.0000000000000002
210
0.0
220
1.0
230
0.0
  0
LINE
  5
F2
330
57
100
AcDbEntity
  8
USP-GEO
100
AcDbLine
 10
1.047800000000023
 20
6.7119421356238
 30
0.0
 11
1.000000000000028
 21
6.7119421356238
 31
0.0
210
0.0
220
1.0
230
0.0
  0
LINE
  5
F3
330
57
100
AcDbEntity
  8
USP-GEO
100
AcDbLine
 10
0.9600000000000079
 20
6.711942135623843
 30
0.0
 11
1.000000000000042
 21
6.711942135623843
 31
0.0
210
0.0
220
1.0
230
0.0
  0
LINE
  5
F4
330
57
100
AcDbEntity
  8
USP-GEO
100
AcDbLine
 10
3.658100000000018
 20
6.711942135623857
 30
0.0000000000000003
 11
2.69810000000001
 21
6.711942135623857
 31
0.0000000000000002
210
0.0
220
1.0
230
0.0
  0
LINE
  5
F5
330
57
100
AcDbEntity
  8
USP-GEO
100
AcDbLine
 10
2.610300000000023
 20
6.711942135623814
 30
0.0000000000000002
 11
2.658100000000018
 21
6.711942135623814
 31
0.0000000000000002
210
0.0
220
1.0
230
0.0
  0
LINE
  5
F6
330
57
100
AcDbEntity
  8
USP-GEO
100
AcDbLine
 10
2.658100000000004
 20
6.711942135623843
 30
0.0000000000000002
 11
2.69810000000001
 21
6.711942135623857
 31
0.0000000000000002
210
0.0
220
1.0
230
0.0
  0
ENDBLK
  5
F8
330
57
100
AcDbEntity
  8
0
100
AcDbBlockEnd
  0
BLOCK
  5
14D
330
FA
100
AcDbEntity
  8
0
100
AcDbBlockBegin
  2
JUS28_S
 70
     0
 10
0.0
 20
0.0
 30
0.0
  3
JUS28_S
  1

  0
ELLIPSE
  5
FB
330
FA
100
AcDbEntity
  8
USP-GEO
100
AcDbEllipse
 10
0.9805920286019329
 20
4.063582580010944
 30
0.0000000000000001
 11
-0.125
 21
0.0
 31
0.0
210
0.0000000000000002
220
0.0
230
-1.0
 40
0.5000000000003219
 41
2.815547544763843
 42
3.467637762415771
  0
ELLIPSE
  5
FC
330
FA
100
AcDbEntity
  8
USP-GEO
100
AcDbEllipse
 10
1.107431372890729
 20
4.063582580010944
 30
0.0000000000000002
 11
-0.000000000000015
 21
0.0625
 31
0.0
210
0.0000000000000002
220
0.0
230
-1.0
 40
0.5
 41
-3.141592653589327
 42
3.141592653590258
  0
ELLIPSE
  5
FD
330
FA
100
AcDbEntity
  8
USP-GEO
100
AcDbEllipse
 10
1.064335108911123
 20
4.063582580010944
 30
0.0000000000000002
 11
0.0
 21
0.0624999999999953
 31
0.0
210
0.0000000000000002
220
0.0
230
-1.0
 40
0.5000000000000381
 41
0.7608540274849755
 42
2.380738626104817
  0
ELLIPSE
  5
FE
330
FA
100
AcDbEntity
  8
USP-GEO
100
AcDbEllipse
 10
0.9805920286018476
 20
2.313582580010972
 30
0.0000000000000001
 11
-0.125
 21
0.0
 31
0.0
210
0.0000000000000002
220
0.0
230
-1.0
 40
0.4999999999992721
 41
2.815547544763133
 42
3.467637762416481
  0
ELLIPSE
  5
FF
330
FA
100
AcDbEntity
  8
USP-GEO
100
AcDbEllipse
 10
1.107431372890644
 20
2.313582580010958
 30
0.0000000000000002
 11
-0.000000000000025
 21
0.0625
 31
0.0
210
0.0000000000000002
220
0.0
230
-1.0
 40
0.5
 41
-3.141592653588994
 42
3.141592653590591
  0
ELLIPSE
  5
100
330
FA
100
AcDbEntity
  8
USP-GEO
100
AcDbEllipse
 10
1.064335108911038
 20
2.313582580010958
 30
0.0000000000000002
 11
0.0000000000000069
 21
0.0625000000000051
 31
0.0
210
0.0000000000000002
220
0.0
230
-1.0
 40
0.4999999999999596
 41
0.7608540274847558
 42
2.380738626104597
  0
TEXT
  5
101
330
FA
100
AcDbEntity
  8
USP-TXT
100
AcDbText
 10
-0.9378449407545929
 20
-0.7343278854727231
 30
0.0000000000000002
 40
0.25
  1
JUS28 - SIDE VIEW
 72
     1
 11
1.145488392578741
 21
-0.7343278854727231
 31
0.0000000000000002
100
AcDbText
  0
LINE
  5
102
330
FA
100
AcDbEntity
  8
USP-GEO
100
AcDbLine
 10
0.087800000000243
 20
6.711942135623758
 30
-0.0000000000000001
 11
0.797800000000251
 21
6.711942135623715
 31
0.0000000000000001
210
0.0
220
1.0
230
0.0
  0
LINE
  5
103
330
FA
100
AcDbEntity
  8
USP-GEO
100
AcDbLine
 10
1.909707340654577
 20
-0.0000000000000711
 30
0.0000000000000003
 11
0.3812694445029194
 21
0.0
 31
0.0
210
0.0
220
1.0
230
0.0
  0
LINE
  5
104
330
FA
100
AcDbEntity
  8
USP-HID
100
AcDbLine
 10
1.985964537036096
 20
0.0478000000000094
 30
0.0
 11
0.2359645370360965
 21
0.0478000000000094
 31
0.0
  0
LINE
  5
107
330
FA
100
AcDbEntity
  8
USP-GEO
100
AcDbLine
 10
0.0000000000000568
 20
2.855713791066065
 30
-0.0000000000000001
 11
0.0000000000000284
 21
2.614766586152711
 31
-0.0000000000000001
210
0.0
220
1.0
230
0.0
  0
LINE
  5
108
330
FA
100
AcDbEntity
  8
USP-GEO
100
AcDbLine
 10
0.0478000000000378
 20
2.614766586152711
 30
-0.0000000000000001
 11
0.047800000000052
 21
2.855713791066065
 31
-0.0000000000000001
210
0.0
220
1.0
230
0.0
  0
LINE
  5
109
330
FA
100
AcDbEntity
  8
USP-GEO
100
AcDbLine
 10
-0.0000000000000426
 20
1.23871883092039
 30
-0.0000000000000001
 11
-0.0000000000000853
 21
0.407542135623757
 31
-0.0000000000000001
210
0.0
220
1.0
230
0.0
  0
LINE
  5
10A
330
FA
100
AcDbEntity
  8
USP-GEO
100
AcDbLine
 10
0.0477999999999099
 20
0.407542135623757
 30
-0.0000000000000001
 11
0.0477999999999668
 21
1.23871883092039
 31
-0.0000000000000001
210
0.0
220
1.0
230
0.0
  0
LINE
  5
10B
330
FA
100
AcDbEntity
  8
USP-GEO
100
AcDbLine
 10
0.2359645370360965
 20
0.0478000000000094
 30
0.0
 11
0.2359645370360965
 21
0.0000000000000142
 31
0.0
210
0.0
220
1.0
230
0.0
  0
LINE
  5
10C
330
FA
100
AcDbEntity
  8
USP-GEO
100
AcDbLine
 10
0.312221733417843
 20
0.0478000000000094
 30
0.0
 11
0.312221733417843
 21
0.0
 31
0.0
210
0.0
220
1.0
230
0.0
  0
LINE
  5
10D
330
FA
100
AcDbEntity
  8
USP-GEO
100
AcDbLine
 10
0.3122217334178288
 20
0.0478000000000094
 30
0.0
 11
0.2359645370360965
 21
0.0478000000000094
 31
0.0
210
0.0
220
1.0
230
0.0
  0
LINE
  5
10E
330
FA
100
AcDbEntity
  8
USP-GEO
100
AcDbLine
 10
0.3812694445029194
 20
0.0477999999999952
 30
0.0
 11
0.312221733417843
 21
0.0478000000000094
 31
0.0
210
0.0
220
1.0
230
0.0
  0
ARC
  5
10F
330
FA
100
AcDbEntity
  8
USP-GEO
100
AcDbCircle
 10
0.2977999999998957
 20
0.0619421356237382
 30
0.0
 40
0.0899999999999998
100
AcDbArc
 50
21.9610542535731
 51
45.00000000000287
  0
LINE
  5
110
330
FA
100
AcDbEntity
  8
USP-GEO
100
AcDbLine
 10
0.3614396103066753
 20
0.1255817459305319
 30
0.0
 11
0.3119421356236387
 21
0.1750792206135827
 31
0.0
210
0.0
220
1.0
230
0.0
  0
ARC
  5
111
330
FA
100
AcDbEntity
  8
USP-GEO
100
AcDbCircle
 10
0.2483025253168449
 20
0.1114396103068032
 30
0.0
 40
0.0900000000000012
100
AcDbArc
 50
45.00000000000173
 51
135.0000000000017
  0
LINE
  5
112
330
FA
100
AcDbEntity
  8
USP-GEO
100
AcDbLine
 10
0.1846629150100512
 20
0.1750792206135969
 30
0.0
 11
0.1433999999999003
 21
0.2163421356237478
 31
-0.0000000000000001
210
0.0
220
1.0
230
0.0
  0
LINE
  5
113
330
FA
100
AcDbEntity
  8
USP-GEO
100
AcDbLine
 10
0.1433999999999145
 20
0.2163421356237478
 30
-0.0000000000000001
 11
0.1433999999999287
 21
0.4075421356237428
 31
-0.0000000000000001
210
0.0
220
1.0
230
0.0
  0
LINE
  5
114
330
FA
100
AcDbEntity
  8
USP-GEO
100
AcDbLine
 10
0.1433999999999287
 20
0.4075421356237428
 30
-0.0000000000000001
 11
0.0877999999999162
 21
0.407542135623757
 31
-0.0000000000000001
210
0.0
220
1.0
230
0.0
  0
LINE
  5
115
330
FA
100
AcDbEntity
  8
USP-GEO
100
AcDbLine
 10
-0.0000000000000853
 20
0.407542135623757
 30
-0.0000000000000001
 11
0.0477999999999099
 21
0.407542135623757
 31
-0.0000000000000001
210
0.0
220
1.0
230
0.0
  0
LINE
  5
116
330
FA
100
AcDbEntity
  8
USP-GEO
100
AcDbLine
 10
0.3812694445028342
 20
0.0799999999999983
 30
0.0
 11
0.3812694445028342
 21
0.0955999999999762
 31
0.0
210
0.0
220
1.0
230
0.0
  0
LINE
  5
117
330
FA
100
AcDbEntity
  8
USP-GEO
100
AcDbLine
 10
0.3812694445029194
 20
0.0
 30
0.0
 11
0.3812694445029194
 21
0.0799999999999983
 31
0.0
210
0.0
220
1.0
230
0.0
  0
LINE
  5
118
330
FA
100
AcDbEntity
  8
USP-GEO
100
AcDbLine
 10
0.312221733417843
 20
0.0000000000000142
 30
0.0
 11
0.3812694445029052
 21
0.0
 31
0.0
210
0.0
220
1.0
230
0.0
  0
LINE
  5
119
330
FA
100
AcDbEntity
  8
USP-GEO
100
AcDbLine
 10
0.3122217334178288
 20
0.0000000000000142
 30
0.0
 11
0.2359645370360965
 21
0.0000000000000142
 31
0.0
210
0.0
220
1.0
230
0.0
  0
LINE
  5
11A
330
FA
100
AcDbEntity
  8
USP-GEO
100
AcDbLine
 10
0.0477999999999099
 20
0.407542135623757
 30
-0.0000000000000001
 11
0.0877999999999162
 21
0.4075421356237428
 31
-0.0000000000000001
210
0.0
220
1.0
230
0.0
  0
LINE
  5
11B
330
FA
100
AcDbEntity
  8
USP-GEO
100
AcDbLine
 10
-0.0000000000000284
 20
1.415495526217029
 30
-0.0000000000000001
 11
-0.0000000000000426
 21
1.23871883092039
 31
-0.0000000000000001
210
0.0
220
1.0
230
0.0
  0
LINE
  5
11C
330
FA
100
AcDbEntity
  8
USP-GEO
100
AcDbLine
 10
0.0477999999999526
 20
1.23871883092039
 30
-0.0000000000000001
 11
0.0477999999999668
 21
1.415495526217029
 31
-0.0000000000000001
210
0.0
220
1.0
230
0.0
  0
LINE
  5
11D
330
FA
100
AcDbEntity
  8
USP-GEO
100
AcDbLine
 10
-0.0000000000000142
 20
1.771451368955979
 30
-0.0000000000000001
 11
-0.0000000000000284
 21
1.415495526217029
 31
-0.0000000000000001
210
0.0
220
1.0
230
0.0
  0
LINE
  5
11E
330
FA
100
AcDbEntity
  8
USP-GEO
100
AcDbLine
 10
0.0477999999999668
 20
1.415495526217029
 30
-0.0000000000000001
 11
0.0477999999999952
 21
1.771451368955979
 31
-0.0000000000000001
210
0.0
220
1.0
230
0.0
  0
LINE
  5
11F
330
FA
100
AcDbEntity
  8
USP-GEO
100
AcDbLine
 10
0.0
 20
2.012398573869333
 30
-0.0000000000000001
 11
0.0
 21
1.771451368955979
 31
-0.0000000000000001
210
0.0
220
1.0
230
0.0
  0
LINE
  5
120
330
FA
100
AcDbEntity
  8
USP-GEO
100
AcDbLine
 10
0.0477999999999952
 20
1.771451368955979
 30
-0.0000000000000001
 11
0.0478000000000094
 21
2.012398573869333
 31
-0.0000000000000001
210
0.0
220
1.0
230
0.0
  0
LINE
  5
121
330
FA
100
AcDbEntity
  8
USP-GEO
100
AcDbLine
 10
0.0000000000000284
 20
2.614766586152711
 30
-0.0000000000000001
 11
0.0
 21
2.012398573869333
 31
-0.0000000000000001
210
0.0
220
1.0
230
0.0
  0
LINE
  5
122
330
FA
100
AcDbEntity
  8
USP-GEO
100
AcDbLine
 10
0.0478000000000094
 20
2.012398573869333
 30
-0.0000000000000001
 11
0.0478000000000378
 21
2.614766586152711
 31
-0.0000000000000001
210
0.0
220
1.0
230
0.0
  0
LINE
  5
123
330
FA
100
AcDbEntity
  8
USP-GEO
100
AcDbLine
 10
0.0000000000002558
 20
6.711942135623772
 30
-0.0000000000000001
 11
0.0000000000001421
 21
4.605713791066108
 31
-0.0000000000000001
210
0.0
220
1.0
230
0.0
  0
LINE
  5
124
330
FA
100
AcDbEntity
  8
USP-GEO
100
AcDbLine
 10
0.0478000000001373
 20
4.605713791066094
 30
-0.0000000000000001
 11
0.047800000000251
 21
6.711942135623772
 31
-0.0000000000000001
210
0.0
220
1.0
230
0.0
  0
CIRCLE
  5
125
330
FA
100
AcDbEntity
  8
USP-GEO
100
AcDbCircle
 10
0.2978000000001373
 20
4.549442135623749
 30
0.0
 40
0.1535
  0
LINE
  5
126
330
FA
100
AcDbEntity
  8
USP-GEO
100
AcDbLine
 10
0.0000000000000853
 20
3.521451368955936
 30
-0.0000000000000001
 11
0.0000000000000568
 21
2.855713791066065
 31
-0.0000000000000001
210
0.0
220
1.0
230
0.0
  0
LINE
  5
127
330
FA
100
AcDbEntity
  8
USP-GEO
100
AcDbLine
 10
0.047800000000052
 20
2.855713791066065
 30
-0.0000000000000001
 11
0.0478000000000805
 21
3.521451368955936
 31
-0.0000000000000001
210
0.0
220
1.0
230
0.0
  0
LINE
  5
128
330
FA
100
AcDbEntity
  8
USP-GEO
100
AcDbLine
 10
0.0000000000001279
 20
4.364766586152697
 30
-0.0000000000000001
 11
0.0000000000000995
 21
3.76239857386929
 31
-0.0000000000000001
210
0.0
220
1.0
230
0.0
  0
LINE
  5
129
330
FA
100
AcDbEntity
  8
USP-GEO
100
AcDbLine
 10
0.0478000000001089
 20
3.762398573869276
 30
-0.0000000000000001
 11
0.0478000000001373
 21
4.364766586152697
 31
-0.0000000000000001
210
0.0
220
1.0
230
0.0
  0
LINE
  5
12A
330
FA
100
AcDbEntity
  8
USP-GEO
100
AcDbLine
 10
0.0000000000001137
 20
3.76239857386929
 30
-0.0000000000000001
 11
0.0000000000000853
 21
3.521451368955936
 31
-0.0000000000000001
210
0.0
220
1.0
230
0.0
  0
LINE
  5
12B
330
FA
100
AcDbEntity
  8
USP-GEO
100
AcDbLine
 10
0.0478000000000805
 20
3.521451368955936
 30
-0.0000000000000001
 11
0.0478000000001089
 21
3.762398573869276
 31
-0.0000000000000001
210
0.0
220
1.0
230
0.0
  0
LINE
  5
12C
330
FA
100
AcDbEntity
  8
USP-GEO
100
AcDbLine
 10
0.0000000000001421
 20
4.605713791066108
 30
-0.0000000000000001
 11
0.0000000000001137
 21
4.364766586152711
 31
-0.0000000000000001
210
0.0
220
1.0
230
0.0
  0
LINE
  5
12D
330
FA
100
AcDbEntity
  8
USP-GEO
100
AcDbLine
 10
0.0478000000001373
 20
4.364766586152711
 30
-0.0000000000000001
 11
0.0478000000001373
 21
4.605713791066094
 31
-0.0000000000000001
210
0.0
220
1.0
230
0.0
  0
LINE
  5
12E
330
FA
100
AcDbEntity
  8
USP-GEO
100
AcDbLine
 10
0.047800000000251
 20
6.457650107021962
 30
-0.0000000000000001
 11
0.0602130307878213
 21
6.457650107021962
 31
-0.0000000000000001
210
0.0
220
1.0
230
0.0
  0
LINE
  5
12F
330
FA
100
AcDbEntity
  8
USP-GEO
100
AcDbLine
 10
0.1657187457573173
 20
5.986085991440532
 30
0.0
 11
0.0478000000002226
 21
5.954489758742425
 31
-0.0000000000000001
210
0.0
220
1.0
230
0.0
  0
LINE
  5
130
330
FA
100
AcDbEntity
  8
USP-GEO
100
AcDbLine
 10
0.0478000000002084
 20
5.902725949721926
 30
-0.0000000000000001
 11
0.1786596980124386
 21
5.937789700126089
 31
0.0
210
0.0
220
1.0
230
0.0
  0
ARC
  5
131
330
FA
100
AcDbEntity
  8
USP-GEO
100
AcDbCircle
 10
0.1463073173746068
 20
6.058530428412225
 30
-0.0000000000000001
 40
0.0749999999999996
100
AcDbArc
 50
285.0000000000055
 51
30.00000000000014
  0
LINE
  5
132
330
FA
100
AcDbEntity
  8
USP-GEO
100
AcDbLine
 10
0.1786596980124671
 20
5.937789700126103
 30
0.0
 11
0.1657187457573457
 21
5.986085991440546
 31
0.0
210
0.0
220
1.0
230
0.0
  0
ARC
  5
133
330
FA
100
AcDbEntity
  8
USP-GEO
100
AcDbCircle
 10
0.1463073173746068
 20
6.058530428412225
 30
-0.0000000000000001
 40
0.1249999999999957
100
AcDbArc
 50
284.9999999999986
 51
29.99999999999357
  0
LINE
  5
134
330
FA
100
AcDbEntity
  8
USP-GEO
100
AcDbLine
 10
0.0478000000002368
 20
6.379150107021956
 30
-0.0000000000000001
 11
0.2112592226584411
 21
6.09603042841222
 31
0.0
210
0.0
220
1.0
230
0.0
  0
LINE
  5
135
330
FA
100
AcDbEntity
  8
USP-GEO
100
AcDbLine
 10
0.2545604928476735
 20
6.121030428412211
 30
0.0
 11
0.0602130307878213
 21
6.457650107021962
 31
-0.0000000000000001
210
0.0
220
1.0
230
0.0
  0
LINE
  5
136
330
FA
100
AcDbEntity
  8
USP-GEO
100
AcDbLine
 10
0.0000000000002558
 20
6.711942135623772
 30
-0.0000000000000001
 11
0.047800000000251
 21
6.711942135623772
 31
-0.0000000000000001
210
0.0
220
1.0
230
0.0
  0
LINE
  5
137
330
FA
100
AcDbEntity
  8
USP-GEO
100
AcDbLine
 10
0.087800000000243
 20
6.711942135623758
 30
-0.0000000000000001
 11
0.047800000000251
 21
6.711942135623772
 31
-0.0000000000000001
210
0.0
220
1.0
230
0.0
  0
ARC
  5
138
330
FA
100
AcDbEntity
  8
USP-GEO
100
AcDbCircle
 10
1.047800000000052
 20
2.855713791066008
 30
0.0000000000000001
 40
0.2500000000000005
100
AcDbArc
 50
179.9999999999975
 51
254.533990046577
  0
LINE
  5
139
330
FA
100
AcDbEntity
  8
USP-GEO
100
AcDbLine
 10
0.8710233047033284
 20
1.238718830920348
 30
0.0000000000000001
 11
1.934662915010051
 21
0.1750792206134974
 31
0.0000000000000003
210
0.0
220
1.0
230
0.0
  0
LINE
  5
13A
330
FA
100
AcDbEntity
  8
USP-GEO
100
AcDbLine
 10
1.985964537036096
 20
0.0477999999999099
 30
0.0000000000000004
 11
1.985964537036096
 21
-0.0000000000000853
 31
0.0000000000000004
210
0.0
220
1.0
230
0.0
  0
LINE
  5
13B
330
FA
100
AcDbEntity
  8
USP-GEO
100
AcDbLine
 10
1.985964537036096
 20
0.0477999999999241
 30
0.0000000000000004
 11
1.909707340654577
 21
0.0477999999999241
 31
0.0000000000000003
210
0.0
220
1.0
230
0.0
  0
LINE
  5
13C
330
FA
100
AcDbEntity
  8
USP-GEO
100
AcDbLine
 10
1.909707340654648
 20
0.0955999999999335
 30
0.0000000000000003
 11
1.909707340654634
 21
0.0799999999999273
 31
0.0000000000000003
210
0.0
220
1.0
230
0.0
  0
ARC
  5
13D
330
FA
100
AcDbEntity
  8
USP-GEO
100
AcDbCircle
 10
1.998302525316844
 20
0.1114396103067037
 30
0.0000000000000004
 40
0.0900000000000005
100
AcDbArc
 50
134.9999999999982
 51
190.1366051522922
  0
LINE
  5
13E
330
FA
100
AcDbEntity
  8
USP-GEO
100
AcDbLine
 10
1.909707340654577
 20
0.0799999999999273
 30
0.0000000000000003
 11
1.909707340654577
 21
-0.0000000000000853
 31
0.0000000000000003
210
0.0
220
1.0
230
0.0
  0
LINE
  5
13F
330
FA
100
AcDbEntity
  8
USP-GEO
100
AcDbLine
 10
1.985964537036096
 20
-0.0000000000000853
 30
0.0000000000000004
 11
1.909707340654563
 21
-0.0000000000000711
 31
0.0000000000000003
210
0.0
220
1.0
230
0.0
  0
ARC
  5
140
330
FA
100
AcDbEntity
  8
USP-GEO
100
AcDbCircle
 10
1.047799999999995
 20
1.771451368955922
 30
0.0000000000000001
 40
0.2500000000000028
100
AcDbArc
 50
105.4660099534163
 51
179.9999999999975
  0
LINE
  5
141
330
FA
100
AcDbEntity
  8
USP-GEO
100
AcDbLine
 10
0.7977999999999952
 20
1.771451368955922
 30
0.0000000000000001
 11
0.7977999999999668
 21
1.415495526217
 31
0.0000000000000001
210
0.0
220
1.0
230
0.0
  0
ARC
  5
142
330
FA
100
AcDbEntity
  8
USP-GEO
100
AcDbCircle
 10
1.04779999999998
 20
1.415495526216986
 30
0.0000000000000001
 40
0.2500000000000017
100
AcDbArc
 50
179.9999999999967
 51
224.999999999996
  0
ARC
  5
143
330
FA
100
AcDbEntity
  8
USP-GEO
100
AcDbCircle
 10
0.8978000000000179
 20
2.313582580010972
 30
0.0000000000000001
 40
0.2022
100
AcDbArc
 50
354.3181581563231
 51
5.68184184367436
  0
CIRCLE
  5
144
330
FA
100
AcDbEntity
  8
USP-GEO
100
AcDbCircle
 10
0.8978000000000179
 20
2.313582580010972
 30
0.0000000000000001
 40
0.245387774756608
  0
ARC
  5
145
330
FA
100
AcDbEntity
  8
USP-GEO
100
AcDbCircle
 10
0.8978000000000179
 20
2.313582580010972
 30
0.0000000000000001
 40
0.3125000000000054
100
AcDbArc
 50
285.4660099534214
 51
74.533990046577
  0
LINE
  5
146
330
FA
100
AcDbEntity
  8
USP-GEO
100
AcDbLine
 10
0.797800000000251
 20
6.711942135623729
 30
0.0000000000000001
 11
0.7978000000001373
 21
4.605713791066065
 31
0.0000000000000001
210
0.0
220
1.0
230
0.0
  0
LINE
  5
147
330
FA
100
AcDbEntity
  8
USP-GEO
100
AcDbLine
 10
0.7978000000000805
 20
3.521451368955894
 30
0.0000000000000001
 11
0.7978000000000521
 21
2.855713791066023
 31
0.0000000000000001
210
0.0
220
1.0
230
0.0
  0
ARC
  5
148
330
FA
100
AcDbEntity
  8
USP-GEO
100
AcDbCircle
 10
1.04780000000008
 20
3.521451368955879
 30
0.0000000000000001
 40
0.2499999999999999
100
AcDbArc
 50
105.4660099534163
 51
179.9999999999959
  0
ARC
  5
149
330
FA
100
AcDbEntity
  8
USP-GEO
100
AcDbCircle
 10
0.8978000000001173
 20
4.063582580010944
 30
0.0000000000000001
 40
0.3125000000000226
100
AcDbArc
 50
285.4660099534188
 51
74.53399004658037
  0
ARC
  5
14A
330
FA
100
AcDbEntity
  8
USP-GEO
100
AcDbCircle
 10
0.8978000000001173
 20
4.063582580010944
 30
0.0000000000000001
 40
0.2022
100
AcDbArc
 50
354.3181581563231
 51
5.681841843675172
  0
CIRCLE
  5
14B
330
FA
100
AcDbEntity
  8
USP-GEO
100
AcDbCircle
 10
0.8978000000001173
 20
4.063582580010944
 30
0.0000000000000001
 40
0.245387774756608
  0
ARC
  5
14C
330
FA
100
AcDbEntity
  8
USP-GEO
100
AcDbCircle
 10
1.047800000000165
 20
4.605713791066023
 30
0.0000000000000001
 40
0.250000000000021
100
AcDbArc
 50
179.9999999999902
 51
254.5339900465719
  0
ENDBLK
  5
14E
330
FA
100
AcDbEntity
  8
0
100
AcDbBlockEnd
  0
ENDSEC
  0
SECTION
  2
ENTITIES
  0
INSERT
  5
3
330
2
100
AcDbEntity
  8
USP
100
AcDbBlockReference
  2
JUS28_T
 10
5.25421845320678
 20
9.293547878526837
 30
0.0000000000000043
  0
INSERT
  5
56
330
2
100
AcDbEntity
  8
USP
100
AcDbBlockReference
  2
JUS28_F
 10
5.316718453206766
 20
0.7346722079336843
 30
-0.0000000000000001
  0
INSERT
  5
F9
330
2
100
AcDbEntity
  8
USP
100
AcDbBlockReference
  2
JUS28_S
 10
0.938211123752842
 20
0.7346722079336701
 30
0.0
  0
ENDSEC
  0
SECTION
  2
OBJECTS
  0
DICTIONARY
  5
16A
330
0
100
AcDbDictionary
281
     1
  3
ACAD_COLOR
350
182
  3
ACAD_GROUP
350
167
  3
ACAD_LAYOUT
350
183
  3
ACAD_MATERIAL
350
181
  3
ACAD_MLINESTYLE
350
168
  3
ACAD_PLOTSETTINGS
350
184
  3
ACAD_PLOTSTYLENAME
350
17F
  3
ACDBHEADERROUNDTRIPXREC
350
18D
  3
AcDbVariableDictionary
350
189
  0
DICTIONARY
  5
15C
330
15B
100
AcDbDictionary
280
     1
281
     1
  0
DICTIONARY
  5
15E
330
15D
100
AcDbDictionary
280
     1
281
     1
  0
DICTIONARY
  5
6
330
5
100
AcDbDictionary
280
     1
281
     1
  0
DICTIONARY
  5
B
330
A
100
AcDbDictionary
280
     1
281
     1
  0
DICTIONARY
  5
16F
330
16E
100
AcDbDictionary
280
     1
281
     1
  0
DICTIONARY
  5
14F
330
2
100
AcDbDictionary
280
     1
281
     1
  3
ACAD_LAYOUTSELFREF
360
150
  0
DICTIONARY
  5
154
330
153
100
AcDbDictionary
280
     1
281
     1
  3
ACAD_LAYOUTSELFREF
360
155
  0
DICTIONARY
  5
182
102
{ACAD_REACTORS
330
16A
102
}
330
16A
100
AcDbDictionary
281
     1
  0
DICTIONARY
  5
167
102
{ACAD_REACTORS
330
16A
102
}
330
16A
100
AcDbDictionary
281
     1
  0
DICTIONARY
  5
183
102
{ACAD_REACTORS
330
16A
102
}
330
16A
100
AcDbDictionary
281
     1
  3
Layout1
350
186
  3
Model
350
185
  0
DICTIONARY
  5
181
102
{ACAD_REACTORS
330
16A
102
}
330
16A
100
AcDbDictionary
281
     1
  0
DICTIONARY
  5
168
102
{ACAD_XDICTIONARY
360
169
102
}
102
{ACAD_REACTORS
330
16A
102
}
330
16A
100
AcDbDictionary
281
     1
  3
STANDARD
350
16D
  0
DICTIONARY
  5
184
102
{ACAD_REACTORS
330
16A
102
}
330
16A
100
AcDbDictionary
281
     1
  0
ACDBDICTIONARYWDFLT
  5
17F
102
{ACAD_REACTORS
330
16A
102
}
330
16A
100
AcDbDictionary
281
     1
  3
Normal
350
180
100
AcDbDictionaryWithDefault
340
180
  0
DICTIONARY
  5
18D
102
{ACAD_REACTORS
330
16A
102
}
330
16A
100
AcDbDictionary
281
     1
  3
COLORDICT
350
18F
  3
MATERIALDICT
350
18E
  0
DICTIONARY
  5
189
102
{ACAD_REACTORS
330
16A
102
}
330
16A
100
AcDbDictionary
281
     1
  3
DIMASSOC
350
18A
  3
PROJECTNAME
350
18B
  0
XRECORD
  5
150
102
{ACAD_REACTORS
330
14F
102
}
330
14F
100
AcDbXrecord
280
     1
340
2
  0
XRECORD
  5
155
102
{ACAD_REACTORS
330
154
102
}
330
154
100
AcDbXrecord
280
     1
340
155
  0
LAYOUT
  5
186
102
{ACAD_XDICTIONARY
360
192
102
}
102
{ACAD_REACTORS
330
183
102
}
330
183
100
AcDbPlotSettings
  1

  2
\\mitk-us-mtg-n28\Office Canon IR C2550
  4

  6

 40
0.0
 41
0.0
 42
0.0
 43
0.0
 44
0.0
 45
0.0
 46
0.0
 47
0.0
 48
0.0
 49
0.0
140
0.0
141
0.0
142
1.0
143
1.0
 70
   688
 72
     0
 73
     0
 74
     5
  7

 75
    16
147
1.0
148
0.0
149
0.0
100
AcDbLayout
  1
Layout1
 70
     1
 71
     1
 10
0.0
 20
0.0
 11
12.0
 21
9.0
 12
0.0
 22
0.0
 32
0.0
 14
1.000000000000000E+20
 24
1.000000000000000E+20
 34
1.000000000000000E+20
 15
-1.000000000000000E+20
 25
-1.000000000000000E+20
 35
-1.000000000000000E+20
146
0.0
 13
0.0
 23
0.0
 33
0.0
 16
1.0
 26
0.0
 36
0.0
 17
0.0
 27
1.0
 37
0.0
 76
     0
330
153
  0
LAYOUT
  5
185
102
{ACAD_XDICTIONARY
360
190
102
}
102
{ACAD_REACTORS
330
183
102
}
330
183
100
AcDbPlotSettings
  1

  2
\\mitk-us-mtg-n28\Office Canon IR C2550
  4

  6

 40
0.0
 41
0.0
 42
0.0
 43
0.0
 44
0.0
 45
0.0
 46
0.0
 47
0.0
 48
0.0
 49
0.0
140
0.0
141
0.0
142
1.0
143
1.0
 70
  1712
 72
     0
 73
     0
 74
     0
  7

 75
     0
147
1.0
148
0.0
149
0.0
100
AcDbLayout
  1
Model
 70
     1
 71
     0
 10
0.0
 20
0.0
 11
12.0
 21
9.0
 12
0.0
 22
0.0
 32
0.0
 14
0.0
 24
0.0
 34
0.0
 15
0.0
 25
0.0
 35
0.0
146
0.0
 13
0.0
 23
0.0
 33
0.0
 16
1.0
 26
0.0
 36
0.0
 17
0.0
 27
1.0
 37
0.0
 76
     0
330
2
  0
DICTIONARY
  5
169
330
168
100
AcDbDictionary
280
     1
281
     1
  0
MLINESTYLE
  5
16D
102
{ACAD_REACTORS
330
168
102
}
330
168
100
AcDbMlineStyle
  2
STANDARD
 70
     0
  3

 62
   256
 51
90.0
 52
90.0
 71
     2
 49
0.5
 62
   256
  6
BYLAYER
 49
-0.5
 62
   256
  6
BYLAYER
  0
ACDBPLACEHOLDER
  5
180
102
{ACAD_REACTORS
330
17F
102
}
330
17F
  0
XRECORD
  5
18F
102
{ACAD_REACTORS
330
18D
102
}
330
18D
100
AcDbXrecord
280
     1
340
182
  0
XRECORD
  5
18E
102
{ACAD_REACTORS
330
18D
102
}
330
18D
100
AcDbXrecord
280
     1
340
181
  0
DICTIONARYVAR
  5
18A
102
{ACAD_REACTORS
330
189
102
}
330
189
100
DictionaryVariables
280
     0
  1
1
  0
DICTIONARYVAR
  5
18B
102
{ACAD_REACTORS
330
189
102
}
330
189
100
DictionaryVariables
280
     0
  1

  0
DICTIONARY
  5
192
330
186
100
AcDbDictionary
280
     1
281
     1
  3
ACAD_XREC_ROUNDTRIP
360
193
  0
DICTIONARY
  5
190
330
185
100
AcDbDictionary
280
     1
281
     1
  3
ACAD_XREC_ROUNDTRIP
360
191
  0
XRECORD
  5
193
102
{ACAD_REACTORS
330
192
102
}
330
192
100
AcDbXrecord
280
     1
102
SHADEPLOT
 70
     0
102
SHADEPLOTRESLEVEL
 70
     2
102
SHADEPLOTCUSTOMDPI
 70
   300
  0
XRECORD
  5
191
102
{ACAD_REACTORS
330
190
102
}
330
190
100
AcDbXrecord
280
     1
102
SHADEPLOT
 70
     0
102
SHADEPLOTRESLEVEL
 70
     2
102
SHADEPLOTCUSTOMDPI
 70
   300
  0
ENDSEC
  0
EOF
