  0
SECTION
  2
HEADER
  9
$ACADVER
  1
AC1015
  9
$ACADMAINTVER
 70
    20
  9
$DWGCODEPAGE
  3
ANSI_1252
  9
$INSBASE
 10
0.0
 20
0.0
 30
0.0
  9
$EXTMIN
 10
0.0003661829982491
 20
0.0004286537666935
 30
0.0000000000000029
  9
$EXTMAX
 10
9.595567532699057
 20
14.04692776496228
 30
0.0000000000000034
  9
$LIMMIN
 10
0.0
 20
0.0
  9
$LIMMAX
 10
12.0
 20
9.0
  9
$ORTHOMODE
 70
     0
  9
$REGENMODE
 70
     1
  9
$FILLMODE
 70
     1
  9
$QTEXTMODE
 70
     0
  9
$MIRRTEXT
 70
     1
  9
$LTSCALE
 40
1.0
  9
$ATTMODE
 70
     1
  9
$TEXTSIZE
 40
0.25
  9
$TRACEWID
 40
0.05
  9
$TEXTSTYLE
  7
STANDARD
  9
$CLAYER
  8
0
  9
$CELTYPE
  6
BYLAYER
  9
$CECOLOR
 62
   256
  9
$CELTSCALE
 40
1.0
  9
$DISPSILH
 70
     0
  9
$DIMSCALE
 40
1.0
  9
$DIMASZ
 40
0.18
  9
$DIMEXO
 40
0.0625
  9
$DIMDLI
 40
0.38
  9
$DIMRND
 40
0.0
  9
$DIMDLE
 40
0.0
  9
$DIMEXE
 40
0.18
  9
$DIMTP
 40
0.0
  9
$DIMTM
 40
0.0
  9
$DIMTXT
 40
0.18
  9
$DIMCEN
 40
0.09
  9
$DIMTSZ
 40
0.0
  9
$DIMTOL
 70
     0
  9
$DIMLIM
 70
     0
  9
$DIMTIH
 70
     1
  9
$DIMTOH
 70
     1
  9
$DIMSE1
 70
     0
  9
$DIMSE2
 70
     0
  9
$DIMTAD
 70
     0
  9
$DIMZIN
 70
     0
  9
$DIMBLK
  1

  9
$DIMASO
 70
     1
  9
$DIMSHO
 70
     1
  9
$DIMPOST
  1

  9
$DIMAPOST
  1

  9
$DIMALT
 70
     0
  9
$DIMALTD
 70
     2
  9
$DIMALTF
 40
25.4
  9
$DIMLFAC
 40
1.0
  9
$DIMTOFL
 70
     0
  9
$DIMTVP
 40
0.0
  9
$DIMTIX
 70
     0
  9
$DIMSOXD
 70
     0
  9
$DIMSAH
 70
     0
  9
$DIMBLK1
  1

  9
$DIMBLK2
  1

  9
$DIMSTYLE
  2
STANDARD
  9
$DIMCLRD
 70
     0
  9
$DIMCLRE
 70
     0
  9
$DIMCLRT
 70
     0
  9
$DIMTFAC
 40
1.0
  9
$DIMGAP
 40
0.09
  9
$DIMJUST
 70
     0
  9
$DIMSD1
 70
     0
  9
$DIMSD2
 70
     0
  9
$DIMTOLJ
 70
     1
  9
$DIMTZIN
 70
     0
  9
$DIMALTZ
 70
     0
  9
$DIMALTTZ
 70
     0
  9
$DIMUPT
 70
     0
  9
$DIMDEC
 70
     4
  9
$DIMTDEC
 70
     4
  9
$DIMALTU
 70
     2
  9
$DIMALTTD
 70
     2
  9
$DIMTXSTY
  7
STANDARD
  9
$DIMAUNIT
 70
     0
  9
$DIMADEC
 70
     0
  9
$DIMALTRND
 40
0.0
  9
$DIMAZIN
 70
     0
  9
$DIMDSEP
 70
    46
  9
$DIMATFIT
 70
     3
  9
$DIMFRAC
 70
     0
  9
$DIMLDRBLK
  1

  9
$DIMLUNIT
 70
     2
  9
$DIMLWD
 70
    -2
  9
$DIMLWE
 70
    -2
  9
$DIMTMOVE
 70
     0
  9
$LUNITS
 70
     2
  9
$LUPREC
 70
     4
  9
$SKETCHINC
 40
0.1
  9
$FILLETRAD
 40
0.5
  9
$AUNITS
 70
     0
  9
$AUPREC
 70
     0
  9
$MENU
  1
.
  9
$ELEVATION
 40
0.0
  9
$PELEVATION
 40
0.0
  9
$THICKNESS
 40
0.0
  9
$LIMCHECK
 70
     0
  9
$CHAMFERA
 40
0.5
  9
$CHAMFERB
 40
0.5
  9
$CHAMFERC
 40
1.0
  9
$CHAMFERD
 40
0.0
  9
$SKPOLY
 70
     0
  9
$TDCREATE
 40
2451667.537949422
  9
$TDUCREATE
 40
2451667.746282755
  9
$TDUPDATE
 40
2455846.457294653
  9
$TDUUPDATE
 40
2455846.665627986
  9
$TDINDWG
 40
0.2082822569
  9
$TDUSRTIMER
 40
0.2082822569
  9
$USRTIMER
 70
     1
  9
$ANGBASE
 50
0.0
  9
$ANGDIR
 70
     0
  9
$PDMODE
 70
     0
  9
$PDSIZE
 40
0.0
  9
$PLINEWID
 40
0.0
  9
$SPLFRAME
 70
     0
  9
$SPLINETYPE
 70
     6
  9
$SPLINESEGS
 70
     8
  9
$HANDSEED
  5
189
  9
$SURFTAB1
 70
     6
  9
$SURFTAB2
 70
     6
  9
$SURFTYPE
 70
     6
  9
$SURFU
 70
     6
  9
$SURFV
 70
     6
  9
$UCSBASE
  2

  9
$UCSNAME
  2

  9
$UCSORG
 10
0.0
 20
0.0
 30
0.0
  9
$UCSXDIR
 10
1.0
 20
0.0
 30
0.0
  9
$UCSYDIR
 10
0.0
 20
1.0
 30
0.0
  9
$UCSORTHOREF
  2

  9
$UCSORTHOVIEW
 70
     0
  9
$UCSORGTOP
 10
0.0
 20
0.0
 30
0.0
  9
$UCSORGBOTTOM
 10
0.0
 20
0.0
 30
0.0
  9
$UCSORGLEFT
 10
0.0
 20
0.0
 30
0.0
  9
$UCSORGRIGHT
 10
0.0
 20
0.0
 30
0.0
  9
$UCSORGFRONT
 10
0.0
 20
0.0
 30
0.0
  9
$UCSORGBACK
 10
0.0
 20
0.0
 30
0.0
  9
$PUCSBASE
  2

  9
$PUCSNAME
  2

  9
$PUCSORG
 10
0.0
 20
0.0
 30
0.0
  9
$PUCSXDIR
 10
1.0
 20
0.0
 30
0.0
  9
$PUCSYDIR
 10
0.0
 20
1.0
 30
0.0
  9
$PUCSORTHOREF
  2

  9
$PUCSORTHOVIEW
 70
     0
  9
$PUCSORGTOP
 10
0.0
 20
0.0
 30
0.0
  9
$PUCSORGBOTTOM
 10
0.0
 20
0.0
 30
0.0
  9
$PUCSORGLEFT
 10
0.0
 20
0.0
 30
0.0
  9
$PUCSORGRIGHT
 10
0.0
 20
0.0
 30
0.0
  9
$PUCSORGFRONT
 10
0.0
 20
0.0
 30
0.0
  9
$PUCSORGBACK
 10
0.0
 20
0.0
 30
0.0
  9
$USERI1
 70
     0
  9
$USERI2
 70
     0
  9
$USERI3
 70
     0
  9
$USERI4
 70
     0
  9
$USERI5
 70
     0
  9
$USERR1
 40
0.0
  9
$USERR2
 40
0.0
  9
$USERR3
 40
0.0
  9
$USERR4
 40
0.0
  9
$USERR5
 40
0.0
  9
$WORLDVIEW
 70
     1
  9
$SHADEDGE
 70
     3
  9
$SHADEDIF
 70
    70
  9
$TILEMODE
 70
     1
  9
$MAXACTVP
 70
    48
  9
$PINSBASE
 10
0.0
 20
0.0
 30
0.0
  9
$PLIMCHECK
 70
     0
  9
$PEXTMIN
 10
1.000000000000000E+20
 20
1.000000000000000E+20
 30
1.000000000000000E+20
  9
$PEXTMAX
 10
-1.000000000000000E+20
 20
-1.000000000000000E+20
 30
-1.000000000000000E+20
  9
$PLIMMIN
 10
0.0
 20
0.0
  9
$PLIMMAX
 10
12.0
 20
9.0
  9
$UNITMODE
 70
     0
  9
$VISRETAIN
 70
     1
  9
$PLINEGEN
 70
     0
  9
$PSLTSCALE
 70
     1
  9
$TREEDEPTH
 70
  3020
  9
$CMLSTYLE
  2
STANDARD
  9
$CMLJUST
 70
     0
  9
$CMLSCALE
 40
1.0
  9
$PROXYGRAPHICS
 70
     1
  9
$MEASUREMENT
 70
     0
  9
$CELWEIGHT
370
    -1
  9
$ENDCAPS
280
     0
  9
$JOINSTYLE
280
     0
  9
$LWDISPLAY
290
     0
  9
$INSUNITS
 70
     0
  9
$HYPERLINKBASE
  1

  9
$STYLESHEET
  1

  9
$XEDIT
290
     1
  9
$CEPSNTYPE
380
     0
  9
$PSTYLEMODE
290
     1
  9
$FINGERPRINTGUID
  2
{ACE3A10F-341B-4C19-AB7A-59E8320E183D}
  9
$VERSIONGUID
  2
{C661C81B-921C-4C07-AFF9-D137F96A9360}
  9
$EXTNAMES
290
     1
  9
$PSVPSCALE
 40
0.0
  9
$OLESTARTUP
290
     0
  0
ENDSEC
  0
SECTION
  2
CLASSES
  0
CLASS
  1
ACDBDICTIONARYWDFLT
  2
AcDbDictionaryWithDefault
  3
ObjectDBX Classes
 90
        0
280
     1
281
     0
  0
CLASS
  1
ACDBPLACEHOLDER
  2
AcDbPlaceHolder
  3
ObjectDBX Classes
 90
        0
280
     0
281
     0
  0
CLASS
  1
LAYOUT
  2
AcDbLayout
  3
ObjectDBX Classes
 90
        0
280
     0
281
     0
  0
CLASS
  1
DICTIONARYVAR
  2
AcDbDictionaryVar
  3
ObjectDBX Classes
 90
        0
280
     0
281
     0
  0
ENDSEC
  0
SECTION
  2
TABLES
  0
TABLE
  2
VPORT
  5
156
330
0
100
AcDbSymbolTable
 70
     2
  0
VPORT
  5
181
330
156
100
AcDbSymbolTableRecord
100
AcDbViewportTableRecord
  2
*Active
 70
     0
 10
0.0
 20
0.0
 11
1.0
 21
1.0
 12
10.93942364967228
 22
7.197000501428233
 13
0.0
 23
0.0
 14
0.5
 24
0.5
 15
0.5
 25
0.5
 16
0.0
 26
0.0
 36
1.0
 17
0.0
 27
0.0
 37
0.0
 40
14.49661053172099
 41
2.304897314375987
 42
50.0
 43
0.0
 44
0.0
 50
0.0
 51
0.0
 71
     0
 72
   100
 73
     1
 74
     3
 75
     0
 76
     0
 77
     0
 78
     0
281
     0
 65
     1
110
0.0
120
0.0
130
0.0
111
1.0
121
0.0
131
0.0
112
0.0
122
1.0
132
0.0
 79
     0
146
0.0
  0
ENDTAB
  0
TABLE
  2
LTYPE
  5
14F
330
0
100
AcDbSymbolTable
 70
     2
  0
LTYPE
  5
150
102
{ACAD_XDICTIONARY
360
151
102
}
330
14F
100
AcDbSymbolTableRecord
100
AcDbLinetypeTableRecord
  2
BYBLOCK
 70
     0
  3

 72
    65
 73
     0
 40
0.0
  0
LTYPE
  5
152
102
{ACAD_XDICTIONARY
360
153
102
}
330
14F
100
AcDbSymbolTableRecord
100
AcDbLinetypeTableRecord
  2
BYLAYER
 70
     0
  3

 72
    65
 73
     0
 40
0.0
  0
LTYPE
  5
5
102
{ACAD_XDICTIONARY
360
6
102
}
330
14F
100
AcDbSymbolTableRecord
100
AcDbLinetypeTableRecord
  2
CONTINUOUS
 70
     0
  3
Solid line
 72
    65
 73
     0
 40
0.0
  0
LTYPE
  5
F5
330
14F
100
AcDbSymbolTableRecord
100
AcDbLinetypeTableRecord
  2
HIDDEN
 70
     0
  3
Hidden __ __ __ __ __ __ __ __ __ __ __ __ __ _
 72
    65
 73
     2
 40
0.375
 49
0.25
 74
     0
 49
-0.125
 74
     0
  0
ENDTAB
  0
TABLE
  2
LAYER
  5
14D
330
0
100
AcDbSymbolTable
 70
     5
  0
LAYER
  5
48
330
14D
100
AcDbSymbolTableRecord
100
AcDbLayerTableRecord
  2
0
 70
     0
 62
     7
  6
CONTINUOUS
370
    -3
390
175
  0
LAYER
  5
4
330
14D
100
AcDbSymbolTableRecord
100
AcDbLayerTableRecord
  2
USP
 70
     0
 62
     7
  6
CONTINUOUS
370
    -3
390
175
  0
LAYER
  5
F4
330
14D
100
AcDbSymbolTableRecord
100
AcDbLayerTableRecord
  2
USP-HID
 70
     0
 62
     7
  6
HIDDEN
370
    -3
390
175
  0
LAYER
  5
D
330
14D
100
AcDbSymbolTableRecord
100
AcDbLayerTableRecord
  2
USP-GEO
 70
     0
 62
     7
  6
CONTINUOUS
370
    -3
390
175
  0
LAYER
  5
9
330
14D
100
AcDbSymbolTableRecord
100
AcDbLayerTableRecord
  2
USP-TXT
 70
     0
 62
     7
  6
CONTINUOUS
370
    -3
390
175
  0
ENDTAB
  0
TABLE
  2
STYLE
  5
14E
330
0
100
AcDbSymbolTable
 70
     1
  0
STYLE
  5
A
102
{ACAD_XDICTIONARY
360
B
102
}
330
14E
100
AcDbSymbolTableRecord
100
AcDbTextStyleTableRecord
  2
STANDARD
 70
     0
 40
0.0
 41
1.0
 50
0.0
 71
     0
 42
0.25
  3
txt
  4

  0
ENDTAB
  0
TABLE
  2
VIEW
  5
154
330
0
100
AcDbSymbolTable
 70
     0
  0
ENDTAB
  0
TABLE
  2
UCS
  5
155
330
0
100
AcDbSymbolTable
 70
     0
  0
ENDTAB
  0
TABLE
  2
APPID
  5
158
330
0
100
AcDbSymbolTable
 70
     1
  0
APPID
  5
159
330
158
100
AcDbSymbolTableRecord
100
AcDbRegAppTableRecord
  2
ACAD
 70
     0
  0
ENDTAB
  0
TABLE
  2
DIMSTYLE
  5
15A
330
0
100
AcDbSymbolTable
 70
     1
100
AcDbDimStyleTable
 71
     0
  0
DIMSTYLE
105
163
102
{ACAD_XDICTIONARY
360
164
102
}
330
15A
100
AcDbSymbolTableRecord
100
AcDbDimStyleTableRecord
  2
STANDARD
 70
     0
340
A
  0
ENDTAB
  0
TABLE
  2
BLOCK_RECORD
  5
1
330
0
100
AcDbSymbolTable
 70
     3
  0
BLOCK_RECORD
  5
2
102
{ACAD_XDICTIONARY
360
144
102
}
330
1
100
AcDbSymbolTableRecord
100
AcDbBlockTableRecord
  2
*MODEL_SPACE
340
17A
  0
BLOCK_RECORD
  5
148
102
{ACAD_XDICTIONARY
360
149
102
}
330
1
100
AcDbSymbolTableRecord
100
AcDbBlockTableRecord
  2
*PAPER_SPACE
340
17B
  0
BLOCK_RECORD
  5
7
330
1
100
AcDbSymbolTableRecord
100
AcDbBlockTableRecord
  2
JUS210_T
340
0
102
{BLKREFS
331
3
102
}
  0
BLOCK_RECORD
  5
4B
330
1
100
AcDbSymbolTableRecord
100
AcDbBlockTableRecord
  2
JUS210_F
340
0
102
{BLKREFS
331
4A
102
}
  0
BLOCK_RECORD
  5
EA
330
1
100
AcDbSymbolTableRecord
100
AcDbBlockTableRecord
  2
JUS210_S
340
0
102
{BLKREFS
331
E9
102
}
  0
ENDTAB
  0
ENDSEC
  0
SECTION
  2
BLOCKS
  0
BLOCK
  5
146
330
2
100
AcDbEntity
  8
0
100
AcDbBlockBegin
  2
*MODEL_SPACE
 70
     0
 10
0.0
 20
0.0
 30
0.0
  3
*MODEL_SPACE
  1

  0
ENDBLK
  5
147
330
2
100
AcDbEntity
  8
0
100
AcDbBlockEnd
  0
BLOCK
  5
14B
330
148
100
AcDbEntity
 67
     1
  8
0
100
AcDbBlockBegin
  2
*PAPER_SPACE
 70
     0
 10
0.0
 20
0.0
 30
0.0
  3
*PAPER_SPACE
  1

  0
ENDBLK
  5
14C
330
148
100
AcDbEntity
 67
     1
  8
0
100
AcDbBlockEnd
  0
BLOCK
  5
47
330
7
100
AcDbEntity
  8
0
100
AcDbBlockBegin
  2
JUS210_T
 70
     0
 10
0.0
 20
0.0
 30
0.0
  3
JUS210_T
  1

  0
TEXT
  5
8
330
7
100
AcDbEntity
  8
USP-TXT
100
AcDbText
 10
-0.2214500000000048
 20
-1.5
 30
0.0
 40
0.25
  1
JUS210 - TOP VIEW
 72
     1
 11
1.841049999999995
 21
-1.5
 31
0.0
100
AcDbText
  0
LINE
  5
C
330
7
100
AcDbEntity
  8
USP-GEO
100
AcDbLine
 10
0.7926409069700356
 20
0.9998838852452252
 30
0.0
 11
0.9029495648351257
 21
0.8895752273801207
 31
0.0
  0
ARC
  5
E
330
7
100
AcDbEntity
  8
USP-GEO
100
AcDbCircle
 10
1.059799999999995
 20
1.15673432041008
 30
0.0
 40
0.3098
100
AcDbArc
 50
101.1295337876993
 51
210.4174075022158
  0
LINE
  5
F
330
7
100
AcDbEntity
  8
USP-GEO
100
AcDbLine
 10
0.0
 20
2.0
 30
0.0
 11
1.0
 21
2.0
 31
0.0
  0
LINE
  5
10
330
7
100
AcDbEntity
  8
USP-GEO
100
AcDbLine
 10
1.059799999999995
 20
2.059799999999995
 30
0.0
 11
0.0
 21
2.059799999999995
 31
0.0
  0
LINE
  5
11
330
7
100
AcDbEntity
  8
USP-GEO
100
AcDbLine
 10
0.0
 20
2.059799999999995
 30
0.0
 11
0.0
 21
2.0
 31
0.0
  0
LINE
  5
12
330
7
100
AcDbEntity
  8
USP-GEO
100
AcDbLine
 10
0.694999999999908
 20
1.851833299629277
 30
0.0
 11
0.694999999999908
 21
2.000000000000014
 31
0.0
  0
LINE
  5
13
330
7
100
AcDbEntity
  8
USP-GEO
100
AcDbLine
 10
0.6950000000000074
 20
1.835086475102329
 30
0.0
 11
0.6949999999999932
 21
1.851833299629277
 31
0.0
  0
LINE
  5
14
330
7
100
AcDbEntity
  8
USP-GEO
100
AcDbLine
 10
0.6249999999999716
 20
2.109799999999992
 30
0.0
 11
0.5716666666666299
 21
2.059799999999995
 31
0.0
  0
LINE
  5
15
330
7
100
AcDbEntity
  8
USP-GEO
100
AcDbLine
 10
0.5549999999999784
 20
2.0
 30
0.0
 11
0.5549999999999784
 21
1.851833299629277
 31
0.0
  0
LINE
  5
16
330
7
100
AcDbEntity
  8
USP-GEO
100
AcDbLine
 10
0.5549999999999784
 20
1.851833299629277
 30
0.0
 11
0.5549999999999784
 21
1.835086475102329
 31
0.0
  0
LINE
  5
17
330
7
100
AcDbEntity
  8
USP-GEO
100
AcDbLine
 10
0.6783333333333133
 20
2.059799999999995
 30
0.0
 11
0.6249999999999716
 21
2.109799999999992
 31
0.0
  0
LINE
  5
18
330
7
100
AcDbEntity
  8
USP-GEO
100
AcDbLine
 10
0.5549999999999784
 20
1.835086475102329
 30
0.0
 11
0.6949999999999648
 21
1.835086475102329
 31
0.0
  0
LINE
  5
19
330
7
100
AcDbEntity
  8
USP-GEO
100
AcDbLine
 10
1.149799999999999
 20
1.750000000000014
 30
0.0
 11
2.532299999999992
 21
1.750000000000014
 31
0.0
  0
LINE
  5
1A
330
7
100
AcDbEntity
  8
USP-GEO
100
AcDbLine
 10
1.149799999999999
 20
0.0
 30
0.0
 11
2.532299999999992
 21
0.0
 31
0.0
  0
LINE
  5
1B
330
7
100
AcDbEntity
  8
USP-GEO
100
AcDbLine
 10
1.059799999999995
 20
1.066666666666662
 30
0.0
 11
1.059799999999995
 21
0.8374999999999914
 31
0.0
  0
LINE
  5
1C
330
7
100
AcDbEntity
  8
USP-GEO
100
AcDbLine
 10
1.0
 20
1.066666666666662
 30
0.0
 11
1.0
 21
0.8374999999999914
 31
0.0
  0
LINE
  5
1D
330
7
100
AcDbEntity
  8
USP-GEO
100
AcDbLine
 10
1.059799999999995
 20
0.1131370849898445
 30
0.0
 11
1.059799999999995
 21
0.8374999999999914
 31
0.0
  0
LINE
  5
1E
330
7
100
AcDbEntity
  8
USP-GEO
100
AcDbLine
 10
1.059799999999995
 20
0.1131370849898445
 30
0.0
 11
1.0
 21
0.1131370849898445
 31
0.0
  0
ARC
  5
1F
330
7
100
AcDbEntity
  8
USP-GEO
100
AcDbCircle
 10
1.059799999999995
 20
0.0
 30
0.0
 40
0.09
100
AcDbArc
 50
0.0000000000024427
 51
44.99999999999827
  0
LINE
  5
20
330
7
100
AcDbEntity
  8
USP-GEO
100
AcDbLine
 10
1.123439610306789
 20
0.0636396103067938
 30
0.0
 11
1.073942135623724
 21
0.1131370849898445
 31
0.0
  0
ARC
  5
21
330
7
100
AcDbEntity
  8
USP-GEO
100
AcDbCircle
 10
1.010302525316944
 20
0.049497474683065
 30
0.0
 40
0.09
100
AcDbArc
 50
44.99999999999942
 51
56.63491197922496
  0
LINE
  5
22
330
7
100
AcDbEntity
  8
USP-GEO
100
AcDbLine
 10
1.0
 20
0.8374999999999914
 30
0.0
 11
1.0
 21
0.1131370849898445
 31
0.0
  0
LINE
  5
23
330
7
100
AcDbEntity
  8
USP-GEO
100
AcDbLine
 10
1.059799999999995
 20
0.8374999999999914
 30
0.0
 11
1.0
 21
0.8374999999999914
 31
0.0
  0
ARC
  5
24
330
7
100
AcDbEntity
  8
USP-GEO
100
AcDbCircle
 10
1.059799999999995
 20
1.15673432041008
 30
0.0
 40
0.3098
100
AcDbArc
 50
239.5825924977824
 51
258.8704662123007
  0
ARC
  5
25
330
7
100
AcDbEntity
  8
USP-GEO
100
AcDbCircle
 10
1.059799999999995
 20
1.75
 30
0.0
 40
0.0899999999999999
100
AcDbArc
 50
269.9999999999968
 51
0.0000000000024427
  0
LINE
  5
26
330
7
100
AcDbEntity
  8
USP-GEO
100
AcDbLine
 10
1.059799999999995
 20
1.066666666666648
 30
0.0
 11
1.059799999999995
 21
1.25
 31
0.0
  0
LINE
  5
27
330
7
100
AcDbEntity
  8
USP-GEO
100
AcDbLine
 10
1.059799999999995
 20
1.249999999999985
 30
0.0
 11
1.0
 21
1.249999999999985
 31
0.0
  0
LINE
  5
28
330
7
100
AcDbEntity
  8
USP-GEO
100
AcDbLine
 10
1.0
 20
1.25
 30
0.0
 11
1.0
 21
1.066666666666648
 31
0.0
  0
LINE
  5
29
330
7
100
AcDbEntity
  8
USP-GEO
100
AcDbLine
 10
1.059799999999995
 20
2.059799999999995
 30
0.0
 11
1.059799999999995
 21
1.249999999999985
 31
0.0
  0
LINE
  5
2A
330
7
100
AcDbEntity
  8
USP-GEO
100
AcDbLine
 10
1.0
 20
2.0
 30
0.0
 11
1.0
 21
1.25
 31
0.0
  0
LINE
  5
2B
330
7
100
AcDbEntity
  8
USP-GEO
100
AcDbLine
 10
2.889459093029955
 20
0.9998838852452394
 30
0.0
 11
2.779150435164865
 21
0.8895752273801349
 31
0.0
  0
LINE
  5
2C
330
7
100
AcDbEntity
  8
USP-GEO
100
AcDbLine
 10
2.622299999999995
 20
0.8375000000000056
 30
0.0
 11
2.622299999999995
 21
1.066666666666677
 31
0.0
  0
LINE
  5
2D
330
7
100
AcDbEntity
  8
USP-GEO
100
AcDbLine
 10
2.682099999999991
 20
0.8375000000000056
 30
0.0
 11
2.682099999999991
 21
1.066666666666677
 31
0.0
  0
LINE
  5
2E
330
7
100
AcDbEntity
  8
USP-GEO
100
AcDbLine
 10
2.622299999999995
 20
0.1131370849898445
 30
0.0
 11
2.622299999999995
 21
0.8375000000000056
 31
0.0
  0
LINE
  5
2F
330
7
100
AcDbEntity
  8
USP-GEO
100
AcDbLine
 10
2.622299999999995
 20
0.1131370849898445
 30
0.0
 11
2.682099999999991
 21
0.1131370849898445
 31
0.0
  0
ARC
  5
30
330
7
100
AcDbEntity
  8
USP-GEO
100
AcDbCircle
 10
2.671797474683046
 20
0.049497474683065
 30
0.0
 40
0.09
100
AcDbArc
 50
123.3650880207827
 51
135.0000000000006
  0
LINE
  5
31
330
7
100
AcDbEntity
  8
USP-GEO
100
AcDbLine
 10
2.558660389693216
 20
0.0636396103067938
 30
0.0
 11
2.608157864376266
 21
0.1131370849898587
 31
0.0
  0
ARC
  5
32
330
7
100
AcDbEntity
  8
USP-GEO
100
AcDbCircle
 10
2.622299999999995
 20
0.0
 30
0.0
 40
0.09
100
AcDbArc
 50
134.9999999999948
 51
180.0000000000032
  0
LINE
  5
33
330
7
100
AcDbEntity
  8
USP-GEO
100
AcDbLine
 10
2.682099999999991
 20
0.1131370849898445
 30
0.0
 11
2.682099999999991
 21
0.8375000000000056
 31
0.0
  0
LINE
  5
34
330
7
100
AcDbEntity
  8
USP-GEO
100
AcDbLine
 10
2.622299999999995
 20
0.8375000000000056
 30
0.0
 11
2.682099999999991
 21
0.8375000000000056
 31
0.0
  0
ARC
  5
35
330
7
100
AcDbEntity
  8
USP-GEO
100
AcDbCircle
 10
2.622299999999995
 20
1.156734320410095
 30
0.0
 40
0.3098
100
AcDbArc
 50
281.1295337876993
 51
300.4174075022176
  0
LINE
  5
36
330
7
100
AcDbEntity
  8
USP-GEO
100
AcDbLine
 10
2.682099999999991
 20
2.000000000000014
 30
0.0
 11
3.682100000000005
 21
2.000000000000014
 31
0.0
  0
LINE
  5
37
330
7
100
AcDbEntity
  8
USP-GEO
100
AcDbLine
 10
3.682100000000005
 20
2.059800000000009
 30
0.0
 11
2.622299999999981
 21
2.059800000000009
 31
0.0
  0
LINE
  5
38
330
7
100
AcDbEntity
  8
USP-GEO
100
AcDbLine
 10
3.127099999999913
 20
1.851833299629277
 30
0.0
 11
3.127099999999913
 21
2.000000000000014
 31
0.0
  0
LINE
  5
39
330
7
100
AcDbEntity
  8
USP-GEO
100
AcDbLine
 10
3.127099999999998
 20
1.835086475102329
 30
0.0
 11
3.127099999999984
 21
1.851833299629277
 31
0.0
  0
ARC
  5
3A
330
7
100
AcDbEntity
  8
USP-GEO
100
AcDbCircle
 10
2.622299999999995
 20
1.750000000000014
 30
0.0
 40
0.0899999999999999
100
AcDbArc
 50
180.0000000000024
 51
269.9999999999992
  0
LINE
  5
3B
330
7
100
AcDbEntity
  8
USP-GEO
100
AcDbLine
 10
3.057099999999962
 20
2.109800000000007
 30
0.0
 11
3.003766666666635
 21
2.059800000000009
 31
0.0
  0
LINE
  5
3C
330
7
100
AcDbEntity
  8
USP-GEO
100
AcDbLine
 10
2.987099999999969
 20
2.000000000000014
 30
0.0
 11
2.987099999999969
 21
1.851833299629277
 31
0.0
  0
LINE
  5
3D
330
7
100
AcDbEntity
  8
USP-GEO
100
AcDbLine
 10
2.987099999999969
 20
1.851833299629277
 30
0.0
 11
2.987099999999969
 21
1.835086475102329
 31
0.0
  0
LINE
  5
3E
330
7
100
AcDbEntity
  8
USP-GEO
100
AcDbLine
 10
3.110433333333304
 20
2.059799999999995
 30
0.0
 11
3.057099999999962
 21
2.109800000000007
 31
0.0
  0
LINE
  5
3F
330
7
100
AcDbEntity
  8
USP-GEO
100
AcDbLine
 10
2.987099999999969
 20
1.835086475102329
 30
0.0
 11
3.127099999999941
 21
1.835086475102329
 31
0.0
  0
LINE
  5
40
330
7
100
AcDbEntity
  8
USP-GEO
100
AcDbLine
 10
2.622299999999995
 20
1.25
 30
0.0
 11
2.682099999999991
 21
1.25
 31
0.0
  0
LINE
  5
41
330
7
100
AcDbEntity
  8
USP-GEO
100
AcDbLine
 10
2.622299999999995
 20
1.25
 30
0.0
 11
2.622299999999995
 21
1.066666666666677
 31
0.0
  0
LINE
  5
42
330
7
100
AcDbEntity
  8
USP-GEO
100
AcDbLine
 10
2.682099999999991
 20
1.066666666666677
 30
0.0
 11
2.682099999999991
 21
1.25
 31
0.0
  0
ARC
  5
43
330
7
100
AcDbEntity
  8
USP-GEO
100
AcDbCircle
 10
2.622299999999995
 20
1.156734320410095
 30
0.0
 40
0.3098
100
AcDbArc
 50
329.5825924977835
 51
78.87046621229991
  0
LINE
  5
44
330
7
100
AcDbEntity
  8
USP-GEO
100
AcDbLine
 10
2.622299999999981
 20
2.059800000000009
 30
0.0
 11
2.622299999999981
 21
1.25
 31
0.0
  0
LINE
  5
45
330
7
100
AcDbEntity
  8
USP-GEO
100
AcDbLine
 10
2.682099999999991
 20
1.250000000000014
 30
0.0
 11
2.682099999999991
 21
2.000000000000014
 31
0.0
  0
LINE
  5
46
330
7
100
AcDbEntity
  8
USP-GEO
100
AcDbLine
 10
3.682100000000005
 20
2.059800000000009
 30
0.0
 11
3.682100000000005
 21
2.000000000000014
 31
0.0
  0
ENDBLK
  5
49
330
7
100
AcDbEntity
  8
0
100
AcDbBlockEnd
  0
BLOCK
  5
E7
330
4B
100
AcDbEntity
  8
0
100
AcDbBlockBegin
  2
JUS210_F
 70
     0
 10
0.0
 20
0.0
 30
0.0
  3
JUS210_F
  1

  0
TEXT
  5
4C
330
4B
100
AcDbEntity
  8
USP-TXT
100
AcDbText
 10
-0.471450000000004
 20
-1.5
 30
0.0000000000000001
 40
0.25
  1
JUS210 - FRONT VIEW
 72
     1
 11
1.841049999999995
 21
-1.5
 31
0.0000000000000001
100
AcDbText
  0
LINE
  5
4D
330
4B
100
AcDbEntity
  8
USP-GEO
100
AcDbLine
 10
0.0
 20
7.839799999999996
 30
-0.0000000000000001
 11
1.000000000000014
 21
7.839799999999996
 31
0.0
210
0.0
220
1.0
230
0.0
  0
ELLIPSE
  5
4E
330
4B
100
AcDbEntity
  8
USP-GEO
100
AcDbEllipse
 10
0.8477952359025806
 20
4.061440444387258
 30
0.0
 11
0.0
 21
-0.0779999999999944
 31
0.0
210
-0.0000000000000001
220
0.0
230
1.0
 40
0.7071067811865273
 41
0.0
 42
6.283185307179586
  0
ARC
  5
4F
330
4B
100
AcDbEntity
  8
USP-GEO
100
AcDbCircle
 10
1.059799999999995
 20
4.061440444387258
 30
0.0
 40
0.3098
100
AcDbArc
 50
101.1295337876985
 51
258.8704662123007
  0
ELLIPSE
  5
50
330
4B
100
AcDbEntity
  8
USP-GEO
100
AcDbEllipse
 10
0.8477952359025806
 20
2.311440444387258
 30
0.0
 11
0.0
 21
-0.0779999999999944
 31
0.0
210
-0.0000000000000001
220
0.0
230
1.0
 40
0.7071067811865273
 41
0.0
 42
6.283185307179586
  0
ARC
  5
51
330
4B
100
AcDbEntity
  8
USP-GEO
100
AcDbCircle
 10
1.059799999999995
 20
2.311440444387258
 30
0.0
 40
0.3098
100
AcDbArc
 50
101.1295337876985
 51
258.8704662123007
  0
LINE
  5
52
330
4B
100
AcDbEntity
  8
USP-GEO
100
AcDbLine
 10
1.0
 20
0.3097999999999956
 30
0.0
 11
0.0732233047033617
 21
1.236576695296633
 31
-0.0000000000000001
210
0.0
220
1.0
230
0.0
  0
ARC
  5
53
330
4B
100
AcDbEntity
  8
USP-GEO
100
AcDbCircle
 10
0.0999999999999943
 20
2.311440444387258
 30
-0.0000000000000001
 40
0.3125000000000001
100
AcDbArc
 50
285.4660099534188
 51
74.53399004658115
  0
ARC
  5
54
330
4B
100
AcDbEntity
  8
USP-GEO
100
AcDbCircle
 10
0.25
 20
1.769309233332208
 30
-0.0000000000000001
 40
0.2500000000000001
100
AcDbArc
 50
105.4660099534214
 51
179.9999999999992
  0
ARC
  5
55
330
4B
100
AcDbEntity
  8
USP-GEO
100
AcDbCircle
 10
0.25
 20
1.413353390593272
 30
-0.0000000000000001
 40
0.2500000000000001
100
AcDbArc
 50
180.0
 51
225.0000000000017
  0
LINE
  5
56
330
4B
100
AcDbEntity
  8
USP-GEO
100
AcDbLine
 10
0.0
 20
1.413353390593272
 30
-0.0000000000000001
 11
0.0
 21
1.769309233332208
 31
-0.0000000000000001
210
0.0
220
1.0
230
0.0
  0
CIRCLE
  5
57
330
4B
100
AcDbEntity
  8
USP-GEO
100
AcDbCircle
 10
0.3125
 20
1.559799999999995
 30
-0.0000000000000001
 40
0.0860000000000001
  0
LINE
  5
58
330
4B
100
AcDbEntity
  8
USP-GEO
100
AcDbLine
 10
0.0
 20
4.603571655442337
 30
-0.0000000000000001
 11
0.0
 21
7.839799999999996
 31
-0.0000000000000001
210
0.0
220
1.0
230
0.0
  0
ARC
  5
59
330
4B
100
AcDbEntity
  8
USP-GEO
100
AcDbCircle
 10
0.0999999999999943
 20
4.061440444387258
 30
-0.0000000000000001
 40
0.3125000000000001
100
AcDbArc
 50
285.4660099534196
 51
74.53399004658037
  0
ARC
  5
5A
330
4B
100
AcDbEntity
  8
USP-GEO
100
AcDbCircle
 10
0.25
 20
3.519309233332165
 30
-0.0000000000000001
 40
0.2500000000000001
100
AcDbArc
 50
105.4660099534188
 51
179.9999999999992
  0
ARC
  5
5B
330
4B
100
AcDbEntity
  8
USP-GEO
100
AcDbCircle
 10
0.25
 20
2.853571655442294
 30
-0.0000000000000001
 40
0.2500000000000001
100
AcDbArc
 50
180.0
 51
254.5339900465778
  0
LINE
  5
5C
330
4B
100
AcDbEntity
  8
USP-GEO
100
AcDbLine
 10
0.0
 20
2.853571655442294
 30
-0.0000000000000001
 11
0.0
 21
3.51930923333218
 31
-0.0000000000000001
210
0.0
220
1.0
230
0.0
  0
ARC
  5
5D
330
4B
100
AcDbEntity
  8
USP-GEO
100
AcDbCircle
 10
0.25
 20
4.603571655442337
 30
-0.0000000000000001
 40
0.2500000000000001
100
AcDbArc
 50
180.0
 51
254.5339900465803
  0
CIRCLE
  5
5E
330
4B
100
AcDbEntity
  8
USP-GEO
100
AcDbCircle
 10
0.3125
 20
4.548940444387255
 30
-0.0000000000000001
 40
0.0860000000000001
  0
LINE
  5
5F
330
4B
100
AcDbEntity
  8
USP-GEO
100
AcDbLine
 10
0.7249999999999944
 20
7.589799999999996
 30
0.0
 11
0.7249999999999944
 21
6.889800000000008
 31
0.0
210
0.0
220
1.0
230
0.0
  0
LINE
  5
60
330
4B
100
AcDbEntity
  8
USP-GEO
100
AcDbLine
 10
0.6949999999999364
 20
7.589799999999996
 30
0.0
 11
0.7249999999999944
 21
7.589799999999996
 31
0.0
210
0.0
220
1.0
230
0.0
  0
LINE
  5
61
330
4B
100
AcDbEntity
  8
USP-GEO
100
AcDbLine
 10
0.6950000000000785
 20
6.980745511219183
 30
0.0
 11
0.6949999999999648
 21
7.224191108675455
 31
0.0
210
0.0
220
1.0
230
0.0
  0
LINE
  5
62
330
4B
100
AcDbEntity
  8
USP-GEO
100
AcDbLine
 10
0.6949999999999222
 20
7.349191108675441
 30
0.0
 11
0.6949999999999222
 21
7.605823361707393
 31
0.0
210
0.0
220
1.0
230
0.0
  0
LINE
  5
63
330
4B
100
AcDbEntity
  8
USP-GEO
100
AcDbLine
 10
0.6950000000000216
 20
7.224191108675455
 30
0.0
 11
0.6949999999999932
 21
7.349191108675455
 31
0.0
210
0.0
220
1.0
230
0.0
  0
CIRCLE
  5
64
330
4B
100
AcDbEntity
  8
USP-GEO
100
AcDbCircle
 10
0.3125
 20
7.528940444387259
 30
-0.0000000000000001
 40
0.0860000000000001
  0
LINE
  5
65
330
4B
100
AcDbEntity
  8
USP-GEO
100
AcDbLine
 10
0.5249999999999915
 20
6.889800000000008
 30
-0.0000000000000001
 11
0.5249999999999915
 21
7.589799999999996
 31
-0.0000000000000001
210
0.0
220
1.0
230
0.0
  0
LINE
  5
66
330
4B
100
AcDbEntity
  8
USP-GEO
100
AcDbLine
 10
0.625
 20
6.789799999999999
 30
0.0
 11
0.5249999999999915
 21
6.889800000000008
 31
-0.0000000000000001
210
0.0
220
1.0
230
0.0
  0
LINE
  5
67
330
4B
100
AcDbEntity
  8
USP-GEO
100
AcDbLine
 10
0.5250000000000057
 20
7.589799999999996
 30
-0.0000000000000001
 11
0.5549999999999784
 21
7.589799999999996
 31
-0.0000000000000001
210
0.0
220
1.0
230
0.0
  0
LINE
  5
68
330
4B
100
AcDbEntity
  8
USP-GEO
100
AcDbLine
 10
0.55499999999995
 20
6.980745511219225
 30
-0.0000000000000001
 11
0.6249999999999858
 21
6.867079676972451
 31
0.0
210
0.0
220
1.0
230
0.0
  0
LINE
  5
69
330
4B
100
AcDbEntity
  8
USP-GEO
100
AcDbLine
 10
0.5549999999999784
 20
7.224191108675455
 30
-0.0000000000000001
 11
0.5549999999999784
 21
6.980745511219225
 31
-0.0000000000000001
210
0.0
220
1.0
230
0.0
  0
LINE
  5
6A
330
4B
100
AcDbEntity
  8
USP-GEO
100
AcDbLine
 10
0.5549999999999926
 20
7.605823361707393
 30
-0.0000000000000001
 11
0.5549999999999926
 21
7.349191108675441
 31
-0.0000000000000001
210
0.0
220
1.0
230
0.0
  0
LINE
  5
6B
330
4B
100
AcDbEntity
  8
USP-GEO
100
AcDbLine
 10
0.5549999999999784
 20
7.349191108675441
 30
-0.0000000000000001
 11
0.5549999999999784
 21
7.224191108675455
 31
-0.0000000000000001
210
0.0
220
1.0
230
0.0
  0
LINE
  5
6C
330
4B
100
AcDbEntity
  8
USP-GEO
100
AcDbLine
 10
0.7249999999999944
 20
6.889800000000008
 30
0.0
 11
0.625
 21
6.789800000000013
 31
0.0
210
0.0
220
1.0
230
0.0
  0
LINE
  5
6D
330
4B
100
AcDbEntity
  8
USP-GEO
100
AcDbLine
 10
0.6249999999999858
 20
6.867079676972451
 30
0.0
 11
0.6949999999999932
 21
6.980745511219183
 31
0.0
210
0.0
220
1.0
230
0.0
  0
LINE
  5
6E
330
4B
100
AcDbEntity
  8
USP-GEO
100
AcDbLine
 10
0.5549999999999926
 20
7.605823361707393
 30
-0.0000000000000001
 11
0.6949999999999364
 21
7.605823361707393
 31
0.0
210
0.0
220
1.0
230
0.0
  0
CIRCLE
  5
6F
330
4B
100
AcDbEntity
  8
USP-GEO
100
AcDbCircle
 10
0.3125
 20
6.39894044438725
 30
-0.0000000000000001
 40
0.0860000000000001
  0
ARC
  5
70
330
4B
100
AcDbEntity
  8
USP-GEO
100
AcDbCircle
 10
3.582099999999996
 20
2.061440444387244
 30
0.0000000000000003
 40
0.3125000000000001
100
AcDbArc
 50
105.4660099534238
 51
254.5339900465778
  0
LINE
  5
71
330
4B
100
AcDbEntity
  8
USP-GEO
100
AcDbLine
 10
2.622299999999995
 20
1.760256438245576
 30
0.0000000000000002
 11
2.622299999999995
 21
2.362624450528954
 31
0.0000000000000002
210
0.0
220
1.0
230
0.0
  0
LINE
  5
72
330
4B
100
AcDbEntity
  8
USP-GEO
100
AcDbLine
 10
2.682099999999991
 20
1.760256438245576
 30
0.0000000000000002
 11
2.682099999999991
 21
2.36262445052894
 31
0.0000000000000002
210
0.0
220
1.0
230
0.0
  0
ELLIPSE
  5
73
330
4B
100
AcDbEntity
  8
USP-GEO
100
AcDbEllipse
 10
2.790252374201728
 20
2.061440444387258
 30
0.0000000000000002
 11
0.0
 21
0.0779999999999962
 31
0.0
210
-0.0000000000000001
220
0.0
230
1.0
 40
0.7071067811865106
 41
-2.7307787023712
 42
-1.570796326794942
  0
ELLIPSE
  5
74
330
4B
100
AcDbEntity
  8
USP-GEO
100
AcDbEllipse
 10
2.83430476409741
 20
2.061440444387258
 30
0.0000000000000002
 11
0.0
 21
-0.0779999999999943
 31
0.0
210
-0.0000000000000001
220
0.0
230
1.0
 40
0.7071067811865276
 41
0.0000000000000001
 42
6.283185307179586
  0
ARC
  5
75
330
4B
100
AcDbEntity
  8
USP-GEO
100
AcDbCircle
 10
2.622299999999995
 20
2.061440444387258
 30
0.0000000000000002
 40
0.3098
100
AcDbArc
 50
281.1295337876993
 51
78.87046621229991
  0
LINE
  5
76
330
4B
100
AcDbEntity
  8
USP-GEO
100
AcDbLine
 10
1.059799999999995
 20
2.61262445052894
 30
0.0
 11
1.059799999999995
 21
2.010256438245576
 31
0.0
210
0.0
220
1.0
230
0.0
  0
LINE
  5
77
330
4B
100
AcDbEntity
  8
USP-GEO
100
AcDbLine
 10
1.0
 20
2.61262445052894
 30
0.0
 11
1.0
 21
2.010256438245562
 31
0.0
210
0.0
220
1.0
230
0.0
  0
LINE
  5
78
330
4B
100
AcDbEntity
  8
USP-GEO
100
AcDbLine
 10
1.149799999999999
 20
0.0
 30
0.0
 11
2.532299999999992
 21
0.0
 31
0.0000000000000002
210
0.0
220
1.0
230
0.0
  0
LINE
  5
79
330
4B
100
AcDbEntity
  8
USP-GEO
100
AcDbLine
 10
1.149799999999999
 20
0.0597999999999956
 30
0.0
 11
2.532299999999992
 21
0.0597999999999956
 31
0.0000000000000002
210
0.0
220
1.0
230
0.0
  0
LINE
  5
7A
330
4B
100
AcDbEntity
  8
USP-GEO
100
AcDbLine
 10
1.059799999999995
 20
0.1729370849898402
 30
0.0
 11
1.059799999999995
 21
1.236576695296633
 31
0.0
210
0.0
220
1.0
230
0.0
  0
LINE
  5
7B
330
4B
100
AcDbEntity
  8
USP-GEO
100
AcDbLine
 10
1.0
 20
1.236576695296633
 30
0.0
 11
1.0
 21
0.1729370849898402
 31
0.0
210
0.0
220
1.0
230
0.0
  0
LINE
  5
7C
330
4B
100
AcDbEntity
  8
USP-GEO
100
AcDbLine
 10
1.059799999999995
 20
0.0
 30
0.0
 11
1.0
 21
0.0
 31
0.0
210
0.0
220
1.0
230
0.0
  0
LINE
  5
7D
330
4B
100
AcDbEntity
  8
USP-GEO
100
AcDbLine
 10
1.059799999999995
 20
0.0597999999999956
 30
0.0
 11
1.059799999999995
 21
0.1729370849898402
 31
0.0
210
0.0
220
1.0
230
0.0
  0
LINE
  5
7E
330
4B
100
AcDbEntity
  8
USP-GEO
100
AcDbLine
 10
1.059799999999995
 20
0.0597999999999956
 30
0.0
 11
1.0
 21
0.0597999999999956
 31
0.0
210
0.0
220
1.0
230
0.0
  0
LINE
  5
7F
330
4B
100
AcDbEntity
  8
USP-GEO
100
AcDbLine
 10
1.059799999999995
 20
0.1729370849898402
 30
0.0
 11
1.0
 21
0.1729370849898402
 31
0.0
210
0.0
220
1.0
230
0.0
  0
LINE
  5
80
330
4B
100
AcDbEntity
  8
USP-GEO
100
AcDbLine
 10
1.149799999999999
 20
0.0597999999999956
 30
0.0
 11
1.149799999999999
 21
0.0
 31
0.0
210
0.0
220
1.0
230
0.0
  0
LINE
  5
81
330
4B
100
AcDbEntity
  8
USP-GEO
100
AcDbLine
 10
1.123439610306789
 20
0.0
 30
0.0
 11
1.149799999999999
 21
0.0
 31
0.0
210
0.0
220
1.0
230
0.0
  0
LINE
  5
82
330
4B
100
AcDbEntity
  8
USP-GEO
100
AcDbLine
 10
1.073942135623724
 20
0.0
 30
0.0
 11
1.123439610306789
 21
0.0
 31
0.0
210
0.0
220
1.0
230
0.0
  0
LINE
  5
83
330
4B
100
AcDbEntity
  8
USP-GEO
100
AcDbLine
 10
1.059799999999995
 20
0.0597999999999956
 30
0.0
 11
1.059799999999995
 21
0.0
 31
0.0
210
0.0
220
1.0
230
0.0
  0
LINE
  5
84
330
4B
100
AcDbEntity
  8
USP-GEO
100
AcDbLine
 10
1.059800000000009
 20
0.0
 30
0.0
 11
1.073942135623738
 21
0.0
 31
0.0
210
0.0
220
1.0
230
0.0
  0
LINE
  5
85
330
4B
100
AcDbEntity
  8
USP-GEO
100
AcDbLine
 10
1.149799999999999
 20
0.0597999999999956
 30
0.0
 11
1.123439610306789
 21
0.0597999999999956
 31
0.0
210
0.0
220
1.0
230
0.0
  0
LINE
  5
86
330
4B
100
AcDbEntity
  8
USP-GEO
100
AcDbLine
 10
1.123439610306789
 20
0.0598000000000099
 30
0.0
 11
1.073942135623724
 21
0.0598000000000099
 31
0.0
210
0.0
220
1.0
230
0.0
  0
LINE
  5
87
330
4B
100
AcDbEntity
  8
USP-GEO
100
AcDbLine
 10
1.073942135623738
 20
0.0597999999999956
 30
0.0
 11
1.059800000000009
 21
0.0597999999999956
 31
0.0
210
0.0
220
1.0
230
0.0
  0
LINE
  5
88
330
4B
100
AcDbEntity
  8
USP-GEO
100
AcDbLine
 10
1.0
 20
0.0597999999999956
 30
0.0
 11
1.0
 21
0.0
 31
0.0
210
0.0
220
1.0
230
0.0
  0
LINE
  5
89
330
4B
100
AcDbEntity
  8
USP-GEO
100
AcDbLine
 10
1.0
 20
0.1729370849898402
 30
0.0
 11
1.0
 21
0.0597999999999956
 31
0.0
210
0.0
220
1.0
230
0.0
  0
LINE
  5
8A
330
4B
100
AcDbEntity
  8
USP-GEO
100
AcDbLine
 10
1.059799999999995
 20
1.236576695296633
 30
0.0
 11
1.059799999999995
 21
1.413353390593272
 31
0.0
210
0.0
220
1.0
230
0.0
  0
LINE
  5
8B
330
4B
100
AcDbEntity
  8
USP-GEO
100
AcDbLine
 10
1.059799999999995
 20
1.769309233332208
 30
0.0
 11
1.059799999999995
 21
1.413353390593272
 31
0.0
210
0.0
220
1.0
230
0.0
  0
LINE
  5
8C
330
4B
100
AcDbEntity
  8
USP-GEO
100
AcDbLine
 10
1.059799999999995
 20
1.769309233332208
 30
0.0
 11
1.059799999999995
 21
2.010256438245562
 31
0.0
210
0.0
220
1.0
230
0.0
  0
LINE
  5
8D
330
4B
100
AcDbEntity
  8
USP-GEO
100
AcDbLine
 10
1.0
 20
2.010256438245562
 30
0.0
 11
1.0
 21
1.769309233332208
 31
0.0
210
0.0
220
1.0
230
0.0
  0
LINE
  5
8E
330
4B
100
AcDbEntity
  8
USP-GEO
100
AcDbLine
 10
1.0
 20
1.769309233332208
 30
0.0
 11
1.0
 21
1.413353390593272
 31
0.0
210
0.0
220
1.0
230
0.0
  0
LINE
  5
8F
330
4B
100
AcDbEntity
  8
USP-GEO
100
AcDbLine
 10
1.0
 20
1.413353390593272
 30
0.0
 11
1.0
 21
1.236576695296633
 31
0.0
210
0.0
220
1.0
230
0.0
  0
LINE
  5
90
330
4B
100
AcDbEntity
  8
USP-GEO
100
AcDbLine
 10
2.622299999999995
 20
0.1729370849898544
 30
0.0000000000000002
 11
2.622299999999995
 21
1.236576695296648
 31
0.0000000000000002
210
0.0
220
1.0
230
0.0
  0
LINE
  5
91
330
4B
100
AcDbEntity
  8
USP-GEO
100
AcDbLine
 10
2.682099999999991
 20
0.1729370849898544
 30
0.0000000000000002
 11
2.682099999999991
 21
1.236576695296648
 31
0.0000000000000002
210
0.0
220
1.0
230
0.0
  0
LINE
  5
92
330
4B
100
AcDbEntity
  8
USP-GEO
100
AcDbLine
 10
2.622299999999995
 20
0.1729370849898544
 30
0.0000000000000002
 11
2.622299999999995
 21
0.0597999999999956
 31
0.0000000000000002
210
0.0
220
1.0
230
0.0
  0
LINE
  5
93
330
4B
100
AcDbEntity
  8
USP-GEO
100
AcDbLine
 10
2.622299999999995
 20
0.1729370849898544
 30
0.0000000000000002
 11
2.682099999999991
 21
0.1729370849898544
 31
0.0000000000000002
210
0.0
220
1.0
230
0.0
  0
LINE
  5
94
330
4B
100
AcDbEntity
  8
USP-GEO
100
AcDbLine
 10
2.622299999999995
 20
0.0
 30
0.0000000000000002
 11
2.682099999999991
 21
0.0
 31
0.0000000000000002
210
0.0
220
1.0
230
0.0
  0
LINE
  5
95
330
4B
100
AcDbEntity
  8
USP-GEO
100
AcDbLine
 10
2.622299999999995
 20
0.0597999999999956
 30
0.0000000000000002
 11
2.682099999999991
 21
0.0597999999999956
 31
0.0000000000000002
210
0.0
220
1.0
230
0.0
  0
LINE
  5
96
330
4B
100
AcDbEntity
  8
USP-GEO
100
AcDbLine
 10
2.622299999999995
 20
0.0
 30
0.0000000000000002
 11
2.622299999999995
 21
0.0597999999999956
 31
0.0000000000000002
210
0.0
220
1.0
230
0.0
  0
LINE
  5
97
330
4B
100
AcDbEntity
  8
USP-GEO
100
AcDbLine
 10
2.608157864376266
 20
0.0
 30
0.0000000000000002
 11
2.622299999999995
 21
0.0
 31
0.0000000000000002
210
0.0
220
1.0
230
0.0
  0
LINE
  5
98
330
4B
100
AcDbEntity
  8
USP-GEO
100
AcDbLine
 10
2.558660389693216
 20
0.0
 30
0.0000000000000002
 11
2.608157864376266
 21
0.0
 31
0.0000000000000002
210
0.0
220
1.0
230
0.0
  0
LINE
  5
99
330
4B
100
AcDbEntity
  8
USP-GEO
100
AcDbLine
 10
2.532299999999992
 20
0.0
 30
0.0000000000000002
 11
2.558660389693216
 21
0.0
 31
0.0000000000000002
210
0.0
220
1.0
230
0.0
  0
LINE
  5
9A
330
4B
100
AcDbEntity
  8
USP-GEO
100
AcDbLine
 10
2.532299999999992
 20
0.0597999999999956
 30
0.0000000000000002
 11
2.532299999999992
 21
0.0
 31
0.0000000000000002
210
0.0
220
1.0
230
0.0
  0
LINE
  5
9B
330
4B
100
AcDbEntity
  8
USP-GEO
100
AcDbLine
 10
2.622299999999995
 20
0.0597999999999956
 30
0.0000000000000002
 11
2.608157864376266
 21
0.0597999999999956
 31
0.0000000000000002
210
0.0
220
1.0
230
0.0
  0
LINE
  5
9C
330
4B
100
AcDbEntity
  8
USP-GEO
100
AcDbLine
 10
2.558660389693216
 20
0.0597999999999956
 30
0.0000000000000002
 11
2.608157864376266
 21
0.0597999999999956
 31
0.0000000000000002
210
0.0
220
1.0
230
0.0
  0
LINE
  5
9D
330
4B
100
AcDbEntity
  8
USP-GEO
100
AcDbLine
 10
2.558660389693216
 20
0.0598000000000099
 30
0.0000000000000002
 11
2.532299999999992
 21
0.0598000000000099
 31
0.0000000000000002
210
0.0
220
1.0
230
0.0
  0
LINE
  5
9E
330
4B
100
AcDbEntity
  8
USP-GEO
100
AcDbLine
 10
2.682099999999991
 20
0.0
 30
0.0000000000000002
 11
2.682099999999991
 21
0.0597999999999956
 31
0.0000000000000002
210
0.0
220
1.0
230
0.0
  0
LINE
  5
9F
330
4B
100
AcDbEntity
  8
USP-GEO
100
AcDbLine
 10
2.682099999999991
 20
0.0597999999999956
 30
0.0000000000000002
 11
2.682099999999991
 21
0.1729370849898544
 31
0.0000000000000002
210
0.0
220
1.0
230
0.0
  0
LINE
  5
A0
330
4B
100
AcDbEntity
  8
USP-GEO
100
AcDbLine
 10
3.608876695296629
 20
1.236576695296619
 30
0.0000000000000003
 11
2.682099999999991
 21
0.3097999999999956
 31
0.0000000000000002
210
0.0
220
1.0
230
0.0
  0
LINE
  5
A1
330
4B
100
AcDbEntity
  8
USP-GEO
100
AcDbLine
 10
2.622299999999995
 20
1.760256438245576
 30
0.0000000000000002
 11
2.622299999999995
 21
1.519309233332236
 31
0.0000000000000002
210
0.0
220
1.0
230
0.0
  0
LINE
  5
A2
330
4B
100
AcDbEntity
  8
USP-GEO
100
AcDbLine
 10
2.622299999999995
 20
1.413353390593286
 30
0.0000000000000002
 11
2.622299999999995
 21
1.519309233332236
 31
0.0000000000000002
210
0.0
220
1.0
230
0.0
  0
LINE
  5
A3
330
4B
100
AcDbEntity
  8
USP-GEO
100
AcDbLine
 10
2.622299999999995
 20
1.413353390593286
 30
0.0000000000000002
 11
2.622299999999995
 21
1.236576695296648
 31
0.0000000000000002
210
0.0
220
1.0
230
0.0
  0
LINE
  5
A4
330
4B
100
AcDbEntity
  8
USP-GEO
100
AcDbLine
 10
2.682099999999991
 20
1.236576695296648
 30
0.0000000000000002
 11
2.682099999999991
 21
1.413353390593286
 31
0.0000000000000002
210
0.0
220
1.0
230
0.0
  0
LINE
  5
A5
330
4B
100
AcDbEntity
  8
USP-GEO
100
AcDbLine
 10
2.682099999999991
 20
1.413353390593286
 30
0.0000000000000002
 11
2.682099999999991
 21
1.519309233332236
 31
0.0000000000000002
210
0.0
220
1.0
230
0.0
  0
LINE
  5
A6
330
4B
100
AcDbEntity
  8
USP-GEO
100
AcDbLine
 10
2.682099999999991
 20
1.519309233332236
 30
0.0000000000000002
 11
2.682099999999991
 21
1.760256438245562
 31
0.0000000000000002
210
0.0
220
1.0
230
0.0
  0
ARC
  5
A7
330
4B
100
AcDbEntity
  8
USP-GEO
100
AcDbCircle
 10
3.432099999999991
 20
1.413353390593258
 30
0.0000000000000003
 40
0.2500000000000001
100
AcDbArc
 50
314.9999999999995
 51
0.0
  0
LINE
  5
A8
330
4B
100
AcDbEntity
  8
USP-GEO
100
AcDbLine
 10
3.682099999999991
 20
1.519309233332307
 30
0.0000000000000003
 11
3.682099999999991
 21
1.413353390593258
 31
0.0000000000000003
210
0.0
220
1.0
230
0.0
  0
ARC
  5
A9
330
4B
100
AcDbEntity
  8
USP-GEO
100
AcDbCircle
 10
3.432099999999991
 20
1.519309233332307
 30
0.0000000000000003
 40
0.2500000000000001
100
AcDbArc
 50
359.9999999999992
 51
74.53399004657443
  0
CIRCLE
  5
AA
330
4B
100
AcDbEntity
  8
USP-GEO
100
AcDbCircle
 10
3.369599999999991
 20
1.372299999999981
 30
0.0000000000000003
 40
0.0860000000000001
  0
LINE
  5
AB
330
4B
100
AcDbEntity
  8
USP-GEO
100
AcDbLine
 10
1.059799999999995
 20
4.603571655442337
 30
0.0
 11
1.059799999999995
 21
7.839799999999996
 31
0.0
210
0.0
220
1.0
230
0.0
  0
LINE
  5
AC
330
4B
100
AcDbEntity
  8
USP-GEO
100
AcDbLine
 10
3.682099999999991
 20
7.839799999999982
 30
0.0000000000000003
 11
3.682099999999991
 21
4.35357165544238
 31
0.0000000000000003
210
0.0
220
1.0
230
0.0
  0
LINE
  5
AD
330
4B
100
AcDbEntity
  8
USP-GEO
100
AcDbLine
 10
2.622299999999995
 20
4.353571655442294
 30
0.0000000000000002
 11
2.622299999999995
 21
7.839799999999996
 31
0.0000000000000002
210
0.0
220
1.0
230
0.0
  0
LINE
  5
AE
330
4B
100
AcDbEntity
  8
USP-GEO
100
AcDbLine
 10
1.000000000000014
 20
7.839799999999996
 30
0.0
 11
1.000000000000014
 21
4.603571655442337
 31
0.0
210
0.0
220
1.0
230
0.0
  0
LINE
  5
AF
330
4B
100
AcDbEntity
  8
USP-GEO
100
AcDbLine
 10
2.682099999999991
 20
4.353571655442294
 30
0.0000000000000002
 11
2.682099999999991
 21
7.839799999999996
 31
0.0000000000000002
210
0.0
220
1.0
230
0.0
  0
LINE
  5
B0
330
4B
100
AcDbEntity
  8
USP-GEO
100
AcDbLine
 10
1.059799999999995
 20
4.36262445052894
 30
0.0
 11
1.059799999999995
 21
3.760256438245562
 31
0.0
210
0.0
220
1.0
230
0.0
  0
LINE
  5
B1
330
4B
100
AcDbEntity
  8
USP-GEO
100
AcDbLine
 10
1.0
 20
4.36262445052894
 30
0.0
 11
1.0
 21
3.760256438245562
 31
0.0
210
0.0
220
1.0
230
0.0
  0
LINE
  5
B2
330
4B
100
AcDbEntity
  8
USP-GEO
100
AcDbLine
 10
1.059799999999995
 20
3.51930923333218
 30
0.0
 11
1.059799999999995
 21
3.760256438245534
 31
0.0
210
0.0
220
1.0
230
0.0
  0
LINE
  5
B3
330
4B
100
AcDbEntity
  8
USP-GEO
100
AcDbLine
 10
1.0
 20
3.760256438245534
 30
0.0
 11
1.0
 21
3.519309233332165
 31
0.0
210
0.0
220
1.0
230
0.0
  0
LINE
  5
B4
330
4B
100
AcDbEntity
  8
USP-GEO
100
AcDbLine
 10
1.059799999999995
 20
2.612624450528954
 30
0.0
 11
1.059799999999995
 21
2.853571655442308
 31
0.0
210
0.0
220
1.0
230
0.0
  0
LINE
  5
B5
330
4B
100
AcDbEntity
  8
USP-GEO
100
AcDbLine
 10
1.0
 20
2.853571655442294
 30
0.0
 11
1.0
 21
2.612624450528954
 31
0.0
210
0.0
220
1.0
230
0.0
  0
ELLIPSE
  5
B6
330
4B
100
AcDbEntity
  8
USP-GEO
100
AcDbEllipse
 10
0.8918476257982632
 20
2.311440444387272
 30
0.0
 11
0.0
 21
0.0779999999999962
 31
0.0
210
-0.0000000000000001
220
0.0
230
1.0
 40
0.7071067811865105
 41
1.570796326794896
 42
2.730778702371336
  0
ELLIPSE
  5
B7
330
4B
100
AcDbEntity
  8
USP-GEO
100
AcDbEllipse
 10
0.8918476257982632
 20
2.311440444387272
 30
0.0
 11
0.0
 21
0.0779999999999962
 31
0.0
210
-0.0000000000000001
220
0.0
230
1.0
 40
0.7071067811865105
 41
0.4108139512186703
 42
1.570796326794896
  0
LINE
  5
B8
330
4B
100
AcDbEntity
  8
USP-GEO
100
AcDbLine
 10
1.059799999999995
 20
3.51930923333218
 30
0.0
 11
1.059799999999995
 21
2.853571655442308
 31
0.0
210
0.0
220
1.0
230
0.0
  0
LINE
  5
B9
330
4B
100
AcDbEntity
  8
USP-GEO
100
AcDbLine
 10
1.0
 20
3.519309233332165
 30
0.0
 11
1.0
 21
2.853571655442294
 31
0.0
210
0.0
220
1.0
230
0.0
  0
ELLIPSE
  5
BA
330
4B
100
AcDbEntity
  8
USP-GEO
100
AcDbEllipse
 10
0.8918476257982632
 20
4.061440444387272
 30
0.0
 11
0.0
 21
0.0779999999999962
 31
0.0
210
-0.0000000000000001
220
0.0
230
1.0
 40
0.7071067811865105
 41
1.570796326794942
 42
2.730778702371336
  0
ELLIPSE
  5
BB
330
4B
100
AcDbEntity
  8
USP-GEO
100
AcDbEllipse
 10
0.8918476257982632
 20
4.061440444387272
 30
0.0
 11
0.0
 21
0.0779999999999962
 31
0.0
210
-0.0000000000000001
220
0.0
230
1.0
 40
0.7071067811865105
 41
0.4108139512186745
 42
1.570796326794942
  0
LINE
  5
BC
330
4B
100
AcDbEntity
  8
USP-GEO
100
AcDbLine
 10
1.059799999999995
 20
4.362624450528983
 30
0.0
 11
1.059799999999995
 21
4.603571655442337
 31
0.0
210
0.0
220
1.0
230
0.0
  0
LINE
  5
BD
330
4B
100
AcDbEntity
  8
USP-GEO
100
AcDbLine
 10
1.0
 20
4.603571655442337
 30
0.0
 11
1.0
 21
4.362624450528983
 31
0.0
210
0.0
220
1.0
230
0.0
  0
ARC
  5
BE
330
4B
100
AcDbEntity
  8
USP-GEO
100
AcDbCircle
 10
3.582099999999996
 20
3.811440444387258
 30
0.0000000000000003
 40
0.3125000000000001
100
AcDbArc
 50
105.4660099534171
 51
254.5339900465829
  0
LINE
  5
BF
330
4B
100
AcDbEntity
  8
USP-GEO
100
AcDbLine
 10
2.622299999999995
 20
3.51025643824559
 30
0.0000000000000002
 11
2.622299999999995
 21
4.112624450528954
 31
0.0000000000000002
210
0.0
220
1.0
230
0.0
  0
LINE
  5
C0
330
4B
100
AcDbEntity
  8
USP-GEO
100
AcDbLine
 10
2.682099999999991
 20
3.51025643824559
 30
0.0000000000000002
 11
2.682099999999991
 21
4.112624450528954
 31
0.0000000000000002
210
0.0
220
1.0
230
0.0
  0
ARC
  5
C1
330
4B
100
AcDbEntity
  8
USP-GEO
100
AcDbCircle
 10
2.622299999999995
 20
3.811440444387258
 30
0.0000000000000002
 40
0.3098
100
AcDbArc
 50
281.1295337876993
 51
78.87046621229991
  0
ELLIPSE
  5
C2
330
4B
100
AcDbEntity
  8
USP-GEO
100
AcDbEllipse
 10
2.83430476409741
 20
3.811440444387258
 30
0.0000000000000002
 11
0.0
 21
-0.0779999999999943
 31
0.0
210
-0.0000000000000001
220
0.0
230
1.0
 40
0.7071067811865276
 41
0.0000000000000001
 42
6.283185307179586
  0
ELLIPSE
  5
C3
330
4B
100
AcDbEntity
  8
USP-GEO
100
AcDbEllipse
 10
2.790252374201728
 20
3.811440444387258
 30
0.0000000000000002
 11
0.0
 21
0.0779999999999962
 31
0.0
210
-0.0000000000000001
220
0.0
230
1.0
 40
0.7071067811865106
 41
-2.7307787023712
 42
-1.570796326794902
  0
ELLIPSE
  5
C4
330
4B
100
AcDbEntity
  8
USP-GEO
100
AcDbEllipse
 10
2.790252374201728
 20
3.811440444387258
 30
0.0000000000000002
 11
0.0
 21
0.0779999999999962
 31
0.0
210
-0.0000000000000001
220
0.0
230
1.0
 40
0.7071067811865106
 41
-1.570796326794902
 42
-0.4108139512185924
  0
LINE
  5
C5
330
4B
100
AcDbEntity
  8
USP-GEO
100
AcDbLine
 10
2.622299999999995
 20
3.510256438245605
 30
0.0000000000000002
 11
2.622299999999995
 21
3.269309233332251
 31
0.0000000000000002
210
0.0
220
1.0
230
0.0
  0
LINE
  5
C6
330
4B
100
AcDbEntity
  8
USP-GEO
100
AcDbLine
 10
2.682099999999991
 20
3.269309233332251
 30
0.0000000000000002
 11
2.682099999999991
 21
3.510256438245605
 31
0.0000000000000002
210
0.0
220
1.0
230
0.0
  0
LINE
  5
C7
330
4B
100
AcDbEntity
  8
USP-GEO
100
AcDbLine
 10
2.622299999999995
 20
2.603571655442294
 30
0.0000000000000002
 11
2.622299999999995
 21
2.362624450528954
 31
0.0000000000000002
210
0.0
220
1.0
230
0.0
  0
LINE
  5
C8
330
4B
100
AcDbEntity
  8
USP-GEO
100
AcDbLine
 10
2.682099999999991
 20
2.36262445052894
 30
0.0000000000000002
 11
2.682099999999991
 21
2.603571655442294
 31
0.0000000000000002
210
0.0
220
1.0
230
0.0
  0
ELLIPSE
  5
C9
330
4B
100
AcDbEntity
  8
USP-GEO
100
AcDbEllipse
 10
2.790252374201728
 20
2.061440444387258
 30
0.0000000000000002
 11
0.0
 21
0.0779999999999962
 31
0.0
210
-0.0000000000000001
220
0.0
230
1.0
 40
0.7071067811865106
 41
-1.570796326794942
 42
-0.4108139512185924
  0
LINE
  5
CA
330
4B
100
AcDbEntity
  8
USP-GEO
100
AcDbLine
 10
2.622299999999995
 20
2.603571655442294
 30
0.0000000000000002
 11
2.622299999999995
 21
3.269309233332251
 31
0.0000000000000002
210
0.0
220
1.0
230
0.0
  0
LINE
  5
CB
330
4B
100
AcDbEntity
  8
USP-GEO
100
AcDbLine
 10
2.682099999999991
 20
2.603571655442294
 30
0.0000000000000002
 11
2.682099999999991
 21
3.269309233332251
 31
0.0000000000000002
210
0.0
220
1.0
230
0.0
  0
ARC
  5
CC
330
4B
100
AcDbEntity
  8
USP-GEO
100
AcDbCircle
 10
3.432099999999991
 20
3.269309233332137
 30
0.0000000000000003
 40
0.2500000000000001
100
AcDbArc
 50
359.9999999999992
 51
74.53399004657857
  0
ARC
  5
CD
330
4B
100
AcDbEntity
  8
USP-GEO
100
AcDbCircle
 10
3.432099999999991
 20
2.603571655442181
 30
0.0000000000000003
 40
0.2500000000000001
100
AcDbArc
 50
285.466009953423
 51
0.0
  0
LINE
  5
CE
330
4B
100
AcDbEntity
  8
USP-GEO
100
AcDbLine
 10
3.682099999999991
 20
3.269309233332137
 30
0.0000000000000003
 11
3.682099999999991
 21
2.603571655442181
 31
0.0000000000000003
210
0.0
220
1.0
230
0.0
  0
LINE
  5
CF
330
4B
100
AcDbEntity
  8
USP-GEO
100
AcDbLine
 10
2.622299999999995
 20
4.353571655442294
 30
0.0000000000000002
 11
2.622299999999995
 21
4.112624450528954
 31
0.0000000000000002
210
0.0
220
1.0
230
0.0
  0
LINE
  5
D0
330
4B
100
AcDbEntity
  8
USP-GEO
100
AcDbLine
 10
2.682099999999991
 20
4.112624450528954
 30
0.0000000000000002
 11
2.682099999999991
 21
4.353571655442294
 31
0.0000000000000002
210
0.0
220
1.0
230
0.0
  0
ARC
  5
D1
330
4B
100
AcDbEntity
  8
USP-GEO
100
AcDbCircle
 10
3.432099999999991
 20
4.35357165544238
 30
0.0000000000000003
 40
0.2500000000000001
100
AcDbArc
 50
285.4660099534196
 51
0.0
  0
CIRCLE
  5
D2
330
4B
100
AcDbEntity
  8
USP-GEO
100
AcDbCircle
 10
3.369600000000005
 20
4.361440444387241
 30
0.0000000000000003
 40
0.0860000000000001
  0
LINE
  5
D3
330
4B
100
AcDbEntity
  8
USP-GEO
100
AcDbLine
 10
1.059799999999995
 20
7.839799999999996
 30
0.0
 11
1.0
 21
7.839799999999996
 31
0.0
210
0.0
220
1.0
230
0.0
  0
LINE
  5
D4
330
4B
100
AcDbEntity
  8
USP-GEO
100
AcDbLine
 10
3.157099999999999
 20
7.589799999999996
 30
0.0000000000000003
 11
3.157099999999999
 21
6.889800000000008
 31
0.0000000000000003
210
0.0
220
1.0
230
0.0
  0
LINE
  5
D5
330
4B
100
AcDbEntity
  8
USP-GEO
100
AcDbLine
 10
3.127099999999927
 20
7.589799999999996
 30
0.0000000000000003
 11
3.157099999999999
 21
7.589799999999996
 31
0.0000000000000003
210
0.0
220
1.0
230
0.0
  0
LINE
  5
D6
330
4B
100
AcDbEntity
  8
USP-GEO
100
AcDbLine
 10
3.127100000000069
 20
6.980745511219168
 30
0.0000000000000003
 11
3.127099999999956
 21
7.224191108675427
 31
0.0000000000000003
210
0.0
220
1.0
230
0.0
  0
LINE
  5
D7
330
4B
100
AcDbEntity
  8
USP-GEO
100
AcDbLine
 10
3.127099999999913
 20
7.349191108675427
 30
0.0000000000000003
 11
3.127099999999913
 21
7.605823361707365
 31
0.0000000000000003
210
0.0
220
1.0
230
0.0
  0
LINE
  5
D8
330
4B
100
AcDbEntity
  8
USP-GEO
100
AcDbLine
 10
3.127100000000012
 20
7.224191108675441
 30
0.0000000000000003
 11
3.127099999999984
 21
7.349191108675427
 31
0.0000000000000003
210
0.0
220
1.0
230
0.0
  0
LINE
  5
D9
330
4B
100
AcDbEntity
  8
USP-GEO
100
AcDbLine
 10
2.957099999999996
 20
6.889799999999993
 30
0.0000000000000002
 11
2.957099999999996
 21
7.589799999999996
 31
0.0000000000000002
210
0.0
220
1.0
230
0.0
  0
LINE
  5
DA
330
4B
100
AcDbEntity
  8
USP-GEO
100
AcDbLine
 10
3.057099999999991
 20
6.789799999999985
 30
0.0000000000000003
 11
2.957099999999996
 21
6.889799999999993
 31
0.0000000000000002
210
0.0
220
1.0
230
0.0
  0
LINE
  5
DB
330
4B
100
AcDbEntity
  8
USP-GEO
100
AcDbLine
 10
2.957099999999996
 20
7.589799999999996
 30
0.0000000000000002
 11
2.987099999999969
 21
7.589799999999996
 31
0.0000000000000002
210
0.0
220
1.0
230
0.0
  0
LINE
  5
DC
330
4B
100
AcDbEntity
  8
USP-GEO
100
AcDbLine
 10
2.987099999999941
 20
6.980745511219211
 30
0.0000000000000002
 11
3.057099999999977
 21
6.867079676972437
 31
0.0000000000000003
210
0.0
220
1.0
230
0.0
  0
LINE
  5
DD
330
4B
100
AcDbEntity
  8
USP-GEO
100
AcDbLine
 10
2.987099999999969
 20
7.224191108675427
 30
0.0000000000000002
 11
2.987099999999969
 21
6.980745511219211
 31
0.0000000000000002
210
0.0
220
1.0
230
0.0
  0
LINE
  5
DE
330
4B
100
AcDbEntity
  8
USP-GEO
100
AcDbLine
 10
2.987099999999969
 20
7.605823361707365
 30
0.0000000000000002
 11
2.987099999999969
 21
7.349191108675427
 31
0.0000000000000002
210
0.0
220
1.0
230
0.0
  0
LINE
  5
DF
330
4B
100
AcDbEntity
  8
USP-GEO
100
AcDbLine
 10
2.987099999999969
 20
7.349191108675427
 30
0.0000000000000002
 11
2.987099999999969
 21
7.224191108675427
 31
0.0000000000000002
210
0.0
220
1.0
230
0.0
  0
LINE
  5
E0
330
4B
100
AcDbEntity
  8
USP-GEO
100
AcDbLine
 10
3.157100000000014
 20
6.889799999999993
 30
0.0000000000000003
 11
3.057100000000005
 21
6.789799999999985
 31
0.0000000000000003
210
0.0
220
1.0
230
0.0
  0
LINE
  5
E1
330
4B
100
AcDbEntity
  8
USP-GEO
100
AcDbLine
 10
3.057099999999977
 20
6.867079676972437
 30
0.0000000000000003
 11
3.127099999999984
 21
6.980745511219168
 31
0.0000000000000003
210
0.0
220
1.0
230
0.0
  0
LINE
  5
E2
330
4B
100
AcDbEntity
  8
USP-GEO
100
AcDbLine
 10
2.987099999999969
 20
7.605823361707379
 30
0.0000000000000002
 11
3.127099999999913
 21
7.605823361707379
 31
0.0000000000000003
210
0.0
220
1.0
230
0.0
  0
CIRCLE
  5
E3
330
4B
100
AcDbEntity
  8
USP-GEO
100
AcDbCircle
 10
3.369600000000005
 20
7.341440444387231
 30
0.0000000000000003
 40
0.0860000000000001
  0
CIRCLE
  5
E4
330
4B
100
AcDbEntity
  8
USP-GEO
100
AcDbCircle
 10
3.369600000000005
 20
6.211440444387235
 30
0.0000000000000003
 40
0.0860000000000001
  0
LINE
  5
E5
330
4B
100
AcDbEntity
  8
USP-GEO
100
AcDbLine
 10
2.682099999999991
 20
7.839799999999982
 30
0.0000000000000002
 11
3.682100000000005
 21
7.839799999999982
 31
0.0000000000000003
210
0.0
220
1.0
230
0.0
  0
LINE
  5
E6
330
4B
100
AcDbEntity
  8
USP-GEO
100
AcDbLine
 10
2.622299999999995
 20
7.839799999999996
 30
0.0000000000000002
 11
2.682099999999991
 21
7.839799999999996
 31
0.0000000000000002
210
0.0
220
1.0
230
0.0
  0
ENDBLK
  5
E8
330
4B
100
AcDbEntity
  8
0
100
AcDbBlockEnd
  0
BLOCK
  5
142
330
EA
100
AcDbEntity
  8
0
100
AcDbBlockBegin
  2
JUS210_S
 70
     0
 10
0.0
 20
0.0
 30
0.0
  3
JUS210_S
  1

  0
LINE
  5
EB
330
EA
100
AcDbEntity
  8
USP-GEO
100
AcDbLine
 10
0.8097999999999956
 20
7.839799999999996
 30
0.0000000000000001
 11
0.8097999999999956
 21
4.603571655442337
 31
0.0000000000000001
210
0.0
220
1.0
230
0.0
  0
LINE
  5
EC
330
EA
100
AcDbEntity
  8
USP-GEO
100
AcDbLine
 10
0.0
 20
4.603571655442337
 30
-0.0000000000000001
 11
0.0
 21
7.839799999999996
 31
-0.0000000000000001
210
0.0
220
1.0
230
0.0
  0
LINE
  5
ED
330
EA
100
AcDbEntity
  8
USP-GEO
100
AcDbLine
 10
0.0597999999999956
 20
4.603571655442337
 30
0.0
 11
0.0597999999999956
 21
7.839799999999996
 31
0.0
210
0.0
220
1.0
230
0.0
  0
TEXT
  5
EE
330
EA
100
AcDbEntity
  8
USP-TXT
100
AcDbText
 10
-0.9783653116207968
 20
-1.5
 30
0.0000000000000002
 40
0.25
  1
JUS210 - SIDE VIEW
 72
     1
 11
1.167468021712537
 21
-1.5
 31
0.0000000000000002
100
AcDbText
  0
LINE
  5
EF
330
EA
100
AcDbEntity
  8
USP-GEO
100
AcDbLine
 10
0.8830233047033573
 20
1.236576695296633
 30
0.0000000000000001
 11
1.946662915010151
 21
0.1729370849898402
 31
0.0000000000000003
210
0.0
220
1.0
230
0.0
  0
LINE
  5
F0
330
EA
100
AcDbEntity
  8
USP-GEO
100
AcDbLine
 10
1.935136043425075
 20
0.0
 30
0.0000000000000003
 11
0.399799999999999
 21
0.0
 31
0.0
210
0.0
220
1.0
230
0.0
  0
ARC
  5
F1
330
EA
100
AcDbEntity
  8
USP-GEO
100
AcDbCircle
 10
0.9097999999999899
 20
2.061440444387258
 30
0.0000000000000001
 40
0.3125000000000001
100
AcDbArc
 50
285.4660099534214
 51
23.5781784781987
  0
ARC
  5
F2
330
EA
100
AcDbEntity
  8
USP-GEO
100
AcDbCircle
 10
0.9097999999999899
 20
3.811440444387272
 30
0.0000000000000001
 40
0.3125000000000001
100
AcDbArc
 50
285.4660099534222
 51
23.5781784781987
  0
LINE
  5
F3
330
EA
100
AcDbEntity
  8
USP-HID
100
AcDbLine
 10
0.399799999999999
 20
0.0597999999999956
 30
0.0
 11
1.946662915010136
 21
0.0597999999999956
 31
0.0000000000000003
  0
LINE
  5
F6
330
EA
100
AcDbEntity
  8
USP-GEO
100
AcDbLine
 10
0.0
 20
1.236576695296633
 30
-0.0000000000000001
 11
0.0
 21
0.3097999999999956
 31
-0.0000000000000001
210
0.0
220
1.0
230
0.0
  0
LINE
  5
F7
330
EA
100
AcDbEntity
  8
USP-GEO
100
AcDbLine
 10
0.0597999999999956
 20
0.3097999999999956
 30
0.0
 11
0.0597999999999956
 21
1.236576695296633
 31
0.0
210
0.0
220
1.0
230
0.0
  0
LINE
  5
F8
330
EA
100
AcDbEntity
  8
USP-GEO
100
AcDbLine
 10
0.3097999999999814
 20
0.0
 30
0.0
 11
0.3997999999999848
 21
0.0
 31
0.0
210
0.0
220
1.0
230
0.0
  0
LINE
  5
F9
330
EA
100
AcDbEntity
  8
USP-GEO
100
AcDbLine
 10
0.3997999999999848
 20
0.0597999999999956
 30
0.0
 11
0.3097999999999814
 21
0.0597999999999956
 31
0.0
210
0.0
220
1.0
230
0.0
  0
LINE
  5
FA
330
EA
100
AcDbEntity
  8
USP-GEO
100
AcDbLine
 10
0.3734396103067894
 20
0.1234396103067894
 30
0.0
 11
0.3239421356237244
 21
0.1729370849898402
 31
0.0
210
0.0
220
1.0
230
0.0
  0
LINE
  5
FB
330
EA
100
AcDbEntity
  8
USP-GEO
100
AcDbLine
 10
0.3097999999999814
 20
0.0597999999999956
 30
0.0
 11
0.3097999999999814
 21
0.0
 31
0.0
210
0.0
220
1.0
230
0.0
  0
LINE
  5
FC
330
EA
100
AcDbEntity
  8
USP-GEO
100
AcDbLine
 10
0.1966629150101511
 20
0.172937084989826
 30
0.0
 11
0.0597999999999956
 21
0.3097999999999956
 31
0.0
210
0.0
220
1.0
230
0.0
  0
LINE
  5
FD
330
EA
100
AcDbEntity
  8
USP-GEO
100
AcDbLine
 10
0.0
 20
0.3097999999999956
 30
-0.0000000000000001
 11
0.0597999999999956
 21
0.3097999999999956
 31
0.0
210
0.0
220
1.0
230
0.0
  0
ARC
  5
FE
330
EA
100
AcDbEntity
  8
USP-GEO
100
AcDbCircle
 10
0.2603025253169449
 20
0.1092974746830464
 30
0.0
 40
0.0900000000000001
100
AcDbArc
 50
45.00000000000404
 51
135.0000000000052
  0
LINE
  5
FF
330
EA
100
AcDbEntity
  8
USP-GEO
100
AcDbLine
 10
0.399799999999999
 20
0.0
 30
0.0
 11
0.399799999999999
 21
0.0597999999999956
 31
0.0
210
0.0
220
1.0
230
0.0
  0
ARC
  5
100
330
EA
100
AcDbEntity
  8
USP-GEO
100
AcDbCircle
 10
0.3097999999999956
 20
0.0597999999999956
 30
0.0
 40
0.0900000000000001
100
AcDbArc
 50
359.9999999999992
 51
45.0000000000011
  0
LINE
  5
101
330
EA
100
AcDbEntity
  8
USP-GEO
100
AcDbLine
 10
0.8097999999999956
 20
3.519309233332165
 30
0.0000000000000001
 11
0.8097999999999956
 21
2.853571655442294
 31
0.0000000000000001
210
0.0
220
1.0
230
0.0
  0
ARC
  5
102
330
EA
100
AcDbEntity
  8
USP-GEO
100
AcDbCircle
 10
1.059799999999995
 20
3.269309233332251
 30
0.0000000000000001
 40
0.2500000000000001
100
AcDbArc
 50
105.4660099534204
 51
180.0
  0
LINE
  5
103
330
EA
100
AcDbEntity
  8
USP-GEO
100
AcDbLine
 10
0.0
 20
3.51930923333218
 30
-0.0000000000000001
 11
0.0
 21
2.853571655442294
 31
-0.0000000000000001
210
0.0
220
1.0
230
0.0
  0
LINE
  5
104
330
EA
100
AcDbEntity
  8
USP-GEO
100
AcDbLine
 10
0.0597999999999956
 20
2.853571655442294
 30
0.0
 11
0.0597999999999956
 21
3.51930923333218
 31
0.0
210
0.0
220
1.0
230
0.0
  0
LINE
  5
105
330
EA
100
AcDbEntity
  8
USP-GEO
100
AcDbLine
 10
0.0
 20
2.612624450528954
 30
-0.0000000000000001
 11
0.0
 21
2.010256438245562
 31
-0.0000000000000001
210
0.0
220
1.0
230
0.0
  0
LINE
  5
106
330
EA
100
AcDbEntity
  8
USP-GEO
100
AcDbLine
 10
0.0597999999999956
 20
2.010256438245562
 30
0.0
 11
0.0597999999999956
 21
2.61262445052894
 31
0.0
210
0.0
220
1.0
230
0.0
  0
LINE
  5
107
330
EA
100
AcDbEntity
  8
USP-GEO
100
AcDbLine
 10
0.0
 20
1.769309233332222
 30
-0.0000000000000001
 11
0.0
 21
1.413353390593272
 31
-0.0000000000000001
210
0.0
220
1.0
230
0.0
  0
LINE
  5
108
330
EA
100
AcDbEntity
  8
USP-GEO
100
AcDbLine
 10
0.0597999999999956
 20
1.413353390593272
 30
0.0
 11
0.0597999999999956
 21
1.769309233332208
 31
0.0
210
0.0
220
1.0
230
0.0
  0
LINE
  5
109
330
EA
100
AcDbEntity
  8
USP-GEO
100
AcDbLine
 10
0.0
 20
1.236576695296633
 30
-0.0000000000000001
 11
0.0
 21
1.413353390593272
 31
-0.0000000000000001
210
0.0
220
1.0
230
0.0
  0
LINE
  5
10A
330
EA
100
AcDbEntity
  8
USP-GEO
100
AcDbLine
 10
0.0597999999999956
 20
1.236576695296633
 30
0.0
 11
0.0597999999999956
 21
1.413353390593272
 31
0.0
210
0.0
220
1.0
230
0.0
  0
LINE
  5
10B
330
EA
100
AcDbEntity
  8
USP-GEO
100
AcDbLine
 10
0.0
 20
1.769309233332222
 30
-0.0000000000000001
 11
0.0
 21
2.010256438245562
 31
-0.0000000000000001
210
0.0
220
1.0
230
0.0
  0
LINE
  5
10C
330
EA
100
AcDbEntity
  8
USP-GEO
100
AcDbLine
 10
0.0597999999999956
 20
1.769309233332208
 30
0.0
 11
0.0597999999999956
 21
2.010256438245562
 31
0.0
210
0.0
220
1.0
230
0.0
  0
LINE
  5
10D
330
EA
100
AcDbEntity
  8
USP-GEO
100
AcDbLine
 10
0.0
 20
2.612624450528954
 30
-0.0000000000000001
 11
0.0
 21
2.853571655442294
 31
-0.0000000000000001
210
0.0
220
1.0
230
0.0
  0
LINE
  5
10E
330
EA
100
AcDbEntity
  8
USP-GEO
100
AcDbLine
 10
0.0597999999999956
 20
2.612624450528954
 30
0.0
 11
0.0597999999999956
 21
2.853571655442294
 31
0.0
210
0.0
220
1.0
230
0.0
  0
CIRCLE
  5
10F
330
EA
100
AcDbEntity
  8
USP-GEO
100
AcDbCircle
 10
0.9030656795899147
 20
2.311440444387258
 30
0.0000000000000001
 40
0.3039736830714142
  0
ARC
  5
110
330
EA
100
AcDbEntity
  8
USP-GEO
100
AcDbCircle
 10
0.9097999999999899
 20
2.311440444387258
 30
0.0000000000000001
 40
0.3125000000000001
100
AcDbArc
 50
285.4660099534204
 51
74.53399004657957
  0
ARC
  5
111
330
EA
100
AcDbEntity
  8
USP-GEO
100
AcDbCircle
 10
1.059799999999995
 20
1.769309233332208
 30
0.0000000000000001
 40
0.2500000000000001
100
AcDbArc
 50
105.4660099534196
 51
180.0000000000008
  0
ARC
  5
112
330
EA
100
AcDbEntity
  8
USP-GEO
100
AcDbCircle
 10
1.059799999999995
 20
1.519309233332222
 30
0.0000000000000001
 40
0.2500000000000001
100
AcDbArc
 50
105.4660099534204
 51
179.9999999999967
  0
ARC
  5
113
330
EA
100
AcDbEntity
  8
USP-GEO
100
AcDbCircle
 10
1.059799999999995
 20
1.413353390593272
 30
0.0000000000000001
 40
0.2500000000000001
100
AcDbArc
 50
179.9999999999992
 51
224.9999999999994
  0
LINE
  5
114
330
EA
100
AcDbEntity
  8
USP-GEO
100
AcDbLine
 10
0.8097999999999956
 20
1.769309233332208
 30
0.0000000000000001
 11
0.8097999999999956
 21
1.413353390593272
 31
0.0000000000000001
210
0.0
220
1.0
230
0.0
  0
ARC
  5
115
330
EA
100
AcDbEntity
  8
USP-GEO
100
AcDbCircle
 10
0.9030656795899005
 20
2.061440444387258
 30
0.0000000000000001
 40
0.2500000000000001
100
AcDbArc
 50
249.7467755307517
 51
11.10924427645184
  0
ELLIPSE
  5
116
330
EA
100
AcDbEntity
  8
USP-GEO
100
AcDbEllipse
 10
1.071018053791632
 20
2.061440444387258
 30
0.0000000000000001
 11
0.0
 21
0.0779999999999962
 31
0.0
210
-0.0000000000000002
220
0.0
230
1.0
 40
0.7071067811865845
 41
2.122303132485092
 42
5.002751354114527
  0
ELLIPSE
  5
117
330
EA
100
AcDbEntity
  8
USP-GEO
100
AcDbEllipse
 10
1.115070443687315
 20
2.061440444387258
 30
0.0000000000000001
 11
0.0
 21
-0.0779999999999943
 31
0.0
210
-0.0000000000000002
220
0.0
230
1.0
 40
0.7071067811865675
 41
-1.274759570740942
 42
-0.4108139512185069
  0
ARC
  5
118
330
EA
100
AcDbEntity
  8
USP-GEO
100
AcDbCircle
 10
1.059799999999995
 20
2.853571655442294
 30
0.0000000000000001
 40
0.2500000000000001
100
AcDbArc
 50
179.9999999999992
 51
254.5339900465803
  0
ELLIPSE
  5
119
330
EA
100
AcDbEntity
  8
USP-GEO
100
AcDbEllipse
 10
1.115070443687329
 20
2.311440444387258
 30
0.0000000000000001
 11
0.0
 21
-0.0779999999999944
 31
0.0
210
-0.0000000000000002
220
0.0
230
1.0
 40
0.7071067811865674
 41
0.0
 42
6.283185307179586
  0
ELLIPSE
  5
11A
330
EA
100
AcDbEntity
  8
USP-GEO
100
AcDbEllipse
 10
1.071018053791647
 20
2.311440444387272
 30
0.0000000000000001
 11
0.0
 21
0.0779999999999962
 31
0.0
210
-0.0000000000000002
220
0.0
230
1.0
 40
0.7071067811865845
 41
-2.730778702371312
 42
-0.4108139512186651
  0
ARC
  5
11B
330
EA
100
AcDbEntity
  8
USP-GEO
100
AcDbCircle
 10
0.9097999999999899
 20
2.061440444387258
 30
0.0000000000000001
 40
0.3125000000000001
100
AcDbArc
 50
46.76410770465863
 51
60.78757059473992
  0
CIRCLE
  5
11C
330
EA
100
AcDbEntity
  8
USP-GEO
100
AcDbCircle
 10
0.3097999999999956
 20
4.547300000000007
 30
0.0
 40
0.1535000000000001
  0
LINE
  5
11D
330
EA
100
AcDbEntity
  8
USP-GEO
100
AcDbLine
 10
0.0
 20
4.362624450528983
 30
-0.0000000000000001
 11
0.0
 21
4.603571655442337
 31
-0.0000000000000001
210
0.0
220
1.0
230
0.0
  0
LINE
  5
11E
330
EA
100
AcDbEntity
  8
USP-GEO
100
AcDbLine
 10
0.0597999999999956
 20
4.362624450528983
 30
0.0
 11
0.0597999999999956
 21
4.603571655442337
 31
0.0
210
0.0
220
1.0
230
0.0
  0
LINE
  5
11F
330
EA
100
AcDbEntity
  8
USP-GEO
100
AcDbLine
 10
0.0
 20
4.362624450528954
 30
-0.0000000000000001
 11
0.0
 21
3.760256438245576
 31
-0.0000000000000001
210
0.0
220
1.0
230
0.0
  0
LINE
  5
120
330
EA
100
AcDbEntity
  8
USP-GEO
100
AcDbLine
 10
0.0597999999999956
 20
3.760256438245562
 30
0.0
 11
0.0597999999999956
 21
4.362624450528954
 31
0.0
210
0.0
220
1.0
230
0.0
  0
LINE
  5
121
330
EA
100
AcDbEntity
  8
USP-GEO
100
AcDbLine
 10
0.0
 20
3.51930923333218
 30
-0.0000000000000001
 11
0.0
 21
3.760256438245534
 31
-0.0000000000000001
210
0.0
220
1.0
230
0.0
  0
LINE
  5
122
330
EA
100
AcDbEntity
  8
USP-GEO
100
AcDbLine
 10
0.0597999999999956
 20
3.51930923333218
 30
0.0
 11
0.0597999999999956
 21
3.760256438245519
 31
0.0
210
0.0
220
1.0
230
0.0
  0
ARC
  5
123
330
EA
100
AcDbEntity
  8
USP-GEO
100
AcDbCircle
 10
1.059799999999995
 20
4.603571655442337
 30
0.0000000000000001
 40
0.2500000000000001
100
AcDbArc
 50
179.9999999999992
 51
254.533990046583
  0
ARC
  5
124
330
EA
100
AcDbEntity
  8
USP-GEO
100
AcDbCircle
 10
1.059799999999995
 20
3.51930923333218
 30
0.0000000000000001
 40
0.2500000000000001
100
AcDbArc
 50
105.4660099534196
 51
180.0000000000008
  0
CIRCLE
  5
125
330
EA
100
AcDbEntity
  8
USP-GEO
100
AcDbCircle
 10
0.9030656795899147
 20
4.061440444387258
 30
0.0000000000000001
 40
0.3039736830714142
  0
ARC
  5
126
330
EA
100
AcDbEntity
  8
USP-GEO
100
AcDbCircle
 10
0.9097999999999899
 20
4.061440444387258
 30
0.0000000000000001
 40
0.3125000000000001
100
AcDbArc
 50
285.4660099534196
 51
74.53399004657957
  0
ARC
  5
127
330
EA
100
AcDbEntity
  8
USP-GEO
100
AcDbCircle
 10
0.9030656795899005
 20
3.811440444387258
 30
0.0000000000000001
 40
0.2500000000000001
100
AcDbArc
 50
249.7467755307543
 51
11.10924427645105
  0
ELLIPSE
  5
128
330
EA
100
AcDbEntity
  8
USP-GEO
100
AcDbEllipse
 10
1.071018053791632
 20
3.811440444387258
 30
0.0000000000000001
 11
0.0
 21
0.0779999999999962
 31
0.0
210
-0.0000000000000002
220
0.0
230
1.0
 40
0.7071067811865845
 41
2.122303132485038
 42
5.002751354114575
  0
ELLIPSE
  5
129
330
EA
100
AcDbEntity
  8
USP-GEO
100
AcDbEllipse
 10
1.115070443687315
 20
3.811440444387258
 30
0.0000000000000001
 11
0.0
 21
-0.0779999999999943
 31
0.0
210
-0.0000000000000002
220
0.0
230
1.0
 40
0.7071067811865675
 41
-1.274759570740989
 42
-0.4108139512185069
  0
ELLIPSE
  5
12A
330
EA
100
AcDbEntity
  8
USP-GEO
100
AcDbEllipse
 10
1.115070443687329
 20
4.061440444387258
 30
0.0000000000000001
 11
0.0
 21
-0.0779999999999944
 31
0.0
210
-0.0000000000000002
220
0.0
230
1.0
 40
0.7071067811865674
 41
0.0
 42
6.283185307179586
  0
ARC
  5
12B
330
EA
100
AcDbEntity
  8
USP-GEO
100
AcDbCircle
 10
0.9097999999999899
 20
3.811440444387272
 30
0.0000000000000001
 40
0.3125000000000001
100
AcDbArc
 50
46.76410770465978
 51
60.7875705947406
  0
ELLIPSE
  5
12C
330
EA
100
AcDbEntity
  8
USP-GEO
100
AcDbEllipse
 10
1.071018053791647
 20
4.061440444387272
 30
0.0000000000000001
 11
0.0
 21
0.0779999999999962
 31
0.0
210
-0.0000000000000002
220
0.0
230
1.0
 40
0.7071067811865845
 41
-2.730778702371312
 42
-0.4108139512186325
  0
LINE
  5
12D
330
EA
100
AcDbEntity
  8
USP-GEO
100
AcDbLine
 10
1.935136043425075
 20
0.0597999999999956
 30
0.0000000000000003
 11
1.935136043425075
 21
0.0
 31
0.0000000000000003
210
0.0
220
1.0
230
0.0
  0
LINE
  5
12E
330
EA
100
AcDbEntity
  8
USP-GEO
100
AcDbLine
 10
2.059799999999995
 20
0.0597999999999956
 30
0.0000000000000003
 11
2.059799999999995
 21
0.0
 31
0.0000000000000003
210
0.0
220
1.0
230
0.0
  0
LINE
  5
12F
330
EA
100
AcDbEntity
  8
USP-GEO
100
AcDbLine
 10
1.946662915010151
 20
0.0
 30
0.0000000000000003
 11
1.996160389693201
 21
0.0
 31
0.0000000000000003
210
0.0
220
1.0
230
0.0
  0
LINE
  5
130
330
EA
100
AcDbEntity
  8
USP-GEO
100
AcDbLine
 10
1.93513604342506
 20
0.0
 30
0.0000000000000003
 11
1.946662915010136
 21
0.0
 31
0.0000000000000003
210
0.0
220
1.0
230
0.0
  0
LINE
  5
131
330
EA
100
AcDbEntity
  8
USP-GEO
100
AcDbLine
 10
1.996160389693216
 20
0.0
 30
0.0000000000000003
 11
2.059799999999995
 21
0.0
 31
0.0000000000000003
210
0.0
220
1.0
230
0.0
  0
LINE
  5
132
330
EA
100
AcDbEntity
  8
USP-GEO
100
AcDbLine
 10
1.996160389693201
 20
0.0598000000000099
 30
0.0000000000000003
 11
1.946662915010151
 21
0.0598000000000099
 31
0.0000000000000003
210
0.0
220
1.0
230
0.0
  0
ARC
  5
133
330
EA
100
AcDbEntity
  8
USP-GEO
100
AcDbCircle
 10
2.010302525316944
 20
0.1092974746830464
 30
0.0000000000000003
 40
0.0900000000000001
100
AcDbArc
 50
135.0
 51
213.3650880207698
  0
LINE
  5
134
330
EA
100
AcDbEntity
  8
USP-GEO
100
AcDbLine
 10
1.946662915010136
 20
0.0597999999999956
 30
0.0000000000000003
 11
1.93513604342506
 21
0.0597999999999956
 31
0.0000000000000003
210
0.0
220
1.0
230
0.0
  0
LINE
  5
135
330
EA
100
AcDbEntity
  8
USP-GEO
100
AcDbLine
 10
2.059799999999995
 20
0.0597999999999956
 30
0.0000000000000003
 11
1.996160389693216
 21
0.0597999999999956
 31
0.0000000000000003
210
0.0
220
1.0
230
0.0
  0
LINE
  5
136
330
EA
100
AcDbEntity
  8
USP-GEO
100
AcDbLine
 10
0.0597999999999956
 20
7.087158855643522
 30
0.0
 11
0.1569578040878099
 21
7.255441108675455
 31
0.0
210
0.0
220
1.0
230
0.0
  0
LINE
  5
137
330
EA
100
AcDbEntity
  8
USP-GEO
100
AcDbLine
 10
0.2079667003707186
 20
7.224191108675455
 30
0.0
 11
0.0674133191463398
 21
6.980745511219225
 31
0.0
210
0.0
220
1.0
230
0.0
  0
LINE
  5
138
330
EA
100
AcDbEntity
  8
USP-GEO
100
AcDbLine
 10
0.0
 20
6.868112163512975
 30
-0.0000000000000001
 11
-0.0499999999999972
 21
6.896979676972449
 31
-0.0000000000000001
210
0.0
220
1.0
230
0.0
  0
LINE
  5
139
330
EA
100
AcDbEntity
  8
USP-GEO
100
AcDbLine
 10
-0.0499999999999972
 20
6.896979676972449
 30
-0.0000000000000001
 11
0.0
 21
6.983582217350885
 31
-0.0000000000000001
210
0.0
220
1.0
230
0.0
  0
LINE
  5
13A
330
EA
100
AcDbEntity
  8
USP-GEO
100
AcDbLine
 10
0.0674133191463255
 20
6.980745511219183
 30
0.0
 11
0.0597999999999956
 21
6.985141063077733
 31
0.0
210
0.0
220
1.0
230
0.0
  0
LINE
  5
13B
330
EA
100
AcDbEntity
  8
USP-GEO
100
AcDbLine
 10
0.067413319146354
 20
6.980745511219225
 30
0.0
 11
0.0597999999999956
 21
6.967558855643503
 31
0.0
210
0.0
220
1.0
230
0.0
  0
LINE
  5
13C
330
EA
100
AcDbEntity
  8
USP-GEO
100
AcDbLine
 10
0.0597999999999956
 20
7.605823361707393
 30
0.0
 11
0.2079667003707186
 21
7.349191108675441
 31
0.0
210
0.0
220
1.0
230
0.0
  0
LINE
  5
13D
330
EA
100
AcDbEntity
  8
USP-GEO
100
AcDbLine
 10
0.1569578040878241
 20
7.317941108675455
 30
0.0
 11
0.0597999999999956
 21
7.486223361707402
 31
0.0
210
0.0
220
1.0
230
0.0
  0
ARC
  5
13E
330
EA
100
AcDbEntity
  8
USP-GEO
100
AcDbCircle
 10
0.0997135248976662
 20
7.286691108675441
 30
0.0
 40
0.125
100
AcDbArc
 50
330.0000000000039
 51
30.00000000000015
  0
ARC
  5
13F
330
EA
100
AcDbEntity
  8
USP-GEO
100
AcDbCircle
 10
0.1028312163512908
 20
7.286691108675455
 30
0.0
 40
0.0625
100
AcDbArc
 50
330.0000000000035
 51
30.00000000000376
  0
LINE
  5
140
330
EA
100
AcDbEntity
  8
USP-GEO
100
AcDbLine
 10
0.0597999999999956
 20
7.839799999999996
 30
0.0
 11
0.8097999999999956
 21
7.839799999999996
 31
0.0000000000000001
210
0.0
220
1.0
230
0.0
  0
LINE
  5
141
330
EA
100
AcDbEntity
  8
USP-GEO
100
AcDbLine
 10
0.0
 20
7.839799999999996
 30
-0.0000000000000001
 11
0.0597999999999956
 21
7.839799999999996
 31
0.0
210
0.0
220
1.0
230
0.0
  0
ENDBLK
  5
143
330
EA
100
AcDbEntity
  8
0
100
AcDbBlockEnd
  0
ENDSEC
  0
SECTION
  2
ENTITIES
  0
INSERT
  5
3
330
2
100
AcDbEntity
  8
USP
100
AcDbBlockReference
  2
JUS210_T
 10
5.442017532699059
 20
11.93712776496227
 30
0.0000000000000031
  0
INSERT
  5
4A
330
2
100
AcDbEntity
  8
USP
100
AcDbBlockReference
  2
JUS210_F
 10
5.442017532699059
 20
1.500428653766693
 30
0.000000000000003
  0
INSERT
  5
E9
330
2
100
AcDbEntity
  8
USP
100
AcDbBlockReference
  2
JUS210_S
 10
0.9787314946190459
 20
1.500428653766693
 30
0.0000000000000031
  0
ENDSEC
  0
SECTION
  2
OBJECTS
  0
DICTIONARY
  5
15F
330
0
100
AcDbDictionary
281
     1
  3
ACAD_COLOR
350
177
  3
ACAD_GROUP
350
15C
  3
ACAD_LAYOUT
350
178
  3
ACAD_MATERIAL
350
176
  3
ACAD_MLINESTYLE
350
15D
  3
ACAD_PLOTSETTINGS
350
179
  3
ACAD_PLOTSTYLENAME
350
174
  3
ACDBHEADERROUNDTRIPXREC
350
182
  3
AcDbVariableDictionary
350
17E
  0
DICTIONARY
  5
151
330
150
100
AcDbDictionary
280
     1
281
     1
  0
DICTIONARY
  5
153
330
152
100
AcDbDictionary
280
     1
281
     1
  0
DICTIONARY
  5
6
330
5
100
AcDbDictionary
280
     1
281
     1
  0
DICTIONARY
  5
B
330
A
100
AcDbDictionary
280
     1
281
     1
  0
DICTIONARY
  5
164
330
163
100
AcDbDictionary
280
     1
281
     1
  0
DICTIONARY
  5
144
330
2
100
AcDbDictionary
280
     1
281
     1
  3
ACAD_LAYOUTSELFREF
360
145
  0
DICTIONARY
  5
149
330
148
100
AcDbDictionary
280
     1
281
     1
  3
ACAD_LAYOUTSELFREF
360
14A
  0
DICTIONARY
  5
177
102
{ACAD_REACTORS
330
15F
102
}
330
15F
100
AcDbDictionary
281
     1
  0
DICTIONARY
  5
15C
102
{ACAD_REACTORS
330
15F
102
}
330
15F
100
AcDbDictionary
281
     1
  0
DICTIONARY
  5
178
102
{ACAD_REACTORS
330
15F
102
}
330
15F
100
AcDbDictionary
281
     1
  3
Layout1
350
17B
  3
Model
350
17A
  0
DICTIONARY
  5
176
102
{ACAD_REACTORS
330
15F
102
}
330
15F
100
AcDbDictionary
281
     1
  0
DICTIONARY
  5
15D
102
{ACAD_XDICTIONARY
360
15E
102
}
102
{ACAD_REACTORS
330
15F
102
}
330
15F
100
AcDbDictionary
281
     1
  3
STANDARD
350
162
  0
DICTIONARY
  5
179
102
{ACAD_REACTORS
330
15F
102
}
330
15F
100
AcDbDictionary
281
     1
  0
ACDBDICTIONARYWDFLT
  5
174
102
{ACAD_REACTORS
330
15F
102
}
330
15F
100
AcDbDictionary
281
     1
  3
Normal
350
175
100
AcDbDictionaryWithDefault
340
175
  0
DICTIONARY
  5
182
102
{ACAD_REACTORS
330
15F
102
}
330
15F
100
AcDbDictionary
281
     1
  3
COLORDICT
350
184
  3
MATERIALDICT
350
183
  0
DICTIONARY
  5
17E
102
{ACAD_REACTORS
330
15F
102
}
330
15F
100
AcDbDictionary
281
     1
  3
DIMASSOC
350
17F
  3
PROJECTNAME
350
180
  0
XRECORD
  5
145
102
{ACAD_REACTORS
330
144
102
}
330
144
100
AcDbXrecord
280
     1
340
2
  0
XRECORD
  5
14A
102
{ACAD_REACTORS
330
149
102
}
330
149
100
AcDbXrecord
280
     1
340
14A
  0
LAYOUT
  5
17B
102
{ACAD_XDICTIONARY
360
187
102
}
102
{ACAD_REACTORS
330
178
102
}
330
178
100
AcDbPlotSettings
  1

  2
\\mitk-us-mtg-n28\Office Canon IR C2550
  4

  6

 40
0.0
 41
0.0
 42
0.0
 43
0.0
 44
0.0
 45
0.0
 46
0.0
 47
0.0
 48
0.0
 49
0.0
140
0.0
141
0.0
142
1.0
143
1.0
 70
   688
 72
     0
 73
     0
 74
     5
  7

 75
    16
147
1.0
148
0.0
149
0.0
100
AcDbLayout
  1
Layout1
 70
     1
 71
     1
 10
0.0
 20
0.0
 11
12.0
 21
9.0
 12
0.0
 22
0.0
 32
0.0
 14
1.000000000000000E+20
 24
1.000000000000000E+20
 34
1.000000000000000E+20
 15
-1.000000000000000E+20
 25
-1.000000000000000E+20
 35
-1.000000000000000E+20
146
0.0
 13
0.0
 23
0.0
 33
0.0
 16
1.0
 26
0.0
 36
0.0
 17
0.0
 27
1.0
 37
0.0
 76
     0
330
148
  0
LAYOUT
  5
17A
102
{ACAD_XDICTIONARY
360
185
102
}
102
{ACAD_REACTORS
330
178
102
}
330
178
100
AcDbPlotSettings
  1

  2
\\mitk-us-mtg-n28\Office Canon IR C2550
  4

  6

 40
0.0
 41
0.0
 42
0.0
 43
0.0
 44
0.0
 45
0.0
 46
0.0
 47
0.0
 48
0.0
 49
0.0
140
0.0
141
0.0
142
1.0
143
1.0
 70
  1712
 72
     0
 73
     0
 74
     0
  7

 75
     0
147
1.0
148
0.0
149
0.0
100
AcDbLayout
  1
Model
 70
     1
 71
     0
 10
0.0
 20
0.0
 11
12.0
 21
9.0
 12
0.0
 22
0.0
 32
0.0
 14
0.0
 24
0.0
 34
0.0
 15
0.0
 25
0.0
 35
0.0
146
0.0
 13
0.0
 23
0.0
 33
0.0
 16
1.0
 26
0.0
 36
0.0
 17
0.0
 27
1.0
 37
0.0
 76
     0
330
2
  0
DICTIONARY
  5
15E
330
15D
100
AcDbDictionary
280
     1
281
     1
  0
MLINESTYLE
  5
162
102
{ACAD_REACTORS
330
15D
102
}
330
15D
100
AcDbMlineStyle
  2
STANDARD
 70
     0
  3

 62
   256
 51
90.0
 52
90.0
 71
     2
 49
0.5
 62
   256
  6
BYLAYER
 49
-0.5
 62
   256
  6
BYLAYER
  0
ACDBPLACEHOLDER
  5
175
102
{ACAD_REACTORS
330
174
102
}
330
174
  0
XRECORD
  5
184
102
{ACAD_REACTORS
330
182
102
}
330
182
100
AcDbXrecord
280
     1
340
177
  0
XRECORD
  5
183
102
{ACAD_REACTORS
330
182
102
}
330
182
100
AcDbXrecord
280
     1
340
176
  0
DICTIONARYVAR
  5
17F
102
{ACAD_REACTORS
330
17E
102
}
330
17E
100
DictionaryVariables
280
     0
  1
1
  0
DICTIONARYVAR
  5
180
102
{ACAD_REACTORS
330
17E
102
}
330
17E
100
DictionaryVariables
280
     0
  1

  0
DICTIONARY
  5
187
330
17B
100
AcDbDictionary
280
     1
281
     1
  3
ACAD_XREC_ROUNDTRIP
360
188
  0
DICTIONARY
  5
185
330
17A
100
AcDbDictionary
280
     1
281
     1
  3
ACAD_XREC_ROUNDTRIP
360
186
  0
XRECORD
  5
188
102
{ACAD_REACTORS
330
187
102
}
330
187
100
AcDbXrecord
280
     1
102
SHADEPLOT
 70
     0
102
SHADEPLOTRESLEVEL
 70
     2
102
SHADEPLOTCUSTOMDPI
 70
   300
  0
XRECORD
  5
186
102
{ACAD_REACTORS
330
185
102
}
330
185
100
AcDbXrecord
280
     1
102
SHADEPLOT
 70
     0
102
SHADEPLOTRESLEVEL
 70
     2
102
SHADEPLOTCUSTOMDPI
 70
   300
  0
ENDSEC
  0
EOF
