  0
SECTION
  2
HEADER
  9
$ACADVER
  1
AC1014
  9
$ACADMAINTVER
 70
     9
  9
$DWGCODEPAGE
  3
ANSI_1252
  9
$INSBASE
 10
0.0
 20
0.0
 30
0.0
  9
$EXTMIN
 10
0.000113980549294
 20
0.0004594187264786
 30
0.0
  9
$EXTMAX
 10
19.95591681012479
 20
15.05469918159831
 30
0.0
  9
$LIMMIN
 10
0.0
 20
0.0
  9
$LIMMAX
 10
12.0
 20
9.0
  9
$ORTHOMODE
 70
     1
  9
$REGENMODE
 70
     1
  9
$FILLMODE
 70
     1
  9
$QTEXTMODE
 70
     0
  9
$MIRRTEXT
 70
     0
  9
$DRAGMODE
 70
     2
  9
$LTSCALE
 40
1.0
  9
$OSMODE
 70
     0
  9
$ATTMODE
 70
     1
  9
$TEXTSIZE
 40
0.375
  9
$TRACEWID
 40
0.05
  9
$TEXTSTYLE
  7
STANDARD
  9
$CLAYER
  8
0
  9
$CELTYPE
  6
BYLAYER
  9
$CECOLOR
 62
   256
  9
$CELTSCALE
 40
1.0
  9
$DELOBJ
 70
     1
  9
$DISPSILH
 70
     1
  9
$DIMSCALE
 40
6.0
  9
$DIMASZ
 40
0.125
  9
$DIMEXO
 40
0.0625
  9
$DIMDLI
 40
0.37890625
  9
$DIMRND
 40
0.0
  9
$DIMDLE
 40
0.0
  9
$DIMEXE
 40
0.09375
  9
$DIMTP
 40
0.0
  9
$DIMTM
 40
0.0
  9
$DIMTXT
 40
0.109375
  9
$DIMCEN
 40
0.0
  9
$DIMTSZ
 40
0.0
  9
$DIMTOL
 70
     0
  9
$DIMLIM
 70
     0
  9
$DIMTIH
 70
     1
  9
$DIMTOH
 70
     1
  9
$DIMSE1
 70
     0
  9
$DIMSE2
 70
     0
  9
$DIMTAD
 70
     0
  9
$DIMZIN
 70
     8
  9
$DIMBLK
  1

  9
$DIMASO
 70
     1
  9
$DIMSHO
 70
     1
  9
$DIMPOST
  1

  9
$DIMAPOST
  1

  9
$DIMALT
 70
     0
  9
$DIMALTD
 70
     2
  9
$DIMALTF
 40
25.4
  9
$DIMLFAC
 40
1.0
  9
$DIMTOFL
 70
     0
  9
$DIMTVP
 40
0.0
  9
$DIMTIX
 70
     0
  9
$DIMSOXD
 70
     0
  9
$DIMSAH
 70
     0
  9
$DIMBLK1
  1

  9
$DIMBLK2
  1

  9
$DIMSTYLE
  2
STANDARD
  9
$DIMCLRD
 70
     0
  9
$DIMCLRE
 70
     0
  9
$DIMCLRT
 70
   256
  9
$DIMTFAC
 40
1.0
  9
$DIMGAP
 40
0.08984375
  9
$DIMJUST
 70
     0
  9
$DIMSD1
 70
     0
  9
$DIMSD2
 70
     0
  9
$DIMTOLJ
 70
     1
  9
$DIMTZIN
 70
     0
  9
$DIMALTZ
 70
     0
  9
$DIMALTTZ
 70
     0
  9
$DIMFIT
 70
     3
  9
$DIMUPT
 70
     1
  9
$DIMUNIT
 70
     7
  9
$DIMDEC
 70
     4
  9
$DIMTDEC
 70
     4
  9
$DIMALTU
 70
     2
  9
$DIMALTTD
 70
     2
  9
$DIMTXSTY
  7
STANDARD
  9
$DIMAUNIT
 70
     0
  9
$LUNITS
 70
     5
  9
$LUPREC
 70
     6
  9
$SKETCHINC
 40
0.1
  9
$FILLETRAD
 40
0.0
  9
$AUNITS
 70
     0
  9
$AUPREC
 70
     1
  9
$MENU
  1
CUSTOM
  9
$ELEVATION
 40
0.0
  9
$PELEVATION
 40
0.0
  9
$THICKNESS
 40
0.0
  9
$LIMCHECK
 70
     0
  9
$BLIPMODE
 70
     0
  9
$CHAMFERA
 40
0.0
  9
$CHAMFERB
 40
0.0
  9
$CHAMFERC
 40
0.0
  9
$CHAMFERD
 40
0.0
  9
$SKPOLY
 70
     0
  9
$TDCREATE
 40
2451263.663231366
  9
$TDUPDATE
 40
2452759.745167095
  9
$TDINDWG
 40
0.1355355671
  9
$TDUSRTIMER
 40
0.1355355671
  9
$USRTIMER
 70
     1
  9
$ANGBASE
 50
0.0
  9
$ANGDIR
 70
     0
  9
$PDMODE
 70
     0
  9
$PDSIZE
 40
0.0
  9
$PLINEWID
 40
0.0
  9
$COORDS
 70
     1
  9
$SPLFRAME
 70
     0
  9
$SPLINETYPE
 70
     6
  9
$SPLINESEGS
 70
     8
  9
$ATTDIA
 70
     0
  9
$ATTREQ
 70
     1
  9
$HANDLING
 70
     1
  9
$HANDSEED
  5
D3
  9
$SURFTAB1
 70
     6
  9
$SURFTAB2
 70
     6
  9
$SURFTYPE
 70
     6
  9
$SURFU
 70
     6
  9
$SURFV
 70
     6
  9
$UCSNAME
  2

  9
$UCSORG
 10
0.0
 20
0.0
 30
0.0
  9
$UCSXDIR
 10
1.0
 20
0.0
 30
0.0
  9
$UCSYDIR
 10
0.0
 20
1.0
 30
0.0
  9
$PUCSNAME
  2

  9
$PUCSORG
 10
0.0
 20
0.0
 30
0.0
  9
$PUCSXDIR
 10
1.0
 20
0.0
 30
0.0
  9
$PUCSYDIR
 10
0.0
 20
1.0
 30
0.0
  9
$USERI1
 70
     0
  9
$USERI2
 70
     0
  9
$USERI3
 70
     0
  9
$USERI4
 70
     0
  9
$USERI5
 70
     0
  9
$USERR1
 40
0.0
  9
$USERR2
 40
0.0
  9
$USERR3
 40
0.0
  9
$USERR4
 40
0.0
  9
$USERR5
 40
0.0
  9
$WORLDVIEW
 70
     1
  9
$SHADEDGE
 70
     3
  9
$SHADEDIF
 70
    70
  9
$TILEMODE
 70
     1
  9
$MAXACTVP
 70
    16
  9
$PINSBASE
 10
0.0
 20
0.0
 30
0.0
  9
$PLIMCHECK
 70
     0
  9
$PEXTMIN
 10
1.052083323321005
 20
0.7937500251559762
 30
0.0
  9
$PEXTMAX
 10
9.468749909889039
 20
7.143750226403783
 30
0.0
  9
$PLIMMIN
 10
-0.2145830289585384
 20
-0.2812499887361301
  9
$PLIMMAX
 10
10.78541673074557
 20
8.218749770967978
  9
$UNITMODE
 70
     0
  9
$VISRETAIN
 70
     0
  9
$PLINEGEN
 70
     0
  9
$PSLTSCALE
 70
     0
  9
$TREEDEPTH
 70
  3020
  9
$PICKSTYLE
 70
     1
  9
$CMLSTYLE
  2
STANDARD
  9
$CMLJUST
 70
     0
  9
$CMLSCALE
 40
1.0
  9
$PROXYGRAPHICS
 70
     1
  9
$MEASUREMENT
 70
     0
  0
ENDSEC
  0
SECTION
  2
CLASSES
  0
CLASS
  1
ACDBDICTIONARYWDFLT
  2
AcDbDictionaryWithDefault
  3
AutoCAD 2000
 90
        0
280
     0
281
     0
  0
CLASS
  1
ACDBPLACEHOLDER
  2
AcDbPlaceHolder
  3
AutoCAD 2000
 90
        0
280
     0
281
     0
  0
CLASS
  1
LAYOUT
  2
AcDbLayout
  3
AutoCAD 2000
 90
        0
280
     0
281
     0
  0
CLASS
  1
DICTIONARYVAR
  2
AcDbDictionaryVar
  3
"AutoCAD"
 90
        0
280
     0
281
     0
  0
CLASS
  1
LONG_TRANSACTION
  2
AcDbLongTransaction
  3
AutoCAD 2000
 90
        0
280
     0
281
     0
  0
CLASS
  1
LWPOLYLINE
  2
AcDbPolyline
  3
"AutoCAD"
 90
        0
280
     0
281
     1
  0
CLASS
  1
HATCH
  2
AcDbHatch
  3
"ACAD_SEDONA"
 90
        0
280
     0
281
     1
  0
CLASS
  1
XRECORD
  2
AcDbXrecord
  3
"<Built In>"
 90
        0
280
     0
281
     0
  0
CLASS
  1
LONG_TRANSACTION
  2
AcDbLongTransaction
  3
AutoCAD 2000
 90
        0
280
     0
281
     0
  0
CLASS
  1
LWPOLYLINE
  2
AcDbPolyline
  3
"AutoCAD"
 90
        0
280
     0
281
     1
  0
CLASS
  1
HATCH
  2
AcDbHatch
  3
"ACAD_SEDONA"
 90
        0
280
     0
281
     1
  0
CLASS
  1
XRECORD
  2
AcDbXrecord
  3
"<Built In>"
 90
        0
280
     0
281
     0
  0
CLASS
  1
LONG_TRANSACTION
  2
AcDbLongTransaction
  3
AutoCAD 2000
 90
        0
280
     0
281
     0
  0
CLASS
  1
LWPOLYLINE
  2
AcDbPolyline
  3
"AutoCAD"
 90
        0
280
     0
281
     1
  0
CLASS
  1
HATCH
  2
AcDbHatch
  3
"ACAD_SEDONA"
 90
        0
280
     0
281
     1
  0
CLASS
  1
XRECORD
  2
AcDbXrecord
  3
"<Built In>"
 90
        0
280
     0
281
     0
  0
CLASS
  1
LONG_TRANSACTION
  2
AcDbLongTransaction
  3
AutoCAD 2000
 90
        0
280
     0
281
     0
  0
CLASS
  1
LWPOLYLINE
  2
AcDbPolyline
  3
"AutoCAD"
 90
        0
280
     0
281
     1
  0
CLASS
  1
HATCH
  2
AcDbHatch
  3
"ACAD_SEDONA"
 90
        0
280
     0
281
     1
  0
CLASS
  1
XRECORD
  2
AcDbXrecord
  3
"<Built In>"
 90
        0
280
     0
281
     0
  0
ENDSEC
  0
SECTION
  2
TABLES
  0
TABLE
  2
VPORT
  5
B1
100
AcDbSymbolTable
 70
     1
  0
VPORT
  5
CF
100
AcDbSymbolTableRecord
100
AcDbViewportTableRecord
  2
*ACTIVE
 70
     0
 10
0.0
 20
0.0
 11
1.0
 21
1.0
 12
-13.11807221922504
 22
17.98332836169177
 13
0.0
 23
0.0
 14
1.0
 24
1.0
 15
0.0
 25
0.0
 16
0.0
 26
0.0
 36
1.0
 17
23.09603071721725
 27
-10.27010416511325
 37
-10.44050274849355
 40
15.53688080009345
 41
1.457627118644067
 42
50.0
 43
10.55307667737539
 44
10.55307667737539
 50
0.0
 51
0.0
 71
     0
 72
   100
 73
     1
 74
     1
 75
     0
 76
     0
 77
     0
 78
     0
  0
ENDTAB
  0
TABLE
  2
LTYPE
  5
AC
100
AcDbSymbolTable
 70
     2
  0
LTYPE
  5
AD
100
AcDbSymbolTableRecord
100
AcDbLinetypeTableRecord
  2
BYBLOCK
 70
     0
  3

 72
    65
 73
     0
 40
0.0
  0
LTYPE
  5
AE
100
AcDbSymbolTableRecord
100
AcDbLinetypeTableRecord
  2
BYLAYER
 70
     0
  3

 72
    65
 73
     0
 40
0.0
  0
LTYPE
  5
5
100
AcDbSymbolTableRecord
100
AcDbLinetypeTableRecord
  2
CONTINUOUS
 70
     0
  3
Solid line
 72
    65
 73
     0
 40
0.0
  0
LTYPE
  5
E
100
AcDbSymbolTableRecord
100
AcDbLinetypeTableRecord
  2
HIDDEN
 70
     0
  3
Hidden __ __ __ __ __ __ __ __ __ __ __ __ __ _
 72
    65
 73
     2
 40
0.375
 49
0.25
 74
     0
 49
-0.125
 74
     0
  0
ENDTAB
  0
TABLE
  2
LAYER
  5
AA
100
AcDbSymbolTable
 70
     5
  0
LAYER
  5
28
100
AcDbSymbolTableRecord
100
AcDbLayerTableRecord
  2
0
 70
     0
 62
     7
  6
CONTINUOUS
  0
LAYER
  5
8
100
AcDbSymbolTableRecord
100
AcDbLayerTableRecord
  2
USP-GEO
 70
     0
 62
     7
  6
CONTINUOUS
  0
LAYER
  5
11
100
AcDbSymbolTableRecord
100
AcDbLayerTableRecord
  2
USP-TXT
 70
     0
 62
     7
  6
CONTINUOUS
  0
LAYER
  5
D
100
AcDbSymbolTableRecord
100
AcDbLayerTableRecord
  2
USP-HID
 70
     0
 62
     7
  6
HIDDEN
  0
LAYER
  5
4
100
AcDbSymbolTableRecord
100
AcDbLayerTableRecord
  2
USP
 70
     0
 62
     7
  6
CONTINUOUS
  0
ENDTAB
  0
TABLE
  2
STYLE
  5
AB
100
AcDbSymbolTable
 70
     1
  0
STYLE
  5
12
100
AcDbSymbolTableRecord
100
AcDbTextStyleTableRecord
  2
STANDARD
 70
     0
 40
0.0
 41
1.0
 50
0.0
 71
     0
 42
0.375
  3
txt
  4

  0
ENDTAB
  0
TABLE
  2
VIEW
  5
AF
100
AcDbSymbolTable
 70
     0
  0
ENDTAB
  0
TABLE
  2
UCS
  5
B0
100
AcDbSymbolTable
 70
     0
  0
ENDTAB
  0
TABLE
  2
APPID
  5
B3
100
AcDbSymbolTable
 70
     1
  0
APPID
  5
A5
100
AcDbSymbolTableRecord
100
AcDbRegAppTableRecord
  2
ACAD
 70
     0
  0
ENDTAB
  0
TABLE
  2
DIMSTYLE
  5
B4
100
AcDbSymbolTable
 70
     1
  0
DIMSTYLE
105
BC
100
AcDbSymbolTableRecord
100
AcDbDimStyleTableRecord
  2
STANDARD
 70
     0
  3

  4

  5

  6

  7

 40
1.0
 41
0.18
 42
0.0625
 43
0.38
 44
0.18
 45
0.0
 46
0.0
 47
0.0
 48
0.0
140
0.18
141
0.09
142
0.0
143
25.4
144
1.0
145
0.0
146
1.0
147
0.09
 71
     0
 72
     0
 73
     1
 74
     1
 75
     0
 76
     0
 77
     0
 78
     0
170
     0
171
     2
172
     0
173
     0
174
     0
175
     0
176
     0
177
     0
178
     0
270
     2
271
     4
272
     4
273
     2
274
     2
340
12
275
     0
280
     0
281
     0
282
     0
283
     1
284
     0
285
     0
286
     0
287
     3
288
     0
  0
ENDTAB
  0
TABLE
  2
BLOCK_RECORD
  5
1
100
AcDbSymbolTable
 70
     3
  0
BLOCK_RECORD
  5
2
102
{ACAD_XDICTIONARY
360
9C
102
}
100
AcDbSymbolTableRecord
100
AcDbBlockTableRecord
  2
*MODEL_SPACE
  0
BLOCK_RECORD
  5
A0
102
{ACAD_XDICTIONARY
360
A6
102
}
100
AcDbSymbolTableRecord
100
AcDbBlockTableRecord
  2
*PAPER_SPACE
  0
BLOCK_RECORD
  5
6
100
AcDbSymbolTableRecord
100
AcDbBlockTableRecord
  2
HUGT3_S
  0
BLOCK_RECORD
  5
2B
100
AcDbSymbolTableRecord
100
AcDbBlockTableRecord
  2
HUGT3_T
  0
BLOCK_RECORD
  5
6A
100
AcDbSymbolTableRecord
100
AcDbBlockTableRecord
  2
HUGT3_F
  0
ENDTAB
  0
ENDSEC
  0
SECTION
  2
BLOCKS
  0
BLOCK
  5
9E
100
AcDbEntity
  8
0
100
AcDbBlockBegin
  2
*MODEL_SPACE
 70
     0
 10
0.0
 20
0.0
 30
0.0
  3
*MODEL_SPACE
  1

  0
ENDBLK
  5
9F
100
AcDbEntity
  8
0
100
AcDbBlockEnd
  0
BLOCK
  5
A8
100
AcDbEntity
 67
     1
  8
0
100
AcDbBlockBegin
  2
*PAPER_SPACE
 70
     0
 10
0.0
 20
0.0
 30
0.0
  3
*PAPER_SPACE
  1

  0
ENDBLK
  5
A9
100
AcDbEntity
 67
     1
  8
0
100
AcDbBlockEnd
  0
BLOCK
  5
27
100
AcDbEntity
  8
0
100
AcDbBlockBegin
  2
HUGT3_S
 70
     0
 10
0.0
 20
0.0
 30
0.0
  3
HUGT3_S
  1

  0
ARC
  5
7
100
AcDbEntity
  8
USP-GEO
100
AcDbCircle
 10
2.397750000000009
 20
0.4357638888888818
 30
0.0
 40
1.189236111111111
100
AcDbArc
 50
3.096315397956031
 51
176.903684602044
  0
LINE
  5
9
100
AcDbEntity
  8
USP-GEO
100
AcDbLine
 10
0.179000000000002
 20
3.054000000000018
 30
0.0
 11
4.178999999999994
 21
3.054000000000021
 31
0.0
  0
LINE
  5
A
100
AcDbEntity
  8
USP-GEO
100
AcDbLine
 10
0.1790000000000127
 20
-0.0000000000000004
 30
0.0
 11
4.179000000000005
 21
0.0000000000000031
 31
0.0
  0
LINE
  5
B
100
AcDbEntity
  8
USP-GEO
100
AcDbLine
 10
4.179000000000002
 20
0.5000000000000049
 30
0.0
 11
0.1790000000000091
 21
0.5000000000000014
 31
0.0
  0
LINE
  5
C
100
AcDbEntity
  8
USP-HID
100
AcDbLine
 10
4.178999999999998
 20
0.2500000000000226
 30
0.0
 11
0.1790000000000056
 21
0.2500000000000013
 31
0.0
  0
LINE
  5
F
100
AcDbEntity
  8
USP-HID
100
AcDbLine
 10
0.179000000000002
 20
2.875000000000014
 30
0.0
 11
4.178999999999998
 21
2.875000000000018
 31
0.0
  0
TEXT
  5
10
100
AcDbEntity
  8
USP-TXT
100
AcDbText
 10
-0.7660233814838194
 20
-2.277823366786166
 30
0.0
 40
0.375
  1
HUGT3 - SIDE VIEW
 72
     1
 11
2.35897661851618
 21
-2.277823366786166
 31
0.0
100
AcDbText
  0
LINE
  5
13
100
AcDbEntity
  8
USP-GEO
100
AcDbLine
 10
0.0
 20
0.2499999999999978
 30
0.0
 11
0.0
 21
0.7500000000000085
 31
0.0
  0
LINE
  5
14
100
AcDbEntity
  8
USP-GEO
100
AcDbLine
 10
0.1790000000000056
 20
0.2499999999999978
 30
0.0
 11
0.1790000000000056
 21
0.7500000000000103
 31
0.0
  0
LINE
  5
15
100
AcDbEntity
  8
USP-GEO
100
AcDbLine
 10
0.1790000000000127
 20
-0.0000000000000004
 30
0.0
 11
0.1790000000000127
 21
0.5000000000000014
 31
0.0
  0
LINE
  5
16
100
AcDbEntity
  8
USP-GEO
100
AcDbLine
 10
0.0
 20
0.2499999999999978
 30
0.0
 11
0.1790000000000056
 21
0.2499999999999978
 31
0.0
  0
LINE
  5
17
100
AcDbEntity
  8
USP-GEO
100
AcDbLine
 10
0.0
 20
2.500000000000006
 30
0.0
 11
0.0000000000000018
 21
0.7500000000000085
 31
0.0
  0
LINE
  5
18
100
AcDbEntity
  8
USP-GEO
100
AcDbLine
 10
0.1790000000000056
 20
0.7500000000000103
 30
0.0
 11
0.1790000000000056
 21
2.500000000000011
 31
0.0
  0
LINE
  5
19
100
AcDbEntity
  8
USP-GEO
100
AcDbLine
 10
0.0000000000000036
 20
0.7500000000000085
 30
0.0
 11
0.1790000000000056
 21
0.7500000000000085
 31
0.0
  0
LINE
  5
1A
100
AcDbEntity
  8
USP-GEO
100
AcDbLine
 10
0.179000000000002
 20
2.50000000000001
 30
0.0
 11
0.179000000000002
 21
3.054000000000018
 31
0.0
  0
LINE
  5
1B
100
AcDbEntity
  8
USP-GEO
100
AcDbLine
 10
0.0
 20
2.50000000000001
 30
0.0
 11
0.179000000000002
 21
2.50000000000001
 31
0.0
  0
CIRCLE
  5
1C
100
AcDbEntity
  8
USP-GEO
100
AcDbCircle
 10
1.179000000000002
 20
2.12500000000001
 30
0.0
 40
0.086
  0
LINE
  5
1D
100
AcDbEntity
  8
USP-GEO
100
AcDbLine
 10
4.179000000000002
 20
0.7500000000000369
 30
0.0
 11
4.179000000000002
 21
0.2500000000000333
 31
0.0
  0
LINE
  5
1E
100
AcDbEntity
  8
USP-GEO
100
AcDbLine
 10
4.358000000000004
 20
0.2500000000000333
 30
0.0
 11
4.358000000000004
 21
0.7500000000000351
 31
0.0
  0
LINE
  5
1F
100
AcDbEntity
  8
USP-GEO
100
AcDbLine
 10
4.179000000000005
 20
0.0000000000000067
 30
0.0
 11
4.179000000000005
 21
0.5000000000000103
 31
0.0
  0
LINE
  5
20
100
AcDbEntity
  8
USP-GEO
100
AcDbLine
 10
4.358000000000004
 20
0.2500000000000333
 30
0.0
 11
4.179000000000002
 21
0.2500000000000333
 31
0.0
  0
CIRCLE
  5
21
100
AcDbEntity
  8
USP-GEO
100
AcDbCircle
 10
2.429000000000002
 20
2.12500000000001
 30
0.0
 40
0.086
  0
LINE
  5
22
100
AcDbEntity
  8
USP-GEO
100
AcDbLine
 10
4.357999999999993
 20
2.500000000000029
 30
0.0
 11
4.357999999999993
 21
0.7500000000000333
 31
0.0
  0
LINE
  5
23
100
AcDbEntity
  8
USP-GEO
100
AcDbLine
 10
4.178999999999991
 20
2.500000000000029
 30
0.0
 11
4.178999999999991
 21
0.7500000000000351
 31
0.0
  0
LINE
  5
24
100
AcDbEntity
  8
USP-GEO
100
AcDbLine
 10
4.358
 20
0.7500000000000351
 30
0.0
 11
4.178999999999998
 21
0.7500000000000351
 31
0.0
  0
LINE
  5
25
100
AcDbEntity
  8
USP-GEO
100
AcDbLine
 10
4.178999999999994
 20
3.054000000000021
 30
0.0
 11
4.178999999999994
 21
2.500000000000011
 31
0.0
  0
LINE
  5
26
100
AcDbEntity
  8
USP-GEO
100
AcDbLine
 10
4.178999999999994
 20
2.500000000000013
 30
0.0
 11
4.358
 21
2.500000000000013
 31
0.0
  0
ENDBLK
  5
29
100
AcDbEntity
  8
0
100
AcDbBlockEnd
  0
BLOCK
  5
67
100
AcDbEntity
  8
0
100
AcDbBlockBegin
  2
HUGT3_T
 70
     0
 10
0.0
 20
0.0
 30
0.0
  3
HUGT3_T
  1

  0
TEXT
  5
2C
100
AcDbEntity
  8
USP-TXT
100
AcDbText
 10
1.368899034688332
 20
-2.358040359185979
 30
0.0
 40
0.375
  1
HUGT3 - TOP VIEW
 72
     1
 11
4.368899034688332
 21
-2.358040359185979
 31
0.0
100
AcDbText
  0
LINE
  5
2D
100
AcDbEntity
  8
USP-GEO
100
AcDbLine
 10
7.295499999999999
 20
4.179000000000007
 30
0.0
 11
1.999999999999999
 21
4.179000000000003
 31
0.0
  0
LINE
  5
2E
100
AcDbEntity
  8
USP-GEO
100
AcDbLine
 10
1.999999999999999
 20
0.1790000000000056
 30
0.0
 11
7.295499999999997
 21
0.1790000000000056
 31
0.0
  0
LINE
  5
2F
100
AcDbEntity
  8
USP-GEO
100
AcDbLine
 10
1.781249999999999
 20
1.210250000000016
 30
0.0
 11
1.781249999999993
 21
3.585250000000014
 31
0.0
  0
LINE
  5
30
100
AcDbEntity
  8
USP-GEO
100
AcDbLine
 10
0.2187499999999998
 20
1.21025000000001
 30
0.0
 11
0.2187499999999931
 21
3.58525000000001
 31
0.0
  0
LINE
  5
31
100
AcDbEntity
  8
USP-GEO
100
AcDbLine
 10
0.0000000000000029
 20
0.1790000000000056
 30
0.0
 11
0.000000000000002
 21
4.179000000000007
 31
0.0
  0
LINE
  5
32
100
AcDbEntity
  8
USP-GEO
100
AcDbLine
 10
1.999999999999999
 20
4.179000000000003
 30
0.0
 11
2.0
 21
0.1790000000000056
 31
0.0
  0
LINE
  5
33
100
AcDbEntity
  8
USP-HID
100
AcDbLine
 10
2.178999999999992
 20
4.179000000000003
 30
0.0
 11
2.178999999999994
 21
0.1790000000000056
 31
0.0
  0
LINE
  5
34
100
AcDbEntity
  8
USP-GEO
100
AcDbLine
 10
0.2187500000000002
 20
1.210250000000012
 30
0.0
 11
1.0
 21
1.210250000000014
 31
0.0
  0
LINE
  5
35
100
AcDbEntity
  8
USP-GEO
100
AcDbLine
 10
2.000000000000001
 20
0.1790000000000074
 30
0.0
 11
0.0000000000000004
 21
0.1790000000000091
 31
0.0
  0
LINE
  5
36
100
AcDbEntity
  8
USP-GEO
100
AcDbLine
 10
2.0
 20
0.0000000000000018
 30
0.0
 11
0.0000000000000002
 21
0.0000000000000036
 31
0.0
  0
LINE
  5
37
100
AcDbEntity
  8
USP-GEO
100
AcDbLine
 10
0.0
 20
0.0
 30
0.0
 11
0.0
 21
0.1790000000000056
 31
0.0
  0
LINE
  5
38
100
AcDbEntity
  8
USP-GEO
100
AcDbLine
 10
2.0
 20
0.1790000000000074
 30
0.0
 11
2.000000000000001
 21
0.0000000000000036
 31
0.0
  0
LINE
  5
39
100
AcDbEntity
  8
USP-GEO
100
AcDbLine
 10
2.178999999999995
 20
0.0000000000000036
 30
0.0
 11
2.178999999999995
 21
0.1790000000000074
 31
0.0
  0
LINE
  5
3A
100
AcDbEntity
  8
USP-GEO
100
AcDbLine
 10
2.178999999999995
 20
0.0000000000000036
 30
0.0
 11
2.000000000000001
 21
0.0000000000000036
 31
0.0
  0
LINE
  5
3B
100
AcDbEntity
  8
USP-GEO
100
AcDbLine
 10
1.0
 20
1.210250000000014
 30
0.0
 11
1.78125
 21
1.210250000000016
 31
0.0
  0
SPLINE
  5
3C
100
AcDbEntity
  8
USP-GEO
100
AcDbSpline
210
0.0
220
0.0
230
-1.0
 70
     8
 71
     3
 72
    22
 73
    18
 74
     0
 42
0.0000001
 43
0.0000001
 40
0.5597230072143175
 40
0.5597230072143175
 40
0.5597230072143175
 40
0.5597230072143175
 40
0.6897010492803262
 40
0.6897010492803262
 40
0.8196790913463347
 40
0.8196790913463347
 40
0.9753450530895779
 40
0.9753450530895779
 40
1.131011014832821
 40
1.131011014832821
 40
1.286676976576068
 40
1.286676976576068
 40
1.442342938319316
 40
1.442342938319316
 40
1.572320980385323
 40
1.572320980385323
 40
1.70229902245133
 40
1.70229902245133
 40
1.70229902245133
 40
1.70229902245133
 10
0.5937499999999922
 20
3.247696525523222
 30
0.0
 10
0.5937499999999922
 20
3.278000108077945
 30
0.0
 10
0.6043026661938804
 20
3.307818250976451
 30
0.0
 10
0.643800248309611
 20
3.358789715664178
 30
0.0
 10
0.6726669395716105
 20
3.380071829859501
 30
0.0
 10
0.742086752040904
 20
3.415475140858633
 30
0.0
 10
0.7895701692456474
 20
3.43044568005043
 30
0.0
 10
0.892566208735624
 20
3.449694117155251
 30
0.0
 10
0.948111346085578
 20
3.454066603384704
 30
0.0
 10
1.051888653914408
 20
3.454066603384704
 30
0.0
 10
1.107433791264363
 20
3.449694117155251
 30
0.0
 10
1.210429830754342
 20
3.43044568005043
 30
0.0
 10
1.257913247959085
 20
3.415475140858633
 30
0.0
 10
1.327333060428378
 20
3.380071829859497
 30
0.0
 10
1.356199751690378
 20
3.358789715664171
 30
0.0
 10
1.395697333806105
 20
3.307818250976451
 30
0.0
 10
1.406249999999992
 20
3.278000108077948
 30
0.0
 10
1.406249999999992
 20
3.247696525523226
 30
0.0
  0
ARC
  5
3D
100
AcDbEntity
  8
USP-GEO
100
AcDbCircle
 10
0.9999999999999957
 20
2.710250000000014
 30
0.0
 40
0.4062500000000001
100
AcDbArc
 50
0.0
 51
179.999999999999
  0
ARC
  5
3E
100
AcDbEntity
  8
USP-GEO
100
AcDbCircle
 10
0.9999999999999975
 20
2.085250000000014
 30
0.0
 40
0.4062500000000001
100
AcDbArc
 50
193.8339668344497
 51
346.1660331655504
  0
SPLINE
  5
3F
100
AcDbEntity
  8
USP-GEO
100
AcDbSpline
210
0.0
220
0.0
230
1.0
 70
     8
 71
     3
 72
    23
 73
    19
 74
     0
 42
0.0000001
 43
0.0000001
 40
-0.6379824136102777
 40
-0.6379824136102777
 40
-0.6379824136102777
 40
-0.6379824136102777
 40
-0.4746094024800392
 40
-0.4746094024800392
 40
-0.3112363913498011
 40
-0.3112363913498011
 40
-0.1556181956749003
 40
-0.1556181956749003
 40
0.0
 40
0.0
 40
0.0
 40
0.1556181956749054
 40
0.1556181956749054
 40
0.3112363913498108
 40
0.3112363913498108
 40
0.4746094024800483
 40
0.4746094024800483
 40
0.6379824136102858
 40
0.6379824136102858
 40
0.6379824136102858
 40
0.6379824136102858
 10
1.406249999999994
 20
1.905675035406211
 30
0.0
 10
1.406249999999995
 20
1.856097881036808
 30
0.0
 10
1.395109308200195
 20
1.805271321772162
 30
0.0
 10
1.352016719410356
 20
1.714601854206671
 30
0.0
 10
1.320124392515478
 20
1.674656401733201
 30
0.0
 10
1.248635637706871
 20
1.613801607689067
 30
0.0
 10
1.204448526232635
 20
1.587895417089743
 30
0.0
 10
1.106126259666039
 20
1.553154600206195
 30
0.0
 10
1.051872731891629
 20
1.544294565134462
 30
0.0
 10
0.9999999999999966
 20
1.544294565134462
 30
0.0
 10
0.9481272681083618
 20
1.544294565134462
 30
0.0
 10
0.8938737403339509
 20
1.553154600206196
 30
0.0
 10
0.7955514737673524
 20
1.587895417089747
 30
0.0
 10
0.7513643622931163
 20
1.613801607689069
 30
0.0
 10
0.6798756074845083
 20
1.674656401733205
 30
0.0
 10
0.6479832805896335
 20
1.714601854206675
 30
0.0
 10
0.6048906917997956
 20
1.805271321772165
 30
0.0
 10
0.5937499999999958
 20
1.856097881036804
 30
0.0
 10
0.5937499999999958
 20
1.905675035406208
 30
0.0
  0
LINE
  5
40
100
AcDbEntity
  8
USP-GEO
100
AcDbLine
 10
0.2187499999999931
 20
3.585250000000014
 30
0.0
 11
1.781249999999993
 21
3.585250000000014
 31
0.0
  0
LINE
  5
41
100
AcDbEntity
  8
USP-GEO
100
AcDbLine
 10
-0.0000000000000073
 20
4.178999999999996
 30
0.0
 11
2.000000000000007
 21
4.178999999999996
 31
0.0
  0
LINE
  5
42
100
AcDbEntity
  8
USP-GEO
100
AcDbLine
 10
2.000000000000004
 20
4.357999999999998
 30
0.0
 11
-0.000000000000006
 21
4.357999999999998
 31
0.0
  0
LINE
  5
43
100
AcDbEntity
  8
USP-GEO
100
AcDbLine
 10
0.5937499999999954
 20
1.905675035406208
 30
0.0
 11
0.5937499999999922
 21
3.247696525523222
 31
0.0
  0
ARC
  5
44
100
AcDbEntity
  8
USP-GEO
100
AcDbCircle
 10
0.9999999999999975
 20
2.085250000000014
 30
0.0
 40
0.4062500000000001
100
AcDbArc
 50
179.9999999999982
 51
193.8339668344497
  0
LINE
  5
45
100
AcDbEntity
  8
USP-GEO
100
AcDbLine
 10
-0.0000000000000087
 20
4.357999999999998
 30
0.0
 11
-0.0000000000000087
 21
4.179
 31
0.0
  0
LINE
  5
46
100
AcDbEntity
  8
USP-GEO
100
AcDbLine
 10
1.406249999999992
 20
3.247696525523222
 30
0.0
 11
1.406249999999995
 21
1.905675035406209
 31
0.0
  0
ARC
  5
47
100
AcDbEntity
  8
USP-GEO
100
AcDbCircle
 10
0.9999999999999975
 20
2.085250000000014
 30
0.0
 40
0.4062500000000001
100
AcDbArc
 50
346.1660331655504
 51
0.0000000000001018
  0
LINE
  5
48
100
AcDbEntity
  8
USP-GEO
100
AcDbLine
 10
2.178999999999993
 20
4.358000000000002
 30
0.0
 11
2.178999999999993
 21
4.179
 31
0.0
  0
LINE
  5
49
100
AcDbEntity
  8
USP-GEO
100
AcDbLine
 10
1.999999999999998
 20
4.358000000000002
 30
0.0
 11
1.999999999999998
 21
4.179
 31
0.0
  0
LINE
  5
4A
100
AcDbEntity
  8
USP-GEO
100
AcDbLine
 10
2.178999999999993
 20
4.358000000000002
 30
0.0
 11
1.999999999999998
 21
4.358000000000002
 31
0.0
  0
LINE
  5
4B
100
AcDbEntity
  8
USP-GEO
100
AcDbLine
 10
9.076749999999996
 20
1.21025000000001
 30
0.0
 11
9.076750000000004
 21
3.58525000000001
 31
0.0
  0
LINE
  5
4C
100
AcDbEntity
  8
USP-GEO
100
AcDbLine
 10
7.514249999999996
 20
1.210250000000016
 30
0.0
 11
7.514250000000004
 21
3.585250000000014
 31
0.0
  0
LINE
  5
4D
100
AcDbEntity
  8
USP-GEO
100
AcDbLine
 10
7.295499999999999
 20
0.1790000000000056
 30
0.0
 11
7.295499999999998
 21
4.179
 31
0.0
  0
LINE
  5
4E
100
AcDbEntity
  8
USP-GEO
100
AcDbLine
 10
9.295499999999995
 20
4.179000000000007
 30
0.0
 11
9.295499999999996
 21
0.1790000000000127
 31
0.0
  0
LINE
  5
4F
100
AcDbEntity
  8
USP-HID
100
AcDbLine
 10
7.116500000000003
 20
0.1790000000000056
 30
0.0
 11
7.116500000000003
 21
4.179
 31
0.0
  0
LINE
  5
50
100
AcDbEntity
  8
USP-GEO
100
AcDbLine
 10
9.076749999999996
 20
1.210250000000012
 30
0.0
 11
8.295499999999996
 21
1.210250000000014
 31
0.0
  0
LINE
  5
51
100
AcDbEntity
  8
USP-GEO
100
AcDbLine
 10
9.295499999999996
 20
0.1790000000000091
 30
0.0
 11
7.295499999999997
 21
0.1790000000000091
 31
0.0
  0
LINE
  5
52
100
AcDbEntity
  8
USP-GEO
100
AcDbLine
 10
7.295499999999999
 20
0.0000000000000036
 30
0.0
 11
9.295499999999996
 21
0.0000000000000053
 31
0.0
  0
LINE
  5
53
100
AcDbEntity
  8
USP-GEO
100
AcDbLine
 10
7.116500000000005
 20
0.0000000000000036
 30
0.0
 11
7.295499999999999
 21
0.0000000000000036
 31
0.0
  0
LINE
  5
54
100
AcDbEntity
  8
USP-GEO
100
AcDbLine
 10
7.116500000000002
 20
0.1790000000000056
 30
0.0
 11
7.116500000000002
 21
0.0000000000000036
 31
0.0
  0
LINE
  5
55
100
AcDbEntity
  8
USP-GEO
100
AcDbLine
 10
7.295499999999997
 20
0.0000000000000036
 30
0.0
 11
7.295499999999997
 21
0.1790000000000056
 31
0.0
  0
LINE
  5
56
100
AcDbEntity
  8
USP-GEO
100
AcDbLine
 10
8.295499999999996
 20
1.210250000000014
 30
0.0
 11
7.514249999999996
 21
1.210250000000016
 31
0.0
  0
LINE
  5
57
100
AcDbEntity
  8
USP-GEO
100
AcDbLine
 10
9.295499999999996
 20
0.0000000000000053
 30
0.0
 11
9.295499999999996
 21
0.1790000000000109
 31
0.0
  0
SPLINE
  5
58
100
AcDbEntity
  8
USP-GEO
100
AcDbSpline
210
0.0
220
0.0
230
-1.0
 70
     8
 71
     3
 72
    22
 73
    18
 74
     0
 42
0.0000001
 43
0.0000001
 40
0.5597230072143175
 40
0.5597230072143175
 40
0.5597230072143175
 40
0.5597230072143175
 40
0.6897010492803262
 40
0.6897010492803262
 40
0.8196790913463347
 40
0.8196790913463347
 40
0.9753450530895779
 40
0.9753450530895779
 40
1.131011014832821
 40
1.131011014832821
 40
1.286676976576068
 40
1.286676976576068
 40
1.442342938319316
 40
1.442342938319316
 40
1.572320980385323
 40
1.572320980385323
 40
1.70229902245133
 40
1.70229902245133
 40
1.70229902245133
 40
1.70229902245133
 10
8.701750000000005
 20
3.247696525523222
 30
0.0
 10
8.701750000000005
 20
3.278000108077945
 30
0.0
 10
8.691197333806117
 20
3.307818250976451
 30
0.0
 10
8.651699751690387
 20
3.358789715664178
 30
0.0
 10
8.622833060428387
 20
3.380071829859501
 30
0.0
 10
8.553413247959094
 20
3.415475140858633
 30
0.0
 10
8.50592983075435
 20
3.43044568005043
 30
0.0
 10
8.402933791264374
 20
3.449694117155251
 30
0.0
 10
8.347388653914419
 20
3.454066603384704
 30
0.0
 10
8.243611346085589
 20
3.454066603384704
 30
0.0
 10
8.188066208735634
 20
3.449694117155251
 30
0.0
 10
8.085070169245655
 20
3.43044568005043
 30
0.0
 10
8.037586752040912
 20
3.415475140858633
 30
0.0
 10
7.968166939571618
 20
3.380071829859497
 30
0.0
 10
7.939300248309619
 20
3.358789715664171
 30
0.0
 10
7.899802666193892
 20
3.307818250976451
 30
0.0
 10
7.889250000000005
 20
3.278000108077948
 30
0.0
 10
7.889250000000005
 20
3.247696525523226
 30
0.0
  0
ARC
  5
59
100
AcDbEntity
  8
USP-GEO
100
AcDbCircle
 10
8.295500000000002
 20
2.710250000000014
 30
0.0
 40
0.4062500000000001
100
AcDbArc
 50
0.0000000000001018
 51
180.0
  0
ARC
  5
5A
100
AcDbEntity
  8
USP-GEO
100
AcDbCircle
 10
8.2955
 20
2.085250000000014
 30
0.0
 40
0.4062500000000001
100
AcDbArc
 50
193.8339668344496
 51
346.1660331655503
  0
SPLINE
  5
5B
100
AcDbEntity
  8
USP-GEO
100
AcDbSpline
210
0.0
220
0.0
230
1.0
 70
     8
 71
     3
 72
    23
 73
    19
 74
     0
 42
0.0000001
 43
0.0000001
 40
-0.6379824136102777
 40
-0.6379824136102777
 40
-0.6379824136102777
 40
-0.6379824136102777
 40
-0.4746094024800392
 40
-0.4746094024800392
 40
-0.3112363913498011
 40
-0.3112363913498011
 40
-0.1556181956749003
 40
-0.1556181956749003
 40
0.0
 40
0.0
 40
0.0
 40
0.1556181956749054
 40
0.1556181956749054
 40
0.3112363913498108
 40
0.3112363913498108
 40
0.4746094024800483
 40
0.4746094024800483
 40
0.6379824136102858
 40
0.6379824136102858
 40
0.6379824136102858
 40
0.6379824136102858
 10
7.889250000000002
 20
1.905675035406211
 30
0.0
 10
7.889250000000002
 20
1.856097881036808
 30
0.0
 10
7.900390691799803
 20
1.805271321772162
 30
0.0
 10
7.94348328058964
 20
1.714601854206671
 30
0.0
 10
7.975375607484519
 20
1.674656401733201
 30
0.0
 10
8.046864362293126
 20
1.613801607689067
 30
0.0
 10
8.091051473767361
 20
1.587895417089743
 30
0.0
 10
8.189373740333957
 20
1.553154600206195
 30
0.0
 10
8.243627268108367
 20
1.544294565134462
 30
0.0
 10
8.2955
 20
1.544294565134462
 30
0.0
 10
8.347372731891635
 20
1.544294565134462
 30
0.0
 10
8.401626259666047
 20
1.553154600206196
 30
0.0
 10
8.499948526232644
 20
1.587895417089747
 30
0.0
 10
8.544135637706881
 20
1.613801607689069
 30
0.0
 10
8.615624392515488
 20
1.674656401733205
 30
0.0
 10
8.647516719410363
 20
1.714601854206675
 30
0.0
 10
8.690609308200201
 20
1.805271321772165
 30
0.0
 10
8.701750000000002
 20
1.856097881036804
 30
0.0
 10
8.701750000000002
 20
1.905675035406208
 30
0.0
  0
LINE
  5
5C
100
AcDbEntity
  8
USP-GEO
100
AcDbLine
 10
9.076750000000004
 20
3.585250000000014
 30
0.0
 11
7.514250000000003
 21
3.585250000000014
 31
0.0
  0
LINE
  5
5D
100
AcDbEntity
  8
USP-GEO
100
AcDbLine
 10
7.889250000000005
 20
3.247696525523222
 30
0.0
 11
7.889250000000002
 21
1.905675035406209
 31
0.0
  0
ARC
  5
5E
100
AcDbEntity
  8
USP-GEO
100
AcDbCircle
 10
8.2955
 20
2.085250000000014
 30
0.0
 40
0.4062500000000001
100
AcDbArc
 50
179.9999999999998
 51
193.8339668344496
  0
LINE
  5
5F
100
AcDbEntity
  8
USP-GEO
100
AcDbLine
 10
8.701750000000002
 20
1.905675035406208
 30
0.0
 11
8.701750000000005
 21
3.247696525523222
 31
0.0
  0
ARC
  5
60
100
AcDbEntity
  8
USP-GEO
100
AcDbCircle
 10
8.2955
 20
2.085250000000014
 30
0.0
 40
0.4062500000000001
100
AcDbArc
 50
346.1660331655503
 51
0.000000000000916
  0
LINE
  5
61
100
AcDbEntity
  8
USP-GEO
100
AcDbLine
 10
7.295500000000012
 20
4.178999999999996
 30
0.0
 11
9.295500000000004
 21
4.178999999999996
 31
0.0
  0
LINE
  5
62
100
AcDbEntity
  8
USP-GEO
100
AcDbLine
 10
7.295500000000011
 20
4.357999999999998
 30
0.0
 11
9.295500000000002
 21
4.357999999999998
 31
0.0
  0
LINE
  5
63
100
AcDbEntity
  8
USP-GEO
100
AcDbLine
 10
7.116500000000003
 20
4.358000000000005
 30
0.0
 11
7.295499999999997
 21
4.358000000000005
 31
0.0
  0
LINE
  5
64
100
AcDbEntity
  8
USP-GEO
100
AcDbLine
 10
7.116500000000003
 20
4.358000000000005
 30
0.0
 11
7.116500000000003
 21
4.179
 31
0.0
  0
LINE
  5
65
100
AcDbEntity
  8
USP-GEO
100
AcDbLine
 10
7.295499999999997
 20
4.179
 30
0.0
 11
7.295499999999997
 21
4.358000000000002
 31
0.0
  0
LINE
  5
66
100
AcDbEntity
  8
USP-GEO
100
AcDbLine
 10
9.295500000000002
 20
4.358000000000002
 30
0.0
 11
9.295500000000002
 21
4.179
 31
0.0
  0
ENDBLK
  5
68
100
AcDbEntity
  8
0
100
AcDbBlockEnd
  0
BLOCK
  5
9A
100
AcDbEntity
  8
0
100
AcDbBlockBegin
  2
HUGT3_F
 70
     0
 10
0.0
 20
0.0
 30
0.0
  3
HUGT3_F
  1

  0
TEXT
  5
6B
100
AcDbEntity
  8
USP-TXT
100
AcDbText
 10
0.9938990346883329
 20
-2.277823366786172
 30
0.0
 40
0.375
  1
HUGT3 - FRONT VIEW
 72
     1
 11
4.368899034688332
 21
-2.277823366786172
 31
0.0
100
AcDbText
  0
LINE
  5
6C
100
AcDbEntity
  8
USP-GEO
100
AcDbLine
 10
7.116500000000004
 20
2.875000000000012
 30
0.0
 11
2.178999999999994
 21
2.875000000000014
 31
0.0
  0
LINE
  5
6D
100
AcDbEntity
  8
USP-GEO
100
AcDbLine
 10
2.0
 20
3.054000000000013
 30
0.0
 11
7.295499999999998
 21
3.05400000000001
 31
0.0
  0
LINE
  5
6E
100
AcDbEntity
  8
USP-GEO
100
AcDbLine
 10
-0.0000000000000002
 20
0.2499999999999964
 30
0.0
 11
0.0
 21
0.7500000000000142
 31
0.0
  0
LINE
  5
6F
100
AcDbEntity
  8
USP-GEO
100
AcDbLine
 10
2.178999999999993
 20
0.2499999999999982
 30
0.0
 11
2.178999999999994
 21
2.50000000000001
 31
0.0
  0
LINE
  5
70
100
AcDbEntity
  8
USP-HID
100
AcDbLine
 10
0.5937499999999981
 20
0.4999999999999876
 30
0.0
 11
0.593749999999996
 21
1.518420231959328
 31
0.0
  0
LINE
  5
71
100
AcDbEntity
  8
USP-HID
100
AcDbLine
 10
1.406249999999997
 20
0.4999999999999894
 30
0.0
 11
1.406249999999995
 21
1.51842023195933
 31
0.0
  0
LINE
  5
72
100
AcDbEntity
  8
USP-HID
100
AcDbLine
 10
1.78125
 20
0.4999999999999894
 30
0.0
 11
1.781249999999994
 21
1.624999999999987
 31
0.0
  0
LINE
  5
73
100
AcDbEntity
  8
USP-HID
100
AcDbLine
 10
1.999999999999998
 20
0.2499999999999964
 30
0.0
 11
1.999999999999999
 21
2.500000000000016
 31
0.0
  0
LINE
  5
74
100
AcDbEntity
  8
USP-GEO
100
AcDbLine
 10
0.0
 20
0.0
 30
0.0
 11
1.999999999999999
 21
0.0
 31
0.0
  0
LINE
  5
75
100
AcDbEntity
  8
USP-GEO
100
AcDbLine
 10
2.178999999999993
 20
0.2499999999999982
 30
0.0
 11
-0.0000000000000002
 21
0.2499999999999982
 31
0.0
  0
LINE
  5
76
100
AcDbEntity
  8
USP-HID
100
AcDbLine
 10
2.0
 20
0.4999999999999983
 30
0.0
 11
0.0000000000000011
 21
0.4999999999999983
 31
0.0
  0
LINE
  5
77
100
AcDbEntity
  8
USP-GEO
100
AcDbLine
 10
0.0
 20
0.0
 30
0.0
 11
0.0
 21
0.2499999999999964
 31
0.0
  0
LINE
  5
78
100
AcDbEntity
  8
USP-HID
100
AcDbLine
 10
1.999999999999999
 20
0.2499999999999964
 30
0.0
 11
1.999999999999999
 21
0.4999999999999983
 31
0.0
  0
LINE
  5
79
100
AcDbEntity
  8
USP-GEO
100
AcDbLine
 10
1.999999999999999
 20
-0.0000000000000018
 30
0.0
 11
1.999999999999999
 21
0.2499999999999964
 31
0.0
  0
SPLINE
  5
7A
100
AcDbEntity
  8
USP-GEO
100
AcDbSpline
210
0.0
220
0.0
230
-1.0
 70
     8
 71
     3
 72
    10
 73
     6
 74
     0
 42
0.0000001
 43
0.0000001
 40
0.3317731043845332
 40
0.3317731043845332
 40
0.3317731043845332
 40
0.3317731043845332
 40
0.4746094024800483
 40
0.4746094024800483
 40
0.6379824136102858
 40
0.6379824136102858
 40
0.6379824136102858
 40
0.6379824136102858
 10
0.7029165403147948
 20
1.365042909906758
 30
0.0
 10
0.6720210771712141
 20
1.388276732937846
 30
0.0
 10
0.6452748156976123
 20
1.414308850534556
 30
0.0
 10
0.6048906917997961
 20
1.468302828542144
 30
0.0
 10
0.5937499999999963
 20
1.495887064683182
 30
0.0
 10
0.5937499999999963
 20
1.518420231959328
 30
0.0
  0
LINE
  5
7B
100
AcDbEntity
  8
USP-GEO
100
AcDbLine
 10
2.0
 20
2.50000000000001
 30
0.0
 11
0.0000000000000007
 21
0.7500000000000125
 31
0.0
  0
LINE
  5
7C
100
AcDbEntity
  8
USP-GEO
100
AcDbLine
 10
0.2187499999999987
 20
0.9414062500000106
 30
0.0
 11
0.2187499999999942
 21
1.624999999999985
 31
0.0
  0
LINE
  5
7D
100
AcDbEntity
  8
USP-GEO
100
AcDbLine
 10
0.2187499999999942
 20
1.624999999999985
 30
0.0
 11
0.5937499999999943
 21
1.624999999999987
 31
0.0
  0
LINE
  5
7E
100
AcDbEntity
  8
USP-GEO
100
AcDbLine
 10
0.5937499999999958
 20
1.518420231959327
 30
0.0
 11
0.5937499999999943
 21
1.624999999999985
 31
0.0
  0
LINE
  5
7F
100
AcDbEntity
  8
USP-GEO
100
AcDbLine
 10
2.0
 20
3.054000000000013
 30
0.0
 11
2.0
 21
2.500000000000016
 31
0.0
  0
LINE
  5
80
100
AcDbEntity
  8
USP-HID
100
AcDbLine
 10
1.406249999999994
 20
1.624999999999989
 30
0.0
 11
1.781249999999994
 21
1.624999999999989
 31
0.0
  0
LINE
  5
81
100
AcDbEntity
  8
USP-HID
100
AcDbLine
 10
1.406249999999994
 20
1.624999999999987
 30
0.0
 11
1.406249999999995
 21
1.51842023195933
 31
0.0
  0
LINE
  5
82
100
AcDbEntity
  8
USP-GEO
100
AcDbLine
 10
2.178999999999994
 20
2.500000000000019
 30
0.0
 11
2.178999999999994
 21
2.875000000000015
 31
0.0
  0
LINE
  5
83
100
AcDbEntity
  8
USP-GEO
100
AcDbLine
 10
2.178999999999996
 20
2.50000000000001
 30
0.0
 11
2.000000000000001
 21
2.50000000000001
 31
0.0
  0
LINE
  5
84
100
AcDbEntity
  8
USP-GEO
100
AcDbLine
 10
7.116499999999996
 20
0.2499999999999893
 30
0.0
 11
7.116499999999997
 21
2.499999999999996
 31
0.0
  0
LINE
  5
85
100
AcDbEntity
  8
USP-GEO
100
AcDbLine
 10
9.295499999999995
 20
0.2499999999999911
 30
0.0
 11
9.295499999999995
 21
0.7500000000000018
 31
0.0
  0
LINE
  5
86
100
AcDbEntity
  8
USP-HID
100
AcDbLine
 10
7.295499999999998
 20
2.500000000000003
 30
0.0
 11
7.295499999999996
 21
0.2499999999999947
 31
0.0
  0
LINE
  5
87
100
AcDbEntity
  8
USP-HID
100
AcDbLine
 10
8.70175
 20
0.4999999999999876
 30
0.0
 11
8.701750000000002
 21
1.518420231959328
 31
0.0
  0
LINE
  5
88
100
AcDbEntity
  8
USP-HID
100
AcDbLine
 10
7.88925
 20
0.4999999999999894
 30
0.0
 11
7.889250000000002
 21
1.51842023195933
 31
0.0
  0
LINE
  5
89
100
AcDbEntity
  8
USP-HID
100
AcDbLine
 10
7.514249999999997
 20
0.4999999999999894
 30
0.0
 11
7.514250000000004
 21
1.624999999999987
 31
0.0
  0
LINE
  5
8A
100
AcDbEntity
  8
USP-GEO
100
AcDbLine
 10
7.295500000000002
 20
-0.0000000000000053
 30
0.0
 11
9.2955
 21
-0.0000000000000053
 31
0.0
  0
LINE
  5
8B
100
AcDbEntity
  8
USP-GEO
100
AcDbLine
 10
7.116499999999996
 20
0.2499999999999893
 30
0.0
 11
9.295499999999995
 21
0.2499999999999876
 31
0.0
  0
LINE
  5
8C
100
AcDbEntity
  8
USP-HID
100
AcDbLine
 10
9.295499999999996
 20
0.4999999999999965
 30
0.0
 11
7.295499999999998
 21
0.4999999999999965
 31
0.0
  0
LINE
  5
8D
100
AcDbEntity
  8
USP-HID
100
AcDbLine
 10
7.295500000000002
 20
0.2499999999999893
 30
0.0
 11
7.295500000000002
 21
0.4999999999999965
 31
0.0
  0
LINE
  5
8E
100
AcDbEntity
  8
USP-GEO
100
AcDbLine
 10
7.295500000000002
 20
-0.0000000000000053
 30
0.0
 11
7.295500000000002
 21
0.2499999999999893
 31
0.0
  0
LINE
  5
8F
100
AcDbEntity
  8
USP-GEO
100
AcDbLine
 10
9.2955
 20
-0.0000000000000071
 30
0.0
 11
9.2955
 21
0.2499999999999911
 31
0.0
  0
LINE
  5
90
100
AcDbEntity
  8
USP-GEO
100
AcDbLine
 10
7.295499999999998
 20
2.500000000000003
 30
0.0
 11
7.295499999999998
 21
3.054000000000011
 31
0.0
  0
LINE
  5
91
100
AcDbEntity
  8
USP-GEO
100
AcDbLine
 10
7.2955
 20
2.5
 30
0.0
 11
9.295499999999996
 21
0.7500000000000018
 31
0.0
  0
LINE
  5
92
100
AcDbEntity
  8
USP-HID
100
AcDbLine
 10
7.514250000000004
 20
1.624999999999989
 30
0.0
 11
7.889250000000004
 21
1.624999999999989
 31
0.0
  0
LINE
  5
93
100
AcDbEntity
  8
USP-HID
100
AcDbLine
 10
7.889250000000004
 20
1.624999999999987
 30
0.0
 11
7.889250000000002
 21
1.51842023195933
 31
0.0
  0
LINE
  5
94
100
AcDbEntity
  8
USP-GEO
100
AcDbLine
 10
7.116500000000006
 20
2.499999999999996
 30
0.0
 11
7.2955
 21
2.499999999999996
 31
0.0
  0
LINE
  5
95
100
AcDbEntity
  8
USP-GEO
100
AcDbLine
 10
7.116500000000003
 20
2.5
 30
0.0
 11
7.116500000000003
 21
2.87500000000001
 31
0.0
  0
LINE
  5
96
100
AcDbEntity
  8
USP-GEO
100
AcDbLine
 10
9.076749999999998
 20
0.94140625
 30
0.0
 11
9.076750000000004
 21
1.624999999999985
 31
0.0
  0
LINE
  5
97
100
AcDbEntity
  8
USP-GEO
100
AcDbLine
 10
8.701750000000004
 20
1.624999999999987
 30
0.0
 11
9.076750000000004
 21
1.624999999999985
 31
0.0
  0
SPLINE
  5
98
100
AcDbEntity
  8
USP-GEO
100
AcDbSpline
210
0.0
220
0.0
230
1.0
 70
     8
 71
     3
 72
    10
 73
     6
 74
     0
 42
0.0000001
 43
0.0000001
 40
0.3317731043845238
 40
0.3317731043845238
 40
0.3317731043845238
 40
0.3317731043845238
 40
0.4746094024800483
 40
0.4746094024800483
 40
0.6379824136102858
 40
0.6379824136102858
 40
0.6379824136102858
 40
0.6379824136102858
 10
8.592583459685197
 20
1.365042909906751
 30
0.0
 10
8.62347892282878
 20
1.388276732937843
 30
0.0
 10
8.650225184302385
 20
1.414308850534556
 30
0.0
 10
8.690609308200201
 20
1.468302828542144
 30
0.0
 10
8.701750000000002
 20
1.495887064683182
 30
0.0
 10
8.701750000000002
 20
1.518420231959328
 30
0.0
  0
LINE
  5
99
100
AcDbEntity
  8
USP-GEO
100
AcDbLine
 10
8.701750000000002
 20
1.518420231959327
 30
0.0
 11
8.701750000000004
 21
1.624999999999985
 31
0.0
  0
ENDBLK
  5
9B
100
AcDbEntity
  8
0
100
AcDbBlockEnd
  0
ENDSEC
  0
SECTION
  2
ENTITIES
  0
INSERT
  5
3
100
AcDbEntity
  8
USP
100
AcDbBlockReference
  2
HUGT3_S
 10
14.47194019160861
 20
2.278282785512645
 30
0.0
  0
INSERT
  5
2A
100
AcDbEntity
  8
USP
100
AcDbBlockReference
  2
HUGT3_T
 10
0.0001139805493027
 20
10.6966991815983
 30
0.0
  0
INSERT
  5
69
100
AcDbEntity
  8
USP
100
AcDbBlockReference
  2
HUGT3_F
 10
0.0001139805493027
 20
2.278282785512651
 30
0.0
  0
VIEWPORT
  5
A1
102
{ACAD_XDICTIONARY
360
A2
102
}
100
AcDbEntity
 67
     1
  8
0
100
AcDbViewport
 10
5.285416850893516
 20
3.968749891115924
 30
0.0
 40
13.55466628347482
 41
8.992999745766947
 68
    -1
 69
     1
1001
ACAD
1000
MVIEW
1002
{
1070
    16
1010
0.0
1020
0.0
1030
0.0
1010
0.0
1020
0.0
1030
1.0
1040
0.0
1040
8.992999745766947
1040
5.285416850893516
1040
3.968749891115924
1040
50.0
1040
0.0
1040
0.0
1070
     0
1070
   100
1070
     1
1070
     1
1070
     0
1070
     0
1070
     0
1070
     0
1040
0.0
1040
0.0
1040
0.0
1040
0.5
1040
0.5
1040
0.5
1040
0.5
1070
     0
1002
{
1002
}
1002
}
  0
ENDSEC
  0
SECTION
  2
OBJECTS
  0
DICTIONARY
  5
B8
102
{ACAD_XDICTIONARY
360
B9
102
}
100
AcDbDictionary
  3
ACAD_GROUP
350
B6
  3
ACAD_MLINESTYLE
350
B7
  0
DICTIONARY
  5
9C
100
AcDbDictionary
280
     1
  3
ACAD_LAYOUTSELFREF
360
9D
  0
DICTIONARY
  5
A6
100
AcDbDictionary
280
     1
  3
ACAD_LAYOUTSELFREF
360
A7
  0
DICTIONARY
  5
A2
100
AcDbDictionary
280
     1
  3
ACAD_XREC_ROUNDTRIP
360
A3
  0
DICTIONARY
  5
B9
100
AcDbDictionary
280
     1
  3
ACAD_XREC_ROUNDTRIP
360
BA
  0
DICTIONARY
  5
B6
102
{ACAD_REACTORS
330
B8
102
}
100
AcDbDictionary
  0
DICTIONARY
  5
B7
102
{ACAD_REACTORS
330
B8
102
}
100
AcDbDictionary
  3
STANDARD
350
BB
  0
XRECORD
  5
9D
102
{ACAD_REACTORS
330
9C
102
}
100
AcDbXrecord
340
18
  0
XRECORD
  5
A7
102
{ACAD_REACTORS
330
A6
102
}
100
AcDbXrecord
340
15
  0
XRECORD
  5
A3
102
{ACAD_REACTORS
330
A2
102
}
100
AcDbXrecord
102
UCS
 74
     0
 71
     1
 10
0.0
 20
0.0
 30
0.0
 10
1.0
 20
0.0
 30
0.0
 10
0.0
 20
1.0
 30
0.0
146
0.0
 79
     0
102
VIEW
281
     0
102
NEWVIEWCONTROL
280
     4
  0
XRECORD
  5
BA
102
{ACAD_REACTORS
330
B9
102
}
100
AcDbXrecord
102
EXTNAMES
  1
ACDBVARIABLEDICTIONARY
  2
AcDbVariableDictionary
  0
MLINESTYLE
  5
BB
102
{ACAD_REACTORS
330
B7
102
}
100
AcDbMlineStyle
  2
STANDARD
 70
     0
  3

 62
     0
 51
90.0
 52
90.0
 71
     2
 49
0.5
 62
   256
  6
BYLAYER
 49
-0.5
 62
   256
  6
BYLAYER
  0
ENDSEC
  0
EOF
