  0
SECTION
  2
HEADER
  9
$ACADVER
  1
AC1014
  9
$ACADMAINTVER
 70
     9
  9
$DWGCODEPAGE
  3
ANSI_1252
  9
$INSBASE
 10
0.0
 20
0.0
 30
0.0
  9
$EXTMIN
 10
0.0006321237356133
 20
0.000767146869876
 30
0.0
  9
$EXTMAX
 10
20.71503542768148
 20
25.13986722252057
 30
0.0000000000000029
  9
$LIMMIN
 10
0.0
 20
0.0
  9
$LIMMAX
 10
12.0
 20
9.0
  9
$ORTHOMODE
 70
     0
  9
$REGENMODE
 70
     1
  9
$FILLMODE
 70
     1
  9
$QTEXTMODE
 70
     0
  9
$MIRRTEXT
 70
     1
  9
$DRAGMODE
 70
     2
  9
$LTSCALE
 40
1.0
  9
$OSMODE
 70
    37
  9
$ATTMODE
 70
     1
  9
$TEXTSIZE
 40
0.75
  9
$TRACEWID
 40
0.05
  9
$TEXTSTYLE
  7
STANDARD
  9
$CLAYER
  8
0
  9
$CELTYPE
  6
BYLAYER
  9
$CECOLOR
 62
   256
  9
$CELTSCALE
 40
1.0
  9
$DELOBJ
 70
     1
  9
$DISPSILH
 70
     0
  9
$DIMSCALE
 40
1.0
  9
$DIMASZ
 40
0.18
  9
$DIMEXO
 40
0.0625
  9
$DIMDLI
 40
0.38
  9
$DIMRND
 40
0.0
  9
$DIMDLE
 40
0.0
  9
$DIMEXE
 40
0.18
  9
$DIMTP
 40
0.0
  9
$DIMTM
 40
0.0
  9
$DIMTXT
 40
0.18
  9
$DIMCEN
 40
0.09
  9
$DIMTSZ
 40
0.0
  9
$DIMTOL
 70
     0
  9
$DIMLIM
 70
     0
  9
$DIMTIH
 70
     1
  9
$DIMTOH
 70
     1
  9
$DIMSE1
 70
     0
  9
$DIMSE2
 70
     0
  9
$DIMTAD
 70
     0
  9
$DIMZIN
 70
     0
  9
$DIMBLK
  1

  9
$DIMASO
 70
     1
  9
$DIMSHO
 70
     1
  9
$DIMPOST
  1

  9
$DIMAPOST
  1

  9
$DIMALT
 70
     0
  9
$DIMALTD
 70
     2
  9
$DIMALTF
 40
25.4
  9
$DIMLFAC
 40
1.0
  9
$DIMTOFL
 70
     0
  9
$DIMTVP
 40
0.0
  9
$DIMTIX
 70
     0
  9
$DIMSOXD
 70
     0
  9
$DIMSAH
 70
     0
  9
$DIMBLK1
  1

  9
$DIMBLK2
  1

  9
$DIMSTYLE
  2
STANDARD
  9
$DIMCLRD
 70
     0
  9
$DIMCLRE
 70
     0
  9
$DIMCLRT
 70
     0
  9
$DIMTFAC
 40
1.0
  9
$DIMGAP
 40
0.09
  9
$DIMJUST
 70
     0
  9
$DIMSD1
 70
     0
  9
$DIMSD2
 70
     0
  9
$DIMTOLJ
 70
     1
  9
$DIMTZIN
 70
     0
  9
$DIMALTZ
 70
     0
  9
$DIMALTTZ
 70
     0
  9
$DIMFIT
 70
     3
  9
$DIMUPT
 70
     0
  9
$DIMUNIT
 70
     2
  9
$DIMDEC
 70
     4
  9
$DIMTDEC
 70
     4
  9
$DIMALTU
 70
     2
  9
$DIMALTTD
 70
     2
  9
$DIMTXSTY
  7
STANDARD
  9
$DIMAUNIT
 70
     0
  9
$LUNITS
 70
     2
  9
$LUPREC
 70
     4
  9
$SKETCHINC
 40
0.1
  9
$FILLETRAD
 40
0.5
  9
$AUNITS
 70
     0
  9
$AUPREC
 70
     0
  9
$MENU
  1
.
  9
$ELEVATION
 40
0.0
  9
$PELEVATION
 40
0.0
  9
$THICKNESS
 40
0.0
  9
$LIMCHECK
 70
     0
  9
$BLIPMODE
 70
     0
  9
$CHAMFERA
 40
0.5
  9
$CHAMFERB
 40
0.5
  9
$CHAMFERC
 40
1.0
  9
$CHAMFERD
 40
0.0
  9
$SKPOLY
 70
     0
  9
$TDCREATE
 40
2451675.885797453
  9
$TDUPDATE
 40
2452759.745121342
  9
$TDINDWG
 40
0.0142508912
  9
$TDUSRTIMER
 40
0.0142426736
  9
$USRTIMER
 70
     1
  9
$ANGBASE
 50
0.0
  9
$ANGDIR
 70
     0
  9
$PDMODE
 70
     0
  9
$PDSIZE
 40
0.0
  9
$PLINEWID
 40
0.0
  9
$COORDS
 70
     1
  9
$SPLFRAME
 70
     0
  9
$SPLINETYPE
 70
     6
  9
$SPLINESEGS
 70
     8
  9
$ATTDIA
 70
     0
  9
$ATTREQ
 70
     1
  9
$HANDLING
 70
     1
  9
$HANDSEED
  5
C6
  9
$SURFTAB1
 70
     6
  9
$SURFTAB2
 70
     6
  9
$SURFTYPE
 70
     6
  9
$SURFU
 70
     6
  9
$SURFV
 70
     6
  9
$UCSNAME
  2

  9
$UCSORG
 10
0.0
 20
0.0
 30
0.0
  9
$UCSXDIR
 10
1.0
 20
0.0
 30
0.0
  9
$UCSYDIR
 10
0.0
 20
1.0
 30
0.0
  9
$PUCSNAME
  2

  9
$PUCSORG
 10
0.0
 20
0.0
 30
0.0
  9
$PUCSXDIR
 10
1.0
 20
0.0
 30
0.0
  9
$PUCSYDIR
 10
0.0
 20
1.0
 30
0.0
  9
$USERI1
 70
     0
  9
$USERI2
 70
     0
  9
$USERI3
 70
     0
  9
$USERI4
 70
     0
  9
$USERI5
 70
     0
  9
$USERR1
 40
0.0
  9
$USERR2
 40
0.0
  9
$USERR3
 40
0.0
  9
$USERR4
 40
0.0
  9
$USERR5
 40
0.0
  9
$WORLDVIEW
 70
     1
  9
$SHADEDGE
 70
     3
  9
$SHADEDIF
 70
    70
  9
$TILEMODE
 70
     1
  9
$MAXACTVP
 70
    48
  9
$PINSBASE
 10
0.0
 20
0.0
 30
0.0
  9
$PLIMCHECK
 70
     0
  9
$PEXTMIN
 10
1.000000000000000E+20
 20
1.000000000000000E+20
 30
1.000000000000000E+20
  9
$PEXTMAX
 10
-1.000000000000000E+20
 20
-1.000000000000000E+20
 30
-1.000000000000000E+20
  9
$PLIMMIN
 10
0.0
 20
0.0
  9
$PLIMMAX
 10
12.0
 20
9.0
  9
$UNITMODE
 70
     0
  9
$VISRETAIN
 70
     1
  9
$PLINEGEN
 70
     0
  9
$PSLTSCALE
 70
     1
  9
$TREEDEPTH
 70
  3020
  9
$PICKSTYLE
 70
     1
  9
$CMLSTYLE
  2
STANDARD
  9
$CMLJUST
 70
     0
  9
$CMLSCALE
 40
1.0
  9
$PROXYGRAPHICS
 70
     1
  9
$MEASUREMENT
 70
     0
  0
ENDSEC
  0
SECTION
  2
CLASSES
  0
CLASS
  1
ACDBDICTIONARYWDFLT
  2
AcDbDictionaryWithDefault
  3
AutoCAD 2000
 90
        0
280
     1
281
     0
  0
CLASS
  1
ACDBPLACEHOLDER
  2
AcDbPlaceHolder
  3
AutoCAD 2000
 90
        0
280
     1
281
     0
  0
CLASS
  1
LAYOUT
  2
AcDbLayout
  3
AutoCAD 2000
 90
        0
280
     1
281
     0
  0
CLASS
  1
LONG_TRANSACTION
  2
AcDbLongTransaction
  3
AutoCAD 2000
 90
        0
280
     1
281
     0
  0
CLASS
  1
LWPOLYLINE
  2
AcDbPolyline
  3
"AutoCAD"
 90
        0
280
     1
281
     1
  0
CLASS
  1
HATCH
  2
AcDbHatch
  3
"ACAD_SEDONA"
 90
        0
280
     1
281
     1
  0
CLASS
  1
XRECORD
  2
AcDbXrecord
  3
"<Built In>"
 90
        0
280
     0
281
     0
  0
CLASS
  1
LONG_TRANSACTION
  2
AcDbLongTransaction
  3
AutoCAD 2000
 90
        0
280
     1
281
     0
  0
CLASS
  1
LWPOLYLINE
  2
AcDbPolyline
  3
"AutoCAD"
 90
        0
280
     1
281
     1
  0
CLASS
  1
HATCH
  2
AcDbHatch
  3
"ACAD_SEDONA"
 90
        0
280
     1
281
     1
  0
CLASS
  1
XRECORD
  2
AcDbXrecord
  3
"<Built In>"
 90
        0
280
     0
281
     0
  0
CLASS
  1
LONG_TRANSACTION
  2
AcDbLongTransaction
  3
AutoCAD 2000
 90
        0
280
     1
281
     0
  0
CLASS
  1
LWPOLYLINE
  2
AcDbPolyline
  3
"AutoCAD"
 90
        0
280
     1
281
     1
  0
CLASS
  1
HATCH
  2
AcDbHatch
  3
"ACAD_SEDONA"
 90
        0
280
     1
281
     1
  0
CLASS
  1
XRECORD
  2
AcDbXrecord
  3
"<Built In>"
 90
        0
280
     0
281
     0
  0
CLASS
  1
DICTIONARYVAR
  2
AcDbDictionaryVar
  3
"AutoCAD"
 90
        0
280
     0
281
     0
  0
CLASS
  1
LONG_TRANSACTION
  2
AcDbLongTransaction
  3
AutoCAD 2000
 90
        0
280
     0
281
     0
  0
CLASS
  1
LWPOLYLINE
  2
AcDbPolyline
  3
"AutoCAD"
 90
        0
280
     0
281
     1
  0
CLASS
  1
HATCH
  2
AcDbHatch
  3
"ACAD_SEDONA"
 90
        0
280
     0
281
     1
  0
CLASS
  1
XRECORD
  2
AcDbXrecord
  3
"<Built In>"
 90
        0
280
     0
281
     0
  0
CLASS
  1
LONG_TRANSACTION
  2
AcDbLongTransaction
  3
AutoCAD 2000
 90
        0
280
     0
281
     0
  0
CLASS
  1
LWPOLYLINE
  2
AcDbPolyline
  3
"AutoCAD"
 90
        0
280
     0
281
     1
  0
CLASS
  1
HATCH
  2
AcDbHatch
  3
"ACAD_SEDONA"
 90
        0
280
     0
281
     1
  0
CLASS
  1
XRECORD
  2
AcDbXrecord
  3
"<Built In>"
 90
        0
280
     0
281
     0
  0
ENDSEC
  0
SECTION
  2
TABLES
  0
TABLE
  2
VPORT
  5
A6
100
AcDbSymbolTable
 70
     1
  0
VPORT
  5
C2
100
AcDbSymbolTableRecord
100
AcDbViewportTableRecord
  2
*ACTIVE
 70
     0
 10
0.0
 20
0.0
 11
1.0
 21
1.0
 12
10.35830807442748
 22
12.8805130939467
 13
0.0
 23
0.0
 14
0.5
 24
0.5
 15
0.5
 25
0.5
 16
0.0
 26
0.0
 36
1.0
 17
0.0
 27
0.0
 37
0.0
 40
25.94466705047784
 41
1.457627118644067
 42
50.0
 43
0.0
 44
0.0
 50
0.0
 51
0.0
 71
     0
 72
   100
 73
     1
 74
     3
 75
     0
 76
     0
 77
     0
 78
     0
  0
ENDTAB
  0
TABLE
  2
LTYPE
  5
9F
100
AcDbSymbolTable
 70
     2
  0
LTYPE
  5
A0
102
{ACAD_XDICTIONARY
360
A1
102
}
100
AcDbSymbolTableRecord
100
AcDbLinetypeTableRecord
  2
BYBLOCK
 70
     0
  3

 72
    65
 73
     0
 40
0.0
  0
LTYPE
  5
A2
102
{ACAD_XDICTIONARY
360
A3
102
}
100
AcDbSymbolTableRecord
100
AcDbLinetypeTableRecord
  2
BYLAYER
 70
     0
  3

 72
    65
 73
     0
 40
0.0
  0
LTYPE
  5
5
102
{ACAD_XDICTIONARY
360
6
102
}
100
AcDbSymbolTableRecord
100
AcDbLinetypeTableRecord
  2
CONTINUOUS
 70
     0
  3
Solid line
 72
    65
 73
     0
 40
0.0
  0
LTYPE
  5
64
100
AcDbSymbolTableRecord
100
AcDbLinetypeTableRecord
  2
HIDDEN
 70
     0
  3
Hidden __ __ __ __ __ __ __ __ __ __ __ __ __ _
 72
    65
 73
     2
 40
0.375
 49
0.25
 74
     0
 49
-0.125
 74
     0
  0
ENDTAB
  0
TABLE
  2
LAYER
  5
9D
100
AcDbSymbolTable
 70
     5
  0
LAYER
  5
4A
100
AcDbSymbolTableRecord
100
AcDbLayerTableRecord
  2
0
 70
     0
 62
     7
  6
CONTINUOUS
  0
LAYER
  5
9
100
AcDbSymbolTableRecord
100
AcDbLayerTableRecord
  2
USP-GEO
 70
     0
 62
     7
  6
CONTINUOUS
  0
LAYER
  5
D
100
AcDbSymbolTableRecord
100
AcDbLayerTableRecord
  2
USP-TXT
 70
     0
 62
     7
  6
CONTINUOUS
  0
LAYER
  5
63
100
AcDbSymbolTableRecord
100
AcDbLayerTableRecord
  2
USP-HID
 70
     0
 62
     7
  6
HIDDEN
  0
LAYER
  5
4
100
AcDbSymbolTableRecord
100
AcDbLayerTableRecord
  2
USP
 70
     0
 62
     7
  6
CONTINUOUS
  0
ENDTAB
  0
TABLE
  2
STYLE
  5
9E
100
AcDbSymbolTable
 70
     1
  0
STYLE
  5
E
102
{ACAD_XDICTIONARY
360
F
102
}
100
AcDbSymbolTableRecord
100
AcDbTextStyleTableRecord
  2
STANDARD
 70
     0
 40
0.0
 41
1.0
 50
0.0
 71
     0
 42
0.75
  3
txt
  4

  0
ENDTAB
  0
TABLE
  2
VIEW
  5
A4
100
AcDbSymbolTable
 70
     0
  0
ENDTAB
  0
TABLE
  2
UCS
  5
A5
100
AcDbSymbolTable
 70
     0
  0
ENDTAB
  0
TABLE
  2
APPID
  5
A8
100
AcDbSymbolTable
 70
     1
  0
APPID
  5
A9
100
AcDbSymbolTableRecord
100
AcDbRegAppTableRecord
  2
ACAD
 70
     0
  0
ENDTAB
  0
TABLE
  2
DIMSTYLE
  5
AA
100
AcDbSymbolTable
 70
     1
  0
DIMSTYLE
105
B3
102
{ACAD_XDICTIONARY
360
B4
102
}
100
AcDbSymbolTableRecord
100
AcDbDimStyleTableRecord
  2
STANDARD
 70
     0
  3

  4

  5

  6

  7

 40
1.0
 41
0.18
 42
0.0625
 43
0.38
 44
0.18
 45
0.0
 46
0.0
 47
0.0
 48
0.0
140
0.18
141
0.09
142
0.0
143
25.4
144
1.0
145
0.0
146
1.0
147
0.09
 71
     0
 72
     0
 73
     1
 74
     1
 75
     0
 76
     0
 77
     0
 78
     0
170
     0
171
     2
172
     0
173
     0
174
     0
175
     0
176
     0
177
     0
178
     0
270
     2
271
     4
272
     4
273
     2
274
     2
340
E
275
     0
280
     0
281
     0
282
     0
283
     1
284
     0
285
     0
286
     0
287
     3
288
     0
  0
ENDTAB
  0
TABLE
  2
BLOCK_RECORD
  5
1
100
AcDbSymbolTable
 70
     2
  0
BLOCK_RECORD
  5
2
102
{ACAD_XDICTIONARY
360
94
102
}
100
AcDbSymbolTableRecord
100
AcDbBlockTableRecord
  2
*MODEL_SPACE
  0
BLOCK_RECORD
  5
98
102
{ACAD_XDICTIONARY
360
99
102
}
100
AcDbSymbolTableRecord
100
AcDbBlockTableRecord
  2
*PAPER_SPACE
  0
BLOCK_RECORD
  5
7
100
AcDbSymbolTableRecord
100
AcDbBlockTableRecord
  2
HTW24_F
  0
BLOCK_RECORD
  5
4D
100
AcDbSymbolTableRecord
100
AcDbBlockTableRecord
  2
HTW24_S
  0
ENDTAB
  0
ENDSEC
  0
SECTION
  2
BLOCKS
  0
BLOCK
  5
96
100
AcDbEntity
  8
0
100
AcDbBlockBegin
  2
*MODEL_SPACE
 70
     0
 10
0.0
 20
0.0
 30
0.0
  3
*MODEL_SPACE
  1

  0
ENDBLK
  5
97
100
AcDbEntity
  8
0
100
AcDbBlockEnd
  0
BLOCK
  5
9B
100
AcDbEntity
 67
     1
  8
0
100
AcDbBlockBegin
  2
*PAPER_SPACE
 70
     0
 10
0.0
 20
0.0
 30
0.0
  3
*PAPER_SPACE
  1

  0
ENDBLK
  5
9C
100
AcDbEntity
 67
     1
  8
0
100
AcDbBlockEnd
  0
BLOCK
  5
49
100
AcDbEntity
  8
0
100
AcDbBlockBegin
  2
HTW24_F
 70
     0
 10
0.0
 20
0.0
 30
0.0
  3
HTW24_F
  1

  0
LINE
  5
8
100
AcDbEntity
  8
USP-GEO
100
AcDbLine
 10
1.250000000000042
 20
6.90000000000003
 30
-0.0000000000000008
 11
1.249999999999975
 21
0.1767766952965886
 31
0.0
210
1.0
220
-0.0000000000000002
230
0.0
  0
CIRCLE
  5
A
100
AcDbEntity
  8
USP-GEO
100
AcDbCircle
 10
0.3750000000000142
 20
3.312499999999991
 30
-0.0000000000000004
 40
0.078
  0
LINE
  5
B
100
AcDbEntity
  8
USP-GEO
100
AcDbLine
 10
0.0
 20
0.1767766952966312
 30
0.0
 11
0.0000000000000142
 21
6.900000000000027
 31
-0.0000000000000008
210
1.0
220
-0.0000000000000002
230
0.0
  0
TEXT
  5
C
100
AcDbEntity
  8
USP-TXT
100
AcDbText
 10
-4.531249999999957
 20
-1.139100075650688
 30
0.0
 40
0.5625
  1
HTW24 - FRONT VIEW
 72
     1
 11
0.6250000000000427
 21
-1.139100075650688
 31
0.0
100
AcDbText
  0
CIRCLE
  5
10
100
AcDbEntity
  8
USP-GEO
100
AcDbCircle
 10
0.6250000000000107
 20
0.4999999999999983
 30
-0.0000000000000001
 40
0.15625
  0
LINE
  5
11
100
AcDbEntity
  8
USP-GEO
100
AcDbLine
 10
1.073223304703404
 20
0.0
 30
0.0
 11
0.1767766952966774
 21
0.0
 31
0.0
210
1.0
220
-0.0000000000000002
230
0.0
  0
LINE
  5
12
100
AcDbEntity
  8
USP-GEO
100
AcDbLine
 10
0.1767766952966738
 20
-0.0000000000000071
 30
0.0
 11
0.0000000000000107
 21
0.1767766952966312
 31
0.0
210
1.0
220
-0.0000000000000002
230
0.0
  0
CIRCLE
  5
13
100
AcDbEntity
  8
USP-GEO
100
AcDbCircle
 10
0.2500000000000107
 20
0.3124999999999982
 30
0.0
 40
0.078
  0
LINE
  5
14
100
AcDbEntity
  8
USP-GEO
100
AcDbLine
 10
1.249999999999971
 20
0.1767766952965886
 30
0.0
 11
1.073223304703404
 21
-0.0000000000000071
 31
0.0
210
1.0
220
-0.0000000000000002
230
0.0
  0
CIRCLE
  5
15
100
AcDbEntity
  8
USP-GEO
100
AcDbCircle
 10
0.3750000000000142
 20
1.312499999999998
 30
-0.0000000000000002
 40
0.078
  0
CIRCLE
  5
16
100
AcDbEntity
  8
USP-GEO
100
AcDbCircle
 10
1.00000000000001
 20
0.6874999999999983
 30
-0.0000000000000001
 40
0.078
  0
CIRCLE
  5
17
100
AcDbEntity
  8
USP-GEO
100
AcDbCircle
 10
0.8750000000000142
 20
1.687499999999998
 30
-0.0000000000000002
 40
0.078
  0
CIRCLE
  5
18
100
AcDbEntity
  8
USP-GEO
100
AcDbCircle
 10
1.000000000000014
 20
2.687499999999991
 30
-0.0000000000000003
 40
0.078
  0
CIRCLE
  5
19
100
AcDbEntity
  8
USP-GEO
100
AcDbCircle
 10
0.2500000000000178
 20
2.312499999999991
 30
-0.0000000000000003
 40
0.078
  0
LINE
  5
1A
100
AcDbEntity
  8
USP-GEO
100
AcDbLine
 10
1.406250000000046
 20
14.77966611866686
 30
-0.0000000000000018
 11
1.406250000000042
 21
9.759810763742102
 31
-0.0000000000000012
210
1.0
220
-0.0000000000000002
230
0.0
  0
LINE
  5
1B
100
AcDbEntity
  8
USP-GEO
100
AcDbLine
 10
1.480950000000042
 20
9.824699999999808
 30
-0.0000000000000012
 11
1.480950000000042
 21
14.77966611866686
 31
-0.0000000000000018
210
1.0
220
-0.0000000000000002
230
0.0
  0
LINE
  5
1C
100
AcDbEntity
  8
USP-GEO
100
AcDbLine
 10
0.0000000000000142
 20
7.100000000000019
 30
-0.0000000000000009
 11
0.0000000000000142
 21
9.153422915386492
 31
-0.0000000000000011
210
1.0
220
-0.0000000000000002
230
0.0
  0
LINE
  5
1D
100
AcDbEntity
  8
USP-GEO
100
AcDbLine
 10
1.250000000000042
 20
9.153422915386354
 30
-0.0000000000000011
 11
1.250000000000042
 21
7.100000000000015
 31
-0.0000000000000009
210
1.0
220
-0.0000000000000002
230
0.0
  0
CIRCLE
  5
1E
100
AcDbEntity
  8
USP-GEO
100
AcDbCircle
 10
0.8750000000000142
 20
3.687499999999994
 30
-0.0000000000000005
 40
0.078
  0
CIRCLE
  5
1F
100
AcDbEntity
  8
USP-GEO
100
AcDbCircle
 10
0.2500000000000142
 20
4.312499999999994
 30
-0.0000000000000005
 40
0.078
  0
CIRCLE
  5
20
100
AcDbEntity
  8
USP-GEO
100
AcDbCircle
 10
1.000000000000014
 20
4.687499999999991
 30
-0.0000000000000006
 40
0.078
  0
CIRCLE
  5
21
100
AcDbEntity
  8
USP-GEO
100
AcDbCircle
 10
0.3750000000000142
 20
5.312499999999994
 30
-0.0000000000000007
 40
0.078
  0
CIRCLE
  5
22
100
AcDbEntity
  8
USP-GEO
100
AcDbCircle
 10
0.8750000000000142
 20
5.687499999999987
 30
-0.0000000000000007
 40
0.078
  0
CIRCLE
  5
23
100
AcDbEntity
  8
USP-GEO
100
AcDbCircle
 10
0.2500000000000142
 20
6.312499999999994
 30
-0.0000000000000008
 40
0.078
  0
CIRCLE
  5
24
100
AcDbEntity
  8
USP-GEO
100
AcDbCircle
 10
1.000000000000014
 20
6.687499999999994
 30
-0.0000000000000008
 40
0.078
  0
ARC
  5
25
100
AcDbEntity
  8
USP-GEO
100
AcDbCircle
 10
0.0000000000000142
 20
7.037500000000013
 30
-0.0000000000000009
 40
0.0625
100
AcDbArc
 50
0.0
 51
90.00000000000081
  0
LINE
  5
26
100
AcDbEntity
  8
USP-GEO
100
AcDbLine
 10
0.0625000000000142
 20
6.962500000000027
 30
-0.0000000000000009
 11
0.0625000000000142
 21
7.037500000000015
 31
-0.0000000000000009
210
1.0
220
-0.0000000000000002
230
0.0
  0
ARC
  5
27
100
AcDbEntity
  8
USP-GEO
100
AcDbCircle
 10
0.0000000000000142
 20
6.962500000000025
 30
-0.0000000000000009
 40
0.0625
100
AcDbArc
 50
270.0
 51
0.0
  0
CIRCLE
  5
28
100
AcDbEntity
  8
USP-GEO
100
AcDbCircle
 10
0.7500000000000107
 20
7.312499999999994
 30
-0.0000000000000009
 40
0.078
  0
ARC
  5
29
100
AcDbEntity
  8
USP-GEO
100
AcDbCircle
 10
1.25000000000001
 20
7.037500000000013
 30
-0.0000000000000009
 40
0.0625
100
AcDbArc
 50
89.99999999997069
 51
180.0
  0
LINE
  5
2A
100
AcDbEntity
  8
USP-GEO
100
AcDbLine
 10
1.187500000000014
 20
7.037500000000015
 30
-0.0000000000000009
 11
1.187500000000014
 21
6.962500000000027
 31
-0.0000000000000009
210
1.0
220
-0.0000000000000002
230
0.0
  0
ARC
  5
2B
100
AcDbEntity
  8
USP-GEO
100
AcDbCircle
 10
1.250000000000014
 20
6.962500000000025
 30
-0.0000000000000009
 40
0.0625
100
AcDbArc
 50
180.0
 51
270.000000000026
  0
CIRCLE
  5
2C
100
AcDbEntity
  8
USP-GEO
100
AcDbCircle
 10
0.5000000000000142
 20
8.312499999999991
 30
-0.000000000000001
 40
0.078
  0
LINE
  5
2D
100
AcDbEntity
  8
USP-GEO
100
AcDbLine
 10
0.0091205225925357
 20
9.220333881333015
 30
-0.0000000000000011
 11
1.391053610173603
 21
14.19529299662489
 31
-0.0000000000000017
210
1.0
220
-0.0000000000000002
230
0.0
  0
LINE
  5
2E
100
AcDbEntity
  8
USP-GEO
100
AcDbLine
 10
1.394585284366293
 20
9.708007023718309
 30
-0.0000000000000012
 11
1.259120522592557
 21
9.220333881332877
 31
-0.0000000000000011
210
1.0
220
-0.0000000000000002
230
0.0
  0
ARC
  5
2F
100
AcDbEntity
  8
USP-GEO
100
AcDbCircle
 10
0.2500000000000142
 20
9.15342291538649
 30
-0.0000000000000011
 40
0.2500000000000001
100
AcDbArc
 50
164.4758890032459
 51
180.0000000000004
  0
ARC
  5
30
100
AcDbEntity
  8
USP-GEO
100
AcDbCircle
 10
1.500000000000039
 20
9.153422915386352
 30
-0.0000000000000011
 40
0.2500000000000001
100
AcDbArc
 50
164.4758890032454
 51
180.0
  0
SPLINE
  5
31
100
AcDbEntity
  8
USP-GEO
100
AcDbSpline
210
0.0
220
0.0000000000000001
230
1.0
 70
     8
 71
     3
 72
    10
 73
     6
 74
     0
 42
0.0000001
 43
0.0000001
 40
0.0301186737396664
 40
0.0301186737396664
 40
0.0301186737396664
 40
0.0301186737396664
 40
0.0316047516749855
 40
0.0316047516749855
 40
0.0375374349403981
 40
0.0375374349403981
 40
0.0375374349403981
 40
0.0375374349403981
 10
1.436405036437285
 20
9.75635701369201
 30
-0.0000000000000012
 10
1.436875766453169
 20
9.756564714314233
 30
-0.0000000000000012
 10
1.437344081888912
 20
9.75677715981066
 30
-0.0000000000000012
 10
1.43966914881545
 20
9.757860951993453
 30
-0.0000000000000012
 10
1.441487982274967
 20
9.758802205980771
 30
-0.0000000000000012
 10
1.443256445626325
 20
9.759810763742102
 30
-0.0000000000000012
  0
LINE
  5
32
100
AcDbEntity
  8
USP-GEO
100
AcDbLine
 10
1.406250000000046
 20
9.759810763742102
 30
-0.0000000000000012
 11
1.406250000000046
 21
9.73981776711728
 31
-0.0000000000000012
210
1.0
220
-0.0000000000000002
230
0.0
  0
ARC
  5
33
100
AcDbEntity
  8
USP-GEO
100
AcDbCircle
 10
1.466560072215646
 20
9.688014027093485
 30
-0.0000000000000012
 40
0.0747
100
AcDbArc
 50
136.09294905508
 51
164.4758890032449
  0
SPLINE
  5
34
100
AcDbEntity
  8
USP-GEO
100
AcDbSpline
210
0.0
220
-0.0000000000000001
230
-1.0
 70
     8
 71
     3
 72
    12
 73
     8
 74
     0
 42
0.0000001
 43
0.0000001
 40
-0.0591191147543612
 40
-0.0591191147543612
 40
-0.0591191147543612
 40
-0.0591191147543612
 40
-0.0565805192480322
 40
-0.0565805192480322
 40
-0.0377203461653548
 40
-0.0377203461653548
 40
-0.0305817769151523
 40
-0.0305817769151523
 40
-0.0305817769151523
 40
-0.0305817769151523
 10
1.41274127884802
 20
9.739817767117276
 30
-0.0000000000000012
 10
1.41333444846985
 20
9.740434009753322
 30
-0.0000000000000012
 10
1.413938868084091
 20
9.741040749232006
 30
-0.0000000000000012
 10
1.41912533613048
 20
9.746070791050279
 30
-0.0000000000000012
 10
1.424302368381589
 20
9.749945679049034
 30
-0.0000000000000012
 10
1.43200668191724
 20
9.754286558162888
 30
-0.0000000000000012
 10
1.434181899108629
 20
9.755376096863194
 30
-0.0000000000000012
 10
1.436405036437285
 20
9.75635701369201
 30
-0.0000000000000012
  0
ARC
  5
35
100
AcDbEntity
  8
USP-GEO
100
AcDbCircle
 10
1.406250000000042
 20
9.824699999999806
 30
-0.0000000000000012
 40
0.0747000000000001
100
AcDbArc
 50
299.6961881942355
 51
359.9999999999964
  0
ARC
  5
36
100
AcDbEntity
  8
USP-GEO
100
AcDbCircle
 10
1.463028398022952
 20
14.17530000000007
 30
-0.0000000000000017
 40
0.0747
100
AcDbArc
 50
139.4717491471409
 51
164.4758890032465
  0
LINE
  5
37
100
AcDbEntity
  8
USP-GEO
100
AcDbLine
 10
1.480950000000046
 20
23.82322330470338
 30
-0.0000000000000029
 11
1.480950000000046
 21
17.09999999999996
 31
-0.0000000000000021
210
1.0
220
-0.0000000000000002
230
0.0
  0
LINE
  5
38
100
AcDbEntity
  8
USP-GEO
100
AcDbLine
 10
1.406250000000046
 20
23.82322330470338
 30
-0.0000000000000029
 11
1.406250000000042
 21
17.09999999999996
 31
-0.0000000000000021
210
1.0
220
-0.0000000000000002
230
0.0
  0
LINE
  5
39
100
AcDbEntity
  8
USP-GEO
100
AcDbLine
 10
1.480950000000042
 20
16.89999999999997
 30
-0.0000000000000021
 11
1.480950000000042
 21
14.84657708461338
 31
-0.0000000000000018
210
1.0
220
-0.0000000000000002
230
0.0
  0
LINE
  5
3A
100
AcDbEntity
  8
USP-GEO
100
AcDbLine
 10
1.406250000000042
 20
16.89999999999997
 30
-0.0000000000000021
 11
1.406250000000042
 21
14.84657708461338
 31
-0.0000000000000018
210
1.0
220
-0.0000000000000002
230
0.0
  0
LINE
  5
3B
100
AcDbEntity
  8
USP-GEO
100
AcDbLine
 10
1.480950000000042
 20
14.84657708461338
 30
-0.0000000000000018
 11
1.480950000000042
 21
14.77966611866685
 31
-0.0000000000000018
210
1.0
220
-0.0000000000000002
230
0.0
  0
LINE
  5
3C
100
AcDbEntity
  8
USP-GEO
100
AcDbLine
 10
1.406250000000046
 20
14.84657708461338
 30
-0.0000000000000018
 11
1.406250000000046
 21
14.77966611866685
 31
-0.0000000000000018
210
1.0
220
-0.0000000000000002
230
0.0
  0
LINE
  5
3D
100
AcDbEntity
  8
USP-GEO
100
AcDbLine
 10
1.480950000000042
 20
17.03749999999996
 30
-0.0000000000000021
 11
1.480950000000042
 21
17.09999999999996
 31
-0.0000000000000021
210
1.0
220
-0.0000000000000002
230
0.0
  0
LINE
  5
3E
100
AcDbEntity
  8
USP-GEO
100
AcDbLine
 10
1.406250000000042
 20
17.09999999999996
 30
-0.0000000000000021
 11
1.406250000000042
 21
17.03749999999996
 31
-0.0000000000000021
210
1.0
220
-0.0000000000000002
230
0.0
  0
LINE
  5
3F
100
AcDbEntity
  8
USP-GEO
100
AcDbLine
 10
1.480950000000046
 20
16.89999999999997
 30
-0.0000000000000021
 11
1.480950000000046
 21
16.96249999999997
 31
-0.0000000000000021
210
1.0
220
-0.0000000000000002
230
0.0
  0
LINE
  5
40
100
AcDbEntity
  8
USP-GEO
100
AcDbLine
 10
1.406250000000042
 20
16.96249999999997
 30
-0.0000000000000021
 11
1.406250000000042
 21
16.89999999999997
 31
-0.0000000000000021
210
1.0
220
-0.0000000000000002
230
0.0
  0
LINE
  5
41
100
AcDbEntity
  8
USP-GEO
100
AcDbLine
 10
1.480950000000042
 20
16.89999999999997
 30
-0.0000000000000021
 11
1.406250000000042
 21
16.89999999999997
 31
-0.0000000000000021
210
1.0
220
-0.0000000000000002
230
0.0
  0
LINE
  5
42
100
AcDbEntity
  8
USP-GEO
100
AcDbLine
 10
1.480950000000042
 20
16.96249999999997
 30
-0.0000000000000021
 11
1.480950000000042
 21
17.03749999999996
 31
-0.0000000000000021
210
1.0
220
-0.0000000000000002
230
0.0
  0
LINE
  5
43
100
AcDbEntity
  8
USP-GEO
100
AcDbLine
 10
1.406250000000042
 20
17.03749999999996
 30
-0.0000000000000021
 11
1.406250000000042
 21
16.96249999999997
 31
-0.0000000000000021
210
1.0
220
-0.0000000000000002
230
0.0
  0
LINE
  5
44
100
AcDbEntity
  8
USP-GEO
100
AcDbLine
 10
1.480950000000042
 20
17.09999999999996
 30
-0.0000000000000021
 11
1.406250000000042
 21
17.09999999999996
 31
-0.0000000000000021
210
1.0
220
-0.0000000000000002
230
0.0
  0
LINE
  5
45
100
AcDbEntity
  8
USP-GEO
100
AcDbLine
 10
1.480950000000046
 20
23.82322330470338
 30
-0.0000000000000029
 11
1.480950000000046
 21
24.00000000000001
 31
-0.0000000000000029
210
1.0
220
-0.0000000000000002
230
0.0
  0
LINE
  5
46
100
AcDbEntity
  8
USP-GEO
100
AcDbLine
 10
1.406250000000046
 20
24.00000000000001
 30
-0.0000000000000029
 11
1.406250000000046
 21
23.82322330470338
 31
-0.0000000000000029
210
1.0
220
-0.0000000000000002
230
0.0
  0
LINE
  5
47
100
AcDbEntity
  8
USP-GEO
100
AcDbLine
 10
1.480950000000046
 20
23.82322330470338
 30
-0.0000000000000029
 11
1.406250000000046
 21
23.82322330470338
 31
-0.0000000000000029
210
1.0
220
-0.0000000000000002
230
0.0
  0
LINE
  5
48
100
AcDbEntity
  8
USP-GEO
100
AcDbLine
 10
1.480950000000046
 20
23.99999999999999
 30
-0.0000000000000029
 11
1.406250000000046
 21
23.99999999999999
 31
-0.0000000000000029
210
1.0
220
-0.0000000000000002
230
0.0
  0
ENDBLK
  5
4B
100
AcDbEntity
  8
0
100
AcDbBlockEnd
  0
BLOCK
  5
92
100
AcDbEntity
  8
0
100
AcDbBlockBegin
  2
HTW24_S
 70
     0
 10
0.0
 20
0.0
 30
0.0
  3
HTW24_S
  1

  0
TEXT
  5
4E
100
AcDbEntity
  8
USP-TXT
100
AcDbText
 10
-4.15625
 20
-1.139100075650665
 30
0.0000000000000029
 40
0.5625
  1
HTW24 - SIDE VIEW
 72
     1
 11
0.625
 21
-1.139100075650665
 31
0.0000000000000029
100
AcDbText
  0
LINE
  5
4F
100
AcDbEntity
  8
USP-GEO
100
AcDbLine
 10
1.480949999999996
 20
6.900000000000041
 30
0.0
 11
1.480949999999996
 21
0.1767766952965957
 31
0.0
  0
LINE
  5
50
100
AcDbEntity
  8
USP-GEO
100
AcDbLine
 10
1.406249999999996
 20
6.900000000000041
 30
0.0
 11
1.406249999999996
 21
0.1767766952965957
 31
0.0
  0
LINE
  5
51
100
AcDbEntity
  8
USP-GEO
100
AcDbLine
 10
1.480949999999999
 20
0.1767766952966028
 30
0.0
 11
1.480949999999999
 21
0.0
 31
0.0
  0
LINE
  5
52
100
AcDbEntity
  8
USP-GEO
100
AcDbLine
 10
1.40625
 20
0.1767766952966028
 30
0.0
 11
1.40625
 21
0.0000000000000071
 31
0.0
  0
LINE
  5
53
100
AcDbEntity
  8
USP-GEO
100
AcDbLine
 10
1.480949999999999
 20
0.0
 30
0.0
 11
1.40625
 21
0.0
 31
0.0
  0
LINE
  5
54
100
AcDbEntity
  8
USP-GEO
100
AcDbLine
 10
1.480949999999999
 20
0.1767766952965957
 30
0.0
 11
1.40625
 21
0.1767766952965957
 31
0.0
  0
LINE
  5
55
100
AcDbEntity
  8
USP-GEO
100
AcDbLine
 10
1.259120522592514
 20
14.779666118667
 30
0.0
 11
1.40625
 21
14.25000000000008
 31
0.0
  0
LINE
  5
56
100
AcDbEntity
  8
USP-GEO
100
AcDbLine
 10
1.3855
 20
9.824699999999813
 30
0.0
 11
0.0091205225925215
 21
14.77966611866686
 31
0.0
  0
LINE
  5
57
100
AcDbEntity
  8
USP-GEO
100
AcDbLine
 10
1.480949999999996
 20
9.153422915386359
 30
0.0
 11
1.480949999999996
 21
7.100000000000022
 31
0.0
  0
LINE
  5
58
100
AcDbEntity
  8
USP-GEO
100
AcDbLine
 10
1.406249999999996
 20
9.153422915386363
 30
0.0
 11
1.406249999999996
 21
7.100000000000022
 31
0.0
  0
LINE
  5
59
100
AcDbEntity
  8
USP-GEO
100
AcDbLine
 10
1.480949999999996
 20
7.037500000000022
 30
0.0
 11
1.480949999999996
 21
7.100000000000022
 31
0.0
  0
LINE
  5
5A
100
AcDbEntity
  8
USP-GEO
100
AcDbLine
 10
1.406249999999996
 20
7.100000000000022
 30
0.0
 11
1.406249999999996
 21
7.037500000000022
 31
0.0
  0
LINE
  5
5B
100
AcDbEntity
  8
USP-GEO
100
AcDbLine
 10
1.480949999999996
 20
6.900000000000034
 30
0.0
 11
1.480949999999996
 21
6.962500000000034
 31
0.0
  0
LINE
  5
5C
100
AcDbEntity
  8
USP-GEO
100
AcDbLine
 10
1.406249999999996
 20
6.962500000000034
 30
0.0
 11
1.406249999999996
 21
6.900000000000034
 31
0.0
  0
LINE
  5
5D
100
AcDbEntity
  8
USP-GEO
100
AcDbLine
 10
1.480949999999996
 20
7.037500000000022
 30
0.0
 11
1.480949999999996
 21
6.962500000000034
 31
0.0
  0
LINE
  5
5E
100
AcDbEntity
  8
USP-GEO
100
AcDbLine
 10
1.406249999999996
 20
7.037500000000022
 30
0.0
 11
1.406249999999996
 21
6.962500000000034
 31
0.0
  0
LINE
  5
5F
100
AcDbEntity
  8
USP-GEO
100
AcDbLine
 10
1.480949999999996
 20
6.900000000000041
 30
0.0
 11
1.406249999999996
 21
6.900000000000041
 31
0.0
  0
LINE
  5
60
100
AcDbEntity
  8
USP-GEO
100
AcDbLine
 10
1.480949999999996
 20
7.100000000000022
 30
0.0
 11
1.40625
 21
7.100000000000022
 31
0.0
  0
LINE
  5
61
100
AcDbEntity
  8
USP-GEO
100
AcDbLine
 10
1.480949999999999
 20
9.732091064079982
 30
0.0
 11
1.480949999999999
 21
14.22384177085727
 31
0.0
  0
LINE
  5
62
100
AcDbEntity
  8
USP-HID
100
AcDbLine
 10
1.406249999999996
 20
9.739817767117285
 30
0.0
 11
1.406249999999996
 21
14.25000000000008
 31
0.0
  0
LINE
  5
65
100
AcDbEntity
  8
USP-GEO
100
AcDbLine
 10
1.480949999999999
 20
9.220333881332882
 30
0.0
 11
1.480949999999999
 21
9.708007023718314
 31
0.0
  0
LINE
  5
66
100
AcDbEntity
  8
USP-GEO
100
AcDbLine
 10
1.40625
 20
9.708007023718314
 30
0.0
 11
1.40625
 21
9.220333881332885
 31
0.0
  0
LINE
  5
67
100
AcDbEntity
  8
USP-GEO
100
AcDbLine
 10
1.480949999999999
 20
9.153422915386359
 30
0.0
 11
1.480949999999999
 21
9.220333881332882
 31
0.0
  0
LINE
  5
68
100
AcDbEntity
  8
USP-GEO
100
AcDbLine
 10
1.406249999999996
 20
9.220333881332885
 30
0.0
 11
1.406249999999996
 21
9.153422915386363
 31
0.0
  0
LINE
  5
69
100
AcDbEntity
  8
USP-GEO
100
AcDbLine
 10
1.385499999999993
 20
9.824699999999813
 30
0.0
 11
1.403524787849356
 21
9.759810763742107
 31
0.0
  0
LINE
  5
6A
100
AcDbEntity
  8
USP-GEO
100
AcDbLine
 10
1.406249999999996
 20
9.824699999999817
 30
0.0
 11
1.474592986453163
 21
9.756357013546653
 31
0.0
  0
SPLINE
  5
6B
100
AcDbEntity
  8
USP-GEO
100
AcDbSpline
210
0.0
220
0.0
230
1.0
 70
     8
 71
     3
 72
    12
 73
     8
 74
     0
 42
0.0000001
 43
0.0000001
 40
-0.0591191147543612
 40
-0.0591191147543612
 40
-0.0591191147543612
 40
-0.0591191147543612
 40
-0.0565805192480322
 40
-0.0565805192480322
 40
-0.0377203461653548
 40
-0.0377203461653548
 40
-0.0305817769151523
 40
-0.0305817769151523
 40
-0.0305817769151523
 40
-0.0305817769151523
 10
1.40625
 20
9.739817767117285
 30
0.0
 10
1.40625
 20
9.740434009753327
 30
0.0
 10
1.40624222602479
 20
9.741040749232011
 30
0.0
 10
1.40612091673719
 20
9.746070791050287
 30
0.0
 10
1.405629378101838
 20
9.749945679049039
 30
0.0
 10
1.404845370296275
 20
9.754286558162894
 30
0.0
 10
1.404618735951974
 20
9.7553760968632
 30
0.0
 10
1.404396024755921
 20
9.756357013692015
 30
0.0
  0
SPLINE
  5
6C
100
AcDbEntity
  8
USP-GEO
100
AcDbSpline
210
-0.969625100546896
220
-0.244595920631195
230
0.0
 70
    24
 71
     3
 72
    10
 73
     6
 74
     0
 42
0.0000001
 43
0.0000001
 40
0.0301186737396664
 40
0.0301186737396664
 40
0.0301186737396664
 40
0.0301186737396664
 40
0.0316047516749855
 40
0.0316047516749855
 40
0.0375374349403981
 40
0.0375374349403981
 40
0.0375374349403981
 40
0.0375374349403981
 10
1.404396024755921
 20
9.756357013692015
 30
0.0
 10
1.404348867593725
 20
9.756564714314242
 30
0.0
 10
1.404299698828072
 20
9.756777159810665
 30
0.0
 10
1.404043633508049
 20
9.757860951993462
 30
0.0
 10
1.403804942783057
 20
9.75880220598078
 30
0.0
 10
1.403524787849352
 20
9.759810763742107
 30
0.0
  0
SPLINE
  5
6D
100
AcDbEntity
  8
USP-GEO
100
AcDbSpline
210
0.0
220
0.0
230
1.0
 70
     8
 71
     3
 72
    12
 73
     8
 74
     0
 42
0.0000001
 43
0.0000001
 40
0.2145724995325135
 40
0.2145724995325135
 40
0.2145724995325135
 40
0.2145724995325135
 40
0.2330163333701811
 40
0.2330163333701811
 40
0.2492396371822747
 40
0.2492396371822747
 40
0.2529710359814181
 40
0.2529710359814181
 40
0.2529710359814181
 40
0.2529710359814181
 10
1.480949999999999
 20
9.732091064079982
 30
0.0
 10
1.480949999999932
 20
9.737235023153418
 30
0.0
 10
1.480658205994156
 20
9.741827464545243
 30
0.0
 10
1.479114077003909
 20
9.749103654609241
 30
0.0
 10
1.477885644809308
 20
9.752273647544951
 30
0.0
 10
1.47556125782027
 20
9.755321108614301
 30
0.0
 10
1.475093131006637
 20
9.755856868993179
 30
0.0
 10
1.474592986453163
 20
9.75635701354666
 30
0.0
  0
LINE
  5
6E
100
AcDbEntity
  8
USP-GEO
100
AcDbLine
 10
1.480950000000003
 20
9.708007023718314
 30
0.0
 11
1.480950000000003
 21
9.732091064079982
 31
0.0
  0
LINE
  5
6F
100
AcDbEntity
  8
USP-GEO
100
AcDbLine
 10
1.406249999999996
 20
9.739817767117285
 30
0.0
 11
1.406249999999996
 21
9.708007023718314
 31
0.0
  0
LINE
  5
70
100
AcDbEntity
  8
USP-GEO
100
AcDbLine
 10
1.454791770857191
 20
14.25000000000008
 30
0.0
 11
1.406249999999996
 21
14.25000000000008
 31
0.0
  0
SPLINE
  5
71
100
AcDbEntity
  8
USP-GEO
100
AcDbSpline
210
0.0
220
0.0
230
1.0
 70
     8
 71
     3
 72
    16
 73
    12
 74
     0
 42
0.0000001
 43
0.0000001
 40
0.0517611895518878
 40
0.0517611895518878
 40
0.0517611895518878
 40
0.0517611895518878
 40
0.055359328037137
 40
0.055359328037137
 40
0.0738124373828493
 40
0.0738124373828493
 40
0.0903937530955462
 40
0.0903937530955462
 40
0.106975068808243
 40
0.106975068808243
 40
0.1216686007653523
 40
0.1216686007653523
 40
0.1216686007653523
 40
0.1216686007653523
 10
1.454791770857188
 20
14.25000000000008
 30
0.0
 10
1.455720311044203
 20
14.25000000000008
 30
0.0
 10
1.456627886967396
 20
14.24998758223463
 30
0.0
 10
1.462054006937126
 20
14.24981850316423
 30
0.0
 10
1.466004506039805
 20
14.24928704142185
 30
0.0
 10
1.472166146096011
 20
14.24707722268883
 30
0.0
 10
1.474720435765444
 20
14.24540053395891
 30
0.0
 10
1.478402089653933
 20
14.24061907764793
 30
0.0
 10
1.479548254501089
 20
14.23750210989164
 30
0.0
 10
1.480731695712844
 20
14.23111692181142
 30
0.0
 10
1.480949999999999
 20
14.22766752972977
 30
0.0
 10
1.480949999999999
 20
14.22384177085727
 30
0.0
  0
CIRCLE
  5
72
100
AcDbEntity
  8
USP-GEO
100
AcDbCircle
 10
0.875
 20
20.3125
 30
0.0
 40
0.078
  0
LINE
  5
73
100
AcDbEntity
  8
USP-GEO
100
AcDbLine
 10
0.0000000000000071
 20
23.82322330470339
 30
0.0
 11
0.0000000000000071
 21
17.09999999999997
 31
0.0
  0
LINE
  5
74
100
AcDbEntity
  8
USP-GEO
100
AcDbLine
 10
1.250000000000003
 20
23.82322330470336
 30
0.0
 11
1.25
 21
17.09999999999997
 31
0.0
  0
CIRCLE
  5
75
100
AcDbEntity
  8
USP-GEO
100
AcDbCircle
 10
0.5
 20
15.6875
 30
0.0
 40
0.078
  0
LINE
  5
76
100
AcDbEntity
  8
USP-GEO
100
AcDbLine
 10
0.0
 20
16.89999999999998
 30
0.0
 11
0.0
 21
14.84657708461338
 31
0.0
  0
ARC
  5
77
100
AcDbEntity
  8
USP-GEO
100
AcDbCircle
 10
0.25
 20
14.84657708461338
 30
0.0
 40
0.25
100
AcDbArc
 50
180.0000000000004
 51
195.5241109967553
  0
ARC
  5
78
100
AcDbEntity
  8
USP-GEO
100
AcDbCircle
 10
0.0
 20
17.03749999999996
 30
0.0
 40
0.0625
100
AcDbArc
 50
0.0
 51
90.0
  0
ARC
  5
79
100
AcDbEntity
  8
USP-GEO
100
AcDbCircle
 10
0.0
 20
16.96249999999997
 30
0.0
 40
0.0625
100
AcDbArc
 50
270.0
 51
0.0000000000007506
  0
LINE
  5
7A
100
AcDbEntity
  8
USP-GEO
100
AcDbLine
 10
0.0625
 20
16.96249999999998
 30
0.0
 11
0.0625
 21
17.03749999999996
 31
0.0
  0
LINE
  5
7B
100
AcDbEntity
  8
USP-GEO
100
AcDbLine
 10
1.25
 20
16.89999999999997
 30
0.0
 11
1.25
 21
14.84657708461353
 31
0.0
  0
ARC
  5
7C
100
AcDbEntity
  8
USP-GEO
100
AcDbCircle
 10
1.5
 20
14.84657708461353
 30
0.0
 40
0.25
100
AcDbArc
 50
179.9999999999996
 51
195.5241109967544
  0
CIRCLE
  5
7D
100
AcDbEntity
  8
USP-GEO
100
AcDbCircle
 10
0.75
 20
16.6875
 30
0.0
 40
0.078
  0
ARC
  5
7E
100
AcDbEntity
  8
USP-GEO
100
AcDbCircle
 10
1.25
 20
17.03749999999996
 30
0.0
 40
0.0625
100
AcDbArc
 50
90.0
 51
180.0
  0
ARC
  5
7F
100
AcDbEntity
  8
USP-GEO
100
AcDbCircle
 10
1.25
 20
16.96249999999997
 30
0.0
 40
0.0625
100
AcDbArc
 50
180.0000000000007
 51
270.0
  0
LINE
  5
80
100
AcDbEntity
  8
USP-GEO
100
AcDbLine
 10
1.1875
 20
16.96249999999997
 30
0.0
 11
1.1875
 21
17.03749999999996
 31
0.0
  0
CIRCLE
  5
81
100
AcDbEntity
  8
USP-GEO
100
AcDbCircle
 10
1.0
 20
17.3125
 30
0.0
 40
0.078
  0
CIRCLE
  5
82
100
AcDbEntity
  8
USP-GEO
100
AcDbCircle
 10
0.375
 20
18.6875
 30
0.0
 40
0.078
  0
CIRCLE
  5
83
100
AcDbEntity
  8
USP-GEO
100
AcDbCircle
 10
0.25
 20
17.6875
 30
0.0
 40
0.078
  0
CIRCLE
  5
84
100
AcDbEntity
  8
USP-GEO
100
AcDbCircle
 10
0.25
 20
19.6875
 30
0.0
 40
0.078
  0
CIRCLE
  5
85
100
AcDbEntity
  8
USP-GEO
100
AcDbCircle
 10
0.875
 20
18.3125
 30
0.0
 40
0.078
  0
CIRCLE
  5
86
100
AcDbEntity
  8
USP-GEO
100
AcDbCircle
 10
1.0
 20
19.3125
 30
0.0
 40
0.078
  0
CIRCLE
  5
87
100
AcDbEntity
  8
USP-GEO
100
AcDbCircle
 10
0.3750000000000035
 20
20.6875
 30
0.0
 40
0.078
  0
CIRCLE
  5
88
100
AcDbEntity
  8
USP-GEO
100
AcDbCircle
 10
0.3750000000000035
 20
22.6875
 30
0.0
 40
0.078
  0
CIRCLE
  5
89
100
AcDbEntity
  8
USP-GEO
100
AcDbCircle
 10
0.2500000000000035
 20
21.6875
 30
0.0
 40
0.078
  0
CIRCLE
  5
8A
100
AcDbEntity
  8
USP-GEO
100
AcDbCircle
 10
1.000000000000003
 20
21.3125
 30
0.0
 40
0.078
  0
CIRCLE
  5
8B
100
AcDbEntity
  8
USP-GEO
100
AcDbCircle
 10
0.8750000000000035
 20
22.3125
 30
0.0
 40
0.078
  0
LINE
  5
8C
100
AcDbEntity
  8
USP-GEO
100
AcDbLine
 10
1.073223304703368
 20
24.0
 30
0.0
 11
0.1767766952966703
 21
24.0
 31
0.0
  0
CIRCLE
  5
8D
100
AcDbEntity
  8
USP-GEO
100
AcDbCircle
 10
0.2500000000000035
 20
23.6875
 30
0.0
 40
0.078
  0
LINE
  5
8E
100
AcDbEntity
  8
USP-GEO
100
AcDbLine
 10
0.0000000000000071
 20
23.82322330470339
 30
0.0
 11
0.1767766952966596
 21
24.00000000000002
 31
0.0
  0
CIRCLE
  5
8F
100
AcDbEntity
  8
USP-GEO
100
AcDbCircle
 10
0.6250000000000036
 20
23.5
 30
0.0
 40
0.15625
  0
CIRCLE
  5
90
100
AcDbEntity
  8
USP-GEO
100
AcDbCircle
 10
1.000000000000003
 20
23.3125
 30
0.0
 40
0.078
  0
LINE
  5
91
100
AcDbEntity
  8
USP-GEO
100
AcDbLine
 10
1.250000000000007
 20
23.82322330470336
 30
0.0
 11
1.073223304703368
 21
24.0
 31
0.0
  0
ENDBLK
  5
93
100
AcDbEntity
  8
0
100
AcDbBlockEnd
  0
ENDSEC
  0
SECTION
  2
ENTITIES
  0
INSERT
  5
3
100
AcDbEntity
  8
USP
100
AcDbBlockReference
  2
HTW24_F
 10
4.53188212373557
 20
1.139867222520564
 30
0.0000000000000029
  0
INSERT
  5
4C
100
AcDbEntity
  8
USP
100
AcDbBlockReference
  2
HTW24_S
 10
15.30878542768148
 20
1.139867222520543
 30
0.0
  0
ENDSEC
  0
SECTION
  2
OBJECTS
  0
DICTIONARY
  5
AF
102
{ACAD_XDICTIONARY
360
B0
102
}
100
AcDbDictionary
  3
ACAD_GROUP
350
AC
  3
ACAD_MLINESTYLE
350
AD
  0
DICTIONARY
  5
A1
100
AcDbDictionary
280
     1
  0
DICTIONARY
  5
A3
100
AcDbDictionary
280
     1
  0
DICTIONARY
  5
6
100
AcDbDictionary
280
     1
  0
DICTIONARY
  5
F
100
AcDbDictionary
280
     1
  0
DICTIONARY
  5
B4
100
AcDbDictionary
280
     1
  0
DICTIONARY
  5
94
100
AcDbDictionary
280
     1
  3
ACAD_LAYOUTSELFREF
360
95
  0
DICTIONARY
  5
99
100
AcDbDictionary
280
     1
  3
ACAD_LAYOUTSELFREF
360
9A
  0
DICTIONARY
  5
B0
100
AcDbDictionary
280
     1
  3
ACAD_XREC_ROUNDTRIP
360
B1
  0
DICTIONARY
  5
AC
102
{ACAD_REACTORS
330
AF
102
}
100
AcDbDictionary
  0
DICTIONARY
  5
AD
102
{ACAD_XDICTIONARY
360
AE
102
}
102
{ACAD_REACTORS
330
AF
102
}
100
AcDbDictionary
  3
STANDARD
350
B2
  0
XRECORD
  5
95
102
{ACAD_REACTORS
330
94
102
}
100
AcDbXrecord
340
2
  0
XRECORD
  5
9A
102
{ACAD_REACTORS
330
99
102
}
100
AcDbXrecord
340
9A
  0
XRECORD
  5
B1
102
{ACAD_REACTORS
330
B0
102
}
100
AcDbXrecord
102
EXTNAMES
  1
ACDBVARIABLEDICTIONARY
  2
AcDbVariableDictionary
  0
DICTIONARY
  5
AE
100
AcDbDictionary
280
     1
  0
MLINESTYLE
  5
B2
102
{ACAD_REACTORS
330
AD
102
}
100
AcDbMlineStyle
  2
STANDARD
 70
     0
  3

 62
   256
 51
90.0
 52
90.0
 71
     2
 49
0.5
 62
   256
  6
BYLAYER
 49
-0.5
 62
   256
  6
BYLAYER
  0
ENDSEC
  0
EOF
