  0
SECTION
  2
HEADER
  9
$ACADVER
  1
AC1014
  9
$ACADMAINTVER
 70
     9
  9
$DWGCODEPAGE
  3
ANSI_1252
  9
$INSBASE
 10
0.0
 20
0.0
 30
0.0
  9
$EXTMIN
 10
0.0005733364315574
 20
0.0006549216366523
 30
-0.0000000000000001
  9
$EXTMAX
 10
18.78805549102237
 20
21.4621198933171
 30
0.0000000000000023
  9
$LIMMIN
 10
0.0
 20
0.0
  9
$LIMMAX
 10
12.0
 20
9.0
  9
$ORTHOMODE
 70
     0
  9
$REGENMODE
 70
     1
  9
$FILLMODE
 70
     1
  9
$QTEXTMODE
 70
     0
  9
$MIRRTEXT
 70
     1
  9
$DRAGMODE
 70
     2
  9
$LTSCALE
 40
1.0
  9
$OSMODE
 70
    37
  9
$ATTMODE
 70
     1
  9
$TEXTSIZE
 40
0.5
  9
$TRACEWID
 40
0.05
  9
$TEXTSTYLE
  7
STANDARD
  9
$CLAYER
  8
0
  9
$CELTYPE
  6
BYLAYER
  9
$CECOLOR
 62
   256
  9
$CELTSCALE
 40
1.0
  9
$DELOBJ
 70
     1
  9
$DISPSILH
 70
     0
  9
$DIMSCALE
 40
1.0
  9
$DIMASZ
 40
0.18
  9
$DIMEXO
 40
0.0625
  9
$DIMDLI
 40
0.38
  9
$DIMRND
 40
0.0
  9
$DIMDLE
 40
0.0
  9
$DIMEXE
 40
0.18
  9
$DIMTP
 40
0.0
  9
$DIMTM
 40
0.0
  9
$DIMTXT
 40
0.18
  9
$DIMCEN
 40
0.09
  9
$DIMTSZ
 40
0.0
  9
$DIMTOL
 70
     0
  9
$DIMLIM
 70
     0
  9
$DIMTIH
 70
     1
  9
$DIMTOH
 70
     1
  9
$DIMSE1
 70
     0
  9
$DIMSE2
 70
     0
  9
$DIMTAD
 70
     0
  9
$DIMZIN
 70
     0
  9
$DIMBLK
  1

  9
$DIMASO
 70
     1
  9
$DIMSHO
 70
     1
  9
$DIMPOST
  1

  9
$DIMAPOST
  1

  9
$DIMALT
 70
     0
  9
$DIMALTD
 70
     2
  9
$DIMALTF
 40
25.4
  9
$DIMLFAC
 40
1.0
  9
$DIMTOFL
 70
     0
  9
$DIMTVP
 40
0.0
  9
$DIMTIX
 70
     0
  9
$DIMSOXD
 70
     0
  9
$DIMSAH
 70
     0
  9
$DIMBLK1
  1

  9
$DIMBLK2
  1

  9
$DIMSTYLE
  2
STANDARD
  9
$DIMCLRD
 70
     0
  9
$DIMCLRE
 70
     0
  9
$DIMCLRT
 70
     0
  9
$DIMTFAC
 40
1.0
  9
$DIMGAP
 40
0.09
  9
$DIMJUST
 70
     0
  9
$DIMSD1
 70
     0
  9
$DIMSD2
 70
     0
  9
$DIMTOLJ
 70
     1
  9
$DIMTZIN
 70
     0
  9
$DIMALTZ
 70
     0
  9
$DIMALTTZ
 70
     0
  9
$DIMFIT
 70
     3
  9
$DIMUPT
 70
     0
  9
$DIMUNIT
 70
     2
  9
$DIMDEC
 70
     4
  9
$DIMTDEC
 70
     4
  9
$DIMALTU
 70
     2
  9
$DIMALTTD
 70
     2
  9
$DIMTXSTY
  7
STANDARD
  9
$DIMAUNIT
 70
     0
  9
$LUNITS
 70
     2
  9
$LUPREC
 70
     4
  9
$SKETCHINC
 40
0.1
  9
$FILLETRAD
 40
0.5
  9
$AUNITS
 70
     0
  9
$AUPREC
 70
     0
  9
$MENU
  1
.
  9
$ELEVATION
 40
0.0
  9
$PELEVATION
 40
0.0
  9
$THICKNESS
 40
0.0
  9
$LIMCHECK
 70
     0
  9
$BLIPMODE
 70
     0
  9
$CHAMFERA
 40
0.5
  9
$CHAMFERB
 40
0.5
  9
$CHAMFERC
 40
1.0
  9
$CHAMFERD
 40
0.0
  9
$SKPOLY
 70
     0
  9
$TDCREATE
 40
2451675.885797453
  9
$TDUPDATE
 40
2452759.745109768
  9
$TDINDWG
 40
0.0195439583
  9
$TDUSRTIMER
 40
0.0195357407
  9
$USRTIMER
 70
     1
  9
$ANGBASE
 50
0.0
  9
$ANGDIR
 70
     0
  9
$PDMODE
 70
     0
  9
$PDSIZE
 40
0.0
  9
$PLINEWID
 40
0.0
  9
$COORDS
 70
     1
  9
$SPLFRAME
 70
     0
  9
$SPLINETYPE
 70
     6
  9
$SPLINESEGS
 70
     8
  9
$ATTDIA
 70
     0
  9
$ATTREQ
 70
     1
  9
$HANDLING
 70
     1
  9
$HANDSEED
  5
BE
  9
$SURFTAB1
 70
     6
  9
$SURFTAB2
 70
     6
  9
$SURFTYPE
 70
     6
  9
$SURFU
 70
     6
  9
$SURFV
 70
     6
  9
$UCSNAME
  2

  9
$UCSORG
 10
0.0
 20
0.0
 30
0.0
  9
$UCSXDIR
 10
1.0
 20
0.0
 30
0.0
  9
$UCSYDIR
 10
0.0
 20
1.0
 30
0.0
  9
$PUCSNAME
  2

  9
$PUCSORG
 10
0.0
 20
0.0
 30
0.0
  9
$PUCSXDIR
 10
1.0
 20
0.0
 30
0.0
  9
$PUCSYDIR
 10
0.0
 20
1.0
 30
0.0
  9
$USERI1
 70
     0
  9
$USERI2
 70
     0
  9
$USERI3
 70
     0
  9
$USERI4
 70
     0
  9
$USERI5
 70
     0
  9
$USERR1
 40
0.0
  9
$USERR2
 40
0.0
  9
$USERR3
 40
0.0
  9
$USERR4
 40
0.0
  9
$USERR5
 40
0.0
  9
$WORLDVIEW
 70
     1
  9
$SHADEDGE
 70
     3
  9
$SHADEDIF
 70
    70
  9
$TILEMODE
 70
     1
  9
$MAXACTVP
 70
    48
  9
$PINSBASE
 10
0.0
 20
0.0
 30
0.0
  9
$PLIMCHECK
 70
     0
  9
$PEXTMIN
 10
1.000000000000000E+20
 20
1.000000000000000E+20
 30
1.000000000000000E+20
  9
$PEXTMAX
 10
-1.000000000000000E+20
 20
-1.000000000000000E+20
 30
-1.000000000000000E+20
  9
$PLIMMIN
 10
0.0
 20
0.0
  9
$PLIMMAX
 10
12.0
 20
9.0
  9
$UNITMODE
 70
     0
  9
$VISRETAIN
 70
     1
  9
$PLINEGEN
 70
     0
  9
$PSLTSCALE
 70
     1
  9
$TREEDEPTH
 70
  3020
  9
$PICKSTYLE
 70
     1
  9
$CMLSTYLE
  2
STANDARD
  9
$CMLJUST
 70
     0
  9
$CMLSCALE
 40
1.0
  9
$PROXYGRAPHICS
 70
     1
  9
$MEASUREMENT
 70
     0
  0
ENDSEC
  0
SECTION
  2
CLASSES
  0
CLASS
  1
ACDBDICTIONARYWDFLT
  2
AcDbDictionaryWithDefault
  3
AutoCAD 2000
 90
        0
280
     1
281
     0
  0
CLASS
  1
ACDBPLACEHOLDER
  2
AcDbPlaceHolder
  3
AutoCAD 2000
 90
        0
280
     1
281
     0
  0
CLASS
  1
LAYOUT
  2
AcDbLayout
  3
AutoCAD 2000
 90
        0
280
     1
281
     0
  0
CLASS
  1
LONG_TRANSACTION
  2
AcDbLongTransaction
  3
AutoCAD 2000
 90
        0
280
     1
281
     0
  0
CLASS
  1
LWPOLYLINE
  2
AcDbPolyline
  3
"AutoCAD"
 90
        0
280
     1
281
     1
  0
CLASS
  1
HATCH
  2
AcDbHatch
  3
"ACAD_SEDONA"
 90
        0
280
     1
281
     1
  0
CLASS
  1
XRECORD
  2
AcDbXrecord
  3
"<Built In>"
 90
        0
280
     0
281
     0
  0
CLASS
  1
LONG_TRANSACTION
  2
AcDbLongTransaction
  3
AutoCAD 2000
 90
        0
280
     1
281
     0
  0
CLASS
  1
LWPOLYLINE
  2
AcDbPolyline
  3
"AutoCAD"
 90
        0
280
     1
281
     1
  0
CLASS
  1
HATCH
  2
AcDbHatch
  3
"ACAD_SEDONA"
 90
        0
280
     1
281
     1
  0
CLASS
  1
XRECORD
  2
AcDbXrecord
  3
"<Built In>"
 90
        0
280
     0
281
     0
  0
CLASS
  1
LONG_TRANSACTION
  2
AcDbLongTransaction
  3
AutoCAD 2000
 90
        0
280
     1
281
     0
  0
CLASS
  1
LWPOLYLINE
  2
AcDbPolyline
  3
"AutoCAD"
 90
        0
280
     1
281
     1
  0
CLASS
  1
HATCH
  2
AcDbHatch
  3
"ACAD_SEDONA"
 90
        0
280
     1
281
     1
  0
CLASS
  1
XRECORD
  2
AcDbXrecord
  3
"<Built In>"
 90
        0
280
     0
281
     0
  0
CLASS
  1
DICTIONARYVAR
  2
AcDbDictionaryVar
  3
"AutoCAD"
 90
        0
280
     0
281
     0
  0
CLASS
  1
LONG_TRANSACTION
  2
AcDbLongTransaction
  3
AutoCAD 2000
 90
        0
280
     0
281
     0
  0
CLASS
  1
LWPOLYLINE
  2
AcDbPolyline
  3
"AutoCAD"
 90
        0
280
     0
281
     1
  0
CLASS
  1
HATCH
  2
AcDbHatch
  3
"ACAD_SEDONA"
 90
        0
280
     0
281
     1
  0
CLASS
  1
XRECORD
  2
AcDbXrecord
  3
"<Built In>"
 90
        0
280
     0
281
     0
  0
CLASS
  1
LONG_TRANSACTION
  2
AcDbLongTransaction
  3
AutoCAD 2000
 90
        0
280
     0
281
     0
  0
CLASS
  1
LWPOLYLINE
  2
AcDbPolyline
  3
"AutoCAD"
 90
        0
280
     0
281
     1
  0
CLASS
  1
HATCH
  2
AcDbHatch
  3
"ACAD_SEDONA"
 90
        0
280
     0
281
     1
  0
CLASS
  1
XRECORD
  2
AcDbXrecord
  3
"<Built In>"
 90
        0
280
     0
281
     0
  0
ENDSEC
  0
SECTION
  2
TABLES
  0
TABLE
  2
VPORT
  5
9E
100
AcDbSymbolTable
 70
     1
  0
VPORT
  5
BA
100
AcDbSymbolTableRecord
100
AcDbViewportTableRecord
  2
*ACTIVE
 70
     0
 10
0.0
 20
0.0
 11
1.0
 21
1.0
 12
9.39474458418682
 22
10.9962043101836
 13
0.0
 23
0.0
 14
0.5
 24
0.5
 15
0.5
 25
0.5
 16
0.0
 26
0.0
 36
1.0
 17
0.0
 27
0.0
 37
0.0
 40
22.14918439707337
 41
1.457627118644067
 42
50.0
 43
0.0
 44
0.0
 50
0.0
 51
0.0
 71
     0
 72
   100
 73
     1
 74
     3
 75
     0
 76
     0
 77
     0
 78
     0
  0
ENDTAB
  0
TABLE
  2
LTYPE
  5
97
100
AcDbSymbolTable
 70
     2
  0
LTYPE
  5
98
102
{ACAD_XDICTIONARY
360
99
102
}
100
AcDbSymbolTableRecord
100
AcDbLinetypeTableRecord
  2
BYBLOCK
 70
     0
  3

 72
    65
 73
     0
 40
0.0
  0
LTYPE
  5
9A
102
{ACAD_XDICTIONARY
360
9B
102
}
100
AcDbSymbolTableRecord
100
AcDbLinetypeTableRecord
  2
BYLAYER
 70
     0
  3

 72
    65
 73
     0
 40
0.0
  0
LTYPE
  5
5
102
{ACAD_XDICTIONARY
360
6
102
}
100
AcDbSymbolTableRecord
100
AcDbLinetypeTableRecord
  2
CONTINUOUS
 70
     0
  3
Solid line
 72
    65
 73
     0
 40
0.0
  0
LTYPE
  5
4E
100
AcDbSymbolTableRecord
100
AcDbLinetypeTableRecord
  2
HIDDEN
 70
     0
  3
Hidden __ __ __ __ __ __ __ __ __ __ __ __ __ _
 72
    65
 73
     2
 40
0.375
 49
0.25
 74
     0
 49
-0.125
 74
     0
  0
ENDTAB
  0
TABLE
  2
LAYER
  5
95
100
AcDbSymbolTable
 70
     5
  0
LAYER
  5
46
100
AcDbSymbolTableRecord
100
AcDbLayerTableRecord
  2
0
 70
     0
 62
     7
  6
CONTINUOUS
  0
LAYER
  5
D
100
AcDbSymbolTableRecord
100
AcDbLayerTableRecord
  2
USP-GEO
 70
     0
 62
     7
  6
CONTINUOUS
  0
LAYER
  5
9
100
AcDbSymbolTableRecord
100
AcDbLayerTableRecord
  2
USP-TXT
 70
     0
 62
     7
  6
CONTINUOUS
  0
LAYER
  5
4D
100
AcDbSymbolTableRecord
100
AcDbLayerTableRecord
  2
USP-HID
 70
     0
 62
     7
  6
HIDDEN
  0
LAYER
  5
4
100
AcDbSymbolTableRecord
100
AcDbLayerTableRecord
  2
USP
 70
     0
 62
     7
  6
CONTINUOUS
  0
ENDTAB
  0
TABLE
  2
STYLE
  5
96
100
AcDbSymbolTable
 70
     1
  0
STYLE
  5
A
102
{ACAD_XDICTIONARY
360
B
102
}
100
AcDbSymbolTableRecord
100
AcDbTextStyleTableRecord
  2
STANDARD
 70
     0
 40
0.0
 41
1.0
 50
0.0
 71
     0
 42
0.5
  3
txt
  4

  0
ENDTAB
  0
TABLE
  2
VIEW
  5
9C
100
AcDbSymbolTable
 70
     0
  0
ENDTAB
  0
TABLE
  2
UCS
  5
9D
100
AcDbSymbolTable
 70
     0
  0
ENDTAB
  0
TABLE
  2
APPID
  5
A0
100
AcDbSymbolTable
 70
     1
  0
APPID
  5
A1
100
AcDbSymbolTableRecord
100
AcDbRegAppTableRecord
  2
ACAD
 70
     0
  0
ENDTAB
  0
TABLE
  2
DIMSTYLE
  5
A2
100
AcDbSymbolTable
 70
     1
  0
DIMSTYLE
105
AB
102
{ACAD_XDICTIONARY
360
AC
102
}
100
AcDbSymbolTableRecord
100
AcDbDimStyleTableRecord
  2
STANDARD
 70
     0
  3

  4

  5

  6

  7

 40
1.0
 41
0.18
 42
0.0625
 43
0.38
 44
0.18
 45
0.0
 46
0.0
 47
0.0
 48
0.0
140
0.18
141
0.09
142
0.0
143
25.4
144
1.0
145
0.0
146
1.0
147
0.09
 71
     0
 72
     0
 73
     1
 74
     1
 75
     0
 76
     0
 77
     0
 78
     0
170
     0
171
     2
172
     0
173
     0
174
     0
175
     0
176
     0
177
     0
178
     0
270
     2
271
     4
272
     4
273
     2
274
     2
340
A
275
     0
280
     0
281
     0
282
     0
283
     1
284
     0
285
     0
286
     0
287
     3
288
     0
  0
ENDTAB
  0
TABLE
  2
BLOCK_RECORD
  5
1
100
AcDbSymbolTable
 70
     2
  0
BLOCK_RECORD
  5
2
102
{ACAD_XDICTIONARY
360
8C
102
}
100
AcDbSymbolTableRecord
100
AcDbBlockTableRecord
  2
*MODEL_SPACE
  0
BLOCK_RECORD
  5
90
102
{ACAD_XDICTIONARY
360
91
102
}
100
AcDbSymbolTableRecord
100
AcDbBlockTableRecord
  2
*PAPER_SPACE
  0
BLOCK_RECORD
  5
7
100
AcDbSymbolTableRecord
100
AcDbBlockTableRecord
  2
HTW20_F
  0
BLOCK_RECORD
  5
49
100
AcDbSymbolTableRecord
100
AcDbBlockTableRecord
  2
HTW20_S
  0
ENDTAB
  0
ENDSEC
  0
SECTION
  2
BLOCKS
  0
BLOCK
  5
8E
100
AcDbEntity
  8
0
100
AcDbBlockBegin
  2
*MODEL_SPACE
 70
     0
 10
0.0
 20
0.0
 30
0.0
  3
*MODEL_SPACE
  1

  0
ENDBLK
  5
8F
100
AcDbEntity
  8
0
100
AcDbBlockEnd
  0
BLOCK
  5
93
100
AcDbEntity
 67
     1
  8
0
100
AcDbBlockBegin
  2
*PAPER_SPACE
 70
     0
 10
0.0
 20
0.0
 30
0.0
  3
*PAPER_SPACE
  1

  0
ENDBLK
  5
94
100
AcDbEntity
 67
     1
  8
0
100
AcDbBlockEnd
  0
BLOCK
  5
45
100
AcDbEntity
  8
0
100
AcDbBlockBegin
  2
HTW20_F
 70
     0
 10
0.0
 20
0.0
 30
0.0
  3
HTW20_F
  1

  0
TEXT
  5
8
100
AcDbEntity
  8
USP-TXT
100
AcDbText
 10
-3.916666666666628
 20
-1.46146495728805
 30
0.0
 40
0.5
  1
HTW20 - FRONT VIEW
 72
     1
 11
0.6250000000000382
 21
-1.46146495728805
 31
0.0
100
AcDbText
  0
LINE
  5
C
100
AcDbEntity
  8
USP-GEO
100
AcDbLine
 10
0.0091205225925313
 20
7.220333881333026
 30
-0.0000000000000009
 11
1.391053610173599
 21
12.1952929966249
 31
-0.0000000000000015
210
1.0
220
-0.0000000000000002
230
0.0
  0
LINE
  5
E
100
AcDbEntity
  8
USP-GEO
100
AcDbLine
 10
1.480950000000039
 20
7.824699999999818
 30
-0.000000000000001
 11
1.480950000000039
 21
12.77966611866686
 31
-0.0000000000000016
210
1.0
220
-0.0000000000000002
230
0.0
  0
LINE
  5
F
100
AcDbEntity
  8
USP-GEO
100
AcDbLine
 10
1.406250000000039
 20
12.77966611866686
 30
-0.0000000000000016
 11
1.406250000000039
 21
7.759810763742137
 31
-0.000000000000001
210
1.0
220
-0.0000000000000002
230
0.0
  0
LINE
  5
10
100
AcDbEntity
  8
USP-GEO
100
AcDbLine
 10
1.250000000000038
 20
4.900000000000041
 30
-0.0000000000000006
 11
1.249999999999991
 21
0.1767766952966276
 31
0.0
210
1.0
220
-0.0000000000000002
230
0.0
  0
LINE
  5
11
100
AcDbEntity
  8
USP-GEO
100
AcDbLine
 10
0.0
 20
0.1767766952966419
 30
0.0
 11
0.0000000000000098
 21
4.900000000000041
 31
-0.0000000000000006
210
1.0
220
-0.0000000000000002
230
0.0
  0
LINE
  5
12
100
AcDbEntity
  8
USP-GEO
100
AcDbLine
 10
1.249999999999991
 20
0.1767766952966276
 30
0.0
 11
1.0732233047034
 21
0.0000000000000071
 31
0.0
210
1.0
220
-0.0000000000000002
230
0.0
  0
LINE
  5
13
100
AcDbEntity
  8
USP-GEO
100
AcDbLine
 10
0.1767766952966756
 20
0.0000000000000036
 30
0.0
 11
0.0000000000000089
 21
0.1767766952966419
 31
0.0
210
1.0
220
-0.0000000000000002
230
0.0
  0
LINE
  5
14
100
AcDbEntity
  8
USP-GEO
100
AcDbLine
 10
1.0732233047034
 20
0.0
 30
0.0
 11
0.1767766952966756
 21
0.0
 31
0.0
210
1.0
220
-0.0000000000000002
230
0.0
  0
CIRCLE
  5
15
100
AcDbEntity
  8
USP-GEO
100
AcDbCircle
 10
0.2500000000000107
 20
0.3125000000000053
 30
0.0
 40
0.078
  0
CIRCLE
  5
16
100
AcDbEntity
  8
USP-GEO
100
AcDbCircle
 10
0.6250000000000089
 20
0.5000000000000054
 30
-0.0000000000000001
 40
0.15625
  0
CIRCLE
  5
17
100
AcDbEntity
  8
USP-GEO
100
AcDbCircle
 10
1.000000000000008
 20
0.6875000000000018
 30
-0.0000000000000001
 40
0.078
  0
CIRCLE
  5
18
100
AcDbEntity
  8
USP-GEO
100
AcDbCircle
 10
0.8750000000000088
 20
1.687500000000001
 30
-0.0000000000000002
 40
0.078
  0
CIRCLE
  5
19
100
AcDbEntity
  8
USP-GEO
100
AcDbCircle
 10
0.3750000000000089
 20
1.312500000000001
 30
-0.0000000000000002
 40
0.078
  0
CIRCLE
  5
1A
100
AcDbEntity
  8
USP-GEO
100
AcDbCircle
 10
0.2500000000000107
 20
2.312500000000001
 30
-0.0000000000000003
 40
0.078
  0
CIRCLE
  5
1B
100
AcDbEntity
  8
USP-GEO
100
AcDbCircle
 10
1.00000000000001
 20
2.687500000000001
 30
-0.0000000000000003
 40
0.078
  0
CIRCLE
  5
1C
100
AcDbEntity
  8
USP-GEO
100
AcDbCircle
 10
0.3750000000000098
 20
3.312500000000002
 30
-0.0000000000000004
 40
0.078
  0
CIRCLE
  5
1D
100
AcDbEntity
  8
USP-GEO
100
AcDbCircle
 10
0.8750000000000097
 20
3.687500000000002
 30
-0.0000000000000005
 40
0.078
  0
LINE
  5
1E
100
AcDbEntity
  8
USP-GEO
100
AcDbLine
 10
1.250000000000039
 20
7.153422915386364
 30
-0.0000000000000009
 11
1.250000000000038
 21
5.100000000000026
 31
-0.0000000000000006
210
1.0
220
-0.0000000000000002
230
0.0
  0
LINE
  5
1F
100
AcDbEntity
  8
USP-GEO
100
AcDbLine
 10
0.0000000000000098
 20
5.100000000000029
 30
-0.0000000000000006
 11
0.0000000000000098
 21
7.153422915386506
 31
-0.0000000000000009
210
1.0
220
-0.0000000000000002
230
0.0
  0
ARC
  5
20
100
AcDbEntity
  8
USP-GEO
100
AcDbCircle
 10
1.250000000000007
 20
4.962500000000036
 30
-0.0000000000000006
 40
0.0625
100
AcDbArc
 50
180.0
 51
270.0000000000268
  0
ARC
  5
21
100
AcDbEntity
  8
USP-GEO
100
AcDbCircle
 10
1.250000000000009
 20
5.037500000000025
 30
-0.0000000000000006
 40
0.0625
100
AcDbArc
 50
89.99999999997312
 51
180.0000000000016
  0
CIRCLE
  5
22
100
AcDbEntity
  8
USP-GEO
100
AcDbCircle
 10
0.2500000000000115
 20
4.312500000000006
 30
-0.0000000000000005
 40
0.078
  0
CIRCLE
  5
23
100
AcDbEntity
  8
USP-GEO
100
AcDbCircle
 10
1.000000000000009
 20
4.687500000000006
 30
-0.0000000000000006
 40
0.078
  0
ARC
  5
24
100
AcDbEntity
  8
USP-GEO
100
AcDbCircle
 10
0.0000000000000098
 20
4.96250000000004
 30
-0.0000000000000006
 40
0.0625
100
AcDbArc
 50
270.0
 51
0.0
  0
ARC
  5
25
100
AcDbEntity
  8
USP-GEO
100
AcDbCircle
 10
0.0000000000000098
 20
5.037500000000028
 30
-0.0000000000000006
 40
0.0625
100
AcDbArc
 50
359.9999999999983
 51
90.00000000000081
  0
LINE
  5
26
100
AcDbEntity
  8
USP-GEO
100
AcDbLine
 10
0.0625000000000098
 20
4.962500000000041
 30
-0.0000000000000006
 11
0.0625000000000098
 21
5.037500000000029
 31
-0.0000000000000006
210
1.0
220
-0.0000000000000002
230
0.0
  0
LINE
  5
27
100
AcDbEntity
  8
USP-GEO
100
AcDbLine
 10
1.187500000000009
 20
5.037500000000022
 30
-0.0000000000000006
 11
1.187500000000009
 21
4.962500000000037
 31
-0.0000000000000006
210
1.0
220
-0.0000000000000002
230
0.0
  0
CIRCLE
  5
28
100
AcDbEntity
  8
USP-GEO
100
AcDbCircle
 10
0.7500000000000098
 20
5.312500000000002
 30
-0.0000000000000007
 40
0.078
  0
CIRCLE
  5
29
100
AcDbEntity
  8
USP-GEO
100
AcDbCircle
 10
0.5000000000000098
 20
6.312500000000006
 30
-0.0000000000000008
 40
0.078
  0
ARC
  5
2A
100
AcDbEntity
  8
USP-GEO
100
AcDbCircle
 10
0.2500000000000098
 20
7.153422915386506
 30
-0.0000000000000009
 40
0.2500000000000001
100
AcDbArc
 50
164.4758890032464
 51
179.9999999999996
  0
LINE
  5
2B
100
AcDbEntity
  8
USP-GEO
100
AcDbLine
 10
1.394585284366288
 20
7.708007023718316
 30
-0.0000000000000009
 11
1.259120522592553
 21
7.220333881332891
 31
-0.0000000000000009
210
1.0
220
-0.0000000000000002
230
0.0
  0
ARC
  5
2C
100
AcDbEntity
  8
USP-GEO
100
AcDbCircle
 10
1.500000000000038
 20
7.153422915386363
 30
-0.0000000000000009
 40
0.2500000000000001
100
AcDbArc
 50
164.475889003245
 51
179.9999999999987
  0
ARC
  5
2D
100
AcDbEntity
  8
USP-GEO
100
AcDbCircle
 10
1.466560072215644
 20
7.688014027093492
 30
-0.0000000000000009
 40
0.0747
100
AcDbArc
 50
136.0929490550484
 51
164.4758890032436
  0
LINE
  5
2E
100
AcDbEntity
  8
USP-GEO
100
AcDbLine
 10
1.406250000000042
 20
7.759810763742137
 30
-0.000000000000001
 11
1.406250000000042
 21
7.739817767117315
 31
-0.0000000000000009
210
1.0
220
-0.0000000000000002
230
0.0
  0
ARC
  5
2F
100
AcDbEntity
  8
USP-GEO
100
AcDbCircle
 10
1.406250000000039
 20
7.82469999999982
 30
-0.000000000000001
 40
0.0747000000000001
100
AcDbArc
 50
299.6961881942792
 51
359.9999999999977
  0
SPLINE
  5
30
100
AcDbEntity
  8
USP-GEO
100
AcDbSpline
210
0.0
220
0.0000000000000001
230
1.0
 70
     8
 71
     3
 72
    10
 73
     6
 74
     0
 42
0.0000001
 43
0.0000001
 40
0.0301186737396681
 40
0.0301186737396681
 40
0.0301186737396681
 40
0.0301186737396681
 40
0.0316047516749921
 40
0.0316047516749921
 40
0.0375374349404558
 40
0.0375374349404558
 40
0.0375374349404558
 40
0.0375374349404558
 10
1.436405036437285
 20
7.756357013692017
 30
-0.0000000000000009
 10
1.436875766453168
 20
7.756564714314251
 30
-0.0000000000000009
 10
1.437344081888916
 20
7.756777159810674
 30
-0.0000000000000009
 10
1.43966914881547
 20
7.757860951993471
 30
-0.000000000000001
 10
1.441487982274997
 20
7.758802205980806
 30
-0.000000000000001
 10
1.443256445626374
 20
7.759810763742137
 30
-0.000000000000001
  0
SPLINE
  5
31
100
AcDbEntity
  8
USP-GEO
100
AcDbSpline
210
0.0
220
-0.0000000000000001
230
-1.0
 70
     8
 71
     3
 72
    12
 73
     8
 74
     0
 42
0.0000001
 43
0.0000001
 40
-0.0591191147543245
 40
-0.0591191147543245
 40
-0.0591191147543245
 40
-0.0591191147543245
 40
-0.0565805192480251
 40
-0.0565805192480251
 40
-0.03772034616535
 40
-0.03772034616535
 40
-0.0305817769151522
 40
-0.0305817769151522
 40
-0.0305817769151522
 40
-0.0305817769151522
 10
1.412741278848045
 20
7.739817767117315
 30
-0.0000000000000009
 10
1.413334448469866
 20
7.74043400975335
 30
-0.0000000000000009
 10
1.4139388680841
 20
7.741040749232027
 30
-0.0000000000000009
 10
1.419125336130486
 20
7.746070791050296
 30
-0.0000000000000009
 10
1.424302368381592
 20
7.749945679049048
 30
-0.0000000000000009
 10
1.43200668191724
 20
7.754286558162903
 30
-0.0000000000000009
 10
1.434181899108626
 20
7.755376096863201
 30
-0.0000000000000009
 10
1.436405036437285
 20
7.756357013692017
 30
-0.0000000000000009
  0
LINE
  5
32
100
AcDbEntity
  8
USP-GEO
100
AcDbLine
 10
1.40625000000004
 20
19.82322330470339
 30
-0.0000000000000024
 11
1.406250000000039
 21
15.09999999999997
 31
-0.0000000000000018
210
1.0
220
-0.0000000000000002
230
0.0
  0
LINE
  5
33
100
AcDbEntity
  8
USP-GEO
100
AcDbLine
 10
1.48095000000004
 20
19.82322330470339
 30
-0.0000000000000024
 11
1.480950000000039
 21
15.09999999999997
 31
-0.0000000000000018
210
1.0
220
-0.0000000000000002
230
0.0
  0
LINE
  5
34
100
AcDbEntity
  8
USP-GEO
100
AcDbLine
 10
1.406250000000039
 20
14.89999999999998
 30
-0.0000000000000018
 11
1.406250000000039
 21
12.84657708461339
 31
-0.0000000000000016
210
1.0
220
-0.0000000000000002
230
0.0
  0
LINE
  5
35
100
AcDbEntity
  8
USP-GEO
100
AcDbLine
 10
1.480950000000039
 20
14.89999999999998
 30
-0.0000000000000018
 11
1.480950000000039
 21
12.84657708461339
 31
-0.0000000000000016
210
1.0
220
-0.0000000000000002
230
0.0
  0
ARC
  5
36
100
AcDbEntity
  8
USP-GEO
100
AcDbCircle
 10
1.463028398022949
 20
12.17530000000008
 30
-0.0000000000000015
 40
0.0747
100
AcDbArc
 50
139.4717491471409
 51
164.4758890032465
  0
LINE
  5
37
100
AcDbEntity
  8
USP-GEO
100
AcDbLine
 10
1.40625000000004
 20
12.84657708461339
 30
-0.0000000000000016
 11
1.40625000000004
 21
12.77966611866685
 31
-0.0000000000000016
210
1.0
220
-0.0000000000000002
230
0.0
  0
LINE
  5
38
100
AcDbEntity
  8
USP-GEO
100
AcDbLine
 10
1.480950000000039
 20
12.84657708461339
 30
-0.0000000000000016
 11
1.480950000000039
 21
12.77966611866685
 31
-0.0000000000000016
210
1.0
220
-0.0000000000000002
230
0.0
  0
LINE
  5
39
100
AcDbEntity
  8
USP-GEO
100
AcDbLine
 10
1.406250000000039
 20
15.03749999999997
 30
-0.0000000000000018
 11
1.406250000000039
 21
14.96249999999998
 31
-0.0000000000000018
210
1.0
220
-0.0000000000000002
230
0.0
  0
LINE
  5
3A
100
AcDbEntity
  8
USP-GEO
100
AcDbLine
 10
1.480950000000039
 20
14.96249999999998
 30
-0.0000000000000018
 11
1.480950000000039
 21
15.03749999999997
 31
-0.0000000000000018
210
1.0
220
-0.0000000000000002
230
0.0
  0
LINE
  5
3B
100
AcDbEntity
  8
USP-GEO
100
AcDbLine
 10
1.480950000000039
 20
14.89999999999998
 30
-0.0000000000000018
 11
1.406250000000039
 21
14.89999999999998
 31
-0.0000000000000018
210
1.0
220
-0.0000000000000002
230
0.0
  0
LINE
  5
3C
100
AcDbEntity
  8
USP-GEO
100
AcDbLine
 10
1.406250000000039
 20
14.96249999999998
 30
-0.0000000000000018
 11
1.406250000000039
 21
14.89999999999998
 31
-0.0000000000000018
210
1.0
220
-0.0000000000000002
230
0.0
  0
LINE
  5
3D
100
AcDbEntity
  8
USP-GEO
100
AcDbLine
 10
1.480950000000039
 20
14.89999999999998
 30
-0.0000000000000018
 11
1.480950000000039
 21
14.96249999999998
 31
-0.0000000000000018
210
1.0
220
-0.0000000000000002
230
0.0
  0
LINE
  5
3E
100
AcDbEntity
  8
USP-GEO
100
AcDbLine
 10
1.480950000000039
 20
15.09999999999997
 30
-0.0000000000000018
 11
1.406250000000039
 21
15.09999999999997
 31
-0.0000000000000018
210
1.0
220
-0.0000000000000002
230
0.0
  0
LINE
  5
3F
100
AcDbEntity
  8
USP-GEO
100
AcDbLine
 10
1.406250000000039
 20
15.09999999999997
 30
-0.0000000000000018
 11
1.406250000000039
 21
15.03749999999997
 31
-0.0000000000000018
210
1.0
220
-0.0000000000000002
230
0.0
  0
LINE
  5
40
100
AcDbEntity
  8
USP-GEO
100
AcDbLine
 10
1.480950000000039
 20
15.03749999999997
 30
-0.0000000000000018
 11
1.480950000000039
 21
15.09999999999997
 31
-0.0000000000000018
210
1.0
220
-0.0000000000000002
230
0.0
  0
LINE
  5
41
100
AcDbEntity
  8
USP-GEO
100
AcDbLine
 10
1.40625000000004
 20
20.0
 30
-0.0000000000000024
 11
1.40625000000004
 21
19.82322330470339
 31
-0.0000000000000024
210
1.0
220
-0.0000000000000002
230
0.0
  0
LINE
  5
42
100
AcDbEntity
  8
USP-GEO
100
AcDbLine
 10
1.48095000000004
 20
19.82322330470339
 30
-0.0000000000000024
 11
1.48095000000004
 21
20.0
 31
-0.0000000000000024
210
1.0
220
-0.0000000000000002
230
0.0
  0
LINE
  5
43
100
AcDbEntity
  8
USP-GEO
100
AcDbLine
 10
1.48095000000004
 20
19.82322330470339
 30
-0.0000000000000024
 11
1.40625000000004
 21
19.82322330470339
 31
-0.0000000000000024
210
1.0
220
-0.0000000000000002
230
0.0
  0
LINE
  5
44
100
AcDbEntity
  8
USP-GEO
100
AcDbLine
 10
1.48095000000004
 20
20.0
 30
-0.0000000000000024
 11
1.40625000000004
 21
20.0
 31
-0.0000000000000024
210
1.0
220
-0.0000000000000002
230
0.0
  0
ENDBLK
  5
47
100
AcDbEntity
  8
0
100
AcDbBlockEnd
  0
BLOCK
  5
8A
100
AcDbEntity
  8
0
100
AcDbBlockBegin
  2
HTW20_S
 70
     0
 10
0.0
 20
0.0
 30
0.0
  3
HTW20_S
  1

  0
LINE
  5
4A
100
AcDbEntity
  8
USP-GEO
100
AcDbLine
 10
1.471829477407483
 20
7.732091064079986
 30
0.0
 11
1.471829477407483
 21
12.22384177085727
 31
0.0
  0
LINE
  5
4B
100
AcDbEntity
  8
USP-GEO
100
AcDbLine
 10
1.376379477407484
 20
7.824699999999817
 30
0.0
 11
0.0000000000000071
 21
12.77966611866685
 31
0.0
  0
LINE
  5
4C
100
AcDbEntity
  8
USP-HID
100
AcDbLine
 10
1.39712947740748
 20
7.708007023718314
 30
0.0
 11
1.39712947740748
 21
12.25000000000008
 31
0.0
  0
LINE
  5
4F
100
AcDbEntity
  8
USP-GEO
100
AcDbLine
 10
1.471829477407476
 20
4.900000000000039
 30
0.0
 11
1.471829477407476
 21
0.1767766952966205
 31
0.0
  0
LINE
  5
50
100
AcDbEntity
  8
USP-GEO
100
AcDbLine
 10
1.397129477407476
 20
4.900000000000039
 30
0.0
 11
1.397129477407476
 21
0.1767766952966241
 31
0.0
  0
TEXT
  5
51
100
AcDbEntity
  8
USP-TXT
100
AcDbText
 10
-3.592453855925851
 20
-1.46146495728805
 30
0.0
 40
0.5
  1
HTW20 - SIDE VIEW
 72
     1
 11
0.6158794774074839
 21
-1.46146495728805
 31
0.0
100
AcDbText
  0
LINE
  5
52
100
AcDbEntity
  8
USP-GEO
100
AcDbLine
 10
1.471829477407483
 20
0.1767766952966205
 30
0.0
 11
1.471829477407483
 21
0.0
 31
0.0
  0
LINE
  5
53
100
AcDbEntity
  8
USP-GEO
100
AcDbLine
 10
1.397129477407483
 20
0.1767766952966241
 30
0.0
 11
1.397129477407483
 21
0.0000000000000036
 31
0.0
  0
LINE
  5
54
100
AcDbEntity
  8
USP-GEO
100
AcDbLine
 10
1.471829477407476
 20
0.0
 30
0.0
 11
1.397129477407476
 21
0.0
 31
0.0
  0
LINE
  5
55
100
AcDbEntity
  8
USP-GEO
100
AcDbLine
 10
1.471829477407483
 20
0.1767766952966205
 30
0.0
 11
1.397129477407483
 21
0.1767766952966205
 31
0.0
  0
LINE
  5
56
100
AcDbEntity
  8
USP-GEO
100
AcDbLine
 10
1.471829477407483
 20
7.153422915386363
 30
0.0
 11
1.471829477407483
 21
5.100000000000028
 31
0.0
  0
LINE
  5
57
100
AcDbEntity
  8
USP-GEO
100
AcDbLine
 10
1.39712947740748
 20
7.153422915386363
 30
0.0
 11
1.397129477407476
 21
5.100000000000024
 31
0.0
  0
LINE
  5
58
100
AcDbEntity
  8
USP-GEO
100
AcDbLine
 10
1.471829477407483
 20
5.037500000000028
 30
0.0
 11
1.471829477407483
 21
4.962500000000035
 31
0.0
  0
LINE
  5
59
100
AcDbEntity
  8
USP-GEO
100
AcDbLine
 10
1.397129477407476
 20
5.03750000000002
 30
0.0
 11
1.397129477407476
 21
4.962500000000035
 31
0.0
  0
LINE
  5
5A
100
AcDbEntity
  8
USP-GEO
100
AcDbLine
 10
1.471829477407476
 20
4.900000000000039
 30
0.0
 11
1.397129477407476
 21
4.900000000000039
 31
0.0
  0
LINE
  5
5B
100
AcDbEntity
  8
USP-GEO
100
AcDbLine
 10
1.471829477407476
 20
4.900000000000039
 30
0.0
 11
1.471829477407476
 21
4.962500000000035
 31
0.0
  0
LINE
  5
5C
100
AcDbEntity
  8
USP-GEO
100
AcDbLine
 10
1.397129477407476
 20
4.962500000000035
 30
0.0
 11
1.397129477407476
 21
4.900000000000035
 31
0.0
  0
LINE
  5
5D
100
AcDbEntity
  8
USP-GEO
100
AcDbLine
 10
1.471829477407483
 20
5.037500000000028
 30
0.0
 11
1.471829477407483
 21
5.100000000000028
 31
0.0
  0
LINE
  5
5E
100
AcDbEntity
  8
USP-GEO
100
AcDbLine
 10
1.397129477407476
 20
5.100000000000024
 30
0.0
 11
1.397129477407476
 21
5.03750000000002
 31
0.0
  0
LINE
  5
5F
100
AcDbEntity
  8
USP-GEO
100
AcDbLine
 10
1.471829477407476
 20
5.100000000000028
 30
0.0
 11
1.397129477407476
 21
5.100000000000028
 31
0.0
  0
LINE
  5
60
100
AcDbEntity
  8
USP-GEO
100
AcDbLine
 10
1.471829477407483
 20
7.220333881332889
 30
0.0
 11
1.471829477407483
 21
7.708007023718314
 31
0.0
  0
LINE
  5
61
100
AcDbEntity
  8
USP-GEO
100
AcDbLine
 10
1.39712947740748
 20
7.708007023718314
 30
0.0
 11
1.39712947740748
 21
7.220333881332889
 31
0.0
  0
LINE
  5
62
100
AcDbEntity
  8
USP-GEO
100
AcDbLine
 10
1.471829477407483
 20
7.153422915386363
 30
0.0
 11
1.471829477407483
 21
7.220333881332889
 31
0.0
  0
LINE
  5
63
100
AcDbEntity
  8
USP-GEO
100
AcDbLine
 10
1.39712947740748
 20
7.220333881332889
 30
0.0
 11
1.39712947740748
 21
7.153422915386363
 31
0.0
  0
LINE
  5
64
100
AcDbEntity
  8
USP-GEO
100
AcDbLine
 10
1.471829477407483
 20
7.708007023718314
 30
0.0
 11
1.471829477407483
 21
7.732091064079986
 31
0.0
  0
LINE
  5
65
100
AcDbEntity
  8
USP-GEO
100
AcDbLine
 10
1.397129477407483
 20
7.739817767117314
 30
0.0
 11
1.397129477407483
 21
7.708007023718314
 31
0.0
  0
SPLINE
  5
66
100
AcDbEntity
  8
USP-GEO
100
AcDbSpline
210
0.0
220
0.0
230
1.0
 70
     8
 71
     3
 72
    12
 73
     8
 74
     0
 42
0.0000001
 43
0.0000001
 40
-0.0591191147543245
 40
-0.0591191147543245
 40
-0.0591191147543245
 40
-0.0591191147543245
 40
-0.0565805192480251
 40
-0.0565805192480251
 40
-0.03772034616535
 40
-0.03772034616535
 40
-0.0305817769151522
 40
-0.0305817769151522
 40
-0.0305817769151522
 40
-0.0305817769151522
 10
1.39712947740748
 20
7.739817767117314
 30
0.0
 10
1.39712947740748
 20
7.740434009753348
 30
0.0
 10
1.397121703432274
 20
7.741040749232025
 30
0.0
 10
1.39700039414467
 20
7.746070791050295
 30
0.0
 10
1.396508855509326
 20
7.749945679049046
 30
0.0
 10
1.395724847703762
 20
7.754286558162901
 30
0.0
 10
1.395498213359461
 20
7.7553760968632
 30
0.0
 10
1.395275502163409
 20
7.756357013692015
 30
0.0
  0
SPLINE
  5
67
100
AcDbEntity
  8
USP-GEO
100
AcDbSpline
210
-0.9696251005469004
220
-0.2445959206311781
230
0.0
 70
    24
 71
     3
 72
    10
 73
     6
 74
     0
 42
0.0000001
 43
0.0000001
 40
0.0301186737396681
 40
0.0301186737396681
 40
0.0301186737396681
 40
0.0301186737396681
 40
0.0316047516749921
 40
0.0316047516749921
 40
0.0375374349404558
 40
0.0375374349404558
 40
0.0375374349404558
 40
0.0375374349404558
 10
1.395275502163409
 20
7.756357013692015
 30
0.0
 10
1.395228345001212
 20
7.756564714314249
 30
0.0
 10
1.39517917623556
 20
7.756777159810672
 30
0.0
 10
1.394923110915533
 20
7.757860951993469
 30
0.0
 10
1.394684420190541
 20
7.758802205980805
 30
0.0
 10
1.394404265256833
 20
7.759810763742136
 30
0.0
  0
LINE
  5
68
100
AcDbEntity
  8
USP-GEO
100
AcDbLine
 10
1.376379477407484
 20
7.824699999999817
 30
0.0
 11
1.394404265256836
 21
7.759810763742136
 31
0.0
  0
LINE
  5
69
100
AcDbEntity
  8
USP-GEO
100
AcDbLine
 10
1.39712947740748
 20
7.82469999999982
 30
0.0
 11
1.465472463860644
 21
7.756357013546656
 31
0.0
  0
SPLINE
  5
6A
100
AcDbEntity
  8
USP-GEO
100
AcDbSpline
210
0.0
220
0.0
230
1.0
 70
     8
 71
     3
 72
    12
 73
     8
 74
     0
 42
0.0000001
 43
0.0000001
 40
0.2145724995325172
 40
0.2145724995325172
 40
0.2145724995325172
 40
0.2145724995325172
 40
0.2330163333701811
 40
0.2330163333701811
 40
0.2492396371822747
 40
0.2492396371822747
 40
0.2529710359814187
 40
0.2529710359814187
 40
0.2529710359814187
 40
0.2529710359814187
 10
1.47182947740748
 20
7.732091064079986
 30
0.0
 10
1.471829477407412
 20
7.737235023153422
 30
0.0
 10
1.471537683401637
 20
7.741827464545247
 30
0.0
 10
1.46999355441139
 20
7.749103654609241
 30
0.0
 10
1.468765122216792
 20
7.752273647544951
 30
0.0
 10
1.466440735227754
 20
7.755321108614301
 30
0.0
 10
1.465972608414118
 20
7.755856868993182
 30
0.0
 10
1.465472463860644
 20
7.75635701354666
 30
0.0
  0
LINE
  5
6B
100
AcDbEntity
  8
USP-GEO
100
AcDbLine
 10
1.240879477407483
 20
19.82322330470336
 30
0.0
 11
1.24087947740748
 21
15.09999999999997
 31
0.0
  0
LINE
  5
6C
100
AcDbEntity
  8
USP-GEO
100
AcDbLine
 10
-0.0091205225925162
 20
19.82322330470339
 30
0.0
 11
-0.0091205225925179
 21
15.09999999999997
 31
0.0
  0
CIRCLE
  5
6D
100
AcDbEntity
  8
USP-GEO
100
AcDbCircle
 10
0.4908794774074839
 20
13.6875
 30
0.0
 40
0.078
  0
LINE
  5
6E
100
AcDbEntity
  8
USP-GEO
100
AcDbLine
 10
-0.0091205225925179
 20
14.89999999999998
 30
0.0
 11
-0.0091205225925179
 21
12.84657708461339
 31
0.0
  0
ARC
  5
6F
100
AcDbEntity
  8
USP-GEO
100
AcDbCircle
 10
0.2408794774074821
 20
12.84657708461338
 30
0.0
 40
0.25
100
AcDbArc
 50
179.9999999999998
 51
195.5241109967572
  0
LINE
  5
70
100
AcDbEntity
  8
USP-GEO
100
AcDbLine
 10
0.0533794774074821
 20
14.96249999999998
 30
0.0
 11
0.0533794774074821
 21
15.03749999999997
 31
0.0
  0
ARC
  5
71
100
AcDbEntity
  8
USP-GEO
100
AcDbCircle
 10
-0.0091205225925179
 20
14.96249999999998
 30
0.0
 40
0.0625
100
AcDbArc
 50
269.9999999999996
 51
0.0
  0
ARC
  5
72
100
AcDbEntity
  8
USP-GEO
100
AcDbCircle
 10
-0.0091205225925144
 20
15.03749999999997
 30
0.0
 40
0.0625
100
AcDbArc
 50
0.0000000000007633
 51
90.00000000000161
  0
CIRCLE
  5
73
100
AcDbEntity
  8
USP-GEO
100
AcDbCircle
 10
0.2408794774074821
 20
15.6875
 30
0.0
 40
0.078
  0
LINE
  5
74
100
AcDbEntity
  8
USP-GEO
100
AcDbLine
 10
1.240879477407483
 20
14.89999999999998
 30
0.0
 11
1.240879477407483
 21
12.84657708461353
 31
0.0
  0
LINE
  5
75
100
AcDbEntity
  8
USP-GEO
100
AcDbLine
 10
1.249999999999998
 20
12.779666118667
 30
0.0
 11
1.397129477407483
 21
12.25000000000008
 31
0.0
  0
SPLINE
  5
76
100
AcDbEntity
  8
USP-GEO
100
AcDbSpline
210
0.0
220
0.0
230
1.0
 70
     8
 71
     3
 72
    16
 73
    12
 74
     0
 42
0.0000001
 43
0.0000001
 40
0.0517611895518878
 40
0.0517611895518878
 40
0.0517611895518878
 40
0.0517611895518878
 40
0.055359328037137
 40
0.055359328037137
 40
0.0738124373828493
 40
0.0738124373828493
 40
0.0903937530955462
 40
0.0903937530955462
 40
0.106975068808243
 40
0.106975068808243
 40
0.1216686007653523
 40
0.1216686007653523
 40
0.1216686007653523
 40
0.1216686007653523
 10
1.445671248264671
 20
12.25000000000008
 30
0.0
 10
1.446599788451687
 20
12.25000000000008
 30
0.0
 10
1.44750736437488
 20
12.24998758223464
 30
0.0
 10
1.452933484344606
 20
12.24981850316423
 30
0.0
 10
1.456883983447285
 20
12.24928704142185
 30
0.0
 10
1.463045623503491
 20
12.24707722268883
 30
0.0
 10
1.465599913172924
 20
12.24540053395891
 30
0.0
 10
1.469281567061416
 20
12.24061907764793
 30
0.0
 10
1.47042773190857
 20
12.23750210989164
 30
0.0
 10
1.471611173120324
 20
12.23111692181142
 30
0.0
 10
1.47182947740748
 20
12.22766752972977
 30
0.0
 10
1.47182947740748
 20
12.22384177085727
 30
0.0
  0
LINE
  5
77
100
AcDbEntity
  8
USP-GEO
100
AcDbLine
 10
1.445671248264671
 20
12.25000000000008
 30
0.0
 11
1.39712947740748
 21
12.25000000000008
 31
0.0
  0
ARC
  5
78
100
AcDbEntity
  8
USP-GEO
100
AcDbCircle
 10
1.490879477407483
 20
12.84657708461353
 30
0.0
 40
0.25
100
AcDbArc
 50
179.9999999999998
 51
195.5241109967549
  0
LINE
  5
79
100
AcDbEntity
  8
USP-GEO
100
AcDbLine
 10
1.178379477407483
 20
14.96249999999998
 30
0.0
 11
1.178379477407483
 21
15.03749999999997
 31
0.0
  0
CIRCLE
  5
7A
100
AcDbEntity
  8
USP-GEO
100
AcDbCircle
 10
0.7408794774074839
 20
14.6875
 30
0.0
 40
0.078
  0
ARC
  5
7B
100
AcDbEntity
  8
USP-GEO
100
AcDbCircle
 10
1.240879477407483
 20
14.96249999999998
 30
0.0
 40
0.0625
100
AcDbArc
 50
180.0
 51
270.0000000000008
  0
CIRCLE
  5
7C
100
AcDbEntity
  8
USP-GEO
100
AcDbCircle
 10
0.9908794774074838
 20
15.3125
 30
0.0
 40
0.078
  0
ARC
  5
7D
100
AcDbEntity
  8
USP-GEO
100
AcDbCircle
 10
1.240879477407483
 20
15.03749999999997
 30
0.0
 40
0.0625
100
AcDbArc
 50
90.0000000000004
 51
180.0
  0
CIRCLE
  5
7E
100
AcDbEntity
  8
USP-GEO
100
AcDbCircle
 10
0.8658794774074838
 20
16.3125
 30
0.0
 40
0.078
  0
LINE
  5
7F
100
AcDbEntity
  8
USP-GEO
100
AcDbLine
 10
1.064102782110845
 20
20.0
 30
0.0
 11
0.1676561727041221
 21
20.0
 31
0.0
  0
CIRCLE
  5
80
100
AcDbEntity
  8
USP-GEO
100
AcDbCircle
 10
0.6158794774074839
 20
19.5
 30
0.0
 40
0.15625
  0
CIRCLE
  5
81
100
AcDbEntity
  8
USP-GEO
100
AcDbCircle
 10
0.2408794774074821
 20
19.6875
 30
0.0
 40
0.078
  0
CIRCLE
  5
82
100
AcDbEntity
  8
USP-GEO
100
AcDbCircle
 10
0.3658794774074838
 20
16.6875
 30
0.0
 40
0.078
  0
CIRCLE
  5
83
100
AcDbEntity
  8
USP-GEO
100
AcDbCircle
 10
0.2408794774074821
 20
17.6875
 30
0.0
 40
0.078
  0
CIRCLE
  5
84
100
AcDbEntity
  8
USP-GEO
100
AcDbCircle
 10
0.3658794774074838
 20
18.6875
 30
0.0
 40
0.078
  0
LINE
  5
85
100
AcDbEntity
  8
USP-GEO
100
AcDbLine
 10
-0.0091205225925162
 20
19.82322330470339
 30
0.0
 11
0.1676561727041221
 21
20.0
 31
0.0
  0
CIRCLE
  5
86
100
AcDbEntity
  8
USP-GEO
100
AcDbCircle
 10
0.9908794774074838
 20
17.3125
 30
0.0
 40
0.078
  0
CIRCLE
  5
87
100
AcDbEntity
  8
USP-GEO
100
AcDbCircle
 10
0.8658794774074838
 20
18.3125
 30
0.0
 40
0.078
  0
CIRCLE
  5
88
100
AcDbEntity
  8
USP-GEO
100
AcDbCircle
 10
0.9908794774074838
 20
19.3125
 30
0.0
 40
0.078
  0
LINE
  5
89
100
AcDbEntity
  8
USP-GEO
100
AcDbLine
 10
1.240879477407483
 20
19.82322330470336
 30
0.0
 11
1.064102782110845
 21
20.0
 31
0.0
  0
ENDBLK
  5
8B
100
AcDbEntity
  8
0
100
AcDbBlockEnd
  0
ENDSEC
  0
SECTION
  2
ENTITIES
  0
INSERT
  5
3
100
AcDbEntity
  8
USP
100
AcDbBlockReference
  2
HTW20_F
 10
3.917240003098186
 20
1.462119893317101
 30
0.0000000000000023
  0
INSERT
  5
48
100
AcDbEntity
  8
USP
100
AcDbBlockReference
  2
HTW20_S
 10
13.96384268028155
 20
1.462119878924703
 30
0.0
  0
ENDSEC
  0
SECTION
  2
OBJECTS
  0
DICTIONARY
  5
A7
102
{ACAD_XDICTIONARY
360
A8
102
}
100
AcDbDictionary
  3
ACAD_GROUP
350
A4
  3
ACAD_MLINESTYLE
350
A5
  0
DICTIONARY
  5
99
100
AcDbDictionary
280
     1
  0
DICTIONARY
  5
9B
100
AcDbDictionary
280
     1
  0
DICTIONARY
  5
6
100
AcDbDictionary
280
     1
  0
DICTIONARY
  5
B
100
AcDbDictionary
280
     1
  0
DICTIONARY
  5
AC
100
AcDbDictionary
280
     1
  0
DICTIONARY
  5
8C
100
AcDbDictionary
280
     1
  3
ACAD_LAYOUTSELFREF
360
8D
  0
DICTIONARY
  5
91
100
AcDbDictionary
280
     1
  3
ACAD_LAYOUTSELFREF
360
92
  0
DICTIONARY
  5
A8
100
AcDbDictionary
280
     1
  3
ACAD_XREC_ROUNDTRIP
360
A9
  0
DICTIONARY
  5
A4
102
{ACAD_REACTORS
330
A7
102
}
100
AcDbDictionary
  0
DICTIONARY
  5
A5
102
{ACAD_XDICTIONARY
360
A6
102
}
102
{ACAD_REACTORS
330
A7
102
}
100
AcDbDictionary
  3
STANDARD
350
AA
  0
XRECORD
  5
8D
102
{ACAD_REACTORS
330
8C
102
}
100
AcDbXrecord
340
2
  0
XRECORD
  5
92
102
{ACAD_REACTORS
330
91
102
}
100
AcDbXrecord
340
92
  0
XRECORD
  5
A9
102
{ACAD_REACTORS
330
A8
102
}
100
AcDbXrecord
102
EXTNAMES
  1
ACDBVARIABLEDICTIONARY
  2
AcDbVariableDictionary
  0
DICTIONARY
  5
A6
100
AcDbDictionary
280
     1
  0
MLINESTYLE
  5
AA
102
{ACAD_REACTORS
330
A5
102
}
100
AcDbMlineStyle
  2
STANDARD
 70
     0
  3

 62
   256
 51
90.0
 52
90.0
 71
     2
 49
0.5
 62
   256
  6
BYLAYER
 49
-0.5
 62
   256
  6
BYLAYER
  0
ENDSEC
  0
EOF
