  0
SECTION
  2
HEADER
  9
$ACADVER
  1
AC1015
  9
$ACADMAINTVER
 70
    20
  9
$DWGCODEPAGE
  3
ANSI_1252
  9
$INSBASE
 10
0.0
 20
0.0
 30
0.0
  9
$EXTMIN
 10
0.4685941457000001
 20
0.138949292
 30
0.0
  9
$EXTMAX
 10
3.184862771799998
 20
3.855779660075948
 30
0.0
  9
$LIMMIN
 10
0.0
 20
0.0
  9
$LIMMAX
 10
0.0
 20
0.0
  9
$ORTHOMODE
 70
     0
  9
$REGENMODE
 70
     1
  9
$FILLMODE
 70
     1
  9
$QTEXTMODE
 70
     0
  9
$MIRRTEXT
 70
     1
  9
$LTSCALE
 40
1.0
  9
$ATTMODE
 70
     1
  9
$TEXTSIZE
 40
0.2
  9
$TRACEWID
 40
0.05
  9
$TEXTSTYLE
  7
Standard
  9
$CLAYER
  8
0
  9
$CELTYPE
  6
ByLayer
  9
$CECOLOR
 62
   256
  9
$CELTSCALE
 40
1.0
  9
$DISPSILH
 70
     0
  9
$DIMSCALE
 40
1.0
  9
$DIMASZ
 40
0.156
  9
$DIMEXO
 40
0.05
  9
$DIMDLI
 40
0.38
  9
$DIMRND
 40
0.0
  9
$DIMDLE
 40
0.0
  9
$DIMEXE
 40
0.125
  9
$DIMTP
 40
0.0
  9
$DIMTM
 40
0.0
  9
$DIMTXT
 40
0.125
  9
$DIMCEN
 40
0.09
  9
$DIMTSZ
 40
0.0
  9
$DIMTOL
 70
     0
  9
$DIMLIM
 70
     0
  9
$DIMTIH
 70
     1
  9
$DIMTOH
 70
     1
  9
$DIMSE1
 70
     0
  9
$DIMSE2
 70
     0
  9
$DIMTAD
 70
     0
  9
$DIMZIN
 70
     0
  9
$DIMBLK
  1

  9
$DIMASO
 70
     1
  9
$DIMSHO
 70
     1
  9
$DIMPOST
  1

  9
$DIMAPOST
  1

  9
$DIMALT
 70
     0
  9
$DIMALTD
 70
     2
  9
$DIMALTF
 40
25.4
  9
$DIMLFAC
 40
7.0
  9
$DIMTOFL
 70
     0
  9
$DIMTVP
 40
0.0
  9
$DIMTIX
 70
     0
  9
$DIMSOXD
 70
     0
  9
$DIMSAH
 70
     0
  9
$DIMBLK1
  1

  9
$DIMBLK2
  1

  9
$DIMSTYLE
  2
Standard
  9
$DIMCLRD
 70
     0
  9
$DIMCLRE
 70
     0
  9
$DIMCLRT
 70
     0
  9
$DIMTFAC
 40
1.0
  9
$DIMGAP
 40
0.06
  9
$DIMJUST
 70
     0
  9
$DIMSD1
 70
     0
  9
$DIMSD2
 70
     0
  9
$DIMTOLJ
 70
     1
  9
$DIMTZIN
 70
     0
  9
$DIMALTZ
 70
     0
  9
$DIMALTTZ
 70
     0
  9
$DIMUPT
 70
     0
  9
$DIMDEC
 70
     4
  9
$DIMTDEC
 70
     4
  9
$DIMALTU
 70
     2
  9
$DIMALTTD
 70
     2
  9
$DIMTXSTY
  7
Standard
  9
$DIMAUNIT
 70
     0
  9
$DIMADEC
 70
     0
  9
$DIMALTRND
 40
0.0
  9
$DIMAZIN
 70
     0
  9
$DIMDSEP
 70
    46
  9
$DIMATFIT
 70
     3
  9
$DIMFRAC
 70
     0
  9
$DIMLDRBLK
  1

  9
$DIMLUNIT
 70
     2
  9
$DIMLWD
 70
    -2
  9
$DIMLWE
 70
    -2
  9
$DIMTMOVE
 70
     0
  9
$LUNITS
 70
     2
  9
$LUPREC
 70
     4
  9
$SKETCHINC
 40
0.1
  9
$FILLETRAD
 40
0.5
  9
$AUNITS
 70
     0
  9
$AUPREC
 70
     0
  9
$MENU
  1
.
  9
$ELEVATION
 40
0.0
  9
$PELEVATION
 40
0.0
  9
$THICKNESS
 40
0.0
  9
$LIMCHECK
 70
     0
  9
$CHAMFERA
 40
0.5
  9
$CHAMFERB
 40
0.5
  9
$CHAMFERC
 40
1.0
  9
$CHAMFERD
 40
0.0
  9
$SKPOLY
 70
     0
  9
$TDCREATE
 40
2454755.637908345
  9
$TDUCREATE
 40
2454755.846241678
  9
$TDUPDATE
 40
2454763.444693310
  9
$TDUUPDATE
 40
2454763.653026644
  9
$TDINDWG
 40
0.0004439815
  9
$TDUSRTIMER
 40
0.0004437963
  9
$USRTIMER
 70
     1
  9
$ANGBASE
 50
0.0
  9
$ANGDIR
 70
     0
  9
$PDMODE
 70
     0
  9
$PDSIZE
 40
-1.0
  9
$PLINEWID
 40
0.0
  9
$SPLFRAME
 70
     0
  9
$SPLINETYPE
 70
     6
  9
$SPLINESEGS
 70
     8
  9
$HANDSEED
  5
31B
  9
$SURFTAB1
 70
     6
  9
$SURFTAB2
 70
     6
  9
$SURFTYPE
 70
     6
  9
$SURFU
 70
     6
  9
$SURFV
 70
     6
  9
$UCSBASE
  2

  9
$UCSNAME
  2

  9
$UCSORG
 10
0.0
 20
0.0
 30
0.0
  9
$UCSXDIR
 10
1.0
 20
0.0
 30
0.0
  9
$UCSYDIR
 10
0.0
 20
1.0
 30
0.0
  9
$UCSORTHOREF
  2

  9
$UCSORTHOVIEW
 70
     0
  9
$UCSORGTOP
 10
0.0
 20
0.0
 30
0.0
  9
$UCSORGBOTTOM
 10
0.0
 20
0.0
 30
0.0
  9
$UCSORGLEFT
 10
0.0
 20
0.0
 30
0.0
  9
$UCSORGRIGHT
 10
0.0
 20
0.0
 30
0.0
  9
$UCSORGFRONT
 10
0.0
 20
0.0
 30
0.0
  9
$UCSORGBACK
 10
0.0
 20
0.0
 30
0.0
  9
$PUCSBASE
  2

  9
$PUCSNAME
  2

  9
$PUCSORG
 10
0.0
 20
0.0
 30
0.0
  9
$PUCSXDIR
 10
1.0
 20
0.0
 30
0.0
  9
$PUCSYDIR
 10
0.0
 20
1.0
 30
0.0
  9
$PUCSORTHOREF
  2

  9
$PUCSORTHOVIEW
 70
     0
  9
$PUCSORGTOP
 10
0.0
 20
0.0
 30
0.0
  9
$PUCSORGBOTTOM
 10
0.0
 20
0.0
 30
0.0
  9
$PUCSORGLEFT
 10
0.0
 20
0.0
 30
0.0
  9
$PUCSORGRIGHT
 10
0.0
 20
0.0
 30
0.0
  9
$PUCSORGFRONT
 10
0.0
 20
0.0
 30
0.0
  9
$PUCSORGBACK
 10
0.0
 20
0.0
 30
0.0
  9
$USERI1
 70
     0
  9
$USERI2
 70
     0
  9
$USERI3
 70
     0
  9
$USERI4
 70
     0
  9
$USERI5
 70
     0
  9
$USERR1
 40
0.0
  9
$USERR2
 40
0.0
  9
$USERR3
 40
0.0
  9
$USERR4
 40
0.0
  9
$USERR5
 40
0.0
  9
$WORLDVIEW
 70
     1
  9
$SHADEDGE
 70
     3
  9
$SHADEDIF
 70
    70
  9
$TILEMODE
 70
     1
  9
$MAXACTVP
 70
    64
  9
$PINSBASE
 10
0.0
 20
0.0
 30
0.0
  9
$PLIMCHECK
 70
     0
  9
$PEXTMIN
 10
1.000000000000000E+20
 20
1.000000000000000E+20
 30
1.000000000000000E+20
  9
$PEXTMAX
 10
-1.000000000000000E+20
 20
-1.000000000000000E+20
 30
-1.000000000000000E+20
  9
$PLIMMIN
 10
0.0
 20
0.0
  9
$PLIMMAX
 10
12.0
 20
9.0
  9
$UNITMODE
 70
     0
  9
$VISRETAIN
 70
     1
  9
$PLINEGEN
 70
     0
  9
$PSLTSCALE
 70
     1
  9
$TREEDEPTH
 70
  3020
  9
$CMLSTYLE
  2
Standard
  9
$CMLJUST
 70
     0
  9
$CMLSCALE
 40
1.0
  9
$PROXYGRAPHICS
 70
     1
  9
$MEASUREMENT
 70
     0
  9
$CELWEIGHT
370
    -1
  9
$ENDCAPS
280
     0
  9
$JOINSTYLE
280
     0
  9
$LWDISPLAY
290
     1
  9
$INSUNITS
 70
     1
  9
$HYPERLINKBASE
  1

  9
$STYLESHEET
  1

  9
$XEDIT
290
     1
  9
$CEPSNTYPE
380
     0
  9
$PSTYLEMODE
290
     1
  9
$FINGERPRINTGUID
  2
{8257FDA7-E274-43D9-9061-24E56ECB3366}
  9
$VERSIONGUID
  2
{9F876480-16B7-4E84-8703-E9113ADEECA5}
  9
$EXTNAMES
290
     1
  9
$PSVPSCALE
 40
0.0
  9
$OLESTARTUP
290
     0
  0
ENDSEC
  0
SECTION
  2
CLASSES
  0
CLASS
  1
ACDBDICTIONARYWDFLT
  2
AcDbDictionaryWithDefault
  3
ObjectDBX Classes
 90
        0
280
     0
281
     0
  0
CLASS
  1
ACDBPLACEHOLDER
  2
AcDbPlaceHolder
  3
ObjectDBX Classes
 90
        0
280
     0
281
     0
  0
CLASS
  1
LAYOUT
  2
AcDbLayout
  3
ObjectDBX Classes
 90
        0
280
     0
281
     0
  0
CLASS
  1
DICTIONARYVAR
  2
AcDbDictionaryVar
  3
ObjectDBX Classes
 90
        0
280
     0
281
     0
  0
ENDSEC
  0
SECTION
  2
TABLES
  0
TABLE
  2
VPORT
  5
8
330
0
100
AcDbSymbolTable
 70
     3
  0
VPORT
  5
311
330
8
100
AcDbSymbolTableRecord
100
AcDbViewportTableRecord
  2
*Active
 70
     0
 10
0.0
 20
0.0
 11
1.0
 21
1.0
 12
2.100750498645573
 22
1.982278328372425
 13
0.0
 23
0.0
 14
0.5
 24
0.5
 15
0.5
 25
0.5
 16
0.0
 26
0.0
 36
1.0
 17
0.0
 27
0.0
 37
0.0
 40
4.450197214679992
 41
1.532401524777636
 42
50.0
 43
0.0
 44
0.0
 50
0.0
 51
0.0
 71
     0
 72
  2000
 73
     1
 74
     3
 75
     0
 76
     0
 77
     0
 78
     0
281
     0
 65
     1
110
0.0
120
0.0
130
0.0
111
1.0
121
0.0
131
0.0
112
0.0
122
1.0
132
0.0
 79
     0
146
0.0
  0
ENDTAB
  0
TABLE
  2
LTYPE
  5
5
330
0
100
AcDbSymbolTable
 70
     6
  0
LTYPE
  5
14
330
5
100
AcDbSymbolTableRecord
100
AcDbLinetypeTableRecord
  2
ByBlock
 70
     0
  3

 72
    65
 73
     0
 40
0.0
  0
LTYPE
  5
15
330
5
100
AcDbSymbolTableRecord
100
AcDbLinetypeTableRecord
  2
ByLayer
 70
     0
  3

 72
    65
 73
     0
 40
0.0
  0
LTYPE
  5
16
330
5
100
AcDbSymbolTableRecord
100
AcDbLinetypeTableRecord
  2
Continuous
 70
     0
  3
Solid line
 72
    65
 73
     0
 40
0.0
  0
LTYPE
  5
2A
330
5
100
AcDbSymbolTableRecord
100
AcDbLinetypeTableRecord
  2
HIDDEN
 70
     0
  3
Hidden __ __ __ __ __ __ __ __ __ __ __ __ __ __
 72
    65
 73
     2
 40
0.075
 49
0.05
 74
     0
 49
-0.025
 74
     0
  0
LTYPE
  5
2B
330
5
100
AcDbSymbolTableRecord
100
AcDbLinetypeTableRecord
  2
PHANTOM
 70
     0
  3
Phantom ______  __  __  ______  __  __  ______
 72
    65
 73
     6
 40
0.5
 49
0.25
 74
     0
 49
-0.05
 74
     0
 49
0.05
 74
     0
 49
-0.05
 74
     0
 49
0.05
 74
     0
 49
-0.05
 74
     0
  0
LTYPE
  5
2C
330
5
100
AcDbSymbolTableRecord
100
AcDbLinetypeTableRecord
  2
CENTER
 70
     0
  3
Center ____ _ ____ _ ____ _ ____ _ ____ _ ____
 72
    65
 73
     4
 40
0.4
 49
0.25
 74
     0
 49
-0.05
 74
     0
 49
0.05
 74
     0
 49
-0.05
 74
     0
  0
LTYPE
  5
2D
330
5
100
AcDbSymbolTableRecord
100
AcDbLinetypeTableRecord
  2
CENTERX2
 70
     0
  3
Center (2x) ________  __  ________  __  _____
 72
    65
 73
     4
 40
0.8
 49
0.5
 74
     0
 49
-0.1
 74
     0
 49
0.1
 74
     0
 49
-0.1
 74
     0
  0
LTYPE
  5
2E
330
5
100
AcDbSymbolTableRecord
100
AcDbLinetypeTableRecord
  2
DOT2
 70
     0
  3
Dot (.5x) ........................................
 72
    65
 73
     2
 40
0.025
 49
0.0
 74
     0
 49
-0.025
 74
     0
  0
ENDTAB
  0
TABLE
  2
LAYER
  5
2
330
0
100
AcDbSymbolTable
 70
    12
  0
LAYER
  5
10
330
2
100
AcDbSymbolTableRecord
100
AcDbLayerTableRecord
  2
0
 70
     0
 62
     7
  6
Continuous
370
    -3
390
F
  0
LAYER
  5
2F
330
2
100
AcDbSymbolTableRecord
100
AcDbLayerTableRecord
  2
SLD-0
 70
     0
 62
   179
  6
Continuous
370
    -3
390
F
  0
LAYER
  5
30
330
2
100
AcDbSymbolTableRecord
100
AcDbLayerTableRecord
  2
DIM
 70
     0
 62
     3
  6
Continuous
370
    -3
390
F
  0
LAYER
  5
31
330
2
100
AcDbSymbolTableRecord
100
AcDbLayerTableRecord
  2
BORDER
 70
     0
 62
   179
  6
Continuous
370
    -3
390
F
  0
LAYER
  5
32
330
2
100
AcDbSymbolTableRecord
100
AcDbLayerTableRecord
  2
SLD-DEFPOINTS
 70
     0
 62
   179
  6
Continuous
370
    -3
390
F
  0
LAYER
  5
33
330
2
100
AcDbSymbolTableRecord
100
AcDbLayerTableRecord
  2
OBJ
 70
     0
 62
   179
  6
Continuous
370
    -3
390
F
  0
LAYER
  5
34
330
2
100
AcDbSymbolTableRecord
100
AcDbLayerTableRecord
  2
FORMAT
 70
     0
 62
     7
  6
Continuous
370
    -3
390
F
  0
LAYER
  5
35
330
2
100
AcDbSymbolTableRecord
100
AcDbLayerTableRecord
  2
REV-1
 70
     0
 62
     7
  6
Continuous
370
    -3
390
F
  0
LAYER
  5
36
330
2
100
AcDbSymbolTableRecord
100
AcDbLayerTableRecord
  2
REV-2
 70
     0
 62
    -7
  6
Continuous
370
    -3
390
F
  0
LAYER
  5
37
330
2
100
AcDbSymbolTableRecord
100
AcDbLayerTableRecord
  2
REV-3
 70
     0
 62
    -7
  6
Continuous
370
    -3
390
F
  0
LAYER
  5
38
330
2
100
AcDbSymbolTableRecord
100
AcDbLayerTableRecord
  2
PAINT
 70
     0
 62
    -7
  6
Continuous
370
    -3
390
F
  0
LAYER
  5
39
330
2
100
AcDbSymbolTableRecord
100
AcDbLayerTableRecord
  2
HDG
 70
     0
 62
    -7
  6
Continuous
370
    -3
390
F
  0
ENDTAB
  0
TABLE
  2
STYLE
  5
3
330
0
100
AcDbSymbolTable
 70
     2
  0
STYLE
  5
11
330
3
100
AcDbSymbolTableRecord
100
AcDbTextStyleTableRecord
  2
Standard
 70
     0
 40
0.0
 41
1.0
 50
0.0
 71
     0
 42
0.2
  3
txt
  4

  0
STYLE
  5
255
330
3
100
AcDbSymbolTableRecord
100
AcDbTextStyleTableRecord
  2
SLDTEXTSTYLE0
 70
     0
 40
0.0
 41
0.605
 50
0.0
 71
     0
 42
0.2
  3
TXT
  4

  0
ENDTAB
  0
TABLE
  2
VIEW
  5
6
330
0
100
AcDbSymbolTable
 70
     0
  0
ENDTAB
  0
TABLE
  2
UCS
  5
7
330
0
100
AcDbSymbolTable
 70
     0
  0
ENDTAB
  0
TABLE
  2
APPID
  5
9
330
0
100
AcDbSymbolTable
 70
     1
  0
APPID
  5
12
330
9
100
AcDbSymbolTableRecord
100
AcDbRegAppTableRecord
  2
ACAD
 70
     0
  0
ENDTAB
  0
TABLE
  2
DIMSTYLE
  5
A
330
0
100
AcDbSymbolTable
 70
     1
100
AcDbDimStyleTable
 71
     0
  0
DIMSTYLE
105
27
330
A
100
AcDbSymbolTableRecord
100
AcDbDimStyleTableRecord
  2
Standard
 70
     0
340
11
  0
ENDTAB
  0
TABLE
  2
BLOCK_RECORD
  5
1
330
0
100
AcDbSymbolTable
 70
     1
  0
BLOCK_RECORD
  5
1F
330
1
100
AcDbSymbolTableRecord
100
AcDbBlockTableRecord
  2
*Model_Space
340
22
  0
BLOCK_RECORD
  5
1B
330
1
100
AcDbSymbolTableRecord
100
AcDbBlockTableRecord
  2
*Paper_Space
340
1E
  0
BLOCK_RECORD
  5
23
330
1
100
AcDbSymbolTableRecord
100
AcDbBlockTableRecord
  2
*Paper_Space0
340
26
  0
ENDTAB
  0
ENDSEC
  0
SECTION
  2
BLOCKS
  0
BLOCK
  5
20
330
1F
100
AcDbEntity
  8
0
100
AcDbBlockBegin
  2
*Model_Space
 70
     0
 10
0.0
 20
0.0
 30
0.0
  3
*Model_Space
  1

  0
ENDBLK
  5
21
330
1F
100
AcDbEntity
  8
0
100
AcDbBlockEnd
  0
BLOCK
  5
1C
330
1B
100
AcDbEntity
 67
     1
  8
0
100
AcDbBlockBegin
  2
*Paper_Space
 70
     0
 10
0.0
 20
0.0
 30
0.0
  3
*Paper_Space
  1

  0
ENDBLK
  5
1D
330
1B
100
AcDbEntity
 67
     1
  8
0
100
AcDbBlockEnd
  0
BLOCK
  5
24
330
23
100
AcDbEntity
  8
0
100
AcDbBlockBegin
  2
*Paper_Space0
 70
     0
 10
0.0
 20
0.0
 30
0.0
  3
*Paper_Space0
  1

  0
ENDBLK
  5
25
330
23
100
AcDbEntity
  8
0
100
AcDbBlockEnd
  0
ENDSEC
  0
SECTION
  2
ENTITIES
  0
LINE
  5
3A
330
1F
100
AcDbEntity
  8
0
  6
Continuous
 62
     7
370
    15
100
AcDbLine
 10
2.7615105792
 20
0.5066303746000001
 30
0.0
 11
2.7812534363
 21
0.5066303746000001
 31
0.0
  0
SPLINE
  5
3B
330
1F
100
AcDbEntity
  8
0
  6
Continuous
 62
     7
370
    15
100
AcDbSpline
210
0.0
220
0.0
230
1.0
 70
    24
 71
     3
 72
     8
 73
     4
 74
     0
 42
0.0000000001
 43
0.0000000001
 40
0.0
 40
0.0
 40
0.0
 40
0.0
 40
1.0
 40
1.0
 40
1.0
 40
1.0
 10
2.781253436328606
 20
1.378012181881856
 30
0.0
 10
2.774672483904995
 20
1.378012181881856
 30
0.0
 10
2.768091531481384
 20
1.378012181881856
 30
0.0
 10
2.761510579057774
 20
1.378012181881856
 30
0.0
  0
LINE
  5
3C
330
1F
100
AcDbEntity
  8
0
  6
Continuous
 62
     7
370
    15
100
AcDbLine
 10
2.7812534363
 20
1.378012181899999
 30
0.0
 11
2.7812534363
 21
0.5066303746000001
 31
0.0
  0
LINE
  5
3D
330
1F
100
AcDbEntity
  8
0
  6
Continuous
 62
     7
370
    15
100
AcDbLine
 10
2.7615105792
 20
1.378012181899999
 30
0.0
 11
2.7615105792
 21
0.5066303746000001
 31
0.0
  0
LINE
  5
3E
330
1F
100
AcDbEntity
  8
0
  6
Continuous
 62
     7
370
    15
100
AcDbLine
 10
3.1670677219
 20
0.5091018032
 30
0.0
 11
3.1473248647
 21
0.5091018032
 31
0.0
  0
LINE
  5
3F
330
1F
100
AcDbEntity
  8
0
  6
Continuous
 62
     7
370
    15
100
AcDbLine
 10
3.1473248647
 20
0.5091018032
 30
0.0
 11
3.1473248647
 21
1.3781189194
 31
0.0
  0
SPLINE
  5
40
330
1F
100
AcDbEntity
  8
0
  6
Continuous
 62
     7
370
    15
100
AcDbSpline
210
0.0
220
0.0
230
1.0
 70
    24
 71
     3
 72
     8
 73
     4
 74
     0
 42
0.0000000001
 43
0.0000000001
 40
0.0
 40
0.0
 40
0.0
 40
0.0
 40
1.0
 40
1.0
 40
1.0
 40
1.0
 10
3.147324864994984
 20
1.378118919431224
 30
0.0
 10
3.153905817375937
 20
1.378118919431224
 30
0.0
 10
3.160486769756889
 20
1.378118919431224
 30
0.0
 10
3.167067722137841
 20
1.378118919431224
 30
0.0
  0
LINE
  5
41
330
1F
100
AcDbEntity
  8
0
  6
Continuous
 62
     7
370
    15
100
AcDbLine
 10
3.1670677219
 20
0.5091018032
 30
0.0
 11
3.1670677219
 21
1.3781189194
 31
0.0
  0
ARC
  5
42
330
1F
100
AcDbEntity
  8
0
  6
Continuous
 62
     7
370
    15
100
AcDbCircle
 10
2.799110580699999
 20
0.5037732318
 30
0.0
 40
0.0376000023092269
100
AcDbArc
 50
180.0
 51
269.9999953082
  0
ARC
  5
43
330
1F
100
AcDbEntity
  8
0
  6
Continuous
 62
     7
370
    15
100
AcDbCircle
 10
2.7991105792
 20
0.5037732318
 30
0.0
 40
0.0178571428571432
100
AcDbArc
 50
180.0
 51
270.0000029943
  0
LINE
  5
44
330
1F
100
AcDbEntity
  8
0
  6
Continuous
 62
     7
370
    15
100
AcDbLine
 10
3.1175933581
 20
0.4661732327000001
 30
0.0
 11
3.1175933581
 21
0.4859160898
 31
0.0
  0
LINE
  5
45
330
1F
100
AcDbEntity
  8
0
  6
Continuous
 62
     7
370
    15
100
AcDbLine
 10
2.7991105776
 20
0.4661732302
 30
0.0
 11
3.1175933581
 21
0.4661732327000001
 31
0.0
  0
LINE
  5
46
330
1F
100
AcDbEntity
  8
0
  6
Continuous
 62
     7
370
    15
100
AcDbLine
 10
2.799110580099999
 20
0.4859160898
 30
0.0
 11
3.1175933581
 21
0.4859160898
 31
0.0
  0
LINE
  5
47
330
1F
100
AcDbEntity
  8
0
  6
Continuous
 62
     7
370
    15
100
AcDbLine
 10
2.7812534363
 20
0.5066303746000001
 30
0.0
 11
2.7812534363
 21
0.5037732318
 31
0.0
  0
LINE
  5
48
330
1F
100
AcDbEntity
  8
0
  6
Continuous
 62
     7
370
    15
100
AcDbLine
 10
2.7615105792
 20
0.5066303746000001
 30
0.0
 11
2.761510578399999
 21
0.5037732318
 31
0.0
  0
ARC
  5
49
330
1F
100
AcDbEntity
  8
0
  6
Continuous
 62
     7
370
    15
100
AcDbCircle
 10
3.129467720299999
 20
0.4798446603000001
 30
0.0
 40
0.017857144413377
100
AcDbArc
 50
270.0000019664
 51
0.0
  0
ARC
  5
4A
330
1F
100
AcDbEntity
  8
0
  6
Continuous
 62
     7
370
    15
100
AcDbCircle
 10
3.129467720299999
 20
0.4798446603000001
 30
0.0
 40
0.0376000015562346
100
AcDbArc
 50
270.0000009338999
 51
0.0
  0
LINE
  5
4B
330
1F
100
AcDbEntity
  8
0
  6
Continuous
 62
     7
370
    15
100
AcDbLine
 10
3.1473248647
 20
0.4798446603000001
 30
0.0
 11
3.1473248647
 21
0.5091018032
 31
0.0
  0
LINE
  5
4C
330
1F
100
AcDbEntity
  8
0
  6
Continuous
 62
     7
370
    15
100
AcDbLine
 10
3.1670677219
 20
0.4798446603000001
 30
0.0
 11
3.1670677219
 21
0.5091018032
 31
0.0
  0
LINE
  5
4D
330
1F
100
AcDbEntity
  8
0
  6
Continuous
 62
     7
370
    15
100
AcDbLine
 10
2.8349135144
 20
0.4422446613
 30
0.0
 11
2.8349135144
 21
0.4619875184000001
 31
0.0
  0
LINE
  5
4E
330
1F
100
AcDbEntity
  8
0
  6
Continuous
 62
     7
370
    15
100
AcDbLine
 10
2.8349135144
 20
0.4422446613
 30
0.0
 11
3.129467720899999
 21
0.4422446613
 31
0.0
  0
LINE
  5
4F
330
1F
100
AcDbEntity
  8
0
  6
Continuous
 62
     7
370
    15
100
AcDbLine
 10
2.8349135144
 20
0.4619875184000001
 30
0.0
 11
3.129467720899999
 21
0.4619875169
 31
0.0
  0
LINE
  5
50
330
1F
100
AcDbEntity
  8
0
  6
Continuous
 62
     7
370
    15
100
AcDbLine
 10
2.807146293299999
 20
0.4161160899000001
 30
0.0
 11
3.1214320075
 21
0.4161160899000001
 31
0.0
  0
LINE
  5
51
330
1F
100
AcDbEntity
  8
0
  6
Continuous
 62
     7
370
    15
100
AcDbLine
 10
2.807146293299999
 20
0.4161160899000001
 30
0.0
 11
2.807146293299999
 21
0.435858947
 31
0.0
  0
LINE
  5
52
330
1F
100
AcDbEntity
  8
0
  6
Continuous
 62
     7
370
    15
100
AcDbLine
 10
2.807146293299999
 20
0.435858947
 30
0.0
 11
3.1214320075
 21
0.435858947
 31
0.0
  0
LINE
  5
53
330
1F
100
AcDbEntity
  8
0
  6
Continuous
 62
     7
370
    15
100
AcDbLine
 10
3.1214320075
 20
0.4161160899000001
 30
0.0
 11
3.1214320075
 21
0.435858947
 31
0.0
  0
LINE
  5
54
330
1F
100
AcDbEntity
  8
0
  6
Continuous
 62
     7
370
    15
100
AcDbLine
 10
3.121432007699999
 20
0.4422446613
 30
0.0
 11
3.1214320075
 21
0.435858947
 31
0.0
  0
LINE
  5
55
330
1F
100
AcDbEntity
  8
0
  6
Continuous
 62
     7
370
    15
100
AcDbLine
 10
2.807146293299999
 20
0.435858947
 30
0.0
 11
2.807146293399999
 21
0.4537160889
 31
0.0
  0
SPLINE
  5
56
330
1F
100
AcDbEntity
  8
0
  6
Continuous
 62
     7
370
    15
100
AcDbSpline
210
0.0
220
0.0
230
1.0
 70
     8
 71
     3
 72
    40
 73
    36
 74
     0
 42
0.0000000001
 43
0.0000000001
 40
0.0
 40
0.0
 40
0.0
 40
0.0
 40
0.0344670247863174
 40
0.0678157312126999
 40
0.100046136048158
 40
0.1311582603074694
 40
0.1611521297960724
 40
0.1900277757603935
 40
0.2177852356691297
 40
0.2444245541583853
 40
0.2699457841837808
 40
0.2943489884363073
 40
0.3176342410978197
 40
0.3398016300389153
 40
0.3608512595998915
 40
0.3807832541507275
 40
0.3995977627072842
 40
0.4172949650032597
 40
0.4338750796051646
 40
0.4493383749540272
 40
0.4636851846970951
 40
0.4769159294751323
 40
0.4890311487209779
 40
0.5000315485354192
 40
0.5231639113814017
 40
0.5507544177796252
 40
0.5828067866112689
 40
0.619323256575914
 40
0.6603052140565194
 40
0.7057535130337904
 40
0.7556686520430542
 40
0.8100508785210763
 40
0.8689002535761675
 40
0.9322166939219636
 40
1.0
 40
1.0
 40
1.0
 40
1.0
 10
2.761510579024751
 20
1.378012181881856
 30
0.0
 10
2.761516338853713
 20
1.378302941496188
 30
0.0
 10
2.761527671628018
 20
1.37887502672766
 30
0.0
 10
2.761616853152625
 20
1.379720282240085
 30
0.0
 10
2.761751897746199
 20
1.380538187744509
 30
0.0
 10
2.76193203165072
 20
1.381328826308265
 30
0.0
 10
2.762150230612571
 20
1.382092176621336
 30
0.0
 10
2.762401291576439
 20
1.382828243890324
 30
0.0
 10
2.762679818025322
 20
1.383537026559201
 30
0.0
 10
2.762980760353599
 20
1.384218524746481
 30
0.0
 10
2.763299301001894
 20
1.384872738100469
 30
0.0
 10
2.763630898919056
 20
1.385499666331926
 30
0.0
 10
2.763971288029608
 20
1.386099309062754
 30
0.0
 10
2.76431648223164
 20
1.386671665860797
 30
0.0
 10
2.764662774445532
 20
1.387216736161702
 30
0.0
 10
2.765006733332434
 20
1.387734519423148
 30
0.0
 10
2.76534519800979
 20
1.388225014485329
 30
0.0
 10
2.765675269186732
 20
1.388688221601269
 30
0.0
 10
2.765994304758574
 20
1.389124135319302
 30
0.0
 10
2.766299894304425
 20
1.389532768261662
 30
0.0
 10
2.766589900342582
 20
1.38991407086381
 30
0.0
 10
2.766862274166821
 20
1.390268198210287
 30
0.0
 10
2.767115616371936
 20
1.390594628314928
 30
0.0
 10
2.767440288810175
 20
1.391015614542485
 30
0.0
 10
2.767887034161235
 20
1.391574055529507
 30
0.0
 10
2.768517613120601
 20
1.392308553825702
 30
0.0
 10
2.769285308278373
 20
1.393153202102112
 30
0.0
 10
2.770202694577604
 20
1.394106689582267
 30
0.0
 10
2.771281135604743
 20
1.395169397555126
 30
0.0
 10
2.772531334176647
 20
1.396341170704394
 30
0.0
 10
2.773961833856985
 20
1.397622032245797
 30
0.0
 10
2.77557793488299
 20
1.399011975094047
 30
0.0
 10
2.777380368963231
 20
1.400510925075899
 30
0.0
 10
2.779363432675189
 20
1.40211916992485
 30
0.0
 10
2.780750538286794
 20
1.403225679764179
 30
0.0
 10
2.781467722009866
 20
1.403797785333898
 30
0.0
  0
SPLINE
  5
57
330
1F
100
AcDbEntity
  8
0
  6
Continuous
 62
     7
370
    15
100
AcDbSpline
210
0.0
220
0.0
230
1.0
 70
     8
 71
     3
 72
    18
 73
    14
 74
     0
 42
0.0000000001
 43
0.0000000001
 40
0.0
 40
0.0
 40
0.0
 40
0.0
 40
0.125
 40
0.125
 40
0.25
 40
0.25
 40
0.5
 40
0.5
 40
0.75
 40
0.75
 40
0.875
 40
0.875
 40
1.0
 40
1.0
 40
1.0
 40
1.0
 10
2.781253436167607
 20
1.378012181881856
 30
0.0
 10
2.781253436167607
 20
1.3796367795155
 30
0.0
 10
2.781256773871163
 20
1.381123827115342
 30
0.0
 10
2.781266661833634
 20
1.383822824514906
 30
0.0
 10
2.781273198402117
 20
1.385034773936715
 30
0.0
 10
2.781293473459061
 20
1.388257974368219
 30
0.0
 10
2.781307478477876
 20
1.389855614666632
 30
0.0
 10
2.781324919598482
 20
1.39195435254912
 30
0.0
 10
2.781339897382929
 20
1.393553437163579
 30
0.0
 10
2.781376766610514
 20
1.396776637595084
 30
0.0
 10
2.781391476033753
 20
1.397988466657221
 30
0.0
 10
2.781425997392106
 20
1.400686982618105
 30
0.0
 10
2.781445838421042
 20
1.402173669139342
 30
0.0
 10
2.781467722009866
 20
1.403797785333898
 30
0.0
  0
LINE
  5
58
330
1F
100
AcDbEntity
  8
0
  6
Continuous
 62
     7
370
    15
100
AcDbLine
 10
2.781467721999999
 20
0.5244875175
 30
0.0
 11
2.7812534362
 21
0.5244875175
 31
0.0
  0
SPLINE
  5
59
330
1F
100
AcDbEntity
  8
0
  6
Continuous
 62
     7
370
    15
100
AcDbSpline
210
0.0
220
0.0
230
1.0
 70
     8
 71
     3
 72
    40
 73
    36
 74
     0
 42
0.0000000001
 43
0.0000000001
 40
0.0
 40
0.0
 40
0.0
 40
0.0
 40
0.0344592749616841
 40
0.0678009700278416
 40
0.1000251020073057
 40
0.1311316919580617
 40
0.161120765732354
 40
0.1899923546272625
 40
0.2177464961661593
 40
0.2443832350440113
 40
0.2699026242795282
 40
0.2943047266309245
 40
0.3175896163510761
 40
0.3397573813846985
 40
0.3608081261479384
 40
0.3807419750860823
 40
0.3995590772859465
 40
0.417259612541544
 40
0.4338437994588554
 40
0.449311906480762
 40
0.463664267190968
 40
0.4769013020544656
 40
0.4890235501353211
 40
0.5000317168289642
 40
0.5231440024330053
 40
0.5507184574845839
 40
0.5827587960194541
 40
0.6192672516529222
 40
0.6602452061087173
 40
0.7056935091925496
 40
0.7556126556640522
 40
0.8100028894787779
 40
0.8688642684657747
 40
0.932196706186686
 40
1.0
 40
1.0
 40
1.0
 40
1.0
 10
3.147110579152725
 20
1.403834547833899
 30
0.0
 10
3.147475152152211
 20
1.403544660836332
 30
0.0
 10
3.148192474354681
 20
1.402974288428457
 30
0.0
 10
3.149246570274878
 20
1.40213155275801
 30
0.0
 10
3.150258815119478
 20
1.401316069292788
 30
0.0
 10
3.151227232366363
 20
1.400527754911094
 30
0.0
 10
3.152150461431864
 20
1.399766630937152
 30
0.0
 10
3.153027601985034
 20
1.399032692160441
 30
0.0
 10
3.153858190781833
 20
1.398325940137809
 30
0.0
 10
3.154642145698669
 20
1.397646374750258
 30
0.0
 10
3.155379719629703
 20
1.396993996349274
 30
0.0
 10
3.156071453975616
 20
1.396368805223715
 30
0.0
 10
3.156718134756936
 20
1.395770801751234
 30
0.0
 10
3.157320750898646
 20
1.395199986363387
 30
0.0
 10
3.157880455085766
 20
1.394656359623757
 30
0.0
 10
3.158398527068694
 20
1.394139922073656
 30
0.0
 10
3.158876340137211
 20
1.393650674871532
 30
0.0
 10
3.159315328542276
 20
1.393188617762458
 30
0.0
 10
3.159716963450573
 20
1.392753756196243
 30
0.0
 10
3.160082711581562
 20
1.392346077543778
 30
0.0
 10
3.160414063376663
 20
1.39196563138133
 30
0.0
 10
3.160712339955606
 20
1.391612262542968
 30
0.0
 10
3.160979242509991
 20
1.391286493324848
 30
0.0
 10
3.161309326588788
 20
1.390866638950716
 30
0.0
 10
3.161740743023818
 20
1.390309909866307
 30
0.0
 10
3.162304198772379
 20
1.389577789980422
 30
0.0
 10
3.162929224694021
 20
1.38873572071309
 30
0.0
 10
3.163598369092959
 20
1.387785012665198
 30
0.0
 10
3.164289193319162
 20
1.386725284659827
 30
0.0
 10
3.164975467674504
 20
1.385556692091625
 30
0.0
 10
3.165626137061018
 20
1.384279211749835
 30
0.0
 10
3.166207003258691
 20
1.382892850777797
 30
0.0
 10
3.166674102213753
 20
1.381397683209448
 30
0.0
 10
3.167002423627998
 20
1.379793421903356
 30
0.0
 10
3.167045466805883
 20
1.378689630898774
 30
0.0
 10
3.167067722137841
 20
1.378118919431224
 30
0.0
  0
SPLINE
  5
5A
330
1F
100
AcDbEntity
  8
0
  6
Continuous
 62
     7
370
    15
100
AcDbSpline
210
0.0
220
0.0
230
1.0
 70
     8
 71
     3
 72
    18
 73
    14
 74
     0
 42
0.0000000001
 43
0.0000000001
 40
0.0
 40
0.0
 40
0.0
 40
0.0
 40
0.125
 40
0.125
 40
0.25
 40
0.25
 40
0.5
 40
0.5
 40
0.75
 40
0.75
 40
0.875
 40
0.875
 40
1.0
 40
1.0
 40
1.0
 40
1.0
 10
3.147110579152725
 20
1.403834547833899
 30
0.0
 10
3.147132462741581
 20
1.402214839042485
 30
0.0
 10
3.147152303770493
 20
1.400732186982164
 30
0.0
 10
3.147186825128848
 20
1.398040994052506
 30
0.0
 10
3.147201534552089
 20
1.396832453561702
 30
0.0
 10
3.147238403779671
 20
1.393618000011369
 30
0.0
 10
3.147253389565898
 20
1.392022294610447
 30
0.0
 10
3.14727081468293
 20
1.389931172654676
 30
0.0
 10
3.147284827703533
 20
1.388336907648954
 30
0.0
 10
3.147305102760478
 20
1.38512245409862
 30
0.0
 10
3.147311639328961
 20
1.383913793574883
 30
0.0
 10
3.147321527291431
 20
1.381222120513492
 30
0.0
 10
3.147324864994984
 20
1.37973910835478
 30
0.0
 10
3.147324864994984
 20
1.378118919431224
 30
0.0
  0
LINE
  5
5B
330
1F
100
AcDbEntity
  8
0
  6
Continuous
 62
     7
370
    15
100
AcDbLine
 10
3.1473248647
 20
0.5244875175
 30
0.0
 11
3.1471105792
 21
0.5244875175
 31
0.0
  0
CIRCLE
  5
D0
330
1F
100
AcDbEntity
  8
0
  6
Continuous
 62
     7
370
    15
100
AcDbCircle
 10
2.922574864899999
 20
2.283416088899999
 30
0.0
 40
0.0128571428571433
  0
CIRCLE
  5
D1
330
1F
100
AcDbEntity
  8
0
  6
Continuous
 62
     7
370
    15
100
AcDbCircle
 10
3.0058605792
 20
2.408416088899999
 30
0.0
 40
0.0128571428571429
  0
CIRCLE
  5
D2
330
1F
100
AcDbEntity
  8
0
  6
Continuous
 62
     7
370
    15
100
AcDbCircle
 10
3.0058605792
 20
2.158416088899999
 30
0.0
 40
0.0128571428571433
  0
CIRCLE
  5
D3
330
1F
100
AcDbEntity
  8
0
  6
Continuous
 62
     7
370
    15
100
AcDbCircle
 10
2.839146293399999
 20
2.408416088899999
 30
0.0
 40
0.0128571428571429
  0
CIRCLE
  5
D4
330
1F
100
AcDbEntity
  8
0
  6
Continuous
 62
     7
370
    15
100
AcDbCircle
 10
2.839146293399999
 20
2.158416088899999
 30
0.0
 40
0.0128571428571429
  0
CIRCLE
  5
D5
330
1F
100
AcDbEntity
  8
0
  6
Continuous
 62
     7
370
    15
100
AcDbCircle
 10
3.089289150599999
 20
2.283416088899999
 30
0.0
 40
0.0128571428571425
  0
CIRCLE
  5
D6
330
1F
100
AcDbEntity
  8
0
  6
Continuous
 62
     7
370
    15
100
AcDbCircle
 10
2.839146293399999
 20
1.658416088899999
 30
0.0
 40
0.0128571428571429
  0
CIRCLE
  5
D7
330
1F
100
AcDbEntity
  8
0
  6
Continuous
 62
     7
370
    15
100
AcDbCircle
 10
3.0058605792
 20
1.658416088899999
 30
0.0
 40
0.0128571428571433
  0
CIRCLE
  5
D8
330
1F
100
AcDbEntity
  8
0
  6
Continuous
 62
     7
370
    15
100
AcDbCircle
 10
2.922574864899999
 20
1.783416088899999
 30
0.0
 40
0.0128571428571433
  0
CIRCLE
  5
D9
330
1F
100
AcDbEntity
  8
0
  6
Continuous
 62
     7
370
    15
100
AcDbCircle
 10
3.089289150599999
 20
1.783416088899999
 30
0.0
 40
0.0128571428571425
  0
CIRCLE
  5
DA
330
1F
100
AcDbEntity
  8
0
  6
Continuous
 62
     7
370
    15
100
AcDbCircle
 10
3.089289150599999
 20
2.033416088899999
 30
0.0
 40
0.0128571428571425
  0
CIRCLE
  5
DB
330
1F
100
AcDbEntity
  8
0
  6
Continuous
 62
     7
370
    15
100
AcDbCircle
 10
2.839146293399999
 20
1.908416088899999
 30
0.0
 40
0.0128571428571429
  0
CIRCLE
  5
DC
330
1F
100
AcDbEntity
  8
0
  6
Continuous
 62
     7
370
    15
100
AcDbCircle
 10
3.0058605792
 20
1.908416088899999
 30
0.0
 40
0.0128571428571433
  0
CIRCLE
  5
DD
330
1F
100
AcDbEntity
  8
0
  6
Continuous
 62
     7
370
    15
100
AcDbCircle
 10
2.922574864899999
 20
2.033416088899999
 30
0.0
 40
0.0128571428571433
  0
ARC
  5
DE
330
1F
100
AcDbEntity
  8
0
  6
Continuous
 62
     7
370
    15
100
AcDbCircle
 10
3.160717721999999
 20
1.420087153999999
 30
0.0
 40
0.0178571428571432
100
AcDbArc
 50
180.0
 51
197.462489511
  0
LINE
  5
DF
330
1F
100
AcDbEntity
  8
0
  6
Continuous
 62
     7
370
    15
100
AcDbLine
 10
3.121432007699999
 20
0.5244875175
 30
0.0
 11
3.1471105792
 21
0.5244875175
 31
0.0
  0
LINE
  5
E0
330
1F
100
AcDbEntity
  8
0
  6
Continuous
 62
     7
370
    15
100
AcDbLine
 10
3.121432007699999
 20
0.4619875184000001
 30
0.0
 11
3.121432007699999
 21
0.5244875175
 31
0.0
  0
LINE
  5
E1
330
1F
100
AcDbEntity
  8
0
  6
Continuous
 62
     7
370
    15
100
AcDbLine
 10
2.807146293399999
 20
0.5244875175
 30
0.0
 11
2.807146293399999
 21
0.4859160898
 31
0.0
  0
LINE
  5
E2
330
1F
100
AcDbEntity
  8
0
  6
Continuous
 62
     7
370
    15
100
AcDbLine
 10
2.807146293399999
 20
0.4661732327000001
 30
0.0
 11
2.807146293399999
 21
0.4537160889
 31
0.0
  0
LINE
  5
E3
330
1F
100
AcDbEntity
  8
0
  6
Continuous
 62
     7
370
    15
100
AcDbLine
 10
2.781467721999999
 20
0.5244875175
 30
0.0
 11
2.807146293399999
 21
0.5244875175
 31
0.0
  0
LINE
  5
E4
330
1F
100
AcDbEntity
  8
0
  6
Continuous
 62
     7
370
    15
100
AcDbLine
 10
2.7848989093
 20
1.414734694799999
 30
0.0
 11
2.781467721999999
 21
1.4037977853
 31
0.0
  0
ARC
  5
E5
330
1F
100
AcDbEntity
  8
0
  6
Continuous
 62
     7
370
    15
100
AcDbCircle
 10
2.7678605792
 20
1.4200800533
 30
0.0
 40
0.0178571428571423
100
AcDbArc
 50
342.5820292078
 51
0.0
  0
LINE
  5
E6
330
1F
100
AcDbEntity
  8
0
  6
Continuous
 62
     7
370
    15
100
AcDbLine
 10
2.785717721999999
 20
2.703058946
 30
0.0
 11
2.785717721999999
 21
1.4200800533
 31
0.0
  0
LINE
  5
E7
330
1F
100
AcDbEntity
  8
0
  6
Continuous
 62
     7
370
    15
100
AcDbLine
 10
2.785717721999999
 20
2.703058946
 30
0.0
 11
3.1428605792
 21
2.703058946
 31
0.0
  0
LINE
  5
E8
330
1F
100
AcDbEntity
  8
0
  6
Continuous
 62
     7
370
    15
100
AcDbLine
 10
3.1428605792
 20
1.420087153999999
 30
0.0
 11
3.1428605792
 21
2.703058946
 31
0.0
  0
LINE
  5
148
330
1F
100
AcDbEntity
  8
0
  6
Continuous
 62
     7
370
    15
100
AcDbLine
 10
3.1471105792
 20
1.4038345478
 30
0.0
 11
3.1436835504
 21
1.4147285583
 31
0.0
  0
LINE
  5
151
330
1F
100
AcDbEntity
  8
0
  6
HIDDEN
 62
     7
370
     0
100
AcDbLine
 10
3.121432007699999
 20
0.4537160889
 30
0.0
 11
3.121432007699999
 21
0.4422446613
 31
0.0
  0
LINE
  5
152
330
1F
100
AcDbEntity
  8
0
  6
HIDDEN
 62
     7
370
     0
100
AcDbLine
 10
2.7615105792
 20
0.5244875175
 30
0.0
 11
2.7812534363
 21
0.5244875175
 31
0.0
  0
LINE
  5
153
330
1F
100
AcDbEntity
  8
0
  6
HIDDEN
 62
     7
370
     0
100
AcDbLine
 10
3.1670677219
 20
0.5244875175
 30
0.0
 11
3.1473248647
 21
0.5244875175
 31
0.0
  0
LINE
  5
154
330
1F
100
AcDbEntity
  8
0
  6
HIDDEN
 62
     7
370
     0
100
AcDbLine
 10
3.121432007699999
 20
0.4537160889
 30
0.0
 11
3.121432007699999
 21
0.4619875184000001
 31
0.0
  0
LINE
  5
155
330
1F
100
AcDbEntity
  8
0
  6
HIDDEN
 62
     7
370
     0
100
AcDbLine
 10
2.807146293399999
 20
0.4859160898
 30
0.0
 11
2.807146293399999
 21
0.4661732327000001
 31
0.0
  0
LINE
  5
156
330
1F
100
AcDbEntity
  8
0
  6
HIDDEN
 62
     7
370
     0
100
AcDbLine
 10
2.913753642699999
 20
0.435858947
 30
0.0
 11
2.913753642699999
 21
0.4161160875000001
 31
0.0
  0
LINE
  5
157
330
1F
100
AcDbEntity
  8
0
  6
HIDDEN
 62
     7
370
     0
100
AcDbLine
 10
3.011967928399999
 20
0.4161160875000001
 30
0.0
 11
3.011967928399999
 21
0.435858947
 31
0.0
  0
LINE
  5
158
330
1F
100
AcDbEntity
  8
0
  6
HIDDEN
 62
     7
370
     0
100
AcDbLine
 10
2.913753643799999
 20
0.4859160898
 30
0.0
 11
2.913753643799999
 21
0.4661732327000001
 31
0.0
  0
LINE
  5
159
330
1F
100
AcDbEntity
  8
0
  6
HIDDEN
 62
     7
370
     0
100
AcDbLine
 10
3.011967929599999
 20
0.4661732327000001
 30
0.0
 11
3.011967929599999
 21
0.4859160898
 31
0.0
  0
LINE
  5
15A
330
1F
100
AcDbEntity
  8
0
  6
HIDDEN
 62
     7
370
     0
100
AcDbLine
 10
2.913753641799999
 20
0.4619875184000001
 30
0.0
 11
2.913753641799999
 21
0.4422446613
 31
0.0
  0
LINE
  5
15B
330
1F
100
AcDbEntity
  8
0
  6
HIDDEN
 62
     7
370
     0
100
AcDbLine
 10
3.0119679275
 20
0.4422446613
 30
0.0
 11
3.0119679275
 21
0.4619875184000001
 31
0.0
  0
LINE
  5
15C
330
1F
100
AcDbEntity
  8
0
  6
Continuous
 62
     7
370
    15
100
AcDbLine
 10
3.1428605792
 20
3.855779659899999
 30
0.0
 11
3.1428605792
 21
3.836036802799999
 31
0.0
  0
LINE
  5
15D
330
1F
100
AcDbEntity
  8
0
  6
Continuous
 62
     7
370
    15
100
AcDbLine
 10
2.785717721999999
 20
3.836036802799999
 30
0.0
 11
3.1428605792
 21
3.836036802799999
 31
0.0
  0
LINE
  5
15E
330
1F
100
AcDbEntity
  8
0
  6
Continuous
 62
     7
370
    15
100
AcDbLine
 10
2.785717721999999
 20
3.855779659899999
 30
0.0
 11
2.785717721999999
 21
3.836036802799999
 31
0.0
  0
LINE
  5
15F
330
1F
100
AcDbEntity
  8
0
  6
Continuous
 62
     7
370
    15
100
AcDbLine
 10
3.1428605792
 20
3.855779659899999
 30
0.0
 11
2.785717721999999
 21
3.855779659899999
 31
0.0
  0
LINE
  5
160
330
1F
100
AcDbEntity
  8
0
  6
Continuous
 62
     7
370
    15
100
AcDbLine
 10
3.1436835504
 20
3.836036802799999
 30
0.0
 11
3.1428605792
 21
3.836036802799999
 31
0.0
  0
LINE
  5
161
330
1F
100
AcDbEntity
  8
0
  6
Continuous
 62
     7
370
    15
100
AcDbLine
 10
3.1436835504
 20
3.855779659899999
 30
0.0
 11
3.1428605792
 21
3.855779659899999
 31
0.0
  0
LINE
  5
162
330
1F
100
AcDbEntity
  8
0
  6
Continuous
 62
     7
370
    15
100
AcDbLine
 10
2.785717721999999
 20
3.836036802799999
 30
0.0
 11
2.7848989093
 21
3.836036802799999
 31
0.0
  0
LINE
  5
163
330
1F
100
AcDbEntity
  8
0
  6
Continuous
 62
     7
370
    15
100
AcDbLine
 10
2.785717721999999
 20
3.855779659899999
 30
0.0
 11
2.7848989093
 21
3.855779659899999
 31
0.0
  0
SPLINE
  5
164
330
1F
100
AcDbEntity
  8
0
  6
Continuous
 62
     7
370
    15
100
AcDbSpline
210
0.0
220
0.0
230
1.0
 70
    24
 71
     3
 72
     8
 73
     4
 74
     0
 42
0.0000000001
 43
0.0000000001
 40
0.0
 40
0.0
 40
0.0
 40
0.0
 40
1.0
 40
1.0
 40
1.0
 40
1.0
 10
2.781467722009866
 20
3.836036802933091
 30
0.0
 10
2.781467722009866
 20
3.842617755314043
 30
0.0
 10
2.781467722009866
 20
3.849198707694995
 30
0.0
 10
2.781467722009866
 20
3.855779660075948
 30
0.0
  0
LINE
  5
165
330
1F
100
AcDbEntity
  8
0
  6
Continuous
 62
     7
370
    15
100
AcDbLine
 10
2.7848989093
 20
3.836036802799999
 30
0.0
 11
2.781467721999999
 21
3.836036802799999
 31
0.0
  0
LINE
  5
166
330
1F
100
AcDbEntity
  8
0
  6
Continuous
 62
     7
370
    15
100
AcDbLine
 10
2.7848989093
 20
3.855779659899999
 30
0.0
 11
2.781467721999999
 21
3.855779659899999
 31
0.0
  0
SPLINE
  5
167
330
1F
100
AcDbEntity
  8
0
  6
Continuous
 62
     7
370
    15
100
AcDbSpline
210
0.0
220
0.0
230
1.0
 70
    24
 71
     3
 72
     8
 73
     4
 74
     0
 42
0.0000000001
 43
0.0000000001
 40
0.0
 40
0.0
 40
0.0
 40
0.0
 40
1.0
 40
1.0
 40
1.0
 40
1.0
 10
3.147110579152725
 20
3.836036802805116
 30
0.0
 10
3.147110579152725
 20
3.842617755228728
 30
0.0
 10
3.147110579152725
 20
3.849198707652337
 30
0.0
 10
3.147110579152725
 20
3.855779660075948
 30
0.0
  0
LINE
  5
168
330
1F
100
AcDbEntity
  8
0
  6
Continuous
 62
     7
370
    15
100
AcDbLine
 10
3.1471105792
 20
3.836036802799999
 30
0.0
 11
3.1436835504
 21
3.836036802799999
 31
0.0
  0
LINE
  5
169
330
1F
100
AcDbEntity
  8
0
  6
Continuous
 62
     7
370
    15
100
AcDbLine
 10
3.1471105792
 20
3.855779659899999
 30
0.0
 11
3.1436835504
 21
3.855779659899999
 31
0.0
  0
SPLINE
  5
16A
330
1F
100
AcDbEntity
  8
0
  6
Continuous
 62
     7
370
    15
100
AcDbSpline
210
0.0
220
0.0
230
1.0
 70
     8
 71
     3
 72
    40
 73
    36
 74
     0
 42
0.0000000001
 43
0.0000000001
 40
0.0
 40
0.0
 40
0.0
 40
0.0
 40
0.0344592749616841
 40
0.0678009700278416
 40
0.1000251020073057
 40
0.1311316919580617
 40
0.161120765732354
 40
0.1899923546272625
 40
0.2177464961661593
 40
0.2443832350440113
 40
0.2699026242795282
 40
0.2943047266309245
 40
0.3175896163510761
 40
0.3397573813846985
 40
0.3608081261479384
 40
0.3807419750860823
 40
0.3995590772859465
 40
0.417259612541544
 40
0.4338437994588554
 40
0.449311906480762
 40
0.463664267190968
 40
0.4769013020544656
 40
0.4890235501353211
 40
0.5000317168289642
 40
0.5231440024330053
 40
0.5507184574845839
 40
0.5827587960194541
 40
0.6192672516529222
 40
0.6602452061087173
 40
0.7056935091925496
 40
0.7556126556640522
 40
0.8100028894787779
 40
0.8688642684657747
 40
0.932196706186686
 40
1.0
 40
1.0
 40
1.0
 40
1.0
 10
3.147110579152725
 20
3.855779660075948
 30
0.0
 10
3.147475152152211
 20
3.855773903138874
 30
0.0
 10
3.148192474354681
 20
3.855762575973158
 30
0.0
 10
3.149246570274878
 20
3.855673437303814
 30
0.0
 10
3.150258815119478
 20
3.855538454097652
 30
0.0
 10
3.151227232366363
 20
3.855358397060463
 30
0.0
 10
3.152150461431864
 20
3.855140284687271
 30
0.0
 10
3.153027601985034
 20
3.854889315333981
 30
0.0
 10
3.153858190781833
 20
3.854610881009919
 30
0.0
 10
3.154642145698669
 20
3.854310027236298
 30
0.0
 10
3.155379719629703
 20
3.853991567869634
 30
0.0
 10
3.156071453975616
 20
3.853660040652153
 30
0.0
 10
3.156718134756936
 20
3.853319708735763
 30
0.0
 10
3.157320750898646
 20
3.852974555673561
 30
0.0
 10
3.157880455085766
 20
3.852628286355772
 30
0.0
 10
3.158398527068694
 20
3.852284330272728
 30
0.0
 10
3.158876340137211
 20
3.851945846780158
 30
0.0
 10
3.159315328542276
 20
3.851615733938941
 30
0.0
 10
3.159716963450573
 20
3.851296632910959
 30
0.0
 10
3.160082711581562
 20
3.850990953401884
 30
0.0
 10
3.160414063376663
 20
3.850700832510919
 30
0.0
 10
3.160712339955606
 20
3.850428318481283
 30
0.0
 10
3.160979242509991
 20
3.850174811389326
 30
0.0
 10
3.161309326588788
 20
3.849850136930651
 30
0.0
 10
3.161740743023818
 20
3.849403545697667
 30
0.0
 10
3.162304198772379
 20
3.848773301422495
 30
0.0
 10
3.162929224694021
 20
3.848005884180397
 30
0.0
 10
3.163598369092959
 20
3.847088713170966
 30
0.0
 10
3.164289193319162
 20
3.846010413158022
 30
0.0
 10
3.164975467674504
 20
3.844760268891997
 30
0.0
 10
3.165626137061018
 20
3.843329723636399
 30
0.0
 10
3.166207003258691
 20
3.841713465114338
 30
0.0
 10
3.166674102213753
 20
3.839910752983403
 30
0.0
 10
3.167002423627998
 20
3.837927286099231
 30
0.0
 10
3.167045466805883
 20
3.836539873935405
 30
0.0
 10
3.167067722137841
 20
3.83582251709083
 30
0.0
  0
SPLINE
  5
16B
330
1F
100
AcDbEntity
  8
0
  6
Continuous
 62
     7
370
    15
100
AcDbSpline
210
0.0
220
0.0
230
1.0
 70
    24
 71
     3
 72
     8
 73
     4
 74
     0
 42
0.0000000001
 43
0.0000000001
 40
0.0
 40
0.0
 40
0.0
 40
0.0
 40
1.0
 40
1.0
 40
1.0
 40
1.0
 10
3.147324864994984
 20
3.83582251709083
 30
0.0
 10
3.153905817375937
 20
3.83582251709083
 30
0.0
 10
3.160486769756889
 20
3.83582251709083
 30
0.0
 10
3.167067722137841
 20
3.83582251709083
 30
0.0
  0
SPLINE
  5
16C
330
1F
100
AcDbEntity
  8
0
  6
Continuous
 62
     7
370
    15
100
AcDbSpline
210
0.0
220
0.0
230
1.0
 70
     8
 71
     3
 72
    40
 73
    36
 74
     0
 42
0.0000000001
 43
0.0000000001
 40
0.0
 40
0.0
 40
0.0
 40
0.0
 40
0.0344670247863174
 40
0.0678157312126999
 40
0.100046136048158
 40
0.1311582603074694
 40
0.1611521297960724
 40
0.1900277757603935
 40
0.2177852356691297
 40
0.2444245541583853
 40
0.2699457841837808
 40
0.2943489884363073
 40
0.3176342410978197
 40
0.3398016300389153
 40
0.3608512595998915
 40
0.3807832541507275
 40
0.3995977627072842
 40
0.4172949650032597
 40
0.4338750796051646
 40
0.4493383749540272
 40
0.4636851846970951
 40
0.4769159294751323
 40
0.4890311487209779
 40
0.5000315485354192
 40
0.5231639113814017
 40
0.5507544177796252
 40
0.5828067866112689
 40
0.619323256575914
 40
0.6603052140565194
 40
0.7057535130337904
 40
0.7556686520430542
 40
0.8100508785210763
 40
0.8689002535761675
 40
0.9322166939219636
 40
1.0
 40
1.0
 40
1.0
 40
1.0
 10
2.761510579024751
 20
3.83582251709083
 30
0.0
 10
2.761516338853713
 20
3.836187181679136
 30
0.0
 10
2.761527671628018
 20
3.836904678935034
 30
0.0
 10
2.761616853152625
 20
3.837959020770572
 30
0.0
 10
2.761751897746199
 20
3.838971481717459
 30
0.0
 10
2.76193203165072
 20
3.839940084262772
 30
0.0
 10
2.762150230612571
 20
3.840863467591518
 30
0.0
 10
2.762401291576439
 20
3.841740731595948
 30
0.0
 10
2.762679818025322
 20
3.842571413682446
 30
0.0
 10
2.762980760353599
 20
3.843355432712129
 30
0.0
 10
2.763299301001894
 20
3.844093042826833
 30
0.0
 10
2.763630898919056
 20
3.844784786867228
 30
0.0
 10
2.763971288029608
 20
3.845431452421991
 30
0.0
 10
2.76431648223164
 20
3.846034030053584
 30
0.0
 10
2.764662774445532
 20
3.846593674100973
 30
0.0
 10
2.765006733332434
 20
3.847111665937383
 30
0.0
 10
2.76534519800979
 20
3.847589380403713
 30
0.0
 10
2.765675269186732
 20
3.848028253190486
 30
0.0
 10
2.765994304758574
 20
3.848429756773178
 30
0.0
 10
2.766299894304425
 20
3.848795358984289
 30
0.0
 10
2.766589900342582
 20
3.849126551286257
 30
0.0
 10
2.766862274166821
 20
3.849424655313645
 30
0.0
 10
2.767115616371936
 20
3.849691373489283
 30
0.0
 10
2.767440288810175
 20
3.850021450860093
 30
0.0
 10
2.767887034161235
 20
3.850453005440245
 30
0.0
 10
2.768517613120601
 20
3.851016719829797
 30
0.0
 10
2.769285308278373
 20
3.851641902666108
 30
0.0
 10
2.770202694577604
 20
3.852311109343398
 30
0.0
 10
2.771281135604743
 20
3.853001909249524
 30
0.0
 10
2.772531334176647
 20
3.853688086462336
 30
0.0
 10
2.773961833856985
 20
3.854338604848615
 30
0.0
 10
2.77557793488299
 20
3.854919290951263
 30
0.0
 10
2.777380368963231
 20
3.855386213315657
 30
0.0
 10
2.779363432675189
 20
3.855714391746039
 30
0.0
 10
2.780750538286794
 20
3.855757415328959
 30
0.0
 10
2.781467722009866
 20
3.855779660075948
 30
0.0
  0
SPLINE
  5
16D
330
1F
100
AcDbEntity
  8
0
  6
Continuous
 62
     7
370
    15
100
AcDbSpline
210
0.0
220
0.0
230
1.0
 70
    24
 71
     3
 72
     8
 73
     4
 74
     0
 42
0.0000000001
 43
0.0000000001
 40
0.0
 40
0.0
 40
0.0
 40
0.0
 40
1.0
 40
1.0
 40
1.0
 40
1.0
 10
2.781253436328606
 20
3.835822517057808
 30
0.0
 10
2.774672483904995
 20
3.835822517057808
 30
0.0
 10
2.768091531481384
 20
3.835822517057808
 30
0.0
 10
2.761510579057774
 20
3.835822517057808
 30
0.0
  0
LINE
  5
16E
330
1F
100
AcDbEntity
  8
0
  6
Continuous
 62
     7
370
    15
100
AcDbLine
 10
3.1670677219
 20
3.562447832599999
 30
0.0
 11
3.1670677219
 21
3.8358225172
 31
0.0
  0
LINE
  5
16F
330
1F
100
AcDbEntity
  8
0
  6
Continuous
 62
     7
370
    15
100
AcDbLine
 10
3.1670677219
 20
3.562447832599999
 30
0.0
 11
3.1473248647
 21
3.562447832599999
 31
0.0
  0
LINE
  5
170
330
1F
100
AcDbEntity
  8
0
  6
Continuous
 62
     7
370
    15
100
AcDbLine
 10
3.1473248647
 20
3.562447832599999
 30
0.0
 11
3.1473248647
 21
3.8358225172
 31
0.0
  0
LINE
  5
171
330
1F
100
AcDbEntity
  8
0
  6
Continuous
 62
     7
370
    15
100
AcDbLine
 10
2.7615105792
 20
3.5624478324
 30
0.0
 11
2.7812534363
 21
3.5624478324
 31
0.0
  0
LINE
  5
172
330
1F
100
AcDbEntity
  8
0
  6
Continuous
 62
     7
370
    15
100
AcDbLine
 10
2.7615105792
 20
3.8358225171
 30
0.0
 11
2.7615105792
 21
3.5624478324
 31
0.0
  0
LINE
  5
173
330
1F
100
AcDbEntity
  8
0
  6
Continuous
 62
     7
370
    15
100
AcDbLine
 10
2.7812534363
 20
3.8358225171
 30
0.0
 11
2.7812534363
 21
3.5624478324
 31
0.0
  0
LINE
  5
174
330
1F
100
AcDbEntity
  8
0
  6
Continuous
 62
     7
370
    15
100
AcDbLine
 10
2.799110580099999
 20
3.5624478322
 30
0.0
 11
2.7812534363
 21
3.5624478324
 31
0.0
  0
LINE
  5
175
330
1F
100
AcDbEntity
  8
0
  6
Continuous
 62
     7
370
    15
100
AcDbLine
 10
2.7812534363
 20
3.833876403899999
 30
0.0
 11
2.799110580099999
 21
3.8338764036
 31
0.0
  0
CIRCLE
  5
176
330
1F
100
AcDbEntity
  8
0
  6
Continuous
 62
     7
370
    15
100
AcDbCircle
 10
2.9628607867
 20
3.6606621179
 30
0.0
 40
0.0491071428571432
  0
LINE
  5
177
330
1F
100
AcDbEntity
  8
0
  6
Continuous
 62
     7
370
    15
100
AcDbLine
 10
2.799110580099999
 20
3.5624478322
 30
0.0
 11
3.1175933581
 21
3.5624478322
 31
0.0
  0
LINE
  5
178
330
1F
100
AcDbEntity
  8
0
  6
Continuous
 62
     7
370
    15
100
AcDbLine
 10
3.1175933581
 20
3.8338764036
 30
0.0
 11
2.799110580099999
 21
3.8338764036
 31
0.0
  0
LINE
  5
179
330
1F
100
AcDbEntity
  8
0
  6
Continuous
 62
     7
370
    15
100
AcDbLine
 10
3.1175933581
 20
3.5624478322
 30
0.0
 11
3.1175933581
 21
3.8338764036
 31
0.0
  0
LINE
  5
17A
330
1F
100
AcDbEntity
  8
0
  6
Continuous
 62
     7
370
    15
100
AcDbLine
 10
3.1473248647
 20
3.562447832599999
 30
0.0
 11
3.129467720899999
 21
3.562447832799999
 31
0.0
  0
LINE
  5
17B
330
1F
100
AcDbEntity
  8
0
  6
Continuous
 62
     7
370
    15
100
AcDbLine
 10
3.129467720899999
 20
3.8338764042
 30
0.0
 11
3.1473248647
 21
3.833876403999999
 31
0.0
  0
LINE
  5
17C
330
1F
100
AcDbEntity
  8
0
  6
Continuous
 62
     7
370
    15
100
AcDbLine
 10
3.1175933581
 20
3.562447832799999
 30
0.0
 11
3.129467720899999
 21
3.562447832799999
 31
0.0
  0
LINE
  5
17D
330
1F
100
AcDbEntity
  8
0
  6
Continuous
 62
     7
370
    15
100
AcDbLine
 10
3.129467720899999
 20
3.8338764042
 30
0.0
 11
3.1175933581
 21
3.833876403899999
 31
0.0
  0
LINE
  5
17E
330
1F
100
AcDbEntity
  8
0
  6
Continuous
 62
     7
370
    15
100
AcDbLine
 10
3.121432007699999
 20
3.836036802799999
 30
0.0
 11
3.121432007699999
 21
3.8338764042
 31
0.0
  0
LINE
  5
17F
330
1F
100
AcDbEntity
  8
0
  6
Continuous
 62
     7
370
    15
100
AcDbLine
 10
2.807146293399999
 20
3.8338764036
 30
0.0
 11
2.807146293399999
 21
3.836036802799999
 31
0.0
  0
SPLINE
  5
180
330
1F
100
AcDbEntity
  8
0
  6
HIDDEN
 62
     7
370
     0
100
AcDbSpline
210
0.0
220
0.0
230
1.0
 70
    24
 71
     3
 72
    19
 73
    15
 74
     0
 42
0.0000000001
 43
0.0000000001
 40
0.0
 40
0.0
 40
0.0
 40
0.0
 40
0.0837853706537208
 40
0.1657798879221445
 40
0.2462800078932725
 40
0.3274609277363982
 40
0.4087969540320737
 40
0.4897152412309936
 40
0.5713760321300577
 40
0.6555233211112832
 40
0.7410194827999782
 40
0.8265467605037613
 40
0.9119888516548343
 40
1.0
 40
1.0
 40
1.0
 40
1.0
 10
2.958451238493383
 20
3.838268945662259
 30
0.0
 10
2.95846122733772
 20
3.838268945662259
 30
0.0
 10
2.95848099152187
 20
3.838268945662259
 30
0.0
 10
2.958648138337716
 20
3.838268945662258
 30
0.0
 10
2.958911961503439
 20
3.838268945662258
 30
0.0
 10
2.959281565237073
 20
3.838268945662258
 30
0.0
 10
2.959758024570632
 20
3.838268945662258
 30
0.0
 10
2.960309396823426
 20
3.838268945662258
 30
0.0
 10
2.960966117381366
 20
3.838268945662258
 30
0.0
 10
2.961686673171647
 20
3.838268945662258
 30
0.0
 10
2.96247536989677
 20
3.838268945662258
 30
0.0
 10
2.963301830892159
 20
3.838268945662258
 30
0.0
 10
2.964167369708678
 20
3.838268945662258
 30
0.0
 10
2.964753618187939
 20
3.838268945662258
 30
0.0
 10
2.965051083960416
 20
3.838268945662258
 30
0.0
  0
LINE
  5
181
330
1F
100
AcDbEntity
  8
0
  6
HIDDEN
 62
     7
370
     0
100
AcDbLine
 10
2.965051083999999
 20
3.838268945699999
 30
0.0
 11
2.965051083999999
 21
3.836036802799999
 31
0.0
  0
SPLINE
  5
182
330
1F
100
AcDbEntity
  8
0
  6
HIDDEN
 62
     7
370
     0
100
AcDbSpline
210
0.0
220
0.0
230
1.0
 70
    24
 71
     3
 72
    19
 73
    15
 74
     0
 42
0.0000000001
 43
0.0000000001
 40
0.0
 40
0.0
 40
0.0
 40
0.0
 40
0.1072327993600898
 40
0.2132518127818498
 40
0.3188304473075901
 40
0.426793530634274
 40
0.4836459507827233
 40
0.5436038220211468
 40
0.6083076495640847
 40
0.6771267602600425
 40
0.7506856360204948
 40
0.8287134184432877
 40
0.9121903482234644
 40
1.0
 40
1.0
 40
1.0
 40
1.0
 10
2.965051083960416
 20
3.838268945662258
 30
0.0
 10
2.965366727585147
 20
3.838268945662258
 30
0.0
 10
2.965994442011781
 20
3.838268945662258
 30
0.0
 10
2.966917777845221
 20
3.838268945662258
 30
0.0
 10
2.967806762919714
 20
3.838268945662258
 30
0.0
 10
2.968521889946395
 20
3.838268945662258
 30
0.0
 10
2.969081579447377
 20
3.838268945662258
 30
0.0
 10
2.969508411585303
 20
3.838268945662258
 30
0.0
 10
2.969940943096426
 20
3.838268945662258
 30
0.0
 10
2.970382662903788
 20
3.838268945662258
 30
0.0
 10
2.970826086317864
 20
3.838268945662258
 30
0.0
 10
2.971277796411569
 20
3.838268945662258
 30
0.0
 10
2.971738849489201
 20
3.838268945662258
 30
0.0
 10
2.972035450459538
 20
3.838268945662258
 30
0.0
 10
2.972187502229648
 20
3.838268945662258
 30
0.0
  0
LINE
  5
183
330
1F
100
AcDbEntity
  8
0
  6
HIDDEN
 62
     7
370
     0
100
AcDbLine
 10
2.950209480299999
 20
3.838268945699999
 30
0.0
 11
2.950209480299999
 21
3.836036802799999
 31
0.0
  0
LINE
  5
184
330
1F
100
AcDbEntity
  8
0
  6
HIDDEN
 62
     7
370
     0
100
AcDbLine
 10
2.935442996699999
 20
3.838268945699999
 30
0.0
 11
2.935442996699999
 21
3.836036802799999
 31
0.0
  0
LINE
  5
185
330
1F
100
AcDbEntity
  8
0
  6
HIDDEN
 62
     7
370
     0
100
AcDbLine
 10
2.9780254143
 20
3.838268945699999
 30
0.0
 11
2.983278462099999
 21
3.838268945699999
 31
0.0
  0
LINE
  5
186
330
1F
100
AcDbEntity
  8
0
  6
HIDDEN
 62
     7
370
     0
100
AcDbLine
 10
2.9780254143
 20
3.838268945699999
 30
0.0
 11
2.9780254143
 21
3.836036802799999
 31
0.0
  0
LINE
  5
187
330
1F
100
AcDbEntity
  8
0
  6
HIDDEN
 62
     7
370
     0
100
AcDbLine
 10
2.9378468429
 20
3.838268945699999
 30
0.0
 11
2.9378468429
 21
3.836036802799999
 31
0.0
  0
LINE
  5
188
330
1F
100
AcDbEntity
  8
0
  6
HIDDEN
 62
     7
370
     0
100
AcDbLine
 10
2.952613326399999
 20
3.838268945699999
 30
0.0
 11
2.952613326399999
 21
3.836036802799999
 31
0.0
  0
LINE
  5
189
330
1F
100
AcDbEntity
  8
0
  6
HIDDEN
 62
     7
370
     0
100
AcDbLine
 10
2.983278462099999
 20
3.838268945699999
 30
0.0
 11
2.983278462099999
 21
3.836036802799999
 31
0.0
  0
SPLINE
  5
18A
330
1F
100
AcDbEntity
  8
0
  6
HIDDEN
 62
     7
370
     0
100
AcDbSpline
210
0.0
220
0.0
230
1.0
 70
    24
 71
     3
 72
    15
 73
    11
 74
     0
 42
0.0000000001
 43
0.0000000001
 40
0.0
 40
0.0
 40
0.0
 40
0.0
 40
0.1769557521312513
 40
0.3390550796425815
 40
0.4863182249420775
 40
0.6187809228353781
 40
0.7356188277673811
 40
0.8387424767201105
 40
0.9264570678763194
 40
1.0
 40
1.0
 40
1.0
 40
1.0
 10
2.983278462051076
 20
3.838268945662258
 30
0.0
 10
2.983639770006318
 20
3.838268945662258
 30
0.0
 10
2.984332052094156
 20
3.838268945662258
 30
0.0
 10
2.985324769357233
 20
3.838268945662258
 30
0.0
 10
2.986226374446211
 20
3.838268945662258
 30
0.0
 10
2.987034923279833
 20
3.838268945662258
 30
0.0
 10
2.987752903622332
 20
3.838268945662258
 30
0.0
 10
2.988377066629066
 20
3.838268945662258
 30
0.0
 10
2.988912318335703
 20
3.838268945662258
 30
0.0
 10
2.989233030959018
 20
3.838268945662258
 30
0.0
 10
2.989379294812066
 20
3.838268945662258
 30
0.0
  0
LINE
  5
18B
330
1F
100
AcDbEntity
  8
0
  6
HIDDEN
 62
     7
370
     0
100
AcDbLine
 10
2.950209480299999
 20
3.838268945699999
 30
0.0
 11
2.952613326399999
 21
3.838268945699999
 31
0.0
  0
LINE
  5
18C
330
1F
100
AcDbEntity
  8
0
  6
HIDDEN
 62
     7
370
     0
100
AcDbLine
 10
2.935442996699999
 20
3.838268945699999
 30
0.0
 11
2.9378468429
 21
3.838268945699999
 31
0.0
  0
LINE
  5
18D
330
1F
100
AcDbEntity
  8
0
  6
HIDDEN
 62
     7
370
     0
100
AcDbLine
 10
2.989379294799999
 20
3.838268945699999
 30
0.0
 11
2.989379294799999
 21
3.836036802799999
 31
0.0
  0
SPLINE
  5
18E
330
1F
100
AcDbEntity
  8
0
  6
HIDDEN
 62
     7
370
     0
100
AcDbSpline
210
0.0
220
0.0
230
1.0
 70
    24
 71
     3
 72
    23
 73
    19
 74
     0
 42
0.0000000001
 43
0.0000000001
 40
0.0
 40
0.0
 40
0.0
 40
0.0
 40
0.0624813386352062
 40
0.1234903826872904
 40
0.1834110942063131
 40
0.243153220999782
 40
0.3021267353720859
 40
0.3617096708329059
 40
0.4218422916948771
 40
0.4829319014466706
 40
0.5445522544313204
 40
0.6056807199653612
 40
0.6676797383436862
 40
0.7299843875380646
 40
0.7945509212861272
 40
0.860345619712085
 40
0.9289073562657195
 40
1.0
 40
1.0
 40
1.0
 40
1.0
 10
2.989379294812066
 20
3.838268945662258
 30
0.0
 10
2.989564449407361
 20
3.838268945662258
 30
0.0
 10
2.989930395661535
 20
3.838268945662258
 30
0.0
 10
2.990457699562823
 20
3.838268945662258
 30
0.0
 10
2.990959387155786
 20
3.838268945662258
 30
0.0
 10
2.991437179694906
 20
3.838268945662258
 30
0.0
 10
2.991885205840857
 20
3.838268945662258
 30
0.0
 10
2.992310150031923
 20
3.838268945662258
 30
0.0
 10
2.992708262126024
 20
3.838268945662258
 30
0.0
 10
2.993077303390443
 20
3.838268945662258
 30
0.0
 10
2.993416217657668
 20
3.838268945662258
 30
0.0
 10
2.993708026454048
 20
3.838268945662258
 30
0.0
 10
2.993952367477263
 20
3.838268945662258
 30
0.0
 10
2.994161933330457
 20
3.838268945662259
 30
0.0
 10
2.994312763339151
 20
3.838268945662259
 30
0.0
 10
2.994426387571591
 20
3.838268945662259
 30
0.0
 10
2.994498507170689
 20
3.838268945662259
 30
0.0
 10
2.994505414531059
 20
3.838268945662259
 30
0.0
 10
2.994508930801076
 20
3.838268945662259
 30
0.0
  0
LINE
  5
18F
330
1F
100
AcDbEntity
  8
0
  6
HIDDEN
 62
     7
370
     0
100
AcDbLine
 10
2.960855084599999
 20
3.838268945699999
 30
0.0
 11
2.960855084599999
 21
3.836036802799999
 31
0.0
  0
LINE
  5
190
330
1F
100
AcDbEntity
  8
0
  6
HIDDEN
 62
     7
370
     0
100
AcDbLine
 10
2.964782797599999
 20
3.838268945699999
 30
0.0
 11
2.964782797599999
 21
3.836036802799999
 31
0.0
  0
LINE
  5
191
330
1F
100
AcDbEntity
  8
0
  6
HIDDEN
 62
     7
370
     0
100
AcDbLine
 10
2.9700143824
 20
3.838268945699999
 30
0.0
 11
2.9700143824
 21
3.836036802799999
 31
0.0
  0
LINE
  5
192
330
1F
100
AcDbEntity
  8
0
  6
HIDDEN
 62
     7
370
     0
100
AcDbLine
 10
2.985328170199999
 20
3.838268945699999
 30
0.0
 11
2.985328170199999
 21
3.836036802799999
 31
0.0
  0
LINE
  5
193
330
1F
100
AcDbEntity
  8
0
  6
HIDDEN
 62
     7
370
     0
100
AcDbLine
 10
2.992105084599999
 20
3.838268945699999
 30
0.0
 11
2.992105084599999
 21
3.836036802799999
 31
0.0
  0
LINE
  5
194
330
1F
100
AcDbEntity
  8
0
  6
HIDDEN
 62
     7
370
     0
100
AcDbLine
 10
2.9804292605
 20
3.838268945699999
 30
0.0
 11
2.9804292605
 21
3.836036802799999
 31
0.0
  0
LINE
  5
195
330
1F
100
AcDbEntity
  8
0
  6
HIDDEN
 62
     7
370
     0
100
AcDbLine
 10
2.9721875022
 20
3.838268945699999
 30
0.0
 11
2.9721875022
 21
3.836036802799999
 31
0.0
  0
LINE
  5
196
330
1F
100
AcDbEntity
  8
0
  6
HIDDEN
 62
     7
370
     0
100
AcDbLine
 10
2.9599482766
 20
3.838268945699999
 30
0.0
 11
2.9599482766
 21
3.836036802799999
 31
0.0
  0
LINE
  5
197
330
1F
100
AcDbEntity
  8
0
  6
HIDDEN
 62
     7
370
     0
100
AcDbLine
 10
2.9584512385
 20
3.838268945699999
 30
0.0
 11
2.9584512385
 21
3.836036802799999
 31
0.0
  0
LINE
  5
198
330
1F
100
AcDbEntity
  8
0
  6
HIDDEN
 62
     7
370
     0
100
AcDbLine
 10
2.989164665699999
 20
3.838268945699999
 30
0.0
 11
2.989164665699999
 21
3.836036802799999
 31
0.0
  0
LINE
  5
199
330
1F
100
AcDbEntity
  8
0
  6
HIDDEN
 62
     7
370
     0
100
AcDbLine
 10
2.9945089308
 20
3.838268945699999
 30
0.0
 11
2.9945089308
 21
3.836036802799999
 31
0.0
  0
LINE
  5
19A
330
1F
100
AcDbEntity
  8
0
  6
HIDDEN
 62
     7
370
     0
100
AcDbLine
 10
2.9626204092
 20
3.838268945699999
 30
0.0
 11
2.9626204092
 21
3.836036802799999
 31
0.0
  0
LINE
  5
19B
330
1F
100
AcDbEntity
  8
0
  6
HIDDEN
 62
     7
370
     0
100
AcDbLine
 10
2.964337442099999
 20
3.838268945699999
 30
0.0
 11
2.964337442099999
 21
3.836036802799999
 31
0.0
  0
LINE
  5
19C
330
1F
100
AcDbEntity
  8
0
  6
HIDDEN
 62
     7
370
     0
100
AcDbLine
 10
2.966220812699999
 20
3.838268945699999
 30
0.0
 11
2.966220812699999
 21
3.836036802799999
 31
0.0
  0
LINE
  5
19D
330
1F
100
AcDbEntity
  8
0
  6
HIDDEN
 62
     7
370
     0
100
AcDbLine
 10
2.9851189068
 20
3.838268945699999
 30
0.0
 11
2.9851189068
 21
3.836036802799999
 31
0.0
  0
LINE
  5
19E
330
1F
100
AcDbEntity
  8
0
  6
HIDDEN
 62
     7
370
     0
100
AcDbLine
 10
2.9691665974
 20
3.838268945699999
 30
0.0
 11
2.9691665974
 21
3.836036802799999
 31
0.0
  0
LINE
  5
19F
330
1F
100
AcDbEntity
  8
0
  6
HIDDEN
 62
     7
370
     0
100
AcDbLine
 10
2.9823448254
 20
3.838268945699999
 30
0.0
 11
2.9823448254
 21
3.836036802799999
 31
0.0
  0
LINE
  5
1A0
330
1F
100
AcDbEntity
  8
0
  6
HIDDEN
 62
     7
370
     0
100
AcDbLine
 10
2.9379541574
 20
3.838268945699999
 30
0.0
 11
2.9379541574
 21
3.836036802799999
 31
0.0
  0
LINE
  5
1A1
330
1F
100
AcDbEntity
  8
0
  6
HIDDEN
 62
     7
370
     0
100
AcDbLine
 10
2.9442910822
 20
3.838268945699999
 30
0.0
 11
2.9442910822
 21
3.836036802799999
 31
0.0
  0
LINE
  5
1A2
330
1F
100
AcDbEntity
  8
0
  6
HIDDEN
 62
     7
370
     0
100
AcDbLine
 10
2.935920546499999
 20
3.838268945699999
 30
0.0
 11
2.935920546499999
 21
3.836036802799999
 31
0.0
  0
LINE
  5
1A3
330
1F
100
AcDbEntity
  8
0
  6
HIDDEN
 62
     7
370
     0
100
AcDbLine
 10
2.970127062699999
 20
3.838268945699999
 30
0.0
 11
2.970127062699999
 21
3.836036802799999
 31
0.0
  0
SPLINE
  5
1A4
330
1F
100
AcDbEntity
  8
0
  6
HIDDEN
 62
     7
370
     0
100
AcDbSpline
210
0.0
220
0.0
230
1.0
 70
    24
 71
     3
 72
    19
 73
    15
 74
     0
 42
0.0000000001
 43
0.0000000001
 40
0.0
 40
0.0
 40
0.0
 40
0.0
 40
0.0863150037405923
 40
0.1677664659179401
 40
0.2444326843848608
 40
0.3181346623514551
 40
0.391884106979964
 40
0.4700680503917591
 40
0.553904178713914
 40
0.644339498309819
 40
0.7368746633345121
 40
0.8261683643076461
 40
0.9136785948895809
 40
1.0
 40
1.0
 40
1.0
 40
1.0
 10
2.937954157449428
 20
3.838268945662259
 30
0.0
 10
2.937993780858652
 20
3.838268945662259
 30
0.0
 10
2.938070795039791
 20
3.838268945662259
 30
0.0
 10
2.938267068339098
 20
3.838268945662259
 30
0.0
 10
2.938541181867169
 20
3.838268945662259
 30
0.0
 10
2.938866001071705
 20
3.838268945662259
 30
0.0
 10
2.939294056770816
 20
3.838268945662259
 30
0.0
 10
2.939806838928546
 20
3.838268945662259
 30
0.0
 10
2.940428097361181
 20
3.838268945662259
 30
0.0
 10
2.941118867302558
 20
3.838268945662259
 30
0.0
 10
2.9418633971815
 20
3.838268945662259
 30
0.0
 10
2.94262419768929
 20
3.838268945662259
 30
0.0
 10
2.943389832733844
 20
3.838268945662259
 30
0.0
 10
2.943902405425788
 20
3.838268945662259
 30
0.0
 10
2.944156939042835
 20
3.838268945662259
 30
0.0
  0
LINE
  5
1A5
330
1F
100
AcDbEntity
  8
0
  6
HIDDEN
 62
     7
370
     0
100
AcDbLine
 10
2.944156938999999
 20
3.838268945699999
 30
0.0
 11
2.944156938999999
 21
3.836036802799999
 31
0.0
  0
LINE
  5
1A6
330
1F
100
AcDbEntity
  8
0
  6
HIDDEN
 62
     7
370
     0
100
AcDbLine
 10
2.9499358281
 20
3.838268945699999
 30
0.0
 11
2.9499358281
 21
3.836036802799999
 31
0.0
  0
SPLINE
  5
1A7
330
1F
100
AcDbEntity
  8
0
  6
HIDDEN
 62
     7
370
     0
100
AcDbSpline
210
0.0
220
0.0
230
1.0
 70
    24
 71
     3
 72
    10
 73
     6
 74
     0
 42
0.0000000001
 43
0.0000000001
 40
0.0
 40
0.0
 40
0.0
 40
0.0
 40
0.4304816032689002
 40
0.8606606008136026
 40
1.0
 40
1.0
 40
1.0
 40
1.0
 10
2.944156939042835
 20
3.838268945662259
 30
0.0
 10
2.94488831512057
 20
3.838268945662259
 30
0.0
 10
2.946350553157468
 20
3.838268945662259
 30
0.0
 10
2.947922761060665
 20
3.838268945662259
 30
0.0
 10
2.948503717346168
 20
3.838268945662259
 30
0.0
 10
2.948645855159872
 20
3.838268945662259
 30
0.0
  0
LINE
  5
1A8
330
1F
100
AcDbEntity
  8
0
  6
HIDDEN
 62
     7
370
     0
100
AcDbLine
 10
2.972530908799999
 20
3.838268945699999
 30
0.0
 11
2.972530908799999
 21
3.836036802799999
 31
0.0
  0
LINE
  5
1A9
330
1F
100
AcDbEntity
  8
0
  6
HIDDEN
 62
     7
370
     0
100
AcDbLine
 10
2.964879380699999
 20
3.838268945699999
 30
0.0
 11
2.964879380699999
 21
3.836036802799999
 31
0.0
  0
LINE
  5
1AA
330
1F
100
AcDbEntity
  8
0
  6
HIDDEN
 62
     7
370
     0
100
AcDbLine
 10
2.958998542799999
 20
3.838268945699999
 30
0.0
 11
2.958998542799999
 21
3.836036802799999
 31
0.0
  0
LINE
  5
1AB
330
1F
100
AcDbEntity
  8
0
  6
HIDDEN
 62
     7
370
     0
100
AcDbLine
 10
2.9567342055
 20
3.838268945699999
 30
0.0
 11
2.958998542799999
 21
3.838268945699999
 31
0.0
  0
LINE
  5
1AC
330
1F
100
AcDbEntity
  8
0
  6
HIDDEN
 62
     7
370
     0
100
AcDbLine
 10
2.9567342055
 20
3.838268945699999
 30
0.0
 11
2.9567342055
 21
3.836036802799999
 31
0.0
  0
LINE
  5
1AD
330
1F
100
AcDbEntity
  8
0
  6
HIDDEN
 62
     7
370
     0
100
AcDbLine
 10
3.004666253899999
 20
3.838268945699999
 30
0.0
 11
3.004666253899999
 21
3.836036802799999
 31
0.0
  0
LINE
  5
1AE
330
1F
100
AcDbEntity
  8
0
  6
HIDDEN
 62
     7
370
     0
100
AcDbLine
 10
3.005154535199999
 20
3.838268945699999
 30
0.0
 11
3.005154535199999
 21
3.836036802799999
 31
0.0
  0
LINE
  5
1AF
330
1F
100
AcDbEntity
  8
0
  6
HIDDEN
 62
     7
370
     0
100
AcDbLine
 10
3.004666253899999
 20
3.838268945699999
 30
0.0
 11
3.005154535199999
 21
3.838268945699999
 31
0.0
  0
LINE
  5
1B0
330
1F
100
AcDbEntity
  8
0
  6
HIDDEN
 62
     7
370
     0
100
AcDbLine
 10
2.995493238999999
 20
3.838268945699999
 30
0.0
 11
3.004666253899999
 21
3.838268945699999
 31
0.0
  0
SPLINE
  5
1B1
330
1F
100
AcDbEntity
  8
0
  6
HIDDEN
 62
     7
370
     0
100
AcDbSpline
210
0.0
220
0.0
230
1.0
 70
    24
 71
     3
 72
    19
 73
    15
 74
     0
 42
0.0000000001
 43
0.0000000001
 40
0.0
 40
0.0
 40
0.0
 40
0.0
 40
0.1072327993600883
 40
0.2132518127818459
 40
0.3188304473075854
 40
0.4267935306342677
 40
0.4836459507827163
 40
0.5436038220211389
 40
0.6083076495640757
 40
0.6771267602600324
 40
0.7506856360204833
 40
0.8287134184432758
 40
0.9121903482234509
 40
1.0
 40
1.0
 40
1.0
 40
1.0
 10
3.018622512531845
 20
3.838268945662259
 30
0.0
 10
3.018938156156576
 20
3.838268945662259
 30
0.0
 10
3.019565870583208
 20
3.838268945662259
 30
0.0
 10
3.020489206416649
 20
3.838268945662259
 30
0.0
 10
3.021378191491143
 20
3.838268945662259
 30
0.0
 10
3.022093318517824
 20
3.838268945662259
 30
0.0
 10
3.022653008018806
 20
3.838268945662259
 30
0.0
 10
3.023079840156732
 20
3.838268945662259
 30
0.0
 10
3.023512371667853
 20
3.838268945662259
 30
0.0
 10
3.023954091475216
 20
3.838268945662259
 30
0.0
 10
3.024397514889292
 20
3.838268945662259
 30
0.0
 10
3.024849224982997
 20
3.838268945662259
 30
0.0
 10
3.025310278060629
 20
3.838268945662259
 30
0.0
 10
3.025606879030966
 20
3.838268945662259
 30
0.0
 10
3.025758930801076
 20
3.838268945662259
 30
0.0
  0
SPLINE
  5
1B2
330
1F
100
AcDbEntity
  8
0
  6
HIDDEN
 62
     7
370
     0
100
AcDbSpline
210
0.0
220
0.0
230
1.0
 70
    24
 71
     3
 72
    19
 73
    15
 74
     0
 42
0.0000000001
 43
0.0000000001
 40
0.0
 40
0.0
 40
0.0
 40
0.0
 40
0.0837853706537207
 40
0.1657798879221444
 40
0.2462800078932722
 40
0.3274609277363981
 40
0.4087969540320734
 40
0.4897152412309936
 40
0.5713760321300576
 40
0.6555233211112832
 40
0.7410194827999775
 40
0.8265467605037608
 40
0.9119888516548336
 40
1.0
 40
1.0
 40
1.0
 40
1.0
 10
3.012022667064812
 20
3.838268945662259
 30
0.0
 10
3.012032655909149
 20
3.838268945662259
 30
0.0
 10
3.012052420093298
 20
3.838268945662259
 30
0.0
 10
3.012219566909143
 20
3.838268945662259
 30
0.0
 10
3.012483390074867
 20
3.838268945662259
 30
0.0
 10
3.012852993808501
 20
3.838268945662259
 30
0.0
 10
3.01332945314206
 20
3.838268945662259
 30
0.0
 10
3.013880825394855
 20
3.838268945662259
 30
0.0
 10
3.014537545952795
 20
3.838268945662259
 30
0.0
 10
3.015258101743076
 20
3.838268945662259
 30
0.0
 10
3.016046798468198
 20
3.838268945662259
 30
0.0
 10
3.016873259463588
 20
3.838268945662259
 30
0.0
 10
3.017738798280107
 20
3.838268945662259
 30
0.0
 10
3.018325046759368
 20
3.838268945662259
 30
0.0
 10
3.018622512531845
 20
3.838268945662259
 30
0.0
  0
LINE
  5
1B3
330
1F
100
AcDbEntity
  8
0
  6
HIDDEN
 62
     7
370
     0
100
AcDbLine
 10
3.018622512499999
 20
3.838268945699999
 30
0.0
 11
3.018622512499999
 21
3.836036802799999
 31
0.0
  0
LINE
  5
1B4
330
1F
100
AcDbEntity
  8
0
  6
HIDDEN
 62
     7
370
     0
100
AcDbLine
 10
2.919989699999999
 20
3.838268945699999
 30
0.0
 11
2.919989699999999
 21
3.836036802799999
 31
0.0
  0
LINE
  5
1B5
330
1F
100
AcDbEntity
  8
0
  6
HIDDEN
 62
     7
370
     0
100
AcDbLine
 10
2.9038495901
 20
3.838268945699999
 30
0.0
 11
2.9038495901
 21
3.836036802799999
 31
0.0
  0
LINE
  5
1B6
330
1F
100
AcDbEntity
  8
0
  6
HIDDEN
 62
     7
370
     0
100
AcDbLine
 10
2.9062534363
 20
3.838268945699999
 30
0.0
 11
2.9062534363
 21
3.836036802799999
 31
0.0
  0
LINE
  5
1B7
330
1F
100
AcDbEntity
  8
0
  6
HIDDEN
 62
     7
370
     0
100
AcDbLine
 10
2.9038495901
 20
3.838268945699999
 30
0.0
 11
2.9062534363
 21
3.838268945699999
 31
0.0
  0
LINE
  5
1B8
330
1F
100
AcDbEntity
  8
0
  6
HIDDEN
 62
     7
370
     0
100
AcDbLine
 10
2.919989699999999
 20
3.838268945699999
 30
0.0
 11
2.9223935462
 21
3.838268945699999
 31
0.0
  0
LINE
  5
1B9
330
1F
100
AcDbEntity
  8
0
  6
HIDDEN
 62
     7
370
     0
100
AcDbLine
 10
2.9223935462
 20
3.838268945699999
 30
0.0
 11
2.9223935462
 21
3.836036802799999
 31
0.0
  0
LINE
  5
1BA
330
1F
100
AcDbEntity
  8
0
  6
HIDDEN
 62
     7
370
     0
100
AcDbLine
 10
2.941280908799999
 20
3.838268945699999
 30
0.0
 11
2.941280908799999
 21
3.836036802799999
 31
0.0
  0
LINE
  5
1BB
330
1F
100
AcDbEntity
  8
0
  6
HIDDEN
 62
     7
370
     0
100
AcDbLine
 10
2.941280908799999
 20
3.838268945699999
 30
0.0
 11
2.943172630799999
 21
3.838268945699999
 31
0.0
  0
LINE
  5
1BC
330
1F
100
AcDbEntity
  8
0
  6
HIDDEN
 62
     7
370
     0
100
AcDbLine
 10
2.952613326399999
 20
3.838268945699999
 30
0.0
 11
2.9553605792
 21
3.838268945699999
 31
0.0
  0
LINE
  5
1BD
330
1F
100
AcDbEntity
  8
0
  6
HIDDEN
 62
     7
370
     0
100
AcDbLine
 10
2.9553605792
 20
3.838268945699999
 30
0.0
 11
2.9553605792
 21
3.836036802799999
 31
0.0
  0
LINE
  5
1BE
330
1F
100
AcDbEntity
  8
0
  6
HIDDEN
 62
     7
370
     0
100
AcDbLine
 10
2.9800858539
 20
3.838268945699999
 30
0.0
 11
2.9800858539
 21
3.836036802799999
 31
0.0
  0
LINE
  5
1BF
330
1F
100
AcDbEntity
  8
0
  6
HIDDEN
 62
     7
370
     0
100
AcDbLine
 10
2.926171018699999
 20
3.838268945699999
 30
0.0
 11
2.935027197699999
 21
3.838268945699999
 31
0.0
  0
LINE
  5
1C0
330
1F
100
AcDbEntity
  8
0
  6
HIDDEN
 62
     7
370
     0
100
AcDbLine
 10
2.938142406399999
 20
3.838268945699999
 30
0.0
 11
2.940250688999999
 21
3.838268945699999
 31
0.0
  0
LINE
  5
1C1
330
1F
100
AcDbEntity
  8
0
  6
HIDDEN
 62
     7
370
     0
100
AcDbLine
 10
2.926171018699999
 20
3.838268945699999
 30
0.0
 11
2.926171018699999
 21
3.836036802799999
 31
0.0
  0
LINE
  5
1C2
330
1F
100
AcDbEntity
  8
0
  6
HIDDEN
 62
     7
370
     0
100
AcDbLine
 10
2.940250688999999
 20
3.838268945699999
 30
0.0
 11
2.940250688999999
 21
3.836036802799999
 31
0.0
  0
LINE
  5
1C3
330
1F
100
AcDbEntity
  8
0
  6
HIDDEN
 62
     7
370
     0
100
AcDbLine
 10
2.975133286899999
 20
3.838268945699999
 30
0.0
 11
2.9780254143
 21
3.838268945699999
 31
0.0
  0
LINE
  5
1C4
330
1F
100
AcDbEntity
  8
0
  6
HIDDEN
 62
     7
370
     0
100
AcDbLine
 10
2.9735611286
 20
3.838268945699999
 30
0.0
 11
2.975133286899999
 21
3.838268945699999
 31
0.0
  0
LINE
  5
1C5
330
1F
100
AcDbEntity
  8
0
  6
HIDDEN
 62
     7
370
     0
100
AcDbLine
 10
2.975133286899999
 20
3.838268945699999
 30
0.0
 11
2.975133286899999
 21
3.836036802799999
 31
0.0
  0
LINE
  5
1C6
330
1F
100
AcDbEntity
  8
0
  6
HIDDEN
 62
     7
370
     0
100
AcDbLine
 10
3.0183542261
 20
3.838268945699999
 30
0.0
 11
3.0183542261
 21
3.836036802799999
 31
0.0
  0
LINE
  5
1C7
330
1F
100
AcDbEntity
  8
0
  6
HIDDEN
 62
     7
370
     0
100
AcDbLine
 10
3.023585811
 20
3.838268945699999
 30
0.0
 11
3.023585811
 21
3.836036802799999
 31
0.0
  0
LINE
  5
1C8
330
1F
100
AcDbEntity
  8
0
  6
HIDDEN
 62
     7
370
     0
100
AcDbLine
 10
3.0144265132
 20
3.838268945699999
 30
0.0
 11
3.0144265132
 21
3.836036802799999
 31
0.0
  0
LINE
  5
1C9
330
1F
100
AcDbEntity
  8
0
  6
HIDDEN
 62
     7
370
     0
100
AcDbLine
 10
2.9320089308
 20
3.838268945699999
 30
0.0
 11
2.9320089308
 21
3.836036802799999
 31
0.0
  0
LINE
  5
1CA
330
1F
100
AcDbEntity
  8
0
  6
HIDDEN
 62
     7
370
     0
100
AcDbLine
 10
2.977682007699999
 20
3.838268945699999
 30
0.0
 11
2.977682007699999
 21
3.836036802799999
 31
0.0
  0
LINE
  5
1CB
330
1F
100
AcDbEntity
  8
0
  6
HIDDEN
 62
     7
370
     0
100
AcDbLine
 10
2.9735611286
 20
3.838268945699999
 30
0.0
 11
2.9735611286
 21
3.836036802799999
 31
0.0
  0
LINE
  5
1CC
330
1F
100
AcDbEntity
  8
0
  6
HIDDEN
 62
     7
370
     0
100
AcDbLine
 10
2.947118820899999
 20
3.838268945699999
 30
0.0
 11
2.947118820899999
 21
3.836036802799999
 31
0.0
  0
LINE
  5
1CD
330
1F
100
AcDbEntity
  8
0
  6
HIDDEN
 62
     7
370
     0
100
AcDbLine
 10
2.949522667099999
 20
3.838268945699999
 30
0.0
 11
2.949522667099999
 21
3.836036802799999
 31
0.0
  0
LINE
  5
1CE
330
1F
100
AcDbEntity
  8
0
  6
HIDDEN
 62
     7
370
     0
100
AcDbLine
 10
2.934412777
 20
3.838268945699999
 30
0.0
 11
2.934412777
 21
3.836036802799999
 31
0.0
  0
LINE
  5
1CF
330
1F
100
AcDbEntity
  8
0
  6
HIDDEN
 62
     7
370
     0
100
AcDbLine
 10
3.025758930799999
 20
3.838268945699999
 30
0.0
 11
3.025758930799999
 21
3.836036802799999
 31
0.0
  0
LINE
  5
1D0
330
1F
100
AcDbEntity
  8
0
  6
HIDDEN
 62
     7
370
     0
100
AcDbLine
 10
3.013519705199999
 20
3.838268945699999
 30
0.0
 11
3.013519705199999
 21
3.836036802799999
 31
0.0
  0
LINE
  5
1D1
330
1F
100
AcDbEntity
  8
0
  6
HIDDEN
 62
     7
370
     0
100
AcDbLine
 10
3.012022667099999
 20
3.838268945699999
 30
0.0
 11
3.012022667099999
 21
3.836036802799999
 31
0.0
  0
LINE
  5
1D2
330
1F
100
AcDbEntity
  8
0
  6
HIDDEN
 62
     7
370
     0
100
AcDbLine
 10
2.994766485699999
 20
3.838268945699999
 30
0.0
 11
2.994766485699999
 21
3.836036802799999
 31
0.0
  0
LINE
  5
1D3
330
1F
100
AcDbEntity
  8
0
  6
HIDDEN
 62
     7
370
     0
100
AcDbLine
 10
3.002750688999999
 20
3.838268945699999
 30
0.0
 11
3.002750688999999
 21
3.836036802799999
 31
0.0
  0
LINE
  5
1D4
330
1F
100
AcDbEntity
  8
0
  6
HIDDEN
 62
     7
370
     0
100
AcDbLine
 10
3.016191837699999
 20
3.838268945699999
 30
0.0
 11
3.016191837699999
 21
3.836036802799999
 31
0.0
  0
LINE
  5
1D5
330
1F
100
AcDbEntity
  8
0
  6
HIDDEN
 62
     7
370
     0
100
AcDbLine
 10
3.017908870699999
 20
3.838268945699999
 30
0.0
 11
3.017908870699999
 21
3.836036802799999
 31
0.0
  0
LINE
  5
1D6
330
1F
100
AcDbEntity
  8
0
  6
HIDDEN
 62
     7
370
     0
100
AcDbLine
 10
2.9062534363
 20
3.838268945699999
 30
0.0
 11
2.919989699999999
 21
3.838268945699999
 31
0.0
  0
LINE
  5
1D7
330
1F
100
AcDbEntity
  8
0
  6
HIDDEN
 62
     7
370
     0
100
AcDbLine
 10
3.0197922412
 20
3.838268945699999
 30
0.0
 11
3.0197922412
 21
3.836036802799999
 31
0.0
  0
LINE
  5
1D8
330
1F
100
AcDbEntity
  8
0
  6
HIDDEN
 62
     7
370
     0
100
AcDbLine
 10
3.022738025899999
 20
3.838268945699999
 30
0.0
 11
3.022738025899999
 21
3.836036802799999
 31
0.0
  0
LINE
  5
1D9
330
1F
100
AcDbEntity
  8
0
  6
HIDDEN
 62
     7
370
     0
100
AcDbLine
 10
2.957077612099999
 20
3.838268945699999
 30
0.0
 11
2.957077612099999
 21
3.836036802799999
 31
0.0
  0
LINE
  5
1DA
330
1F
100
AcDbEntity
  8
0
  6
HIDDEN
 62
     7
370
     0
100
AcDbLine
 10
2.9673798099
 20
3.838268945699999
 30
0.0
 11
2.9673798099
 21
3.836036802799999
 31
0.0
  0
LINE
  5
1DB
330
1F
100
AcDbEntity
  8
0
  6
HIDDEN
 62
     7
370
     0
100
AcDbLine
 10
2.9664214061
 20
3.838268945699999
 30
0.0
 11
2.9673798099
 21
3.838268945699999
 31
0.0
  0
LINE
  5
1DC
330
1F
100
AcDbEntity
  8
0
  6
HIDDEN
 62
     7
370
     0
100
AcDbLine
 10
3.0236984912
 20
3.838268945699999
 30
0.0
 11
3.0236984912
 21
3.836036802799999
 31
0.0
  0
LINE
  5
1DD
330
1F
100
AcDbEntity
  8
0
  6
HIDDEN
 62
     7
370
     0
100
AcDbLine
 10
3.005154535199999
 20
3.838268945699999
 30
0.0
 11
3.008245194499999
 21
3.838268945699999
 31
0.0
  0
LINE
  5
1DE
330
1F
100
AcDbEntity
  8
0
  6
HIDDEN
 62
     7
370
     0
100
AcDbLine
 10
3.008245194499999
 20
3.838268945699999
 30
0.0
 11
3.008245194499999
 21
3.836036802799999
 31
0.0
  0
LINE
  5
1DF
330
1F
100
AcDbEntity
  8
0
  6
HIDDEN
 62
     7
370
     0
100
AcDbLine
 10
3.0261023374
 20
3.838268945699999
 30
0.0
 11
3.0261023374
 21
3.836036802799999
 31
0.0
  0
LINE
  5
1E0
330
1F
100
AcDbEntity
  8
0
  6
HIDDEN
 62
     7
370
     0
100
AcDbLine
 10
3.0103056341
 20
3.838268945699999
 30
0.0
 11
3.0125699713
 21
3.838268945699999
 31
0.0
  0
LINE
  5
1E1
330
1F
100
AcDbEntity
  8
0
  6
HIDDEN
 62
     7
370
     0
100
AcDbLine
 10
3.0125699713
 20
3.838268945699999
 30
0.0
 11
3.0125699713
 21
3.836036802799999
 31
0.0
  0
LINE
  5
1E2
330
1F
100
AcDbEntity
  8
0
  6
HIDDEN
 62
     7
370
     0
100
AcDbLine
 10
3.018450809199999
 20
3.838268945699999
 30
0.0
 11
3.018450809199999
 21
3.836036802799999
 31
0.0
  0
LINE
  5
1E3
330
1F
100
AcDbEntity
  8
0
  6
HIDDEN
 62
     7
370
     0
100
AcDbLine
 10
2.990044645099999
 20
3.838268945699999
 30
0.0
 11
2.990044645099999
 21
3.836036802799999
 31
0.0
  0
LINE
  5
1E4
330
1F
100
AcDbEntity
  8
0
  6
HIDDEN
 62
     7
370
     0
100
AcDbLine
 10
3.0103056341
 20
3.838268945699999
 30
0.0
 11
3.0103056341
 21
3.836036802799999
 31
0.0
  0
LINE
  5
1E5
330
1F
100
AcDbEntity
  8
0
  6
HIDDEN
 62
     7
370
     0
100
AcDbLine
 10
2.929766056499999
 20
3.838268945699999
 30
0.0
 11
2.929766056499999
 21
3.836036802799999
 31
0.0
  0
SPLINE
  5
1E6
330
1F
100
AcDbEntity
  8
0
  6
HIDDEN
 62
     7
370
     0
100
AcDbSpline
210
0.0
220
0.0
230
1.0
 70
    24
 71
     3
 72
     9
 73
     5
 74
     0
 42
0.0000000001
 43
0.0000000001
 40
0.0
 40
0.0
 40
0.0
 40
0.0
 40
0.2617460250802868
 40
1.0
 40
1.0
 40
1.0
 40
1.0
 10
2.923377910640134
 20
3.838268945662259
 30
0.0
 10
2.923881116933616
 20
3.838268945662259
 30
0.0
 10
2.925803615253606
 20
3.838268945662259
 30
0.0
 10
2.928083167776687
 20
3.838268945662259
 30
0.0
 10
2.929766056487889
 20
3.838268945662259
 30
0.0
  0
LINE
  5
1E7
330
1F
100
AcDbEntity
  8
0
  6
HIDDEN
 62
     7
370
     0
100
AcDbLine
 10
3.015016743299999
 20
3.838268945699999
 30
0.0
 11
3.015016743299999
 21
3.836036802799999
 31
0.0
  0
SPLINE
  5
1E8
330
1F
100
AcDbEntity
  8
0
  6
HIDDEN
 62
     7
370
     0
100
AcDbSpline
210
0.0
220
0.0
230
1.0
 70
    24
 71
     3
 72
     9
 73
     5
 74
     0
 42
0.0000000001
 43
0.0000000001
 40
0.0
 40
0.0
 40
0.0
 40
0.0
 40
0.8633137435641678
 40
1.0
 40
1.0
 40
1.0
 40
1.0
 10
3.008416897834043
 20
3.838268945662259
 30
0.0
 10
3.008452093635452
 20
3.838268945662259
 30
0.0
 10
3.008492861898058
 20
3.838268945662259
 30
0.0
 10
3.009221653805752
 20
3.838268945662259
 30
0.0
 10
3.009321269643336
 20
3.838268945662259
 30
0.0
  0
LINE
  5
1E9
330
1F
100
AcDbEntity
  8
0
  6
HIDDEN
 62
     7
370
     0
100
AcDbLine
 10
2.959985836699999
 20
3.838268945699999
 30
0.0
 11
2.959985836699999
 21
3.836036802799999
 31
0.0
  0
LINE
  5
1EA
330
1F
100
AcDbEntity
  8
0
  6
HIDDEN
 62
     7
370
     0
100
AcDbLine
 10
2.989529535199999
 20
3.838268945699999
 30
0.0
 11
2.989529535199999
 21
3.836036802799999
 31
0.0
  0
LINE
  5
1EB
330
1F
100
AcDbEntity
  8
0
  6
HIDDEN
 62
     7
370
     0
100
AcDbLine
 10
3.004639425299999
 20
3.838268945699999
 30
0.0
 11
3.004639425299999
 21
3.836036802799999
 31
0.0
  0
LINE
  5
1EC
330
1F
100
AcDbEntity
  8
0
  6
HIDDEN
 62
     7
370
     0
100
AcDbLine
 10
2.9098592055
 20
3.838268945699999
 30
0.0
 11
2.9098592055
 21
3.836036802799999
 31
0.0
  0
LINE
  5
1ED
330
1F
100
AcDbEntity
  8
0
  6
HIDDEN
 62
     7
370
     0
100
AcDbLine
 10
2.9074553594
 20
3.838268945699999
 30
0.0
 11
2.9074553594
 21
3.836036802799999
 31
0.0
  0
LINE
  5
1EE
330
1F
100
AcDbEntity
  8
0
  6
HIDDEN
 62
     7
370
     0
100
AcDbLine
 10
2.9177575572
 20
3.838268945699999
 30
0.0
 11
2.9177575572
 21
3.836036802799999
 31
0.0
  0
LINE
  5
1EF
330
1F
100
AcDbEntity
  8
0
  6
HIDDEN
 62
     7
370
     0
100
AcDbLine
 10
2.9296158161
 20
3.838268945699999
 30
0.0
 11
2.9296158161
 21
3.836036802799999
 31
0.0
  0
LINE
  5
1F0
330
1F
100
AcDbEntity
  8
0
  6
HIDDEN
 62
     7
370
     0
100
AcDbLine
 10
3.0147484569
 20
3.838268945699999
 30
0.0
 11
3.0147484569
 21
3.836036802799999
 31
0.0
  0
LINE
  5
1F1
330
1F
100
AcDbEntity
  8
0
  6
HIDDEN
 62
     7
370
     0
100
AcDbLine
 10
3.0199800417
 20
3.838268945699999
 30
0.0
 11
3.0199800417
 21
3.836036802799999
 31
0.0
  0
LINE
  5
1F2
330
1F
100
AcDbEntity
  8
0
  6
HIDDEN
 62
     7
370
     0
100
AcDbLine
 10
2.939349246699999
 20
3.838268945699999
 30
0.0
 11
2.939349246699999
 21
3.836036802799999
 31
0.0
  0
LINE
  5
1F3
330
1F
100
AcDbEntity
  8
0
  6
HIDDEN
 62
     7
370
     0
100
AcDbLine
 10
3.010820743999999
 20
3.838268945699999
 30
0.0
 11
3.010820743999999
 21
3.836036802799999
 31
0.0
  0
LINE
  5
1F4
330
1F
100
AcDbEntity
  8
0
  6
HIDDEN
 62
     7
370
     0
100
AcDbLine
 10
2.9479773374
 20
3.838268945699999
 30
0.0
 11
2.9479773374
 21
3.836036802799999
 31
0.0
  0
LINE
  5
1F5
330
1F
100
AcDbEntity
  8
0
  6
HIDDEN
 62
     7
370
     0
100
AcDbLine
 10
2.959835596299999
 20
3.838268945699999
 30
0.0
 11
2.959835596299999
 21
3.836036802799999
 31
0.0
  0
LINE
  5
1F6
330
1F
100
AcDbEntity
  8
0
  6
HIDDEN
 62
     7
370
     0
100
AcDbLine
 10
2.969569027
 20
3.838268945699999
 30
0.0
 11
2.969569027
 21
3.836036802799999
 31
0.0
  0
LINE
  5
1F7
330
1F
100
AcDbEntity
  8
0
  6
HIDDEN
 62
     7
370
     0
100
AcDbLine
 10
2.991933381399999
 20
3.838268945699999
 30
0.0
 11
2.991933381399999
 21
3.836036802799999
 31
0.0
  0
LINE
  5
1F8
330
1F
100
AcDbEntity
  8
0
  6
HIDDEN
 62
     7
370
     0
100
AcDbLine
 10
3.0221531616
 20
3.838268945699999
 30
0.0
 11
3.0221531616
 21
3.836036802799999
 31
0.0
  0
LINE
  5
1F9
330
1F
100
AcDbEntity
  8
0
  6
HIDDEN
 62
     7
370
     0
100
AcDbLine
 10
2.941452612099999
 20
3.838268945699999
 30
0.0
 11
2.941452612099999
 21
3.836036802799999
 31
0.0
  0
LINE
  5
1FA
330
1F
100
AcDbEntity
  8
0
  6
HIDDEN
 62
     7
370
     0
100
AcDbLine
 10
2.9716723923
 20
3.838268945699999
 30
0.0
 11
2.9716723923
 21
3.836036802799999
 31
0.0
  0
LINE
  5
1FB
330
1F
100
AcDbEntity
  8
0
  6
HIDDEN
 62
     7
370
     0
100
AcDbLine
 10
3.009913936
 20
3.838268945699999
 30
0.0
 11
3.009913936
 21
3.836036802799999
 31
0.0
  0
LINE
  5
1FC
330
1F
100
AcDbEntity
  8
0
  6
HIDDEN
 62
     7
370
     0
100
AcDbLine
 10
3.008416897799999
 20
3.838268945699999
 30
0.0
 11
3.008416897799999
 21
3.836036802799999
 31
0.0
  0
LINE
  5
1FD
330
1F
100
AcDbEntity
  8
0
  6
HIDDEN
 62
     7
370
     0
100
AcDbLine
 10
3.0125860685
 20
3.838268945699999
 30
0.0
 11
3.0125860685
 21
3.836036802799999
 31
0.0
  0
LINE
  5
1FE
330
1F
100
AcDbEntity
  8
0
  6
HIDDEN
 62
     7
370
     0
100
AcDbLine
 10
3.014303101499999
 20
3.838268945699999
 30
0.0
 11
3.014303101499999
 21
3.836036802799999
 31
0.0
  0
LINE
  5
1FF
330
1F
100
AcDbEntity
  8
0
  6
HIDDEN
 62
     7
370
     0
100
AcDbLine
 10
3.016186471999999
 20
3.838268945699999
 30
0.0
 11
3.016186471999999
 21
3.836036802799999
 31
0.0
  0
LINE
  5
200
330
1F
100
AcDbEntity
  8
0
  6
HIDDEN
 62
     7
370
     0
100
AcDbLine
 10
2.918750216899999
 20
3.838268945699999
 30
0.0
 11
2.918750216899999
 21
3.836036802799999
 31
0.0
  0
LINE
  5
201
330
1F
100
AcDbEntity
  8
0
  6
HIDDEN
 62
     7
370
     0
100
AcDbLine
 10
2.915353711
 20
3.838268945699999
 30
0.0
 11
2.915353711
 21
3.836036802799999
 31
0.0
  0
LINE
  5
202
330
1F
100
AcDbEntity
  8
0
  6
HIDDEN
 62
     7
370
     0
100
AcDbLine
 10
2.948969997099999
 20
3.838268945699999
 30
0.0
 11
2.948969997099999
 21
3.836036802799999
 31
0.0
  0
LINE
  5
203
330
1F
100
AcDbEntity
  8
0
  6
HIDDEN
 62
     7
370
     0
100
AcDbLine
 10
2.9455734912
 20
3.838268945699999
 30
0.0
 11
2.9455734912
 21
3.836036802799999
 31
0.0
  0
LINE
  5
204
330
1F
100
AcDbEntity
  8
0
  6
HIDDEN
 62
     7
370
     0
100
AcDbLine
 10
3.0191322567
 20
3.838268945699999
 30
0.0
 11
3.0191322567
 21
3.836036802799999
 31
0.0
  0
LINE
  5
205
330
1F
100
AcDbEntity
  8
0
  6
HIDDEN
 62
     7
370
     0
100
AcDbLine
 10
2.9747630517
 20
3.838268945699999
 30
0.0
 11
2.9747630517
 21
3.836036802799999
 31
0.0
  0
LINE
  5
206
330
1F
100
AcDbEntity
  8
0
  6
HIDDEN
 62
     7
370
     0
100
AcDbLine
 10
2.985065249499999
 20
3.838268945699999
 30
0.0
 11
2.985065249499999
 21
3.836036802799999
 31
0.0
  0
LINE
  5
207
330
1F
100
AcDbEntity
  8
0
  6
HIDDEN
 62
     7
370
     0
100
AcDbLine
 10
3.020092721999999
 20
3.838268945699999
 30
0.0
 11
3.020092721999999
 21
3.836036802799999
 31
0.0
  0
LINE
  5
208
330
1F
100
AcDbEntity
  8
0
  6
HIDDEN
 62
     7
370
     0
100
AcDbLine
 10
3.022496568199999
 20
3.838268945699999
 30
0.0
 11
3.022496568199999
 21
3.836036802799999
 31
0.0
  0
LINE
  5
209
330
1F
100
AcDbEntity
  8
0
  6
HIDDEN
 62
     7
370
     0
100
AcDbLine
 10
3.008245194499999
 20
3.838268945699999
 30
0.0
 11
3.008964202099999
 21
3.838268945699999
 31
0.0
  0
LINE
  5
20A
330
1F
100
AcDbEntity
  8
0
  6
HIDDEN
 62
     7
370
     0
100
AcDbLine
 10
2.9297821537
 20
3.838268945699999
 30
0.0
 11
2.9297821537
 21
3.836036802799999
 31
0.0
  0
LINE
  5
20B
330
1F
100
AcDbEntity
  8
0
  6
HIDDEN
 62
     7
370
     0
100
AcDbLine
 10
3.008964202099999
 20
3.838268945699999
 30
0.0
 11
3.008964202099999
 21
3.836036802799999
 31
0.0
  0
LINE
  5
20C
330
1F
100
AcDbEntity
  8
0
  6
HIDDEN
 62
     7
370
     0
100
AcDbLine
 10
3.014845039999999
 20
3.838268945699999
 30
0.0
 11
3.014845039999999
 21
3.836036802799999
 31
0.0
  0
LINE
  5
20D
330
1F
100
AcDbEntity
  8
0
  6
HIDDEN
 62
     7
370
     0
100
AcDbLine
 10
2.960001933899999
 20
3.838268945699999
 30
0.0
 11
2.960001933899999
 21
3.836036802799999
 31
0.0
  0
LINE
  5
20E
330
1F
100
AcDbEntity
  8
0
  6
HIDDEN
 62
     7
370
     0
100
AcDbLine
 10
3.0066998649
 20
3.838268945699999
 30
0.0
 11
3.0066998649
 21
3.836036802799999
 31
0.0
  0
LINE
  5
20F
330
1F
100
AcDbEntity
  8
0
  6
HIDDEN
 62
     7
370
     0
100
AcDbLine
 10
2.929798250899999
 20
3.838268945699999
 30
0.0
 11
2.929798250899999
 21
3.836036802799999
 31
0.0
  0
LINE
  5
210
330
1F
100
AcDbEntity
  8
0
  6
HIDDEN
 62
     7
370
     0
100
AcDbLine
 10
2.9600180311
 20
3.838268945699999
 30
0.0
 11
2.9600180311
 21
3.836036802799999
 31
0.0
  0
LINE
  5
211
330
1F
100
AcDbEntity
  8
0
  6
HIDDEN
 62
     7
370
     0
100
AcDbLine
 10
2.937304904399999
 20
3.838268945699999
 30
0.0
 11
2.937304904399999
 21
3.836036802799999
 31
0.0
  0
LINE
  5
212
330
1F
100
AcDbEntity
  8
0
  6
HIDDEN
 62
     7
370
     0
100
AcDbLine
 10
2.928907539999999
 20
3.838268945699999
 30
0.0
 11
2.928907539999999
 21
3.836036802799999
 31
0.0
  0
LINE
  5
213
330
1F
100
AcDbEntity
  8
0
  6
HIDDEN
 62
     7
370
     0
100
AcDbLine
 10
2.9205048099
 20
3.838268945699999
 30
0.0
 11
2.9205048099
 21
3.836036802799999
 31
0.0
  0
LINE
  5
214
330
1F
100
AcDbEntity
  8
0
  6
HIDDEN
 62
     7
370
     0
100
AcDbLine
 10
2.930291897799999
 20
3.838268945699999
 30
0.0
 11
2.930291897799999
 21
3.836036802799999
 31
0.0
  0
LINE
  5
215
330
1F
100
AcDbEntity
  8
0
  6
HIDDEN
 62
     7
370
     0
100
AcDbLine
 10
2.923278891299999
 20
3.838268945699999
 30
0.0
 11
2.923278891299999
 21
3.836036802799999
 31
0.0
  0
LINE
  5
216
330
1F
100
AcDbEntity
  8
0
  6
HIDDEN
 62
     7
370
     0
100
AcDbLine
 10
2.931681621399999
 20
3.838268945699999
 30
0.0
 11
2.931681621399999
 21
3.836036802799999
 31
0.0
  0
LINE
  5
217
330
1F
100
AcDbEntity
  8
0
  6
HIDDEN
 62
     7
370
     0
100
AcDbLine
 10
2.940078985699999
 20
3.838268945699999
 30
0.0
 11
2.940078985699999
 21
3.836036802799999
 31
0.0
  0
LINE
  5
218
330
1F
100
AcDbEntity
  8
0
  6
HIDDEN
 62
     7
370
     0
100
AcDbLine
 10
2.9884993154
 20
3.838268945699999
 30
0.0
 11
2.9884993154
 21
3.836036802799999
 31
0.0
  0
LINE
  5
219
330
1F
100
AcDbEntity
  8
0
  6
HIDDEN
 62
     7
370
     0
100
AcDbLine
 10
2.9969020455
 20
3.838268945699999
 30
0.0
 11
2.9969020455
 21
3.836036802799999
 31
0.0
  0
LINE
  5
21A
330
1F
100
AcDbEntity
  8
0
  6
HIDDEN
 62
     7
370
     0
100
AcDbLine
 10
2.951572375199999
 20
3.838268945699999
 30
0.0
 11
2.951572375199999
 21
3.836036802799999
 31
0.0
  0
LINE
  5
21B
330
1F
100
AcDbEntity
  8
0
  6
HIDDEN
 62
     7
370
     0
100
AcDbLine
 10
2.943169645099999
 20
3.838268945699999
 30
0.0
 11
2.943169645099999
 21
3.836036802799999
 31
0.0
  0
LINE
  5
21C
330
1F
100
AcDbEntity
  8
0
  6
HIDDEN
 62
     7
370
     0
100
AcDbLine
 10
2.959969739499999
 20
3.838268945699999
 30
0.0
 11
2.959969739499999
 21
3.836036802799999
 31
0.0
  0
LINE
  5
21D
330
1F
100
AcDbEntity
  8
0
  6
HIDDEN
 62
     7
370
     0
100
AcDbLine
 10
2.9543464566
 20
3.838268945699999
 30
0.0
 11
2.9543464566
 21
3.836036802799999
 31
0.0
  0
LINE
  5
21E
330
1F
100
AcDbEntity
  8
0
  6
HIDDEN
 62
     7
370
     0
100
AcDbLine
 10
2.962743820899999
 20
3.838268945699999
 30
0.0
 11
2.962743820899999
 21
3.836036802799999
 31
0.0
  0
LINE
  5
21F
330
1F
100
AcDbEntity
  8
0
  6
HIDDEN
 62
     7
370
     0
100
AcDbLine
 10
2.999676126899999
 20
3.838268945699999
 30
0.0
 11
2.999676126899999
 21
3.836036802799999
 31
0.0
  0
LINE
  5
220
330
1F
100
AcDbEntity
  8
0
  6
HIDDEN
 62
     7
370
     0
100
AcDbLine
 10
3.0080734912
 20
3.838268945699999
 30
0.0
 11
3.0080734912
 21
3.836036802799999
 31
0.0
  0
LINE
  5
221
330
1F
100
AcDbEntity
  8
0
  6
HIDDEN
 62
     7
370
     0
100
AcDbLine
 10
2.9912733968
 20
3.838268945699999
 30
0.0
 11
2.9912733968
 21
3.836036802799999
 31
0.0
  0
LINE
  5
222
330
1F
100
AcDbEntity
  8
0
  6
HIDDEN
 62
     7
370
     0
100
AcDbLine
 10
2.945943726499999
 20
3.838268945699999
 30
0.0
 11
2.945943726499999
 21
3.836036802799999
 31
0.0
  0
LINE
  5
223
330
1F
100
AcDbEntity
  8
0
  6
HIDDEN
 62
     7
370
     0
100
AcDbLine
 10
2.952956733
 20
3.838268945699999
 30
0.0
 11
2.952956733
 21
3.836036802799999
 31
0.0
  0
LINE
  5
224
330
1F
100
AcDbEntity
  8
0
  6
HIDDEN
 62
     7
370
     0
100
AcDbLine
 10
2.998286403299999
 20
3.838268945699999
 30
0.0
 11
2.998286403299999
 21
3.836036802799999
 31
0.0
  0
LINE
  5
225
330
1F
100
AcDbEntity
  8
0
  6
HIDDEN
 62
     7
370
     0
100
AcDbLine
 10
3.0052994099
 20
3.838268945699999
 30
0.0
 11
3.0052994099
 21
3.836036802799999
 31
0.0
  0
LINE
  5
226
330
1F
100
AcDbEntity
  8
0
  6
HIDDEN
 62
     7
370
     0
100
AcDbLine
 10
2.965834480299999
 20
3.838268945699999
 30
0.0
 11
2.965834480299999
 21
3.836036802799999
 31
0.0
  0
LINE
  5
227
330
1F
100
AcDbEntity
  8
0
  6
HIDDEN
 62
     7
370
     0
100
AcDbLine
 10
2.974237210299999
 20
3.838268945699999
 30
0.0
 11
2.974237210299999
 21
3.836036802799999
 31
0.0
  0
LINE
  5
228
330
1F
100
AcDbEntity
  8
0
  6
HIDDEN
 62
     7
370
     0
100
AcDbLine
 10
2.975621568199999
 20
3.838268945699999
 30
0.0
 11
2.975621568199999
 21
3.836036802799999
 31
0.0
  0
LINE
  5
229
330
1F
100
AcDbEntity
  8
0
  6
HIDDEN
 62
     7
370
     0
100
AcDbLine
 10
2.9686085616
 20
3.838268945699999
 30
0.0
 11
2.9686085616
 21
3.836036802799999
 31
0.0
  0
LINE
  5
22A
330
1F
100
AcDbEntity
  8
0
  6
HIDDEN
 62
     7
370
     0
100
AcDbLine
 10
2.9770112917
 20
3.838268945699999
 30
0.0
 11
2.9770112917
 21
3.836036802799999
 31
0.0
  0
LINE
  5
22B
330
1F
100
AcDbEntity
  8
0
  6
HIDDEN
 62
     7
370
     0
100
AcDbLine
 10
2.9854086561
 20
3.838268945699999
 30
0.0
 11
2.9854086561
 21
3.836036802799999
 31
0.0
  0
LINE
  5
22C
330
1F
100
AcDbEntity
  8
0
  6
HIDDEN
 62
     7
370
     0
100
AcDbLine
 10
2.9826345747
 20
3.838268945699999
 30
0.0
 11
2.9826345747
 21
3.836036802799999
 31
0.0
  0
LINE
  5
22D
330
1F
100
AcDbEntity
  8
0
  6
HIDDEN
 62
     7
370
     0
100
AcDbLine
 10
2.9686085616
 20
3.838268945699999
 30
0.0
 11
2.969569027
 21
3.838268945699999
 31
0.0
  0
LINE
  5
22E
330
1F
100
AcDbEntity
  8
0
  6
HIDDEN
 62
     7
370
     0
100
AcDbLine
 10
2.9716723923
 20
3.838268945699999
 30
0.0
 11
2.9735611286
 21
3.838268945699999
 31
0.0
  0
LINE
  5
22F
330
1F
100
AcDbEntity
  8
0
  6
HIDDEN
 62
     7
370
     0
100
AcDbLine
 10
2.988155908799999
 20
3.838268945699999
 30
0.0
 11
2.9883949866
 21
3.838268945699999
 31
0.0
  0
LINE
  5
230
330
1F
100
AcDbEntity
  8
0
  6
HIDDEN
 62
     7
370
     0
100
AcDbLine
 10
2.937648311
 20
3.838268945699999
 30
0.0
 11
2.937648311
 21
3.836036802799999
 31
0.0
  0
LINE
  5
231
330
1F
100
AcDbEntity
  8
0
  6
HIDDEN
 62
     7
370
     0
100
AcDbLine
 10
2.9229354847
 20
3.838268945699999
 30
0.0
 11
2.9229354847
 21
3.836036802799999
 31
0.0
  0
LINE
  5
232
330
1F
100
AcDbEntity
  8
0
  6
HIDDEN
 62
     7
370
     0
100
AcDbLine
 10
2.990929990199999
 20
3.838268945699999
 30
0.0
 11
2.990929990199999
 21
3.836036802799999
 31
0.0
  0
LINE
  5
233
330
1F
100
AcDbEntity
  8
0
  6
HIDDEN
 62
     7
370
     0
100
AcDbLine
 10
3.005642816399999
 20
3.838268945699999
 30
0.0
 11
3.005642816399999
 21
3.836036802799999
 31
0.0
  0
LINE
  5
234
330
1F
100
AcDbEntity
  8
0
  6
HIDDEN
 62
     7
370
     0
100
AcDbLine
 10
2.9603131461
 20
3.838268945699999
 30
0.0
 11
2.9603131461
 21
3.836036802799999
 31
0.0
  0
LINE
  5
235
330
1F
100
AcDbEntity
  8
0
  6
HIDDEN
 62
     7
370
     0
100
AcDbLine
 10
2.9456003199
 20
3.838268945699999
 30
0.0
 11
2.9456003199
 21
3.836036802799999
 31
0.0
  0
LINE
  5
236
330
1F
100
AcDbEntity
  8
0
  6
HIDDEN
 62
     7
370
     0
100
AcDbLine
 10
2.982977981299999
 20
3.838268945699999
 30
0.0
 11
2.982977981299999
 21
3.836036802799999
 31
0.0
  0
LINE
  5
237
330
1F
100
AcDbEntity
  8
0
  6
HIDDEN
 62
     7
370
     0
100
AcDbLine
 10
2.968265155
 20
3.838268945699999
 30
0.0
 11
2.968265155
 21
3.836036802799999
 31
0.0
  0
LINE
  5
238
330
1F
100
AcDbEntity
  8
0
  6
HIDDEN
 62
     7
370
     0
100
AcDbLine
 10
2.920161403299999
 20
3.838268945699999
 30
0.0
 11
2.920161403299999
 21
3.836036802799999
 31
0.0
  0
LINE
  5
239
330
1F
100
AcDbEntity
  8
0
  6
HIDDEN
 62
     7
370
     0
100
AcDbLine
 10
2.9404223923
 20
3.838268945699999
 30
0.0
 11
2.9404223923
 21
3.836036802799999
 31
0.0
  0
LINE
  5
23A
330
1F
100
AcDbEntity
  8
0
  6
HIDDEN
 62
     7
370
     0
100
AcDbLine
 10
2.9428262385
 20
3.838268945699999
 30
0.0
 11
2.9428262385
 21
3.836036802799999
 31
0.0
  0
LINE
  5
23B
330
1F
100
AcDbEntity
  8
0
  6
HIDDEN
 62
     7
370
     0
100
AcDbLine
 10
2.988155908799999
 20
3.838268945699999
 30
0.0
 11
2.988155908799999
 21
3.836036802799999
 31
0.0
  0
LINE
  5
23C
330
1F
100
AcDbEntity
  8
0
  6
HIDDEN
 62
     7
370
     0
100
AcDbLine
 10
2.963087227499999
 20
3.838268945699999
 30
0.0
 11
2.963087227499999
 21
3.836036802799999
 31
0.0
  0
LINE
  5
23D
330
1F
100
AcDbEntity
  8
0
  6
HIDDEN
 62
     7
370
     0
100
AcDbLine
 10
2.965491073699999
 20
3.838268945699999
 30
0.0
 11
2.965491073699999
 21
3.836036802799999
 31
0.0
  0
LINE
  5
23E
330
1F
100
AcDbEntity
  8
0
  6
HIDDEN
 62
     7
370
     0
100
AcDbLine
 10
2.985752062699999
 20
3.838268945699999
 30
0.0
 11
2.985752062699999
 21
3.836036802799999
 31
0.0
  0
LINE
  5
23F
330
1F
100
AcDbEntity
  8
0
  6
HIDDEN
 62
     7
370
     0
100
AcDbLine
 10
3.121432007699999
 20
3.855779659899999
 30
0.0
 11
3.121432007699999
 21
3.836036802799999
 31
0.0
  0
LINE
  5
240
330
1F
100
AcDbEntity
  8
0
  6
HIDDEN
 62
     7
370
     0
100
AcDbLine
 10
2.7615105792
 20
3.833876403899999
 30
0.0
 11
2.7812534363
 21
3.833876403899999
 31
0.0
  0
LINE
  5
241
330
1F
100
AcDbEntity
  8
0
  6
HIDDEN
 62
     7
370
     0
100
AcDbLine
 10
2.807146293399999
 20
3.855779659899999
 30
0.0
 11
2.807146293399999
 21
3.836036802799999
 31
0.0
  0
LINE
  5
242
330
1F
100
AcDbEntity
  8
0
  6
HIDDEN
 62
     7
370
     0
100
AcDbLine
 10
3.1670677219
 20
3.833876403999999
 30
0.0
 11
3.1473248647
 21
3.833876403999999
 31
0.0
  0
LINE
  5
243
330
1F
100
AcDbEntity
  8
0
  6
HIDDEN
 62
     7
370
     0
100
AcDbLine
 10
2.7812534363
 20
3.833876403899999
 30
0.0
 11
2.799110580099999
 21
3.8338764036
 31
0.0
  0
LINE
  5
244
330
1F
100
AcDbEntity
  8
0
  6
HIDDEN
 62
     7
370
     0
100
AcDbLine
 10
3.1473248647
 20
3.562447832599999
 30
0.0
 11
3.129467720899999
 21
3.562447832799999
 31
0.0
  0
LINE
  5
245
330
1F
100
AcDbEntity
  8
0
  6
HIDDEN
 62
     7
370
     0
100
AcDbLine
 10
2.8349135144
 20
3.8338764042
 30
0.0
 11
2.8349135144
 21
3.562447832799999
 31
0.0
  0
LINE
  5
246
330
1F
100
AcDbEntity
  8
0
  6
HIDDEN
 62
     7
370
     0
100
AcDbLine
 10
3.121432007599999
 20
3.836036802799999
 30
0.0
 11
3.1214320075
 21
3.818179658999999
 31
0.0
  0
LINE
  5
247
330
1F
100
AcDbEntity
  8
0
  6
HIDDEN
 62
     7
370
     0
100
AcDbLine
 10
3.121432007699999
 20
3.8338764042
 30
0.0
 11
3.1214320075
 21
3.818179658999999
 31
0.0
  0
LINE
  5
248
330
1F
100
AcDbEntity
  8
0
  6
HIDDEN
 62
     7
370
     0
100
AcDbLine
 10
2.807146293299999
 20
3.818179658999999
 30
0.0
 11
2.807146293399999
 21
3.8338764036
 31
0.0
  0
LINE
  5
249
330
1F
100
AcDbEntity
  8
0
  6
HIDDEN
 62
     7
370
     0
100
AcDbLine
 10
2.807146293299999
 20
3.5676111667
 30
0.0
 11
3.1214320075
 21
3.5676111667
 31
0.0
  0
LINE
  5
24A
330
1F
100
AcDbEntity
  8
0
  6
HIDDEN
 62
     7
370
     0
100
AcDbLine
 10
3.1214320075
 20
3.5676111667
 30
0.0
 11
3.1214320075
 21
3.818179658999999
 31
0.0
  0
LINE
  5
24B
330
1F
100
AcDbEntity
  8
0
  6
HIDDEN
 62
     7
370
     0
100
AcDbLine
 10
2.807146293299999
 20
3.818179658999999
 30
0.0
 11
2.807146293299999
 21
3.5676111667
 31
0.0
  0
LINE
  5
24C
330
1F
100
AcDbEntity
  8
0
  6
HIDDEN
 62
     7
370
     0
100
AcDbLine
 10
3.018717721999999
 20
3.836036802799999
 30
0.0
 11
3.018717721999999
 21
3.855779659899999
 31
0.0
  0
LINE
  5
24D
330
1F
100
AcDbEntity
  8
0
  6
HIDDEN
 62
     7
370
     0
100
AcDbLine
 10
2.9930034363
 20
3.855779659899999
 30
0.0
 11
2.9930034363
 21
3.836036802799999
 31
0.0
  0
LINE
  5
24E
330
1F
100
AcDbEntity
  8
0
  6
HIDDEN
 62
     7
370
     0
100
AcDbLine
 10
2.8520034363
 20
3.836036802799999
 30
0.0
 11
2.8520034363
 21
3.855779659899999
 31
0.0
  0
LINE
  5
24F
330
1F
100
AcDbEntity
  8
0
  6
HIDDEN
 62
     7
370
     0
100
AcDbLine
 10
2.8262891506
 20
3.855779659899999
 30
0.0
 11
2.8262891506
 21
3.836036802799999
 31
0.0
  0
LINE
  5
250
330
1F
100
AcDbEntity
  8
0
  6
HIDDEN
 62
     7
370
     0
100
AcDbLine
 10
2.935432007699999
 20
3.836036802799999
 30
0.0
 11
2.935432007699999
 21
3.855779659899999
 31
0.0
  0
LINE
  5
251
330
1F
100
AcDbEntity
  8
0
  6
HIDDEN
 62
     7
370
     0
100
AcDbLine
 10
2.909717721999999
 20
3.855779659899999
 30
0.0
 11
2.909717721999999
 21
3.836036802799999
 31
0.0
  0
LINE
  5
252
330
1F
100
AcDbEntity
  8
0
  6
HIDDEN
 62
     7
370
     0
100
AcDbLine
 10
3.102146293399999
 20
3.836036802799999
 30
0.0
 11
3.102146293399999
 21
3.855779659899999
 31
0.0
  0
LINE
  5
253
330
1F
100
AcDbEntity
  8
0
  6
HIDDEN
 62
     7
370
     0
100
AcDbLine
 10
3.076432007699999
 20
3.855779659899999
 30
0.0
 11
3.076432007699999
 21
3.836036802799999
 31
0.0
  0
LINE
  5
254
330
1F
100
AcDbEntity
  8
0
  6
HIDDEN
 62
     7
370
     0
100
AcDbLine
 10
2.9378464298
 20
3.838268945699999
 30
0.0
 11
2.9378464298
 21
3.836036802799999
 31
0.0
  0
MTEXT
  5
256
330
1F
100
AcDbEntity
  8
OBJ
100
AcDbMText
 10
2.134936829699999
 20
3.2889062775
 30
0.0
 40
0.09375
 41
0.0
 71
     1
 72
     1
  1
HTT14S-TOP-VIEW
  7
SLDTEXTSTYLE0
 73
     1
 44
1.0
1001
ACAD
1000
MTEXTBEGIN
1070
    73
1070
     1
1070
    44
1040
1.0
1070
    74
1070
     0
1000
MTEXTEND
  0
MTEXT
  5
257
330
1F
100
AcDbEntity
  8
OBJ
100
AcDbMText
 10
0.4685941457000001
 20
0.232699292
 30
0.0
 40
0.09375
 41
0.0
 71
     1
 72
     1
  1
HTT14S-SIDE-VIEW
  7
SLDTEXTSTYLE0
 73
     1
 44
1.0
1001
ACAD
1000
MTEXTBEGIN
1070
    73
1070
     1
1070
    44
1040
1.0
1070
    74
1070
     0
1000
MTEXTEND
  0
MTEXT
  5
258
330
1F
100
AcDbEntity
  8
OBJ
100
AcDbMText
 10
2.2395502718
 20
0.232699292
 30
0.0
 40
0.09375
 41
0.0
 71
     1
 72
     1
  1
HTT14S-FRONT-VIEW
  7
SLDTEXTSTYLE0
 73
     1
 44
1.0
1001
ACAD
1000
MTEXTBEGIN
1070
    73
1070
     1
1070
    44
1040
1.0
1070
    74
1070
     0
1000
MTEXTEND
  0
SPLINE
  5
259
330
1F
100
AcDbEntity
  8
0
  6
Continuous
 62
     7
370
    15
100
AcDbSpline
210
0.0
220
0.0
230
1.0
 70
     8
 71
     3
 72
    40
 73
    36
 74
     0
 42
0.0000000001
 43
0.0000000001
 40
0.0
 40
0.0
 40
0.0
 40
0.0
 40
0.0344670247863174
 40
0.0678157312126999
 40
0.100046136048158
 40
0.1311582603074694
 40
0.1611521297960724
 40
0.1900277757603935
 40
0.2177852356691297
 40
0.2444245541583853
 40
0.2699457841837808
 40
0.2943489884363073
 40
0.3176342410978197
 40
0.3398016300389153
 40
0.3608512595998915
 40
0.3807832541507275
 40
0.3995977627072842
 40
0.4172949650032597
 40
0.4338750796051646
 40
0.4493383749540272
 40
0.4636851846970951
 40
0.4769159294751323
 40
0.4890311487209779
 40
0.5000315485354192
 40
0.5231639113814017
 40
0.5507544177796252
 40
0.5828067866112689
 40
0.619323256575914
 40
0.6603052140565194
 40
0.7057535130337904
 40
0.7556686520430542
 40
0.8100508785210763
 40
0.8689002535761675
 40
0.9322166939219636
 40
1.0
 40
1.0
 40
1.0
 40
1.0
 10
0.9720199228358945
 20
1.378012181881856
 30
0.0
 10
0.9716552582475907
 20
1.378302941496188
 30
0.0
 10
0.9709377609916916
 20
1.37887502672766
 30
0.0
 10
0.9698834191561529
 20
1.379720282240085
 30
0.0
 10
0.9688709582092672
 20
1.380538187744509
 30
0.0
 10
0.9679023556639528
 20
1.381328826308265
 30
0.0
 10
0.9669789723352073
 20
1.382092176621336
 30
0.0
 10
0.9661017083307779
 20
1.382828243890324
 30
0.0
 10
0.9652710262442795
 20
1.383537026559201
 30
0.0
 10
0.9644870072145968
 20
1.384218524746481
 30
0.0
 10
0.9637493970998932
 20
1.384872738100469
 30
0.0
 10
0.9630576530594979
 20
1.385499666331926
 30
0.0
 10
0.9624109875047349
 20
1.386099309062754
 30
0.0
 10
0.9618084098731417
 20
1.386671665860797
 30
0.0
 10
0.9612487658257522
 20
1.387216736161702
 30
0.0
 10
0.9607307739893423
 20
1.387734519423148
 30
0.0
 10
0.9602530595230124
 20
1.388225014485329
 30
0.0
 10
0.95981418673624
 20
1.388688221601269
 30
0.0
 10
0.9594126831535476
 20
1.389124135319302
 30
0.0
 10
0.9590470809424365
 20
1.389532768261662
 30
0.0
 10
0.9587158886404683
 20
1.38991407086381
 30
0.0
 10
0.9584177846130815
 20
1.390268198210287
 30
0.0
 10
0.9581510664374423
 20
1.390594628314928
 30
0.0
 10
0.9578209890666324
 20
1.391015614542485
 30
0.0
 10
0.9573894344864795
 20
1.391574055529507
 30
0.0
 10
0.9568257200969295
 20
1.392308553825702
 30
0.0
 10
0.956200537260617
 20
1.393153202102112
 30
0.0
 10
0.955531330583328
 20
1.394106689582267
 30
0.0
 10
0.9548405306772027
 20
1.395169397555126
 30
0.0
 10
0.9541543534643889
 20
1.396341170704394
 30
0.0
 10
0.9535038350781107
 20
1.397622032245797
 30
0.0
 10
0.952923148975462
 20
1.399011975094047
 30
0.0
 10
0.9524562266110679
 20
1.400510925075899
 30
0.0
 10
0.9521280481806863
 20
1.40211916992485
 30
0.0
 10
0.9520850245977673
 20
1.403225679764179
 30
0.0
 10
0.952062779850778
 20
1.403797785333898
 30
0.0
  0
SPLINE
  5
25A
330
1F
100
AcDbEntity
  8
0
  6
Continuous
 62
     7
370
    15
100
AcDbSpline
210
0.0
220
0.0
230
1.0
 70
    24
 71
     3
 72
     8
 73
     4
 74
     0
 42
0.0000000001
 43
0.0000000001
 40
0.0
 40
0.0
 40
0.0
 40
0.0
 40
1.0
 40
1.0
 40
1.0
 40
1.0
 10
0.9718056369936348
 20
1.403797785333898
 30
0.0
 10
0.9652246846126828
 20
1.403797785333898
 30
0.0
 10
0.9586437322317303
 20
1.403797785333898
 30
0.0
 10
0.952062779850778
 20
1.403797785333898
 30
0.0
  0
SPLINE
  5
25B
330
1F
100
AcDbEntity
  8
0
  6
Continuous
 62
     7
370
    15
100
AcDbSpline
210
0.0
220
0.0
230
1.0
 70
     8
 71
     3
 72
    18
 73
    14
 74
     0
 42
0.0000000001
 43
0.0000000001
 40
0.0
 40
0.0
 40
0.0
 40
0.0
 40
0.125
 40
0.125
 40
0.25
 40
0.25
 40
0.5
 40
0.5
 40
0.75
 40
0.75
 40
0.875
 40
0.875
 40
1.0
 40
1.0
 40
1.0
 40
1.0
 10
0.9720199228358945
 20
1.378012181881856
 30
0.0
 10
0.9719980335887159
 20
1.3796367795155
 30
0.0
 10
0.9719781884049254
 20
1.381123827115342
 30
0.0
 10
0.9719436621941161
 20
1.383822824514906
 30
0.0
 10
0.9719289520264988
 20
1.385034773936715
 30
0.0
 10
0.9718920844046559
 20
1.388257974368219
 30
0.0
 10
0.9718771204234823
 20
1.389855614666632
 30
0.0
 10
0.9718596793029872
 20
1.39195435254912
 30
0.0
 10
0.9718456641583641
 20
1.393553437163579
 30
0.0
 10
0.9718253920222435
 20
1.396776637595084
 30
0.0
 10
0.9718188573503528
 20
1.397988466657221
 30
0.0
 10
0.9718089729967797
 20
1.400686982618105
 30
0.0
 10
0.9718056369936348
 20
1.402173669139342
 30
0.0
 10
0.9718056369936348
 20
1.403797785333898
 30
0.0
  0
LINE
  5
25C
330
1F
100
AcDbEntity
  8
0
  6
Continuous
 62
     7
370
    15
100
AcDbLine
 10
0.9520627799999999
 20
0.5244875175
 30
0.0
 11
0.9720199229
 21
0.5244875175
 31
0.0
  0
LINE
  5
25D
330
1F
100
AcDbEntity
  8
0
  6
Continuous
 62
     7
370
    15
100
AcDbLine
 10
0.9520627799999999
 20
1.4037977853
 30
0.0
 11
0.9520627799999999
 21
0.5244875175
 31
0.0
  0
LINE
  5
25E
330
1F
100
AcDbEntity
  8
0
  6
Continuous
 62
     7
370
    15
100
AcDbLine
 10
1.245394607499999
 20
0.5066303746000001
 30
0.0
 11
1.245394607499999
 21
0.5037732318
 31
0.0
  0
LINE
  5
25F
330
1F
100
AcDbEntity
  8
0
  6
Continuous
 62
     7
370
    15
100
AcDbLine
 10
0.9739660361
 20
0.5037732318
 30
0.0
 11
0.9739660361
 21
0.5244875175
 31
0.0
  0
LINE
  5
260
330
1F
100
AcDbEntity
  8
0
  6
Continuous
 62
     7
370
    15
100
AcDbLine
 10
0.9739660361
 20
0.5244875175
 30
0.0
 11
0.9720199229
 21
0.5244875175
 31
0.0
  0
LINE
  5
261
330
1F
100
AcDbEntity
  8
0
  6
Continuous
 62
     7
370
    15
100
AcDbLine
 10
0.9720199229
 20
1.378012181899999
 30
0.0
 11
1.245394607499999
 21
0.5066303746000001
 31
0.0
  0
LINE
  5
262
330
1F
100
AcDbEntity
  8
0
  6
Continuous
 62
     7
370
    15
100
AcDbLine
 10
1.245394607499999
 20
0.4661732302
 30
0.0
 11
1.245394607499999
 21
0.5037732318
 31
0.0
  0
LINE
  5
263
330
1F
100
AcDbEntity
  8
0
  6
Continuous
 62
     7
370
    15
100
AcDbLine
 10
1.245394607499999
 20
0.4661732302
 30
0.0
 11
0.9739660363
 21
0.4661732327000001
 31
0.0
  0
LINE
  5
264
330
1F
100
AcDbEntity
  8
0
  6
Continuous
 62
     7
370
    15
100
AcDbLine
 10
0.9739660361
 20
0.5037732318
 30
0.0
 11
0.9739660363
 21
0.4661732327000001
 31
0.0
  0
LINE
  5
265
330
1F
100
AcDbEntity
  8
0
  6
Continuous
 62
     7
370
    15
100
AcDbLine
 10
0.9520627799999999
 20
1.414734694799999
 30
0.0
 11
0.9520627799999999
 21
1.4037977853
 31
0.0
  0
LINE
  5
266
330
1F
100
AcDbEntity
  8
0
  6
Continuous
 62
     7
370
    15
100
AcDbLine
 10
0.9718056370999999
 20
1.414734694799999
 30
0.0
 11
0.9718056370999999
 21
1.4037977853
 31
0.0
  0
LINE
  5
267
330
1F
100
AcDbEntity
  8
0
  6
Continuous
 62
     7
370
    15
100
AcDbLine
 10
0.9718056370999999
 20
1.4200800533
 30
0.0
 11
0.9718056370999999
 21
1.414734694799999
 31
0.0
  0
LINE
  5
268
330
1F
100
AcDbEntity
  8
0
  6
Continuous
 62
     7
370
    15
100
AcDbLine
 10
0.9520627799999999
 20
1.4200800533
 30
0.0
 11
0.9520627799999999
 21
1.414734694799999
 31
0.0
  0
LINE
  5
269
330
1F
100
AcDbEntity
  8
0
  6
Continuous
 62
     7
370
    15
100
AcDbLine
 10
0.9520627799999999
 20
2.703058946
 30
0.0
 11
0.9718056370999999
 21
2.703058946
 31
0.0
  0
LINE
  5
26A
330
1F
100
AcDbEntity
  8
0
  6
Continuous
 62
     7
370
    15
100
AcDbLine
 10
0.9718056370999999
 20
2.703058946
 30
0.0
 11
0.9718056370999999
 21
1.4200800533
 31
0.0
  0
LINE
  5
26B
330
1F
100
AcDbEntity
  8
0
  6
Continuous
 62
     7
370
    15
100
AcDbLine
 10
0.9520627799999999
 20
2.703058946
 30
0.0
 11
0.9520627799999999
 21
1.4200800533
 31
0.0
  0
ARC
  5
26C
330
1F
100
AcDbEntity
  8
0
  6
Continuous
 62
     7
370
    15
100
AcDbCircle
 10
0.9896627816
 20
0.4537160889
 30
0.0
 40
0.0376000023617866
100
AcDbArc
 50
180.0
 51
269.9999952014
  0
ARC
  5
26D
330
1F
100
AcDbEntity
  8
0
  6
Continuous
 62
     7
370
    15
100
AcDbCircle
 10
0.9896627799999999
 20
0.4537160889
 30
0.0
 40
0.0178571428571428
100
AcDbArc
 50
180.0
 51
270.0000030625
  0
LINE
  5
26E
330
1F
100
AcDbEntity
  8
0
  6
Continuous
 62
     7
370
    15
100
AcDbLine
 10
1.2402312732
 20
0.4161160899000001
 30
0.0
 11
1.2402312732
 21
0.435858947
 31
0.0
  0
LINE
  5
26F
330
1F
100
AcDbEntity
  8
0
  6
Continuous
 62
     7
370
    15
100
AcDbLine
 10
0.9896627783999999
 20
0.4161160873
 30
0.0
 11
1.2402312732
 21
0.4161160899000001
 31
0.0
  0
LINE
  5
270
330
1F
100
AcDbEntity
  8
0
  6
Continuous
 62
     7
370
    15
100
AcDbLine
 10
0.9896627808999999
 20
0.435858947
 30
0.0
 11
1.2402312732
 21
0.435858947
 31
0.0
  0
LINE
  5
271
330
1F
100
AcDbEntity
  8
0
  6
Continuous
 62
     7
370
    15
100
AcDbLine
 10
0.9718056370999999
 20
0.5244875175
 30
0.0
 11
0.9718056370999999
 21
0.4537160889
 31
0.0
  0
LINE
  5
272
330
1F
100
AcDbEntity
  8
0
  6
Continuous
 62
     7
370
    15
100
AcDbLine
 10
0.9520627799999999
 20
0.5244875175
 30
0.0
 11
0.9520627792
 21
0.4537160889
 31
0.0
  0
LINE
  5
273
330
1F
100
AcDbEntity
  8
0
  6
Continuous
 62
     7
370
    15
100
AcDbLine
 10
1.245394607099999
 20
0.4422446613
 30
0.0
 11
1.245394607099999
 21
0.4619875184000001
 31
0.0
  0
LINE
  5
274
330
1F
100
AcDbEntity
  8
0
  6
Continuous
 62
     7
370
    15
100
AcDbLine
 10
0.9759776070999999
 20
0.4422446613
 30
0.0
 11
1.245394607099999
 21
0.4422446613
 31
0.0
  0
LINE
  5
275
330
1F
100
AcDbEntity
  8
0
  6
Continuous
 62
     7
370
    15
100
AcDbLine
 10
0.9739660356999999
 20
0.4452019932
 30
0.0
 11
0.9739660356999999
 21
0.4619875184000001
 31
0.0
  0
LINE
  5
276
330
1F
100
AcDbEntity
  8
0
  6
Continuous
 62
     7
370
    15
100
AcDbLine
 10
0.9739660356999999
 20
0.4619875184000001
 30
0.0
 11
1.245394607099999
 21
0.4619875184000001
 31
0.0
  0
LINE
  5
277
330
1F
100
AcDbEntity
  8
0
  6
Continuous
 62
     7
370
    15
100
AcDbLine
 10
1.245394607299999
 20
0.4661732327000001
 30
0.0
 11
1.245394607099999
 21
0.4619875169
 31
0.0
  0
LINE
  5
278
330
1F
100
AcDbEntity
  8
0
  6
Continuous
 62
     7
370
    15
100
AcDbLine
 10
0.9739660356999999
 20
0.4619875169
 30
0.0
 11
0.9739660359
 21
0.4661732327000001
 31
0.0
  0
LINE
  5
279
330
1F
100
AcDbEntity
  8
0
  6
Continuous
 62
     7
370
    15
100
AcDbLine
 10
0.9720199226999998
 20
1.3781189194
 30
0.0
 11
0.9720199226999998
 21
1.378022081399999
 31
0.0
  0
LINE
  5
27A
330
1F
100
AcDbEntity
  8
0
  6
Continuous
 62
     7
370
    15
100
AcDbLine
 10
1.245394607399999
 20
0.5066303746000001
 30
0.0
 11
1.245394607299999
 21
0.5091018032
 31
0.0
  0
LINE
  5
27B
330
1F
100
AcDbEntity
  8
0
  6
Continuous
 62
     7
370
    15
100
AcDbLine
 10
1.245394607299999
 20
0.5091018032
 30
0.0
 11
0.9720199226999998
 21
1.3781189194
 31
0.0
  0
LINE
  5
27C
330
1F
100
AcDbEntity
  8
0
  6
HIDDEN
 62
     7
370
     0
100
AcDbLine
 10
0.9718056370999999
 20
1.4037977853
 30
0.0
 11
0.9718056370999999
 21
0.5244875175
 31
0.0
  0
LINE
  5
27D
330
1F
100
AcDbEntity
  8
0
  6
HIDDEN
 62
     7
370
     0
100
AcDbLine
 10
0.9720199229
 20
1.378012181899999
 30
0.0
 11
0.9720199229
 21
0.5244875175
 31
0.0
  0
LINE
  5
27E
330
1F
100
AcDbEntity
  8
0
  6
HIDDEN
 62
     7
370
     0
100
AcDbLine
 10
1.245394607699999
 20
0.4859160898
 30
0.0
 11
0.9739660363
 21
0.4859160898
 31
0.0
  0
LINE
  5
27F
330
1F
100
AcDbEntity
  8
0
  6
HIDDEN
 62
     7
370
     0
100
AcDbLine
 10
0.9739660356999999
 20
0.4422446613
 30
0.0
 11
0.9759776070999999
 21
0.4422446613
 31
0.0
  0
LINE
  5
280
330
1F
100
AcDbEntity
  8
0
  6
HIDDEN
 62
     7
370
     0
100
AcDbLine
 10
0.9739660356999999
 20
0.4422446613
 30
0.0
 11
0.9739660356999999
 21
0.4452019932
 31
0.0
  0
LINE
  5
281
330
1F
100
AcDbEntity
  8
0
  6
HIDDEN
 62
     7
370
     0
100
AcDbLine
 10
0.9695734943000001
 20
1.432969660299999
 30
0.0
 11
0.9718056370999999
 21
1.432969660299999
 31
0.0
  0
LINE
  5
282
330
1F
100
AcDbEntity
  8
0
  6
HIDDEN
 62
     7
370
     0
100
AcDbLine
 10
0.9695734943000001
 20
1.4597553746
 30
0.0
 11
0.9718056370999999
 21
1.4597553746
 31
0.0
  0
LINE
  5
283
330
1F
100
AcDbEntity
  8
0
  6
HIDDEN
 62
     7
370
     0
100
AcDbLine
 10
0.9695734943000001
 20
1.432969660299999
 30
0.0
 11
0.9695734943000001
 21
1.4597553746
 31
0.0
  0
LINE
  5
284
330
1F
100
AcDbEntity
  8
0
  6
HIDDEN
 62
     7
370
     0
100
AcDbLine
 10
0.9695734943000001
 20
1.4460191109
 30
0.0
 11
0.9718056370999999
 21
1.4460191109
 31
0.0
  0
LINE
  5
285
330
1F
100
AcDbEntity
  8
0
  6
HIDDEN
 62
     7
370
     0
100
AcDbLine
 10
0.9695734943000001
 20
1.4487663636
 30
0.0
 11
0.9718056370999999
 21
1.4487663636
 31
0.0
  0
LINE
  5
286
330
1F
100
AcDbEntity
  8
0
  6
HIDDEN
 62
     7
370
     0
100
AcDbLine
 10
0.9695734943000001
 20
1.386094660299999
 30
0.0
 11
0.9695734943000001
 21
1.4128803746
 31
0.0
  0
LINE
  5
287
330
1F
100
AcDbEntity
  8
0
  6
HIDDEN
 62
     7
370
     0
100
AcDbLine
 10
0.9695734943000001
 20
1.4128803746
 30
0.0
 11
0.9718056370999999
 21
1.4128803746
 31
0.0
  0
LINE
  5
288
330
1F
100
AcDbEntity
  8
0
  6
HIDDEN
 62
     7
370
     0
100
AcDbLine
 10
0.9695734943000001
 20
1.386094660299999
 30
0.0
 11
0.9718056370999999
 21
1.386094660299999
 31
0.0
  0
LINE
  5
289
330
1F
100
AcDbEntity
  8
0
  6
HIDDEN
 62
     7
370
     0
100
AcDbLine
 10
0.9695734943000001
 20
1.3996431236
 30
0.0
 11
0.9718056370999999
 21
1.3996431236
 31
0.0
  0
LINE
  5
28A
330
1F
100
AcDbEntity
  8
0
  6
HIDDEN
 62
     7
370
     0
100
AcDbLine
 10
0.9695734943000001
 20
1.3881550999
 30
0.0
 11
0.9718056370999999
 21
1.3881550999
 31
0.0
  0
LINE
  5
28B
330
1F
100
AcDbEntity
  8
0
  6
HIDDEN
 62
     7
370
     0
100
AcDbLine
 10
0.9695734943000001
 20
1.399460688799999
 30
0.0
 11
0.9718056370999999
 21
1.399460688799999
 31
0.0
  0
LINE
  5
28C
330
1F
100
AcDbEntity
  8
0
  6
HIDDEN
 62
     7
370
     0
100
AcDbLine
 10
0.9695734943000001
 20
1.410819935099999
 30
0.0
 11
0.9718056370999999
 21
1.410819935099999
 31
0.0
  0
LINE
  5
28D
330
1F
100
AcDbEntity
  8
0
  6
HIDDEN
 62
     7
370
     0
100
AcDbLine
 10
0.9695734943000001
 20
1.3900921277
 30
0.0
 11
0.9718056370999999
 21
1.3900921277
 31
0.0
  0
LINE
  5
28E
330
1F
100
AcDbEntity
  8
0
  6
HIDDEN
 62
     7
370
     0
100
AcDbLine
 10
0.9695734943000001
 20
1.339219660299999
 30
0.0
 11
0.9695734943000001
 21
1.352880803899999
 31
0.0
  0
LINE
  5
28F
330
1F
100
AcDbEntity
  8
0
  6
HIDDEN
 62
     7
370
     0
100
AcDbLine
 10
0.9695734943000001
 20
1.339219660299999
 30
0.0
 11
0.9718056370999999
 21
1.339219660299999
 31
0.0
  0
LINE
  5
290
330
1F
100
AcDbEntity
  8
0
  6
HIDDEN
 62
     7
370
     0
100
AcDbLine
 10
0.9695734943000001
 20
1.3660053746
 30
0.0
 11
0.9718056370999999
 21
1.3660053746
 31
0.0
  0
LINE
  5
291
330
1F
100
AcDbEntity
  8
0
  6
HIDDEN
 62
     7
370
     0
100
AcDbLine
 10
0.9695734943000001
 20
1.352880803899999
 30
0.0
 11
0.9695734943000001
 21
1.3660053746
 31
0.0
  0
LINE
  5
292
330
1F
100
AcDbEntity
  8
0
  6
HIDDEN
 62
     7
370
     0
100
AcDbLine
 10
0.9695734943000001
 20
1.352880803899999
 30
0.0
 11
0.9718056370999999
 21
1.352880803899999
 31
0.0
  0
LINE
  5
293
330
1F
100
AcDbEntity
  8
0
  6
HIDDEN
 62
     7
370
     0
100
AcDbLine
 10
0.9695734943000001
 20
1.350713049799999
 30
0.0
 11
0.9718056370999999
 21
1.350713049799999
 31
0.0
  0
LINE
  5
294
330
1F
100
AcDbEntity
  8
0
  6
HIDDEN
 62
     7
370
     0
100
AcDbLine
 10
0.9695734943000001
 20
1.355048558
 30
0.0
 11
0.9718056370999999
 21
1.355048558
 31
0.0
  0
LINE
  5
295
330
1F
100
AcDbEntity
  8
0
  6
HIDDEN
 62
     7
370
     0
100
AcDbLine
 10
0.9695734943000001
 20
1.457008121899999
 30
0.0
 11
0.9718056370999999
 21
1.457008121899999
 31
0.0
  0
LINE
  5
296
330
1F
100
AcDbEntity
  8
0
  6
HIDDEN
 62
     7
370
     0
100
AcDbLine
 10
0.9695734943000001
 20
1.407965367799999
 30
0.0
 11
0.9718056370999999
 21
1.407965367799999
 31
0.0
  0
LINE
  5
297
330
1F
100
AcDbEntity
  8
0
  6
HIDDEN
 62
     7
370
     0
100
AcDbLine
 10
0.9695734943000001
 20
1.4135671878
 30
0.0
 11
0.9718056370999999
 21
1.4135671878
 31
0.0
  0
LINE
  5
298
330
1F
100
AcDbEntity
  8
0
  6
HIDDEN
 62
     7
370
     0
100
AcDbLine
 10
0.9695734943000001
 20
1.391025764399999
 30
0.0
 11
0.9718056370999999
 21
1.391025764399999
 31
0.0
  0
LINE
  5
299
330
1F
100
AcDbEntity
  8
0
  6
HIDDEN
 62
     7
370
     0
100
AcDbLine
 10
0.9695734943000001
 20
1.385407847099999
 30
0.0
 11
0.9718056370999999
 21
1.385407847099999
 31
0.0
  0
SPLINE
  5
29A
330
1F
100
AcDbEntity
  8
0
  6
HIDDEN
 62
     7
370
     0
100
AcDbSpline
210
0.0
220
0.0
230
1.0
 70
    24
 71
     3
 72
    15
 73
    11
 74
     0
 42
0.0000000001
 43
0.0000000001
 40
0.0
 40
0.0
 40
0.0
 40
0.0
 40
0.0781298651584206
 40
0.1694654174977346
 40
0.2743352908540825
 40
0.3921101633539207
 40
0.5236873298575104
 40
0.6683654211389508
 40
0.8271319021257832
 40
1.0
 40
1.0
 40
1.0
 40
1.0
 10
0.9695734942644653
 20
1.484807958754229
 30
0.0
 10
0.9695734942644653
 20
1.484950554987258
 30
0.0
 10
0.9695734942644653
 20
1.485259849392351
 30
0.0
 10
0.9695734942644653
 20
1.48577173578437
 30
0.0
 10
0.9695734942644653
 20
1.486361135664349
 30
0.0
 10
0.9695734942644653
 20
1.487028089376349
 30
0.0
 10
0.9695734942644653
 20
1.487773113865654
 30
0.0
 10
0.9695734942644653
 20
1.488595886180981
 30
0.0
 10
0.9695734942644653
 20
1.489497401193886
 30
0.0
 10
0.9695734942644653
 20
1.490125369425653
 30
0.0
 10
0.9695734942644653
 20
1.49045270463335
 30
0.0
  0
LINE
  5
29B
330
1F
100
AcDbEntity
  8
0
  6
HIDDEN
 62
     7
370
     0
100
AcDbLine
 10
0.9695734943000001
 20
1.5066303746
 30
0.0
 11
0.9718056370999999
 21
1.5066303746
 31
0.0
  0
LINE
  5
29C
330
1F
100
AcDbEntity
  8
0
  6
HIDDEN
 62
     7
370
     0
100
AcDbLine
 10
0.9695734943000001
 20
1.4904527046
 30
0.0
 11
0.9695734943000001
 21
1.5066303746
 31
0.0
  0
LINE
  5
29D
330
1F
100
AcDbEntity
  8
0
  6
HIDDEN
 62
     7
370
     0
100
AcDbLine
 10
0.9695734943000001
 20
1.4904527046
 30
0.0
 11
0.9718056370999999
 21
1.4904527046
 31
0.0
  0
SPLINE
  5
29E
330
1F
100
AcDbEntity
  8
0
  6
HIDDEN
 62
     7
370
     0
100
AcDbSpline
210
0.0
220
0.0
230
1.0
 70
    24
 71
     3
 72
    23
 73
    19
 74
     0
 42
0.0000000001
 43
0.0000000001
 40
0.0
 40
0.0
 40
0.0
 40
0.0
 40
0.0711745037456344
 40
0.1396441217506234
 40
0.2063172239119624
 40
0.2713732401918842
 40
0.3354180839163148
 40
0.3980763446528591
 40
0.460607914632282
 40
0.5229695111172385
 40
0.5847157240924627
 40
0.6448949403163671
 40
0.7042905608207889
 40
0.7629981899193274
 40
0.8210874309038757
 40
0.8801038914766998
 40
0.9393884881896667
 40
1.0
 40
1.0
 40
1.0
 40
1.0
 10
0.9695734942644653
 20
1.479157847147086
 30
0.0
 10
0.9695734942644653
 20
1.4791638530037
 30
0.0
 10
0.9695734942644653
 20
1.479175636472891
 30
0.0
 10
0.9695734942644653
 20
1.479243157519789
 30
0.0
 10
0.9695734942644653
 20
1.479370339108935
 30
0.0
 10
0.9695734942644653
 20
1.479532277453754
 30
0.0
 10
0.9695734942644653
 20
1.479755622381907
 30
0.0
 10
0.9695734942644653
 20
1.480016577419101
 30
0.0
 10
0.9695734942644653
 20
1.480337066655961
 30
0.0
 10
0.9695734942644653
 20
1.480693648745399
 30
0.0
 10
0.9695734942644653
 20
1.481094857710975
 30
0.0
 10
0.9695734942644653
 20
1.481532154960599
 30
0.0
 10
0.9695734942644653
 20
1.481998535399849
 30
0.0
 10
0.9695734942644653
 20
1.482499048403178
 30
0.0
 10
0.9695734942644653
 20
1.483029801262901
 30
0.0
 10
0.9695734942644653
 20
1.483592295445114
 30
0.0
 10
0.9695734942644653
 20
1.484186313170785
 30
0.0
 10
0.9695734942644653
 20
1.484599220316743
 30
0.0
 10
0.9695734942644653
 20
1.484807958754229
 30
0.0
  0
LINE
  5
29F
330
1F
100
AcDbEntity
  8
0
  6
HIDDEN
 62
     7
370
     0
100
AcDbLine
 10
0.9695734943000001
 20
1.4848079588
 30
0.0
 11
0.9718056370999999
 21
1.4848079588
 31
0.0
  0
LINE
  5
2A0
330
1F
100
AcDbEntity
  8
0
  6
HIDDEN
 62
     7
370
     0
100
AcDbLine
 10
0.9695734943000001
 20
1.487018638699999
 30
0.0
 11
0.9718056370999999
 21
1.487018638699999
 31
0.0
  0
LINE
  5
2A1
330
1F
100
AcDbEntity
  8
0
  6
HIDDEN
 62
     7
370
     0
100
AcDbLine
 10
0.9695734943000001
 20
1.4905814821
 30
0.0
 11
0.9718056370999999
 21
1.4905814821
 31
0.0
  0
LINE
  5
2A2
330
1F
100
AcDbEntity
  8
0
  6
HIDDEN
 62
     7
370
     0
100
AcDbLine
 10
0.9695734943000001
 20
1.4819050999
 30
0.0
 11
0.9718056370999999
 21
1.4819050999
 31
0.0
  0
LINE
  5
2A3
330
1F
100
AcDbEntity
  8
0
  6
HIDDEN
 62
     7
370
     0
100
AcDbLine
 10
0.9695734943000001
 20
1.392619385599999
 30
0.0
 11
0.9718056370999999
 21
1.392619385599999
 31
0.0
  0
LINE
  5
2A4
330
1F
100
AcDbEntity
  8
0
  6
HIDDEN
 62
     7
370
     0
100
AcDbLine
 10
0.9695734943000001
 20
1.4063556493
 30
0.0
 11
0.9718056370999999
 21
1.4063556493
 31
0.0
  0
LINE
  5
2A5
330
1F
100
AcDbEntity
  8
0
  6
HIDDEN
 62
     7
370
     0
100
AcDbLine
 10
0.9695734943000001
 20
1.479157847099999
 30
0.0
 11
0.9718056370999999
 21
1.479157847099999
 31
0.0
  0
LINE
  5
2A6
330
1F
100
AcDbEntity
  8
0
  6
HIDDEN
 62
     7
370
     0
100
AcDbLine
 10
0.9695734943000001
 20
1.486423042899999
 30
0.0
 11
0.9718056370999999
 21
1.486423042899999
 31
0.0
  0
LINE
  5
2A7
330
1F
100
AcDbEntity
  8
0
  6
HIDDEN
 62
     7
370
     0
100
AcDbLine
 10
0.9695734943000001
 20
1.485011856399999
 30
0.0
 11
0.9718056370999999
 21
1.485011856399999
 31
0.0
  0
LINE
  5
2A8
330
1F
100
AcDbEntity
  8
0
  6
HIDDEN
 62
     7
370
     0
100
AcDbLine
 10
0.9695734943000001
 20
1.444645484499999
 30
0.0
 11
0.9718056370999999
 21
1.444645484499999
 31
0.0
  0
LINE
  5
2A9
330
1F
100
AcDbEntity
  8
0
  6
HIDDEN
 62
     7
370
     0
100
AcDbLine
 10
0.9695734943000001
 20
1.441898231799999
 30
0.0
 11
0.9718056370999999
 21
1.441898231799999
 31
0.0
  0
LINE
  5
2AA
330
1F
100
AcDbEntity
  8
0
  6
HIDDEN
 62
     7
370
     0
100
AcDbLine
 10
0.9695734943000001
 20
1.501066114699999
 30
0.0
 11
0.9718056370999999
 21
1.501066114699999
 31
0.0
  0
LINE
  5
2AB
330
1F
100
AcDbEntity
  8
0
  6
HIDDEN
 62
     7
370
     0
100
AcDbLine
 10
0.9695734943000001
 20
1.486369385599999
 30
0.0
 11
0.9718056370999999
 21
1.486369385599999
 31
0.0
  0
LINE
  5
2AC
330
1F
100
AcDbEntity
  8
0
  6
HIDDEN
 62
     7
370
     0
100
AcDbLine
 10
0.9695734943000001
 20
1.496988161399999
 30
0.0
 11
0.9718056370999999
 21
1.496988161399999
 31
0.0
  0
LINE
  5
2AD
330
1F
100
AcDbEntity
  8
0
  6
HIDDEN
 62
     7
370
     0
100
AcDbLine
 10
0.9695734943000001
 20
1.497717900399999
 30
0.0
 11
0.9718056370999999
 21
1.497717900399999
 31
0.0
  0
LINE
  5
2AE
330
1F
100
AcDbEntity
  8
0
  6
HIDDEN
 62
     7
370
     0
100
AcDbLine
 10
0.9695734943000001
 20
1.5011787949
 30
0.0
 11
0.9718056370999999
 21
1.5011787949
 31
0.0
  0
LINE
  5
2AF
330
1F
100
AcDbEntity
  8
0
  6
HIDDEN
 62
     7
370
     0
100
AcDbLine
 10
0.9695734943000001
 20
1.504569935099999
 30
0.0
 11
0.9718056370999999
 21
1.504569935099999
 31
0.0
  0
LINE
  5
2B0
330
1F
100
AcDbEntity
  8
0
  6
HIDDEN
 62
     7
370
     0
100
AcDbLine
 10
0.9695734943000001
 20
1.495051133499999
 30
0.0
 11
0.9718056370999999
 21
1.495051133499999
 31
0.0
  0
LINE
  5
2B1
330
1F
100
AcDbEntity
  8
0
  6
HIDDEN
 62
     7
370
     0
100
AcDbLine
 10
0.9695734943000001
 20
1.493344831999999
 30
0.0
 11
0.9718056370999999
 21
1.493344831999999
 31
0.0
  0
SPLINE
  5
2B2
330
1F
100
AcDbEntity
  8
0
  6
HIDDEN
 62
     7
370
     0
100
AcDbSpline
210
0.0
220
0.0
230
1.0
 70
    24
 71
     1
 72
     4
 73
     2
 74
     0
 42
0.0000000001
 43
0.0000000001
 40
0.0
 40
0.0
 40
1.0
 40
1.0
 10
0.9695734942644651
 20
1.489073712531701
 30
0.0
 10
0.9695734942644651
 20
1.489979031702801
 30
0.0
  0
LINE
  5
2B3
330
1F
100
AcDbEntity
  8
0
  6
HIDDEN
 62
     7
370
     0
100
AcDbLine
 10
0.9695734943000001
 20
1.486406945699999
 30
0.0
 11
0.9718056370999999
 21
1.486406945699999
 31
0.0
  0
LINE
  5
2B4
330
1F
100
AcDbEntity
  8
0
  6
HIDDEN
 62
     7
370
     0
100
AcDbLine
 10
0.9695734943000001
 20
1.502783147599999
 30
0.0
 11
0.9718056370999999
 21
1.502783147599999
 31
0.0
  0
LINE
  5
2B5
330
1F
100
AcDbEntity
  8
0
  6
HIDDEN
 62
     7
370
     0
100
AcDbLine
 10
0.9695734943000001
 20
1.5073171878
 30
0.0
 11
0.9718056370999999
 21
1.5073171878
 31
0.0
  0
LINE
  5
2B6
330
1F
100
AcDbEntity
  8
0
  6
HIDDEN
 62
     7
370
     0
100
AcDbLine
 10
0.9695734943000001
 20
1.4864445058
 30
0.0
 11
0.9718056370999999
 21
1.4864445058
 31
0.0
  0
LINE
  5
2B7
330
1F
100
AcDbEntity
  8
0
  6
HIDDEN
 62
     7
370
     0
100
AcDbLine
 10
0.9695734943000001
 20
1.489073712499999
 30
0.0
 11
0.9718056370999999
 21
1.489073712499999
 31
0.0
  0
LINE
  5
2B8
330
1F
100
AcDbEntity
  8
0
  6
HIDDEN
 62
     7
370
     0
100
AcDbLine
 10
0.9695734943000001
 20
1.501135869099999
 30
0.0
 11
0.9718056370999999
 21
1.501135869099999
 31
0.0
  0
LINE
  5
2B9
330
1F
100
AcDbEntity
  8
0
  6
HIDDEN
 62
     7
370
     0
100
AcDbLine
 10
0.9695734943000001
 20
1.395023231799999
 30
0.0
 11
0.9718056370999999
 21
1.395023231799999
 31
0.0
  0
LINE
  5
2BA
330
1F
100
AcDbEntity
  8
0
  6
HIDDEN
 62
     7
370
     0
100
AcDbLine
 10
0.9695734943000001
 20
1.397770484499999
 30
0.0
 11
0.9718056370999999
 21
1.397770484499999
 31
0.0
  0
LINE
  5
2BB
330
1F
100
AcDbEntity
  8
0
  6
HIDDEN
 62
     7
370
     0
100
AcDbLine
 10
0.9695734943000001
 20
1.479844660299999
 30
0.0
 11
0.9718056370999999
 21
1.479844660299999
 31
0.0
  0
LINE
  5
2BC
330
1F
100
AcDbEntity
  8
0
  6
HIDDEN
 62
     7
370
     0
100
AcDbLine
 10
0.9695734943000001
 20
1.4922072977
 30
0.0
 11
0.9718056370999999
 21
1.4922072977
 31
0.0
  0
LINE
  5
2BD
330
1F
100
AcDbEntity
  8
0
  6
HIDDEN
 62
     7
370
     0
100
AcDbLine
 10
0.9695734943000001
 20
1.494954550399999
 30
0.0
 11
0.9718056370999999
 21
1.494954550399999
 31
0.0
  0
LINE
  5
2BE
330
1F
100
AcDbEntity
  8
0
  6
HIDDEN
 62
     7
370
     0
100
AcDbLine
 10
0.9695734943000001
 20
1.503883121899999
 30
0.0
 11
0.9718056370999999
 21
1.503883121899999
 31
0.0
  0
LINE
  5
2BF
330
1F
100
AcDbEntity
  8
0
  6
HIDDEN
 62
     7
370
     0
100
AcDbLine
 10
0.9695734943000001
 20
1.4948955274
 30
0.0
 11
0.9718056370999999
 21
1.4948955274
 31
0.0
  0
LINE
  5
2C0
330
1F
100
AcDbEntity
  8
0
  6
HIDDEN
 62
     7
370
     0
100
AcDbLine
 10
0.9695734943000001
 20
1.4926472874
 30
0.0
 11
0.9718056370999999
 21
1.4926472874
 31
0.0
  0
LINE
  5
2C1
330
1F
100
AcDbEntity
  8
0
  6
HIDDEN
 62
     7
370
     0
100
AcDbLine
 10
0.9695734943000001
 20
1.506227945
 30
0.0
 11
0.9718056370999999
 21
1.506227945
 31
0.0
  0
LINE
  5
2C2
330
1F
100
AcDbEntity
  8
0
  6
HIDDEN
 62
     7
370
     0
100
AcDbLine
 10
0.9695734943000001
 20
1.4994349333
 30
0.0
 11
0.9718056370999999
 21
1.4994349333
 31
0.0
  0
LINE
  5
2C3
330
1F
100
AcDbEntity
  8
0
  6
HIDDEN
 62
     7
370
     0
100
AcDbLine
 10
0.9695734943000001
 20
1.499445664799999
 30
0.0
 11
0.9718056370999999
 21
1.499445664799999
 31
0.0
  0
LINE
  5
2C4
330
1F
100
AcDbEntity
  8
0
  6
HIDDEN
 62
     7
370
     0
100
AcDbLine
 10
0.9695734943000001
 20
1.4597553746
 30
0.0
 11
0.9695734943000001
 21
1.4604421878
 31
0.0
  0
LINE
  5
2C5
330
1F
100
AcDbEntity
  8
0
  6
HIDDEN
 62
     7
370
     0
100
AcDbLine
 10
0.9695734943000001
 20
1.439150979
 30
0.0
 11
0.9718056370999999
 21
1.439150979
 31
0.0
  0
LINE
  5
2C6
330
1F
100
AcDbEntity
  8
0
  6
HIDDEN
 62
     7
370
     0
100
AcDbLine
 10
0.9695734943000001
 20
1.4018913636
 30
0.0
 11
0.9718056370999999
 21
1.4018913636
 31
0.0
  0
LINE
  5
2C7
330
1F
100
AcDbEntity
  8
0
  6
HIDDEN
 62
     7
370
     0
100
AcDbLine
 10
0.9695734943000001
 20
1.410133121899999
 30
0.0
 11
0.9718056370999999
 21
1.410133121899999
 31
0.0
  0
LINE
  5
2C8
330
1F
100
AcDbEntity
  8
0
  6
HIDDEN
 62
     7
370
     0
100
AcDbLine
 10
0.9695734943000001
 20
1.3888419131
 30
0.0
 11
0.9718056370999999
 21
1.3888419131
 31
0.0
  0
LINE
  5
2C9
330
1F
100
AcDbEntity
  8
0
  6
HIDDEN
 62
     7
370
     0
100
AcDbLine
 10
0.9695734943000001
 20
1.3991441109
 30
0.0
 11
0.9718056370999999
 21
1.3991441109
 31
0.0
  0
LINE
  5
2CA
330
1F
100
AcDbEntity
  8
0
  6
HIDDEN
 62
     7
370
     0
100
AcDbLine
 10
0.9695734943000001
 20
1.4535311301
 30
0.0
 11
0.9718056370999999
 21
1.4535311301
 31
0.0
  0
LINE
  5
2CB
330
1F
100
AcDbEntity
  8
0
  6
HIDDEN
 62
     7
370
     0
100
AcDbLine
 10
0.9695734943000001
 20
1.4604421878
 30
0.0
 11
0.9718056370999999
 21
1.4604421878
 31
0.0
  0
LINE
  5
2CC
330
1F
100
AcDbEntity
  8
0
  6
HIDDEN
 62
     7
370
     0
100
AcDbLine
 10
0.9695734943000001
 20
1.391261856399999
 30
0.0
 11
0.9718056370999999
 21
1.391261856399999
 31
0.0
  0
LINE
  5
2CD
330
1F
100
AcDbEntity
  8
0
  6
HIDDEN
 62
     7
370
     0
100
AcDbLine
 10
0.9695734943000001
 20
1.407316114699999
 30
0.0
 11
0.9718056370999999
 21
1.407316114699999
 31
0.0
  0
LINE
  5
2CE
330
1F
100
AcDbEntity
  8
0
  6
HIDDEN
 62
     7
370
     0
100
AcDbLine
 10
0.9695734943000001
 20
1.403238161399999
 30
0.0
 11
0.9718056370999999
 21
1.403238161399999
 31
0.0
  0
LINE
  5
2CF
330
1F
100
AcDbEntity
  8
0
  6
HIDDEN
 62
     7
370
     0
100
AcDbLine
 10
0.9695734943000001
 20
1.438136856399999
 30
0.0
 11
0.9718056370999999
 21
1.438136856399999
 31
0.0
  0
LINE
  5
2D0
330
1F
100
AcDbEntity
  8
0
  6
HIDDEN
 62
     7
370
     0
100
AcDbLine
 10
0.9695734943000001
 20
1.4074287949
 30
0.0
 11
0.9718056370999999
 21
1.4074287949
 31
0.0
  0
LINE
  5
2D1
330
1F
100
AcDbEntity
  8
0
  6
HIDDEN
 62
     7
370
     0
100
AcDbLine
 10
0.9695734943000001
 20
1.403967900399999
 30
0.0
 11
0.9718056370999999
 21
1.403967900399999
 31
0.0
  0
LINE
  5
2D2
330
1F
100
AcDbEntity
  8
0
  6
HIDDEN
 62
     7
370
     0
100
AcDbLine
 10
0.9695734943000001
 20
1.454191114699999
 30
0.0
 11
0.9718056370999999
 21
1.454191114699999
 31
0.0
  0
LINE
  5
2D3
330
1F
100
AcDbEntity
  8
0
  6
HIDDEN
 62
     7
370
     0
100
AcDbLine
 10
0.9695734943000001
 20
1.4350300999
 30
0.0
 11
0.9718056370999999
 21
1.4350300999
 31
0.0
  0
LINE
  5
2D4
330
1F
100
AcDbEntity
  8
0
  6
HIDDEN
 62
     7
370
     0
100
AcDbLine
 10
0.9695734943000001
 20
1.439494385599999
 30
0.0
 11
0.9718056370999999
 21
1.439494385599999
 31
0.0
  0
LINE
  5
2D5
330
1F
100
AcDbEntity
  8
0
  6
HIDDEN
 62
     7
370
     0
100
AcDbLine
 10
0.9695734943000001
 20
1.401301133499999
 30
0.0
 11
0.9718056370999999
 21
1.401301133499999
 31
0.0
  0
LINE
  5
2D6
330
1F
100
AcDbEntity
  8
0
  6
HIDDEN
 62
     7
370
     0
100
AcDbLine
 10
0.9695734943000001
 20
1.450113161399999
 30
0.0
 11
0.9718056370999999
 21
1.450113161399999
 31
0.0
  0
LINE
  5
2D7
330
1F
100
AcDbEntity
  8
0
  6
HIDDEN
 62
     7
370
     0
100
AcDbLine
 10
0.9695734943000001
 20
1.399594831999999
 30
0.0
 11
0.9718056370999999
 21
1.399594831999999
 31
0.0
  0
LINE
  5
2D8
330
1F
100
AcDbEntity
  8
0
  6
HIDDEN
 62
     7
370
     0
100
AcDbLine
 10
0.9695734943000001
 20
1.4543037949
 30
0.0
 11
0.9718056370999999
 21
1.4543037949
 31
0.0
  0
LINE
  5
2D9
330
1F
100
AcDbEntity
  8
0
  6
HIDDEN
 62
     7
370
     0
100
AcDbLine
 10
0.9695734943000001
 20
1.457694935099999
 30
0.0
 11
0.9718056370999999
 21
1.457694935099999
 31
0.0
  0
LINE
  5
2DA
330
1F
100
AcDbEntity
  8
0
  6
HIDDEN
 62
     7
370
     0
100
AcDbLine
 10
0.9695734943000001
 20
1.450842900399999
 30
0.0
 11
0.9718056370999999
 21
1.450842900399999
 31
0.0
  0
LINE
  5
2DB
330
1F
100
AcDbEntity
  8
0
  6
HIDDEN
 62
     7
370
     0
100
AcDbLine
 10
0.9695734943000001
 20
1.392656945699999
 30
0.0
 11
0.9718056370999999
 21
1.392656945699999
 31
0.0
  0
LINE
  5
2DC
330
1F
100
AcDbEntity
  8
0
  6
HIDDEN
 62
     7
370
     0
100
AcDbLine
 10
0.9695734943000001
 20
1.409033147599999
 30
0.0
 11
0.9718056370999999
 21
1.409033147599999
 31
0.0
  0
LINE
  5
2DD
330
1F
100
AcDbEntity
  8
0
  6
HIDDEN
 62
     7
370
     0
100
AcDbLine
 10
0.9695734943000001
 20
1.448176133499999
 30
0.0
 11
0.9718056370999999
 21
1.448176133499999
 31
0.0
  0
LINE
  5
2DE
330
1F
100
AcDbEntity
  8
0
  6
HIDDEN
 62
     7
370
     0
100
AcDbLine
 10
0.9695734943000001
 20
1.446469831999999
 30
0.0
 11
0.9718056370999999
 21
1.446469831999999
 31
0.0
  0
LINE
  5
2DF
330
1F
100
AcDbEntity
  8
0
  6
HIDDEN
 62
     7
370
     0
100
AcDbLine
 10
0.9695734943000001
 20
1.439531945699999
 30
0.0
 11
0.9718056370999999
 21
1.439531945699999
 31
0.0
  0
LINE
  5
2E0
330
1F
100
AcDbEntity
  8
0
  6
HIDDEN
 62
     7
370
     0
100
AcDbLine
 10
0.9695734943000001
 20
1.432282847099999
 30
0.0
 11
0.9718056370999999
 21
1.432282847099999
 31
0.0
  0
LINE
  5
2E1
330
1F
100
AcDbEntity
  8
0
  6
HIDDEN
 62
     7
370
     0
100
AcDbLine
 10
0.9695734943000001
 20
1.455908147599999
 30
0.0
 11
0.9718056370999999
 21
1.455908147599999
 31
0.0
  0
LINE
  5
2E2
330
1F
100
AcDbEntity
  8
0
  6
HIDDEN
 62
     7
370
     0
100
AcDbLine
 10
0.9695734943000001
 20
1.3926945058
 30
0.0
 11
0.9718056370999999
 21
1.3926945058
 31
0.0
  0
LINE
  5
2E3
330
1F
100
AcDbEntity
  8
0
  6
HIDDEN
 62
     7
370
     0
100
AcDbLine
 10
0.9695734943000001
 20
1.395323712499999
 30
0.0
 11
0.9718056370999999
 21
1.395323712499999
 31
0.0
  0
LINE
  5
2E4
330
1F
100
AcDbEntity
  8
0
  6
HIDDEN
 62
     7
370
     0
100
AcDbLine
 10
0.9695734943000001
 20
1.407385869099999
 30
0.0
 11
0.9718056370999999
 21
1.407385869099999
 31
0.0
  0
LINE
  5
2E5
330
1F
100
AcDbEntity
  8
0
  6
HIDDEN
 62
     7
370
     0
100
AcDbLine
 10
0.9695734943000001
 20
1.4395695058
 30
0.0
 11
0.9718056370999999
 21
1.4395695058
 31
0.0
  0
LINE
  5
2E6
330
1F
100
AcDbEntity
  8
0
  6
HIDDEN
 62
     7
370
     0
100
AcDbLine
 10
0.9695734943000001
 20
1.442198712499999
 30
0.0
 11
0.9718056370999999
 21
1.442198712499999
 31
0.0
  0
LINE
  5
2E7
330
1F
100
AcDbEntity
  8
0
  6
HIDDEN
 62
     7
370
     0
100
AcDbLine
 10
0.9695734943000001
 20
1.454260869099999
 30
0.0
 11
0.9718056370999999
 21
1.454260869099999
 31
0.0
  0
SPLINE
  5
2E8
330
1F
100
AcDbEntity
  8
0
  6
HIDDEN
 62
     7
370
     0
100
AcDbSpline
210
0.0
220
0.0
230
1.0
 70
     8
 71
     3
 72
    40
 73
    36
 74
     0
 42
0.0000000001
 43
0.0000000001
 40
0.0
 40
0.0
 40
0.0
 40
0.0
 40
0.0344592749616841
 40
0.0678009700278416
 40
0.1000251020073057
 40
0.1311316919580617
 40
0.161120765732354
 40
0.1899923546272625
 40
0.2177464961661593
 40
0.2443832350440113
 40
0.2699026242795282
 40
0.2943047266309245
 40
0.3175896163510761
 40
0.3397573813846985
 40
0.3608081261479384
 40
0.3807419750860823
 40
0.3995590772859465
 40
0.417259612541544
 40
0.4338437994588554
 40
0.449311906480762
 40
0.463664267190968
 40
0.4769013020544656
 40
0.4890235501353211
 40
0.5000317168289642
 40
0.5231440024330053
 40
0.5507184574845839
 40
0.5827587960194541
 40
0.6192672516529222
 40
0.6602452061087173
 40
0.7056935091925496
 40
0.7556126556640522
 40
0.8100028894787779
 40
0.8688642684657747
 40
0.932196706186686
 40
1.0
 40
1.0
 40
1.0
 40
1.0
 10
0.9520627798507765
 20
1.403834547833899
 30
0.0
 10
0.9520685367878501
 20
1.403544660836332
 30
0.0
 10
0.9520798639535668
 20
1.402974288428457
 30
0.0
 10
0.9521690026229098
 20
1.40213155275801
 30
0.0
 10
0.9523039858290731
 20
1.401316069292788
 30
0.0
 10
0.9524840428662626
 20
1.400527754911094
 30
0.0
 10
0.952702155239454
 20
1.399766630937152
 30
0.0
 10
0.9529531245927438
 20
1.399032692160441
 30
0.0
 10
0.9532315589168048
 20
1.398325940137809
 30
0.0
 10
0.953532412690426
 20
1.397646374750258
 30
0.0
 10
0.9538508720570899
 20
1.396993996349274
 30
0.0
 10
0.9541823992745722
 20
1.396368805223715
 30
0.0
 10
0.9545227311909609
 20
1.395770801751234
 30
0.0
 10
0.9548678842531641
 20
1.395199986363387
 30
0.0
 10
0.9552141535709528
 20
1.394656359623757
 30
0.0
 10
0.9555581096539967
 20
1.394139922073656
 30
0.0
 10
0.9558965931465664
 20
1.393650674871532
 30
0.0
 10
0.9562267059877836
 20
1.393188617762458
 30
0.0
 10
0.9565458070157651
 20
1.392753756196243
 30
0.0
 10
0.9568514865248401
 20
1.392346077543778
 30
0.0
 10
0.9571416074158063
 20
1.39196563138133
 30
0.0
 10
0.9574141214454416
 20
1.391612262542968
 30
0.0
 10
0.9576676285373984
 20
1.391286493324848
 30
0.0
 10
0.9579923029960736
 20
1.390866638950716
 30
0.0
 10
0.9584388942290578
 20
1.390309909866307
 30
0.0
 10
0.9590691385042294
 20
1.389577789980422
 30
0.0
 10
0.9598365557463264
 20
1.38873572071309
 30
0.0
 10
0.9607537267557582
 20
1.387785012665198
 30
0.0
 10
0.9618320267687014
 20
1.386725284659827
 30
0.0
 10
0.9630821710347266
 20
1.385556692091625
 30
0.0
 10
0.9645127162903259
 20
1.384279211749835
 30
0.0
 10
0.9661289748123863
 20
1.382892850777797
 30
0.0
 10
0.9679316869433224
 20
1.381397683209448
 30
0.0
 10
0.9699151538274922
 20
1.379793421903356
 30
0.0
 10
0.9713025659913199
 20
1.378689630898774
 30
0.0
 10
0.9720199228358932
 20
1.378118919431224
 30
0.0
  0
SPLINE
  5
2E9
330
1F
100
AcDbEntity
  8
0
  6
HIDDEN
 62
     7
370
     0
100
AcDbSpline
210
0.0
220
0.0
230
1.0
 70
     8
 71
     3
 72
    18
 73
    14
 74
     0
 42
0.0000000001
 43
0.0000000001
 40
0.0
 40
0.0
 40
0.0
 40
0.0
 40
0.125
 40
0.125
 40
0.25
 40
0.25
 40
0.5
 40
0.5
 40
0.75
 40
0.75
 40
0.875
 40
0.875
 40
1.0
 40
1.0
 40
1.0
 40
1.0
 10
0.9718056369936338
 20
1.403834547833899
 30
0.0
 10
0.9718056369936338
 20
1.402214839042485
 30
0.0
 10
0.9718089729967795
 20
1.400732186982164
 30
0.0
 10
0.9718188573503548
 20
1.398040994052506
 30
0.0
 10
0.9718253920222467
 20
1.396832453561702
 30
0.0
 10
0.971845664158369
 20
1.393618000011369
 30
0.0
 10
0.9718596873047735
 20
1.392022294610447
 30
0.0
 10
0.9718771124216933
 20
1.389931172654676
 30
0.0
 10
0.9718920844046593
 20
1.388336907648954
 30
0.0
 10
0.9719289520265023
 20
1.38512245409862
 30
0.0
 10
0.9719436621941197
 20
1.383913793574883
 30
0.0
 10
0.9719781884049272
 20
1.381222120513492
 30
0.0
 10
0.9719980335886885
 20
1.37973910835478
 30
0.0
 10
0.9720199228358932
 20
1.378118919431224
 30
0.0
  0
LINE
  5
2EA
330
1F
100
AcDbEntity
  8
0
  6
HIDDEN
 62
     7
370
     0
100
AcDbLine
 10
0.9718056370999999
 20
2.421273231799999
 30
0.0
 11
0.9520627799999999
 21
2.421273231799999
 31
0.0
  0
LINE
  5
2EB
330
1F
100
AcDbEntity
  8
0
  6
HIDDEN
 62
     7
370
     0
100
AcDbLine
 10
0.9520627799999999
 20
2.395558945999999
 30
0.0
 11
0.9718056370999999
 21
2.395558945999999
 31
0.0
  0
LINE
  5
2EC
330
1F
100
AcDbEntity
  8
0
  6
HIDDEN
 62
     7
370
     0
100
AcDbLine
 10
0.9718056370999999
 20
2.171273231799999
 30
0.0
 11
0.9520627799999999
 21
2.171273231799999
 31
0.0
  0
LINE
  5
2ED
330
1F
100
AcDbEntity
  8
0
  6
HIDDEN
 62
     7
370
     0
100
AcDbLine
 10
0.9520627799999999
 20
2.145558945999999
 30
0.0
 11
0.9718056370999999
 21
2.145558945999999
 31
0.0
  0
LINE
  5
2EE
330
1F
100
AcDbEntity
  8
0
  6
HIDDEN
 62
     7
370
     0
100
AcDbLine
 10
0.9718056370999999
 20
1.9212732318
 30
0.0
 11
0.9520627799999999
 21
1.9212732318
 31
0.0
  0
LINE
  5
2EF
330
1F
100
AcDbEntity
  8
0
  6
HIDDEN
 62
     7
370
     0
100
AcDbLine
 10
0.9520627799999999
 20
1.895558945999999
 30
0.0
 11
0.9718056370999999
 21
1.895558945999999
 31
0.0
  0
LINE
  5
2F0
330
1F
100
AcDbEntity
  8
0
  6
HIDDEN
 62
     7
370
     0
100
AcDbLine
 10
0.9718056370999999
 20
1.6712732318
 30
0.0
 11
0.9520627799999999
 21
1.6712732318
 31
0.0
  0
LINE
  5
2F1
330
1F
100
AcDbEntity
  8
0
  6
HIDDEN
 62
     7
370
     0
100
AcDbLine
 10
0.9520627799999999
 20
1.645558945999999
 30
0.0
 11
0.9718056370999999
 21
1.645558945999999
 31
0.0
  0
LINE
  5
2F2
330
1F
100
AcDbEntity
  8
0
  6
HIDDEN
 62
     7
370
     0
100
AcDbLine
 10
0.9718056370999999
 20
2.296273231799999
 30
0.0
 11
0.9520627799999999
 21
2.296273231799999
 31
0.0
  0
LINE
  5
2F3
330
1F
100
AcDbEntity
  8
0
  6
HIDDEN
 62
     7
370
     0
100
AcDbLine
 10
0.9520627799999999
 20
2.270558945999999
 30
0.0
 11
0.9718056370999999
 21
2.270558945999999
 31
0.0
  0
LINE
  5
2F4
330
1F
100
AcDbEntity
  8
0
  6
HIDDEN
 62
     7
370
     0
100
AcDbLine
 10
0.9718056370999999
 20
2.046273231799999
 30
0.0
 11
0.9520627799999999
 21
2.046273231799999
 31
0.0
  0
LINE
  5
2F5
330
1F
100
AcDbEntity
  8
0
  6
HIDDEN
 62
     7
370
     0
100
AcDbLine
 10
0.9520627799999999
 20
2.020558945999999
 30
0.0
 11
0.9718056370999999
 21
2.020558945999999
 31
0.0
  0
LINE
  5
2F6
330
1F
100
AcDbEntity
  8
0
  6
HIDDEN
 62
     7
370
     0
100
AcDbLine
 10
0.9718056370999999
 20
1.7962732318
 30
0.0
 11
0.9520627799999999
 21
1.7962732318
 31
0.0
  0
LINE
  5
2F7
330
1F
100
AcDbEntity
  8
0
  6
HIDDEN
 62
     7
370
     0
100
AcDbLine
 10
0.9520627799999999
 20
1.770558945999999
 30
0.0
 11
0.9718056370999999
 21
1.770558945999999
 31
0.0
  0
LINE
  5
2F8
330
1F
100
AcDbEntity
  8
0
  6
HIDDEN
 62
     7
370
     0
100
AcDbLine
 10
1.098073178599999
 20
0.4619875184000001
 30
0.0
 11
1.098073178599999
 21
0.4422446613
 31
0.0
  0
LINE
  5
2F9
330
1F
100
AcDbEntity
  8
0
  6
HIDDEN
 62
     7
370
     0
100
AcDbLine
 10
1.1962874643
 20
0.4422446613
 30
0.0
 11
1.1962874643
 21
0.4619875184000001
 31
0.0
  0
LINE
  5
2FA
330
1F
100
AcDbEntity
  8
0
  6
HIDDEN
 62
     7
370
     0
100
AcDbLine
 10
1.098073179899999
 20
0.435858947
 30
0.0
 11
1.098073179899999
 21
0.4161160875000001
 31
0.0
  0
LINE
  5
2FB
330
1F
100
AcDbEntity
  8
0
  6
HIDDEN
 62
     7
370
     0
100
AcDbLine
 10
1.196287465599999
 20
0.4161160875000001
 30
0.0
 11
1.196287465599999
 21
0.435858947
 31
0.0
  0
LINE
  5
2FC
330
1F
100
AcDbEntity
  8
0
  6
HIDDEN
 62
     7
370
     0
100
AcDbLine
 10
1.0980731791
 20
0.4859160898
 30
0.0
 11
1.0980731791
 21
0.4661732327000001
 31
0.0
  0
LINE
  5
2FD
330
1F
100
AcDbEntity
  8
0
  6
HIDDEN
 62
     7
370
     0
100
AcDbLine
 10
1.196287464899999
 20
0.4661732327000001
 30
0.0
 11
1.196287464899999
 21
0.4859160898
 31
0.0
  0
ENDSEC
  0
SECTION
  2
OBJECTS
  0
DICTIONARY
  5
C
330
0
100
AcDbDictionary
281
     1
  3
ACAD_COLOR
350
301
  3
ACAD_GROUP
350
D
  3
ACAD_LAYOUT
350
1A
  3
ACAD_MATERIAL
350
300
  3
ACAD_MLINESTYLE
350
17
  3
ACAD_PLOTSETTINGS
350
19
  3
ACAD_PLOTSTYLENAME
350
E
  3
ACDBHEADERROUNDTRIPXREC
350
312
  3
AcDbVariableDictionary
350
304
  0
DICTIONARY
  5
301
102
{ACAD_REACTORS
330
C
102
}
330
C
100
AcDbDictionary
281
     1
  0
DICTIONARY
  5
D
102
{ACAD_REACTORS
330
C
102
}
330
C
100
AcDbDictionary
281
     1
  0
DICTIONARY
  5
1A
102
{ACAD_REACTORS
330
C
102
}
330
C
100
AcDbDictionary
281
     1
  3
Layout1
350
1E
  3
Layout2
350
26
  3
Model
350
22
  0
DICTIONARY
  5
300
102
{ACAD_REACTORS
330
C
102
}
330
C
100
AcDbDictionary
281
     1
  0
DICTIONARY
  5
17
102
{ACAD_REACTORS
330
C
102
}
330
C
100
AcDbDictionary
281
     1
  3
Standard
350
18
  0
DICTIONARY
  5
19
102
{ACAD_REACTORS
330
C
102
}
330
C
100
AcDbDictionary
281
     1
  0
ACDBDICTIONARYWDFLT
  5
E
102
{ACAD_REACTORS
330
C
102
}
330
C
100
AcDbDictionary
281
     1
  3
Normal
350
F
100
AcDbDictionaryWithDefault
340
F
  0
DICTIONARY
  5
312
102
{ACAD_REACTORS
330
C
102
}
330
C
100
AcDbDictionary
281
     1
  3
COLORDICT
350
314
  3
MATERIALDICT
350
313
  0
DICTIONARY
  5
304
102
{ACAD_REACTORS
330
C
102
}
330
C
100
AcDbDictionary
281
     1
  3
DIMASSOC
350
305
  3
PROJECTNAME
350
306
  0
LAYOUT
  5
1E
102
{ACAD_XDICTIONARY
360
315
102
}
102
{ACAD_REACTORS
330
1A
102
}
330
1A
100
AcDbPlotSettings
  1

  2
none_device
  4

  6

 40
0.0
 41
0.0
 42
0.0
 43
0.0
 44
0.0
 45
0.0
 46
0.0
 47
0.0
 48
0.0
 49
0.0
140
0.0
141
0.0
142
1.0
143
1.0
 70
   688
 72
     0
 73
     0
 74
     5
  7

 75
    16
147
1.0
148
0.0
149
0.0
100
AcDbLayout
  1
Layout1
 70
     1
 71
     1
 10
0.0
 20
0.0
 11
12.0
 21
9.0
 12
0.0
 22
0.0
 32
0.0
 14
1.000000000000000E+20
 24
1.000000000000000E+20
 34
1.000000000000000E+20
 15
-1.000000000000000E+20
 25
-1.000000000000000E+20
 35
-1.000000000000000E+20
146
0.0
 13
0.0
 23
0.0
 33
0.0
 16
1.0
 26
0.0
 36
0.0
 17
0.0
 27
1.0
 37
0.0
 76
     0
330
1B
  0
LAYOUT
  5
26
102
{ACAD_XDICTIONARY
360
319
102
}
102
{ACAD_REACTORS
330
1A
102
}
330
1A
100
AcDbPlotSettings
  1

  2
none_device
  4

  6

 40
0.0
 41
0.0
 42
0.0
 43
0.0
 44
0.0
 45
0.0
 46
0.0
 47
0.0
 48
0.0
 49
0.0
140
0.0
141
0.0
142
1.0
143
1.0
 70
   688
 72
     0
 73
     0
 74
     5
  7

 75
    16
147
1.0
148
0.0
149
0.0
100
AcDbLayout
  1
Layout2
 70
     1
 71
     2
 10
0.0
 20
0.0
 11
0.0
 21
0.0
 12
0.0
 22
0.0
 32
0.0
 14
0.0
 24
0.0
 34
0.0
 15
0.0
 25
0.0
 35
0.0
146
0.0
 13
0.0
 23
0.0
 33
0.0
 16
1.0
 26
0.0
 36
0.0
 17
0.0
 27
1.0
 37
0.0
 76
     0
330
23
  0
LAYOUT
  5
22
102
{ACAD_XDICTIONARY
360
317
102
}
102
{ACAD_REACTORS
330
1A
102
}
330
1A
100
AcDbPlotSettings
  1

  2
none_device
  4

  6

 40
0.0
 41
0.0
 42
0.0
 43
0.0
 44
0.0
 45
0.0
 46
0.0
 47
0.0
 48
0.0
 49
0.0
140
0.0
141
0.0
142
1.0
143
1.0
 70
  1712
 72
     0
 73
     0
 74
     0
  7

 75
     0
147
1.0
148
0.0
149
0.0
100
AcDbLayout
  1
Model
 70
     1
 71
     0
 10
0.0
 20
0.0
 11
0.0
 21
0.0
 12
0.0
 22
0.0
 32
0.0
 14
0.0
 24
0.0
 34
0.0
 15
4.0
 25
4.0
 35
0.0
146
0.0
 13
0.0
 23
0.0
 33
0.0
 16
1.0
 26
0.0
 36
0.0
 17
0.0
 27
1.0
 37
0.0
 76
     0
330
1F
  0
MLINESTYLE
  5
18
102
{ACAD_REACTORS
330
17
102
}
330
17
100
AcDbMlineStyle
  2
STANDARD
 70
     0
  3

 62
   256
 51
90.0
 52
90.0
 71
     2
 49
0.5
 62
   256
  6
BYLAYER
 49
-0.5
 62
   256
  6
BYLAYER
  0
ACDBPLACEHOLDER
  5
F
102
{ACAD_REACTORS
330
E
102
}
330
E
  0
XRECORD
  5
314
102
{ACAD_REACTORS
330
312
102
}
330
312
100
AcDbXrecord
280
     1
340
301
  0
XRECORD
  5
313
102
{ACAD_REACTORS
330
312
102
}
330
312
100
AcDbXrecord
280
     1
340
300
  0
DICTIONARYVAR
  5
305
102
{ACAD_REACTORS
330
304
102
}
330
304
100
DictionaryVariables
280
     0
  1
1
  0
DICTIONARYVAR
  5
306
102
{ACAD_REACTORS
330
304
102
}
330
304
100
DictionaryVariables
280
     0
  1

  0
DICTIONARY
  5
315
330
1E
100
AcDbDictionary
280
     1
281
     1
  3
ACAD_XREC_ROUNDTRIP
360
316
  0
DICTIONARY
  5
319
330
26
100
AcDbDictionary
280
     1
281
     1
  3
ACAD_XREC_ROUNDTRIP
360
31A
  0
DICTIONARY
  5
317
330
22
100
AcDbDictionary
280
     1
281
     1
  3
ACAD_XREC_ROUNDTRIP
360
318
  0
XRECORD
  5
316
102
{ACAD_REACTORS
330
315
102
}
330
315
100
AcDbXrecord
280
     1
102
SHADEPLOT
 70
     0
102
SHADEPLOTRESLEVEL
 70
     2
102
SHADEPLOTCUSTOMDPI
 70
   300
  0
XRECORD
  5
31A
102
{ACAD_REACTORS
330
319
102
}
330
319
100
AcDbXrecord
280
     1
102
SHADEPLOT
 70
     0
102
SHADEPLOTRESLEVEL
 70
     2
102
SHADEPLOTCUSTOMDPI
 70
   300
  0
XRECORD
  5
318
102
{ACAD_REACTORS
330
317
102
}
330
317
100
AcDbXrecord
280
     1
102
SHADEPLOT
 70
     0
102
SHADEPLOTRESLEVEL
 70
     2
102
SHADEPLOTCUSTOMDPI
 70
   300
  0
ENDSEC
  0
EOF
