  0
SECTION
  2
HEADER
  9
$ACADVER
  1
AC1014
  9
$ACADMAINTVER
 70
     9
  9
$DWGCODEPAGE
  3
ANSI_1252
  9
$INSBASE
 10
0.0
 20
0.0
 30
0.0
  9
$EXTMIN
 10
0.0007323771706602
 20
0.0006314620675454
 30
0.0
  9
$EXTMAX
 10
11.72934847455939
 20
20.69246213555396
 30
0.0
  9
$LIMMIN
 10
0.0
 20
0.0
  9
$LIMMAX
 10
12.0
 20
9.0
  9
$ORTHOMODE
 70
     0
  9
$REGENMODE
 70
     1
  9
$FILLMODE
 70
     1
  9
$QTEXTMODE
 70
     0
  9
$MIRRTEXT
 70
     0
  9
$DRAGMODE
 70
     2
  9
$LTSCALE
 40
1.5
  9
$OSMODE
 70
     0
  9
$ATTMODE
 70
     1
  9
$TEXTSIZE
 40
0.25
  9
$TRACEWID
 40
0.05
  9
$TEXTSTYLE
  7
STANDARD
  9
$CLAYER
  8
0
  9
$CELTYPE
  6
BYLAYER
  9
$CECOLOR
 62
   256
  9
$CELTSCALE
 40
1.0
  9
$DELOBJ
 70
     1
  9
$DISPSILH
 70
     1
  9
$DIMSCALE
 40
6.0
  9
$DIMASZ
 40
0.125
  9
$DIMEXO
 40
0.0625
  9
$DIMDLI
 40
0.37890625
  9
$DIMRND
 40
0.0
  9
$DIMDLE
 40
0.0
  9
$DIMEXE
 40
0.09375
  9
$DIMTP
 40
0.0
  9
$DIMTM
 40
0.0
  9
$DIMTXT
 40
0.109375
  9
$DIMCEN
 40
0.0
  9
$DIMTSZ
 40
0.0
  9
$DIMTOL
 70
     0
  9
$DIMLIM
 70
     0
  9
$DIMTIH
 70
     1
  9
$DIMTOH
 70
     1
  9
$DIMSE1
 70
     0
  9
$DIMSE2
 70
     0
  9
$DIMTAD
 70
     0
  9
$DIMZIN
 70
     8
  9
$DIMBLK
  1

  9
$DIMASO
 70
     1
  9
$DIMSHO
 70
     1
  9
$DIMPOST
  1

  9
$DIMAPOST
  1

  9
$DIMALT
 70
     0
  9
$DIMALTD
 70
     2
  9
$DIMALTF
 40
25.4
  9
$DIMLFAC
 40
1.0
  9
$DIMTOFL
 70
     0
  9
$DIMTVP
 40
0.0
  9
$DIMTIX
 70
     0
  9
$DIMSOXD
 70
     0
  9
$DIMSAH
 70
     0
  9
$DIMBLK1
  1

  9
$DIMBLK2
  1

  9
$DIMSTYLE
  2
STANDARD
  9
$DIMCLRD
 70
     0
  9
$DIMCLRE
 70
     0
  9
$DIMCLRT
 70
   256
  9
$DIMTFAC
 40
1.0
  9
$DIMGAP
 40
0.08984375
  9
$DIMJUST
 70
     0
  9
$DIMSD1
 70
     0
  9
$DIMSD2
 70
     0
  9
$DIMTOLJ
 70
     1
  9
$DIMTZIN
 70
     0
  9
$DIMALTZ
 70
     0
  9
$DIMALTTZ
 70
     0
  9
$DIMFIT
 70
     3
  9
$DIMUPT
 70
     1
  9
$DIMUNIT
 70
     7
  9
$DIMDEC
 70
     4
  9
$DIMTDEC
 70
     4
  9
$DIMALTU
 70
     2
  9
$DIMALTTD
 70
     2
  9
$DIMTXSTY
  7
STANDARD
  9
$DIMAUNIT
 70
     0
  9
$LUNITS
 70
     5
  9
$LUPREC
 70
     6
  9
$SKETCHINC
 40
0.1
  9
$FILLETRAD
 40
0.0
  9
$AUNITS
 70
     0
  9
$AUPREC
 70
     1
  9
$MENU
  1
CUSTOM
  9
$ELEVATION
 40
0.0
  9
$PELEVATION
 40
0.0
  9
$THICKNESS
 40
0.0
  9
$LIMCHECK
 70
     0
  9
$BLIPMODE
 70
     0
  9
$CHAMFERA
 40
0.0
  9
$CHAMFERB
 40
0.0
  9
$CHAMFERC
 40
0.0
  9
$CHAMFERD
 40
0.0
  9
$SKPOLY
 70
     0
  9
$TDCREATE
 40
2451263.663231366
  9
$TDUPDATE
 40
2452759.744992940
  9
$TDINDWG
 40
0.3984930208
  9
$TDUSRTIMER
 40
0.3984930208
  9
$USRTIMER
 70
     1
  9
$ANGBASE
 50
0.0
  9
$ANGDIR
 70
     0
  9
$PDMODE
 70
     0
  9
$PDSIZE
 40
0.0
  9
$PLINEWID
 40
0.0
  9
$COORDS
 70
     1
  9
$SPLFRAME
 70
     0
  9
$SPLINETYPE
 70
     6
  9
$SPLINESEGS
 70
     8
  9
$ATTDIA
 70
     0
  9
$ATTREQ
 70
     1
  9
$HANDLING
 70
     1
  9
$HANDSEED
  5
AA
  9
$SURFTAB1
 70
     6
  9
$SURFTAB2
 70
     6
  9
$SURFTYPE
 70
     6
  9
$SURFU
 70
     6
  9
$SURFV
 70
     6
  9
$UCSNAME
  2

  9
$UCSORG
 10
0.0
 20
0.0
 30
0.0
  9
$UCSXDIR
 10
1.0
 20
0.0
 30
0.0
  9
$UCSYDIR
 10
0.0
 20
1.0
 30
0.0
  9
$PUCSNAME
  2

  9
$PUCSORG
 10
0.0
 20
0.0
 30
0.0
  9
$PUCSXDIR
 10
1.0
 20
0.0
 30
0.0
  9
$PUCSYDIR
 10
0.0
 20
1.0
 30
0.0
  9
$USERI1
 70
     0
  9
$USERI2
 70
     0
  9
$USERI3
 70
     0
  9
$USERI4
 70
     0
  9
$USERI5
 70
     0
  9
$USERR1
 40
0.0
  9
$USERR2
 40
0.0
  9
$USERR3
 40
0.0
  9
$USERR4
 40
0.0
  9
$USERR5
 40
0.0
  9
$WORLDVIEW
 70
     1
  9
$SHADEDGE
 70
     3
  9
$SHADEDIF
 70
    70
  9
$TILEMODE
 70
     1
  9
$MAXACTVP
 70
    16
  9
$PINSBASE
 10
0.0
 20
0.0
 30
0.0
  9
$PLIMCHECK
 70
     0
  9
$PEXTMIN
 10
0.0
 20
0.0
 30
0.0
  9
$PEXTMAX
 10
0.0
 20
0.0
 30
0.0
  9
$PLIMMIN
 10
0.0
 20
0.0
  9
$PLIMMAX
 10
12.0
 20
9.0
  9
$UNITMODE
 70
     0
  9
$VISRETAIN
 70
     0
  9
$PLINEGEN
 70
     0
  9
$PSLTSCALE
 70
     1
  9
$TREEDEPTH
 70
  3020
  9
$PICKSTYLE
 70
     1
  9
$CMLSTYLE
  2
STANDARD
  9
$CMLJUST
 70
     0
  9
$CMLSCALE
 40
1.0
  9
$PROXYGRAPHICS
 70
     1
  9
$MEASUREMENT
 70
     0
  0
ENDSEC
  0
SECTION
  2
CLASSES
  0
CLASS
  1
ACDBDICTIONARYWDFLT
  2
AcDbDictionaryWithDefault
  3
AutoCAD 2000
 90
        0
280
     0
281
     0
  0
CLASS
  1
ACDBPLACEHOLDER
  2
AcDbPlaceHolder
  3
AutoCAD 2000
 90
        0
280
     0
281
     0
  0
CLASS
  1
LAYOUT
  2
AcDbLayout
  3
AutoCAD 2000
 90
        0
280
     0
281
     0
  0
CLASS
  1
DICTIONARYVAR
  2
AcDbDictionaryVar
  3
"AutoCAD"
 90
        0
280
     0
281
     0
  0
CLASS
  1
LONG_TRANSACTION
  2
AcDbLongTransaction
  3
AutoCAD 2000
 90
        0
280
     0
281
     0
  0
CLASS
  1
LWPOLYLINE
  2
AcDbPolyline
  3
"AutoCAD"
 90
        0
280
     0
281
     1
  0
CLASS
  1
HATCH
  2
AcDbHatch
  3
"ACAD_SEDONA"
 90
        0
280
     0
281
     1
  0
CLASS
  1
XRECORD
  2
AcDbXrecord
  3
"<Built In>"
 90
        0
280
     0
281
     0
  0
CLASS
  1
LONG_TRANSACTION
  2
AcDbLongTransaction
  3
AutoCAD 2000
 90
        0
280
     0
281
     0
  0
CLASS
  1
LWPOLYLINE
  2
AcDbPolyline
  3
"AutoCAD"
 90
        0
280
     0
281
     1
  0
CLASS
  1
HATCH
  2
AcDbHatch
  3
"ACAD_SEDONA"
 90
        0
280
     0
281
     1
  0
CLASS
  1
XRECORD
  2
AcDbXrecord
  3
"<Built In>"
 90
        0
280
     0
281
     0
  0
CLASS
  1
LONG_TRANSACTION
  2
AcDbLongTransaction
  3
AutoCAD 2000
 90
        0
280
     0
281
     0
  0
CLASS
  1
LWPOLYLINE
  2
AcDbPolyline
  3
"AutoCAD"
 90
        0
280
     0
281
     1
  0
CLASS
  1
HATCH
  2
AcDbHatch
  3
"ACAD_SEDONA"
 90
        0
280
     0
281
     1
  0
CLASS
  1
XRECORD
  2
AcDbXrecord
  3
"<Built In>"
 90
        0
280
     0
281
     0
  0
CLASS
  1
LONG_TRANSACTION
  2
AcDbLongTransaction
  3
AutoCAD 2000
 90
        0
280
     0
281
     0
  0
CLASS
  1
LWPOLYLINE
  2
AcDbPolyline
  3
"AutoCAD"
 90
        0
280
     0
281
     1
  0
CLASS
  1
HATCH
  2
AcDbHatch
  3
"ACAD_SEDONA"
 90
        0
280
     0
281
     1
  0
CLASS
  1
XRECORD
  2
AcDbXrecord
  3
"<Built In>"
 90
        0
280
     0
281
     0
  0
CLASS
  1
LONG_TRANSACTION
  2
AcDbLongTransaction
  3
AutoCAD 2000
 90
        0
280
     0
281
     0
  0
CLASS
  1
LWPOLYLINE
  2
AcDbPolyline
  3
"AutoCAD"
 90
        0
280
     0
281
     1
  0
CLASS
  1
HATCH
  2
AcDbHatch
  3
"ACAD_SEDONA"
 90
        0
280
     0
281
     1
  0
CLASS
  1
XRECORD
  2
AcDbXrecord
  3
"<Built In>"
 90
        0
280
     0
281
     0
  0
ENDSEC
  0
SECTION
  2
TABLES
  0
TABLE
  2
VPORT
  5
88
100
AcDbSymbolTable
 70
     1
  0
VPORT
  5
A6
100
AcDbSymbolTableRecord
100
AcDbViewportTableRecord
  2
*ACTIVE
 70
     0
 10
0.0
 20
0.0
 11
1.0
 21
1.0
 12
-17.09603071721724
 22
20.87181713894863
 13
0.0
 23
0.0
 14
1.0
 24
1.0
 15
0.0
 25
0.0
 16
0.0
 26
0.0
 36
1.0
 17
23.09603071721725
 27
-10.27010416511325
 37
-10.44050274849355
 40
21.35521366335376
 41
1.457627118644067
 42
50.0
 43
0.0
 44
0.0
 50
0.0
 51
0.0
 71
     0
 72
   100
 73
     1
 74
     1
 75
     0
 76
     0
 77
     0
 78
     0
  0
ENDTAB
  0
TABLE
  2
LTYPE
  5
83
100
AcDbSymbolTable
 70
     2
  0
LTYPE
  5
84
100
AcDbSymbolTableRecord
100
AcDbLinetypeTableRecord
  2
BYBLOCK
 70
     0
  3

 72
    65
 73
     0
 40
0.0
  0
LTYPE
  5
85
100
AcDbSymbolTableRecord
100
AcDbLinetypeTableRecord
  2
BYLAYER
 70
     0
  3

 72
    65
 73
     0
 40
0.0
  0
LTYPE
  5
5
100
AcDbSymbolTableRecord
100
AcDbLinetypeTableRecord
  2
CONTINUOUS
 70
     0
  3
Solid line
 72
    65
 73
     0
 40
0.0
  0
LTYPE
  5
1A
100
AcDbSymbolTableRecord
100
AcDbLinetypeTableRecord
  2
HIDDEN
 70
     0
  3
Hidden __ __ __ __ __ __ __ __ __ __ __ __ __ _
 72
    65
 73
     2
 40
0.375
 49
0.25
 74
     0
 49
-0.125
 74
     0
  0
ENDTAB
  0
TABLE
  2
LAYER
  5
81
100
AcDbSymbolTable
 70
     5
  0
LAYER
  5
25
100
AcDbSymbolTableRecord
100
AcDbLayerTableRecord
  2
0
 70
     0
 62
     7
  6
CONTINUOUS
  0
LAYER
  5
8
102
{ACAD_XDICTIONARY
360
9
102
}
100
AcDbSymbolTableRecord
100
AcDbLayerTableRecord
  2
USP-TXT
 70
     0
 62
     7
  6
CONTINUOUS
  0
LAYER
  5
D
102
{ACAD_XDICTIONARY
360
E
102
}
100
AcDbSymbolTableRecord
100
AcDbLayerTableRecord
  2
USP-GEO
 70
     0
 62
     7
  6
CONTINUOUS
  0
LAYER
  5
17
102
{ACAD_XDICTIONARY
360
18
102
}
100
AcDbSymbolTableRecord
100
AcDbLayerTableRecord
  2
USP-HID
 70
     0
 62
     7
  6
HIDDEN
  0
LAYER
  5
4
100
AcDbSymbolTableRecord
100
AcDbLayerTableRecord
  2
USP
 70
     0
 62
     7
  6
CONTINUOUS
  0
ENDTAB
  0
TABLE
  2
STYLE
  5
82
100
AcDbSymbolTable
 70
     1
  0
STYLE
  5
B
100
AcDbSymbolTableRecord
100
AcDbTextStyleTableRecord
  2
STANDARD
 70
     0
 40
0.0
 41
1.0
 50
0.0
 71
     0
 42
0.25
  3
txt
  4

  0
ENDTAB
  0
TABLE
  2
VIEW
  5
86
100
AcDbSymbolTable
 70
     0
  0
ENDTAB
  0
TABLE
  2
UCS
  5
87
100
AcDbSymbolTable
 70
     0
  0
ENDTAB
  0
TABLE
  2
APPID
  5
8A
100
AcDbSymbolTable
 70
     1
  0
APPID
  5
8B
100
AcDbSymbolTableRecord
100
AcDbRegAppTableRecord
  2
ACAD
 70
     0
  0
ENDTAB
  0
TABLE
  2
DIMSTYLE
  5
8C
100
AcDbSymbolTable
 70
     1
  0
DIMSTYLE
105
94
100
AcDbSymbolTableRecord
100
AcDbDimStyleTableRecord
  2
STANDARD
 70
     0
  3

  4

  5

  6

  7

 40
1.0
 41
0.18
 42
0.0625
 43
0.38
 44
0.18
 45
0.0
 46
0.0
 47
0.0
 48
0.0
140
0.18
141
0.09
142
0.0
143
25.4
144
1.0
145
0.0
146
1.0
147
0.09
 71
     0
 72
     0
 73
     1
 74
     1
 75
     0
 76
     0
 77
     0
 78
     0
170
     0
171
     2
172
     0
173
     0
174
     0
175
     0
176
     0
177
     0
178
     0
270
     2
271
     4
272
     4
273
     2
274
     2
340
B
275
     0
280
     0
281
     0
282
     0
283
     1
284
     0
285
     0
286
     0
287
     3
288
     0
  0
ENDTAB
  0
TABLE
  2
BLOCK_RECORD
  5
1
100
AcDbSymbolTable
 70
     3
  0
BLOCK_RECORD
  5
2
102
{ACAD_XDICTIONARY
360
77
102
}
100
AcDbSymbolTableRecord
100
AcDbBlockTableRecord
  2
*MODEL_SPACE
  0
BLOCK_RECORD
  5
7B
102
{ACAD_XDICTIONARY
360
7C
102
}
100
AcDbSymbolTableRecord
100
AcDbBlockTableRecord
  2
*PAPER_SPACE
  0
BLOCK_RECORD
  5
6
100
AcDbSymbolTableRecord
100
AcDbBlockTableRecord
  2
HTA16_T
  0
BLOCK_RECORD
  5
28
100
AcDbSymbolTableRecord
100
AcDbBlockTableRecord
  2
HTA16_F
  0
BLOCK_RECORD
  5
4E
100
AcDbSymbolTableRecord
100
AcDbBlockTableRecord
  2
HTA16_S
  0
ENDTAB
  0
ENDSEC
  0
SECTION
  2
BLOCKS
  0
BLOCK
  5
79
100
AcDbEntity
  8
0
100
AcDbBlockBegin
  2
*MODEL_SPACE
 70
     0
 10
0.0
 20
0.0
 30
0.0
  3
*MODEL_SPACE
  1

  0
ENDBLK
  5
7A
100
AcDbEntity
  8
0
100
AcDbBlockEnd
  0
BLOCK
  5
7F
100
AcDbEntity
 67
     1
  8
0
100
AcDbBlockBegin
  2
*PAPER_SPACE
 70
     0
 10
0.0
 20
0.0
 30
0.0
  3
*PAPER_SPACE
  1

  0
ENDBLK
  5
80
100
AcDbEntity
 67
     1
  8
0
100
AcDbBlockEnd
  0
BLOCK
  5
24
100
AcDbEntity
  8
0
100
AcDbBlockBegin
  2
HTA16_T
 70
     0
 10
0.0
 20
0.0
 30
0.0
  3
HTA16_T
  1

  0
TEXT
  5
7
100
AcDbEntity
  8
USP-TXT
100
AcDbText
 10
-1.130688076169494
 20
-0.559470551896478
 30
0.0
 40
0.25
  1
HTA16 - TOP VIEW
100
AcDbText
  0
LINE
  5
C
100
AcDbEntity
  8
USP-GEO
100
AcDbLine
 10
1.250000000000405
 20
1.562999999998488
 30
0.0
 11
0.0000000000004017
 21
1.562999999998428
 31
0.0
  0
LINE
  5
10
100
AcDbEntity
  8
USP-GEO
100
AcDbLine
 10
1.250000000000405
 20
1.499999999998482
 30
0.0
 11
0.0000000000004088
 21
1.499999999998422
 31
0.0
  0
LINE
  5
11
100
AcDbEntity
  8
USP-GEO
100
AcDbLine
 10
0.312500000000018
 20
0.0000000000000036
 30
0.0
 11
0.9375000000000179
 21
0.0000000000000355
 31
0.0
  0
LINE
  5
12
100
AcDbEntity
  8
USP-GEO
100
AcDbLine
 10
-0.0000000000000573
 20
1.499999999999968
 30
0.0
 11
0.0
 21
0.2499999999999751
 31
0.0
  0
LINE
  5
13
100
AcDbEntity
  8
USP-GEO
100
AcDbLine
 10
0.0625000000000144
 20
0.2499999999999751
 30
0.0
 11
0.3125000000000142
 21
0.0
 31
0.0
  0
LINE
  5
14
100
AcDbEntity
  8
USP-GEO
100
AcDbLine
 10
0.0000000000000109
 20
0.2499999999999751
 30
0.0
 11
0.0625000000000144
 21
0.2499999999999787
 31
0.0
  0
LINE
  5
15
100
AcDbEntity
  8
USP-GEO
100
AcDbLine
 10
0.0000000000004088
 20
1.499999999998419
 30
0.0
 11
0.0000000000004057
 21
1.562999999998432
 31
0.0
  0
LINE
  5
16
100
AcDbEntity
  8
USP-HID
100
AcDbLine
 10
0.1565000000003698
 20
1.499999999998568
 30
0.0
 11
0.1565000000003667
 21
1.562999999998577
 31
0.0
  0
LINE
  5
1B
100
AcDbEntity
  8
USP-HID
100
AcDbLine
 10
0.3435000000003696
 20
1.499999999998575
 30
0.0
 11
0.3435000000003665
 21
1.562999999998584
 31
0.0
  0
LINE
  5
1C
100
AcDbEntity
  8
USP-HID
100
AcDbLine
 10
0.5315000000003734
 20
1.499999999998525
 30
0.0
 11
0.5315000000003703
 21
1.562999999998535
 31
0.0
  0
LINE
  5
1D
100
AcDbEntity
  8
USP-HID
100
AcDbLine
 10
0.7185000000003735
 20
1.499999999998532
 30
0.0
 11
0.7185000000003703
 21
1.562999999998542
 31
0.0
  0
LINE
  5
1E
100
AcDbEntity
  8
USP-HID
100
AcDbLine
 10
0.9065000000003873
 20
1.499999999998511
 30
0.0
 11
0.9065000000003841
 21
1.562999999998513
 31
0.0
  0
LINE
  5
1F
100
AcDbEntity
  8
USP-GEO
100
AcDbLine
 10
1.249999999999949
 20
1.500000000000039
 30
0.0
 11
1.250000000000006
 21
0.2500000000000391
 31
0.0
  0
LINE
  5
20
100
AcDbEntity
  8
USP-GEO
100
AcDbLine
 10
1.187500000000007
 20
0.2500000000000249
 30
0.0
 11
0.9375000000000211
 21
0.0000000000000142
 31
0.0
  0
LINE
  5
21
100
AcDbEntity
  8
USP-GEO
100
AcDbLine
 10
1.187500000000007
 20
0.2500000000000249
 30
0.0
 11
1.250000000000017
 21
0.2500000000000284
 31
0.0
  0
LINE
  5
22
100
AcDbEntity
  8
USP-HID
100
AcDbLine
 10
1.093500000000387
 20
1.499999999998518
 30
0.0
 11
1.093500000000384
 21
1.56299999999852
 31
0.0
  0
LINE
  5
23
100
AcDbEntity
  8
USP-GEO
100
AcDbLine
 10
1.250000000000405
 20
1.499999999998482
 30
0.0
 11
1.250000000000402
 21
1.562999999998488
 31
0.0
  0
ENDBLK
  5
26
100
AcDbEntity
  8
0
100
AcDbBlockEnd
  0
BLOCK
  5
4B
100
AcDbEntity
  8
0
100
AcDbBlockBegin
  2
HTA16_F
 70
     0
 10
0.0
 20
0.0
 30
0.0
  3
HTA16_F
  1

  0
CIRCLE
  5
29
100
AcDbEntity
  8
USP-GEO
100
AcDbCircle
 10
0.6250000000002043
 20
9.563000000000073
 30
0.0
 40
0.0935
  0
LINE
  5
2A
100
AcDbEntity
  8
USP-GEO
100
AcDbLine
 10
1.249999999999932
 20
0.0630000000000735
 30
0.0
 11
1.250000000000388
 21
16.06300000000007
 31
0.0
  0
LINE
  5
2B
100
AcDbEntity
  8
USP-GEO
100
AcDbLine
 10
-0.0000000000000639
 20
0.0630000000001161
 30
0.0
 11
0.0000000000003917
 21
16.06300000000011
 31
0.0
  0
TEXT
  5
2C
100
AcDbEntity
  8
USP-TXT
100
AcDbText
 10
-1.316992056386519
 20
-0.7080948064647697
 30
0.0
 40
0.25
  1
HTA16 - FRONT VIEW
100
AcDbText
  0
CIRCLE
  5
2D
100
AcDbEntity
  8
USP-GEO
100
AcDbCircle
 10
1.000000000000179
 20
8.688000000000073
 30
0.0
 40
0.0935
  0
LINE
  5
2E
100
AcDbEntity
  8
USP-GEO
100
AcDbLine
 10
0.312500000000016
 20
0.062999999999974
 30
0.0
 11
0.9375000000000159
 21
0.0629999999999562
 31
0.0
  0
LINE
  5
2F
100
AcDbEntity
  8
USP-GEO
100
AcDbLine
 10
0.3125000000000053
 20
-0.0000000000000426
 30
0.0
 11
0.9375000000000053
 21
-0.0000000000000604
 31
0.0
  0
LINE
  5
30
100
AcDbEntity
  8
USP-GEO
100
AcDbLine
 10
0.0625000000000124
 20
0.0630000000000024
 30
0.0
 11
0.3125000000000122
 21
0.0629999999999712
 31
0.0
  0
LINE
  5
31
100
AcDbEntity
  8
USP-GEO
100
AcDbLine
 10
0.0625000000000018
 20
-0.0000000000000142
 30
0.0
 11
0.3125000000000015
 21
-0.0000000000000454
 31
0.0
  0
LINE
  5
32
100
AcDbEntity
  8
USP-GEO
100
AcDbLine
 10
0.0000000000000018
 20
0.0630000000000024
 30
0.0
 11
0.0625000000000124
 21
0.0630000000000006
 31
0.0
  0
LINE
  5
33
100
AcDbEntity
  8
USP-GEO
100
AcDbLine
 10
0.0000000000000018
 20
0.0630000000000024
 30
0.0
 11
0.0
 21
0.0
 31
0.0
  0
LINE
  5
34
100
AcDbEntity
  8
USP-GEO
100
AcDbLine
 10
-0.0000000000000018
 20
0.0
 30
0.0
 11
0.0625000000000018
 21
-0.0000000000000018
 31
0.0
  0
LINE
  5
35
100
AcDbEntity
  8
USP-GEO
100
AcDbLine
 10
0.0625000000000124
 20
0.0630000000000024
 30
0.0
 11
0.0625000000000107
 21
-0.0000000000000142
 31
0.0
  0
LINE
  5
36
100
AcDbEntity
  8
USP-GEO
100
AcDbLine
 10
0.312500000000016
 20
0.062999999999974
 30
0.0
 11
0.3125000000000142
 21
-0.0000000000000426
 31
0.0
  0
CIRCLE
  5
37
100
AcDbEntity
  8
USP-GEO
100
AcDbCircle
 10
0.6250000000000693
 20
4.438000000000087
 30
0.0
 40
0.0935
  0
CIRCLE
  5
38
100
AcDbEntity
  8
USP-GEO
100
AcDbCircle
 10
0.6250000000001119
 20
6.063000000000087
 30
0.0
 40
0.0935
  0
CIRCLE
  5
39
100
AcDbEntity
  8
USP-GEO
100
AcDbCircle
 10
0.6250000000001617
 20
7.813000000000073
 30
0.0
 40
0.0935
  0
LINE
  5
3A
100
AcDbEntity
  8
USP-GEO
100
AcDbLine
 10
1.187499999999998
 20
0.0629999999999598
 30
0.0
 11
0.9375000000000156
 21
0.0629999999999428
 31
0.0
  0
LINE
  5
3B
100
AcDbEntity
  8
USP-GEO
100
AcDbLine
 10
0.9375000000000049
 20
-0.0000000000000596
 30
0.0
 11
1.187499999999994
 21
-0.0000000000000426
 31
0.0
  0
LINE
  5
3C
100
AcDbEntity
  8
USP-GEO
100
AcDbLine
 10
0.9375000000000159
 20
0.0629999999999456
 30
0.0
 11
0.9375000000000142
 21
-0.0000000000000568
 31
0.0
  0
LINE
  5
3D
100
AcDbEntity
  8
USP-GEO
100
AcDbLine
 10
1.250000000000008
 20
0.0629999999999598
 30
0.0
 11
1.250000000000007
 21
-0.0000000000000568
 31
0.0
  0
LINE
  5
3E
100
AcDbEntity
  8
USP-GEO
100
AcDbLine
 10
1.187499999999998
 20
0.0629999999999598
 30
0.0
 11
1.250000000000008
 21
0.062999999999958
 31
0.0
  0
LINE
  5
3F
100
AcDbEntity
  8
USP-GEO
100
AcDbLine
 10
1.187499999999998
 20
0.0629999999999598
 30
0.0
 11
1.187499999999996
 21
-0.0000000000000426
 31
0.0
  0
LINE
  5
40
100
AcDbEntity
  8
USP-GEO
100
AcDbLine
 10
1.187499999999994
 20
-0.0000000000000426
 30
0.0
 11
1.249999999999998
 21
-0.0000000000000444
 31
0.0
  0
LINE
  5
41
100
AcDbEntity
  8
USP-GEO
100
AcDbLine
 10
1.250000000000396
 20
16.06300000000007
 30
0.0
 11
0.0000000000004032
 21
16.0630000000001
 31
0.0
  0
CIRCLE
  5
42
100
AcDbEntity
  8
USP-GEO
100
AcDbCircle
 10
1.000000000000378
 20
15.62550000000006
 30
0.0
 40
0.0935
  0
CIRCLE
  5
43
100
AcDbEntity
  8
USP-GEO
100
AcDbCircle
 10
1.000000000000307
 20
13.43800000000007
 30
0.0
 40
0.0935
  0
CIRCLE
  5
44
100
AcDbEntity
  8
USP-GEO
100
AcDbCircle
 10
1.000000000000239
 20
11.00050000000007
 30
0.0
 40
0.0935
  0
CIRCLE
  5
45
100
AcDbEntity
  8
USP-GEO
100
AcDbCircle
 10
0.250000000000222
 20
9.938000000000101
 30
0.0
 40
0.0935
  0
CIRCLE
  5
46
100
AcDbEntity
  8
USP-GEO
100
AcDbCircle
 10
0.2500000000002824
 20
11.9380000000001
 30
0.0
 40
0.0935
  0
CIRCLE
  5
47
100
AcDbEntity
  8
USP-GEO
100
AcDbCircle
 10
0.6250000000003109
 20
13.06300000000007
 30
0.0
 40
0.0935
  0
CIRCLE
  5
48
100
AcDbEntity
  8
USP-GEO
100
AcDbCircle
 10
0.6250000000003393
 20
14.12550000000007
 30
0.0
 40
0.0935
  0
CIRCLE
  5
49
100
AcDbEntity
  8
USP-GEO
100
AcDbCircle
 10
0.250000000000357
 20
14.68800000000008
 30
0.0
 40
0.0935
  0
CIRCLE
  5
4A
100
AcDbEntity
  8
USP-GEO
100
AcDbCircle
 10
0.6250000000003642
 20
15.18800000000007
 30
0.0
 40
0.0935
  0
ENDBLK
  5
4C
100
AcDbEntity
  8
0
100
AcDbBlockEnd
  0
BLOCK
  5
75
100
AcDbEntity
  8
0
100
AcDbBlockBegin
  2
HTA16_S
 70
     0
 10
0.0
 20
0.0
 30
0.0
  3
HTA16_S
  1

  0
LINE
  5
4F
100
AcDbEntity
  8
USP-GEO
100
AcDbLine
 10
1.500000000000015
 20
0.0630000000001472
 30
0.0
 11
1.499999999998477
 21
16.06300000000013
 31
0.0
  0
LINE
  5
50
100
AcDbEntity
  8
USP-GEO
100
AcDbLine
 10
1.563000000000016
 20
0.0000000000001306
 30
0.0
 11
1.562999999998472
 21
16.06300000000013
 31
0.0
  0
TEXT
  5
51
100
AcDbEntity
  8
USP-TXT
100
AcDbText
 10
-0.9514819312770228
 20
-0.7416134074612187
 30
0.0
 40
0.25
  1
HTA16 - SIDE VIEW
100
AcDbText
  0
LINE
  5
52
100
AcDbEntity
  8
USP-GEO
100
AcDbLine
 10
1.500000000000021
 20
0.0630000000001411
 30
0.0
 11
0.2500000000000213
 21
0.0630000000000211
 31
0.0
  0
LINE
  5
53
100
AcDbEntity
  8
USP-GEO
100
AcDbLine
 10
0.2500000000000213
 20
0.0000000000000044
 30
0.0
 11
1.563000000000016
 21
0.0000000000001306
 31
0.0
  0
LINE
  5
54
100
AcDbEntity
  8
USP-GEO
100
AcDbLine
 10
0.2500000000000142
 20
0.0630000000000193
 30
0.0
 11
0.0000000000000071
 21
0.0630000000000024
 31
0.0
  0
LINE
  5
55
100
AcDbEntity
  8
USP-GEO
100
AcDbLine
 10
0.0
 20
0.0
 30
0.0
 11
0.2500000000000071
 21
0.0000000000000169
 31
0.0
  0
LINE
  5
56
100
AcDbEntity
  8
USP-GEO
100
AcDbLine
 10
0.0000000000000071
 20
0.0630000000000051
 30
0.0
 11
0.0000000000000124
 21
-0.0000000000000115
 31
0.0
  0
LINE
  5
57
100
AcDbEntity
  8
USP-GEO
100
AcDbLine
 10
0.2500000000000213
 20
0.0630000000000193
 30
0.0
 11
0.2500000000000266
 21
0.0000000000000169
 31
0.0
  0
LINE
  5
58
100
AcDbEntity
  8
USP-HID
100
AcDbLine
 10
1.499999999999575
 20
4.344500000000147
 30
0.0
 11
1.562999999999577
 21
4.344500000000153
 31
0.0
  0
LINE
  5
59
100
AcDbEntity
  8
USP-HID
100
AcDbLine
 10
1.499999999999557
 20
4.531500000000146
 30
0.0
 11
1.56299999999956
 21
4.531500000000153
 31
0.0
  0
LINE
  5
5A
100
AcDbEntity
  8
USP-HID
100
AcDbLine
 10
1.499999999999401
 20
6.156500000000146
 30
0.0
 11
1.562999999999403
 21
6.156500000000153
 31
0.0
  0
LINE
  5
5B
100
AcDbEntity
  8
USP-HID
100
AcDbLine
 10
1.499999999999419
 20
5.969500000000147
 30
0.0
 11
1.562999999999421
 21
5.969500000000153
 31
0.0
  0
LINE
  5
5C
100
AcDbEntity
  8
USP-HID
100
AcDbLine
 10
1.499999999999223
 20
7.906500000000133
 30
0.0
 11
1.562999999999233
 21
7.906500000000138
 31
0.0
  0
LINE
  5
5D
100
AcDbEntity
  8
USP-HID
100
AcDbLine
 10
1.499999999999241
 20
7.719500000000132
 30
0.0
 11
1.56299999999925
 21
7.719500000000137
 31
0.0
  0
LINE
  5
5E
100
AcDbEntity
  8
USP-HID
100
AcDbLine
 10
1.499999999999166
 20
8.781500000000132
 30
0.0
 11
1.562999999999162
 21
8.781500000000139
 31
0.0
  0
LINE
  5
5F
100
AcDbEntity
  8
USP-HID
100
AcDbLine
 10
1.499999999999184
 20
8.594500000000131
 30
0.0
 11
1.562999999999179
 21
8.594500000000138
 31
0.0
  0
LINE
  5
60
100
AcDbEntity
  8
USP-HID
100
AcDbLine
 10
1.49999999999907
 20
9.469500000000131
 30
0.0
 11
1.562999999999073
 21
9.469500000000138
 31
0.0
  0
LINE
  5
61
100
AcDbEntity
  8
USP-HID
100
AcDbLine
 10
1.499999999999053
 20
9.656500000000132
 30
0.0
 11
1.562999999999055
 21
9.656500000000139
 31
0.0
  0
LINE
  5
62
100
AcDbEntity
  8
USP-HID
100
AcDbLine
 10
1.499999999999021
 20
9.844500000000145
 30
0.0
 11
1.56299999999903
 21
9.844500000000152
 31
0.0
  0
LINE
  5
63
100
AcDbEntity
  8
USP-HID
100
AcDbLine
 10
1.499999999999003
 20
10.03150000000014
 30
0.0
 11
1.562999999999012
 21
10.03150000000015
 31
0.0
  0
LINE
  5
64
100
AcDbEntity
  8
USP-HID
100
AcDbLine
 10
1.499999999998939
 20
11.09400000000014
 30
0.0
 11
1.562999999998938
 21
11.09400000000015
 31
0.0
  0
LINE
  5
65
100
AcDbEntity
  8
USP-HID
100
AcDbLine
 10
1.499999999998957
 20
10.90700000000014
 30
0.0
 11
1.562999999998956
 21
10.90700000000015
 31
0.0
  0
LINE
  5
66
100
AcDbEntity
  8
USP-HID
100
AcDbLine
 10
1.49999999999884
 20
11.84450000000015
 30
0.0
 11
1.562999999998845
 21
11.84450000000016
 31
0.0
  0
LINE
  5
67
100
AcDbEntity
  8
USP-HID
100
AcDbLine
 10
1.499999999998822
 20
12.03150000000016
 30
0.0
 11
1.562999999998828
 21
12.03150000000016
 31
0.0
  0
LINE
  5
68
100
AcDbEntity
  8
USP-HID
100
AcDbLine
 10
1.499999999998722
 20
13.15650000000013
 30
0.0
 11
1.562999999998732
 21
13.15650000000013
 31
0.0
  0
LINE
  5
69
100
AcDbEntity
  8
USP-HID
100
AcDbLine
 10
1.49999999999874
 20
12.96950000000013
 30
0.0
 11
1.56299999999875
 21
12.96950000000014
 31
0.0
  0
LINE
  5
6A
100
AcDbEntity
  8
USP-HID
100
AcDbLine
 10
1.499999999998697
 20
13.53150000000013
 30
0.0
 11
1.562999999998703
 21
13.53150000000014
 31
0.0
  0
LINE
  5
6B
100
AcDbEntity
  8
USP-HID
100
AcDbLine
 10
1.499999999998715
 20
13.34450000000013
 30
0.0
 11
1.562999999998721
 21
13.34450000000013
 31
0.0
  0
LINE
  5
6C
100
AcDbEntity
  8
USP-HID
100
AcDbLine
 10
1.49999999999863
 20
14.03200000000013
 30
0.0
 11
1.562999999998636
 21
14.03200000000014
 31
0.0
  0
LINE
  5
6D
100
AcDbEntity
  8
USP-HID
100
AcDbLine
 10
1.499999999998612
 20
14.21900000000013
 30
0.0
 11
1.562999999998618
 21
14.21900000000014
 31
0.0
  0
LINE
  5
6E
100
AcDbEntity
  8
USP-HID
100
AcDbLine
 10
1.499999999998555
 20
14.78150000000014
 30
0.0
 11
1.562999999998561
 21
14.78150000000015
 31
0.0
  0
LINE
  5
6F
100
AcDbEntity
  8
USP-HID
100
AcDbLine
 10
1.499999999998573
 20
14.59450000000014
 30
0.0
 11
1.562999999998579
 21
14.59450000000015
 31
0.0
  0
LINE
  5
70
100
AcDbEntity
  8
USP-HID
100
AcDbLine
 10
1.49999999999853
 20
15.09450000000013
 30
0.0
 11
1.562999999998536
 21
15.09450000000013
 31
0.0
  0
LINE
  5
71
100
AcDbEntity
  8
USP-HID
100
AcDbLine
 10
1.499999999998513
 20
15.28150000000013
 30
0.0
 11
1.562999999998519
 21
15.28150000000014
 31
0.0
  0
LINE
  5
72
100
AcDbEntity
  8
USP-HID
100
AcDbLine
 10
1.499999999998516
 20
15.53200000000013
 30
0.0
 11
1.562999999998515
 21
15.53200000000014
 31
0.0
  0
LINE
  5
73
100
AcDbEntity
  8
USP-GEO
100
AcDbLine
 10
1.499999999998475
 20
16.06300000000013
 30
0.0
 11
1.562999999998474
 21
16.06300000000014
 31
0.0
  0
LINE
  5
74
100
AcDbEntity
  8
USP-HID
100
AcDbLine
 10
1.499999999998498
 20
15.71900000000013
 30
0.0
 11
1.562999999998497
 21
15.71900000000014
 31
0.0
  0
ENDBLK
  5
76
100
AcDbEntity
  8
0
100
AcDbBlockEnd
  0
ENDSEC
  0
SECTION
  2
ENTITIES
  0
INSERT
  5
3
100
AcDbEntity
  8
USP
100
AcDbBlockReference
  2
HTA16_T
 10
1.332611976918357
 20
19.12946213555538
 30
0.0
  0
INSERT
  5
27
100
AcDbEntity
  8
USP
100
AcDbBlockReference
  2
HTA16_F
 10
1.317724433557179
 20
0.7422448695288093
 30
0.0
  0
INSERT
  5
4D
100
AcDbEntity
  8
USP
100
AcDbBlockReference
  2
HTA16_S
 10
8.597497072503077
 20
0.742244869528764
 30
0.0
  0
ENDSEC
  0
SECTION
  2
OBJECTS
  0
DICTIONARY
  5
90
102
{ACAD_XDICTIONARY
360
91
102
}
100
AcDbDictionary
  3
ACAD_GROUP
350
8E
  3
ACAD_MLINESTYLE
350
8F
  0
DICTIONARY
  5
9
100
AcDbDictionary
280
     1
  3
ACAD_XREC_ROUNDTRIP
360
A
  0
DICTIONARY
  5
E
100
AcDbDictionary
280
     1
  3
ACAD_XREC_ROUNDTRIP
360
F
  0
DICTIONARY
  5
18
100
AcDbDictionary
280
     1
  3
ACAD_XREC_ROUNDTRIP
360
19
  0
DICTIONARY
  5
77
100
AcDbDictionary
280
     1
  3
ACAD_LAYOUTSELFREF
360
78
  0
DICTIONARY
  5
7C
100
AcDbDictionary
280
     1
  3
ACAD_LAYOUTSELFREF
360
7D
  3
ACAD_XREC_ROUNDTRIP
360
7E
  0
DICTIONARY
  5
91
100
AcDbDictionary
280
     1
  3
ACAD_XREC_ROUNDTRIP
360
92
  0
DICTIONARY
  5
8E
102
{ACAD_REACTORS
330
90
102
}
100
AcDbDictionary
  0
DICTIONARY
  5
8F
102
{ACAD_REACTORS
330
90
102
}
100
AcDbDictionary
  3
STANDARD
350
93
  0
XRECORD
  5
A
102
{ACAD_REACTORS
330
9
102
}
100
AcDbXrecord
102
EXTNAMES
  1
USP-TXT
  2
usp-txt
  0
XRECORD
  5
F
102
{ACAD_REACTORS
330
E
102
}
100
AcDbXrecord
102
EXTNAMES
  1
USP-GEO
  2
usp-geo
  0
XRECORD
  5
19
102
{ACAD_REACTORS
330
18
102
}
100
AcDbXrecord
102
EXTNAMES
  1
USP-HID
  2
usp-hid
  0
XRECORD
  5
78
102
{ACAD_REACTORS
330
77
102
}
100
AcDbXrecord
340
18
  0
XRECORD
  5
7D
102
{ACAD_REACTORS
330
7C
102
}
100
AcDbXrecord
340
0
  0
XRECORD
  5
7E
102
{ACAD_REACTORS
330
7C
102
}
100
AcDbXrecord
102
EXTNAMES
  1
*PAPER_SPACE
  2
*Paper_Space
  0
XRECORD
  5
92
102
{ACAD_REACTORS
330
91
102
}
100
AcDbXrecord
102
EXTNAMES
  1
ACDBVARIABLEDICTIONARY
  2
AcDbVariableDictionary
  0
MLINESTYLE
  5
93
102
{ACAD_REACTORS
330
8F
102
}
100
AcDbMlineStyle
  2
STANDARD
 70
     0
  3

 62
     0
 51
90.0
 52
90.0
 71
     2
 49
0.5
 62
   256
  6
BYLAYER
 49
-0.5
 62
   256
  6
BYLAYER
  0
ENDSEC
  0
EOF
