  0
SECTION
  2
HEADER
  9
$ACADVER
  1
AC1014
  9
$ACADMAINTVER
 70
     9
  9
$DWGCODEPAGE
  3
ANSI_1252
  9
$INSBASE
 10
0.0
 20
0.0
 30
0.0
  9
$EXTMIN
 10
0.0002927348100528
 20
0.0005436386670823
 30
0.0
  9
$EXTMAX
 10
10.31103491614156
 20
17.63321075222982
 30
0.0
  9
$LIMMIN
 10
0.0
 20
0.0
  9
$LIMMAX
 10
12.0
 20
9.0
  9
$ORTHOMODE
 70
     0
  9
$REGENMODE
 70
     1
  9
$FILLMODE
 70
     1
  9
$QTEXTMODE
 70
     0
  9
$MIRRTEXT
 70
     0
  9
$DRAGMODE
 70
     2
  9
$LTSCALE
 40
1.5
  9
$OSMODE
 70
    37
  9
$ATTMODE
 70
     1
  9
$TEXTSIZE
 40
0.25
  9
$TRACEWID
 40
0.05
  9
$TEXTSTYLE
  7
STANDARD
  9
$CLAYER
  8
0
  9
$CELTYPE
  6
BYLAYER
  9
$CECOLOR
 62
   256
  9
$CELTSCALE
 40
1.0
  9
$DELOBJ
 70
     1
  9
$DISPSILH
 70
     1
  9
$DIMSCALE
 40
6.0
  9
$DIMASZ
 40
0.125
  9
$DIMEXO
 40
0.0625
  9
$DIMDLI
 40
0.37890625
  9
$DIMRND
 40
0.0
  9
$DIMDLE
 40
0.0
  9
$DIMEXE
 40
0.09375
  9
$DIMTP
 40
0.0
  9
$DIMTM
 40
0.0
  9
$DIMTXT
 40
0.109375
  9
$DIMCEN
 40
0.0
  9
$DIMTSZ
 40
0.0
  9
$DIMTOL
 70
     0
  9
$DIMLIM
 70
     0
  9
$DIMTIH
 70
     1
  9
$DIMTOH
 70
     1
  9
$DIMSE1
 70
     0
  9
$DIMSE2
 70
     0
  9
$DIMTAD
 70
     0
  9
$DIMZIN
 70
     8
  9
$DIMBLK
  1

  9
$DIMASO
 70
     1
  9
$DIMSHO
 70
     1
  9
$DIMPOST
  1

  9
$DIMAPOST
  1

  9
$DIMALT
 70
     0
  9
$DIMALTD
 70
     2
  9
$DIMALTF
 40
25.4
  9
$DIMLFAC
 40
1.0
  9
$DIMTOFL
 70
     0
  9
$DIMTVP
 40
0.0
  9
$DIMTIX
 70
     0
  9
$DIMSOXD
 70
     0
  9
$DIMSAH
 70
     0
  9
$DIMBLK1
  1

  9
$DIMBLK2
  1

  9
$DIMSTYLE
  2
STANDARD
  9
$DIMCLRD
 70
     0
  9
$DIMCLRE
 70
     0
  9
$DIMCLRT
 70
   256
  9
$DIMTFAC
 40
1.0
  9
$DIMGAP
 40
0.08984375
  9
$DIMJUST
 70
     0
  9
$DIMSD1
 70
     0
  9
$DIMSD2
 70
     0
  9
$DIMTOLJ
 70
     1
  9
$DIMTZIN
 70
     0
  9
$DIMALTZ
 70
     0
  9
$DIMALTTZ
 70
     0
  9
$DIMFIT
 70
     3
  9
$DIMUPT
 70
     1
  9
$DIMUNIT
 70
     7
  9
$DIMDEC
 70
     4
  9
$DIMTDEC
 70
     4
  9
$DIMALTU
 70
     2
  9
$DIMALTTD
 70
     2
  9
$DIMTXSTY
  7
STANDARD
  9
$DIMAUNIT
 70
     0
  9
$LUNITS
 70
     5
  9
$LUPREC
 70
     6
  9
$SKETCHINC
 40
0.1
  9
$FILLETRAD
 40
0.0
  9
$AUNITS
 70
     0
  9
$AUPREC
 70
     1
  9
$MENU
  1
CUSTOM
  9
$ELEVATION
 40
0.0
  9
$PELEVATION
 40
0.0
  9
$THICKNESS
 40
0.0
  9
$LIMCHECK
 70
     0
  9
$BLIPMODE
 70
     0
  9
$CHAMFERA
 40
0.0
  9
$CHAMFERB
 40
0.0
  9
$CHAMFERC
 40
0.0
  9
$CHAMFERD
 40
0.0
  9
$SKPOLY
 70
     0
  9
$TDCREATE
 40
2451263.663231366
  9
$TDUPDATE
 40
2452759.744982268
  9
$TDINDWG
 40
0.1187153935
  9
$TDUSRTIMER
 40
0.1187153935
  9
$USRTIMER
 70
     1
  9
$ANGBASE
 50
0.0
  9
$ANGDIR
 70
     0
  9
$PDMODE
 70
     0
  9
$PDSIZE
 40
0.0
  9
$PLINEWID
 40
0.0
  9
$COORDS
 70
     1
  9
$SPLFRAME
 70
     0
  9
$SPLINETYPE
 70
     6
  9
$SPLINESEGS
 70
     8
  9
$ATTDIA
 70
     0
  9
$ATTREQ
 70
     1
  9
$HANDLING
 70
     1
  9
$HANDSEED
  5
CD
  9
$SURFTAB1
 70
     6
  9
$SURFTAB2
 70
     6
  9
$SURFTYPE
 70
     6
  9
$SURFU
 70
     6
  9
$SURFV
 70
     6
  9
$UCSNAME
  2

  9
$UCSORG
 10
0.0
 20
0.0
 30
0.0
  9
$UCSXDIR
 10
1.0
 20
0.0
 30
0.0
  9
$UCSYDIR
 10
0.0
 20
1.0
 30
0.0
  9
$PUCSNAME
  2

  9
$PUCSORG
 10
0.0
 20
0.0
 30
0.0
  9
$PUCSXDIR
 10
1.0
 20
0.0
 30
0.0
  9
$PUCSYDIR
 10
0.0
 20
1.0
 30
0.0
  9
$USERI1
 70
     0
  9
$USERI2
 70
     0
  9
$USERI3
 70
     0
  9
$USERI4
 70
     0
  9
$USERI5
 70
     0
  9
$USERR1
 40
0.0
  9
$USERR2
 40
0.0
  9
$USERR3
 40
0.0
  9
$USERR4
 40
0.0
  9
$USERR5
 40
0.0
  9
$WORLDVIEW
 70
     1
  9
$SHADEDGE
 70
     3
  9
$SHADEDIF
 70
    70
  9
$TILEMODE
 70
     1
  9
$MAXACTVP
 70
    16
  9
$PINSBASE
 10
0.0
 20
0.0
 30
0.0
  9
$PLIMCHECK
 70
     0
  9
$PEXTMIN
 10
1.000000000000000E+20
 20
1.000000000000000E+20
 30
1.000000000000000E+20
  9
$PEXTMAX
 10
-1.000000000000000E+20
 20
-1.000000000000000E+20
 30
-1.000000000000000E+20
  9
$PLIMMIN
 10
0.0
 20
0.0
  9
$PLIMMAX
 10
12.0
 20
9.0
  9
$UNITMODE
 70
     0
  9
$VISRETAIN
 70
     0
  9
$PLINEGEN
 70
     0
  9
$PSLTSCALE
 70
     0
  9
$TREEDEPTH
 70
  3020
  9
$PICKSTYLE
 70
     1
  9
$CMLSTYLE
  2
STANDARD
  9
$CMLJUST
 70
     0
  9
$CMLSCALE
 40
1.0
  9
$PROXYGRAPHICS
 70
     1
  9
$MEASUREMENT
 70
     0
  0
ENDSEC
  0
SECTION
  2
CLASSES
  0
CLASS
  1
ACDBDICTIONARYWDFLT
  2
AcDbDictionaryWithDefault
  3
AutoCAD 2000
 90
        0
280
     0
281
     0
  0
CLASS
  1
ACDBPLACEHOLDER
  2
AcDbPlaceHolder
  3
AutoCAD 2000
 90
        0
280
     0
281
     0
  0
CLASS
  1
LAYOUT
  2
AcDbLayout
  3
AutoCAD 2000
 90
        0
280
     0
281
     0
  0
CLASS
  1
DICTIONARYVAR
  2
AcDbDictionaryVar
  3
"AutoCAD"
 90
        0
280
     0
281
     0
  0
CLASS
  1
LONG_TRANSACTION
  2
AcDbLongTransaction
  3
AutoCAD 2000
 90
        0
280
     0
281
     0
  0
CLASS
  1
LWPOLYLINE
  2
AcDbPolyline
  3
"AutoCAD"
 90
        0
280
     0
281
     1
  0
CLASS
  1
HATCH
  2
AcDbHatch
  3
"ACAD_SEDONA"
 90
        0
280
     0
281
     1
  0
CLASS
  1
XRECORD
  2
AcDbXrecord
  3
"<Built In>"
 90
        0
280
     0
281
     0
  0
CLASS
  1
LONG_TRANSACTION
  2
AcDbLongTransaction
  3
AutoCAD 2000
 90
        0
280
     0
281
     0
  0
CLASS
  1
LWPOLYLINE
  2
AcDbPolyline
  3
"AutoCAD"
 90
        0
280
     0
281
     1
  0
CLASS
  1
HATCH
  2
AcDbHatch
  3
"ACAD_SEDONA"
 90
        0
280
     0
281
     1
  0
CLASS
  1
XRECORD
  2
AcDbXrecord
  3
"<Built In>"
 90
        0
280
     0
281
     0
  0
ENDSEC
  0
SECTION
  2
TABLES
  0
TABLE
  2
VPORT
  5
AF
100
AcDbSymbolTable
 70
     1
  0
VPORT
  5
C9
100
AcDbSymbolTableRecord
100
AcDbViewportTableRecord
  2
*ACTIVE
 70
     0
 10
0.0
 20
0.0
 11
1.0
 21
1.0
 12
-17.94035575111314
 22
19.29628005196092
 13
0.0
 23
0.0
 14
1.0
 24
1.0
 15
0.0
 25
0.0
 16
0.0
 26
0.0
 36
1.0
 17
23.09603071721725
 27
-10.27010416511325
 37
-10.44050274849355
 40
18.18104132929886
 41
1.457627118644067
 42
50.0
 43
10.55307667737539
 44
10.55307667737539
 50
0.0
 51
0.0
 71
     0
 72
   100
 73
     1
 74
     1
 75
     0
 76
     0
 77
     0
 78
     0
  0
ENDTAB
  0
TABLE
  2
LTYPE
  5
AA
100
AcDbSymbolTable
 70
     1
  0
LTYPE
  5
AB
100
AcDbSymbolTableRecord
100
AcDbLinetypeTableRecord
  2
BYBLOCK
 70
     0
  3

 72
    65
 73
     0
 40
0.0
  0
LTYPE
  5
AC
100
AcDbSymbolTableRecord
100
AcDbLinetypeTableRecord
  2
BYLAYER
 70
     0
  3

 72
    65
 73
     0
 40
0.0
  0
LTYPE
  5
5
100
AcDbSymbolTableRecord
100
AcDbLinetypeTableRecord
  2
CONTINUOUS
 70
     0
  3
Solid line
 72
    65
 73
     0
 40
0.0
  0
ENDTAB
  0
TABLE
  2
LAYER
  5
A8
100
AcDbSymbolTable
 70
     4
  0
LAYER
  5
45
100
AcDbSymbolTableRecord
100
AcDbLayerTableRecord
  2
0
 70
     0
 62
     7
  6
CONTINUOUS
  0
LAYER
  5
8
100
AcDbSymbolTableRecord
100
AcDbLayerTableRecord
  2
USP-GEO
 70
     0
 62
     7
  6
CONTINUOUS
  0
LAYER
  5
42
100
AcDbSymbolTableRecord
100
AcDbLayerTableRecord
  2
USP-TXT
 70
     0
 62
     7
  6
CONTINUOUS
  0
LAYER
  5
4
100
AcDbSymbolTableRecord
100
AcDbLayerTableRecord
  2
USP
 70
     0
 62
     7
  6
CONTINUOUS
  0
ENDTAB
  0
TABLE
  2
STYLE
  5
A9
100
AcDbSymbolTable
 70
     1
  0
STYLE
  5
43
100
AcDbSymbolTableRecord
100
AcDbTextStyleTableRecord
  2
STANDARD
 70
     0
 40
0.0
 41
1.0
 50
0.0
 71
     0
 42
0.25
  3
txt
  4

  0
ENDTAB
  0
TABLE
  2
VIEW
  5
AD
100
AcDbSymbolTable
 70
     0
  0
ENDTAB
  0
TABLE
  2
UCS
  5
AE
100
AcDbSymbolTable
 70
     0
  0
ENDTAB
  0
TABLE
  2
APPID
  5
B1
100
AcDbSymbolTable
 70
     1
  0
APPID
  5
B2
100
AcDbSymbolTableRecord
100
AcDbRegAppTableRecord
  2
ACAD
 70
     0
  0
ENDTAB
  0
TABLE
  2
DIMSTYLE
  5
B3
100
AcDbSymbolTable
 70
     1
  0
DIMSTYLE
105
BB
100
AcDbSymbolTableRecord
100
AcDbDimStyleTableRecord
  2
STANDARD
 70
     0
  3

  4

  5

  6

  7

 40
1.0
 41
0.18
 42
0.0625
 43
0.38
 44
0.18
 45
0.0
 46
0.0
 47
0.0
 48
0.0
140
0.18
141
0.09
142
0.0
143
25.4
144
1.0
145
0.0
146
1.0
147
0.09
 71
     0
 72
     0
 73
     1
 74
     1
 75
     0
 76
     0
 77
     0
 78
     0
170
     0
171
     2
172
     0
173
     0
174
     0
175
     0
176
     0
177
     0
178
     0
270
     2
271
     4
272
     4
273
     2
274
     2
340
43
275
     0
280
     0
281
     0
282
     0
283
     1
284
     0
285
     0
286
     0
287
     3
288
     0
  0
ENDTAB
  0
TABLE
  2
BLOCK_RECORD
  5
1
100
AcDbSymbolTable
 70
     3
  0
BLOCK_RECORD
  5
2
102
{ACAD_XDICTIONARY
360
9F
102
}
100
AcDbSymbolTableRecord
100
AcDbBlockTableRecord
  2
*MODEL_SPACE
  0
BLOCK_RECORD
  5
A3
102
{ACAD_XDICTIONARY
360
A4
102
}
100
AcDbSymbolTableRecord
100
AcDbBlockTableRecord
  2
*PAPER_SPACE
  0
BLOCK_RECORD
  5
6
100
AcDbSymbolTableRecord
100
AcDbBlockTableRecord
  2
HTA12_F
  0
BLOCK_RECORD
  5
48
100
AcDbSymbolTableRecord
100
AcDbBlockTableRecord
  2
HTA12_T
  0
BLOCK_RECORD
  5
71
100
AcDbSymbolTableRecord
100
AcDbBlockTableRecord
  2
HTA12_S
  0
ENDTAB
  0
ENDSEC
  0
SECTION
  2
BLOCKS
  0
BLOCK
  5
A1
100
AcDbEntity
  8
0
100
AcDbBlockBegin
  2
*MODEL_SPACE
 70
     0
 10
0.0
 20
0.0
 30
0.0
  3
*MODEL_SPACE
  1

  0
ENDBLK
  5
A2
100
AcDbEntity
  8
0
100
AcDbBlockEnd
  0
BLOCK
  5
A6
100
AcDbEntity
 67
     1
  8
0
100
AcDbBlockBegin
  2
*PAPER_SPACE
 70
     0
 10
0.0
 20
0.0
 30
0.0
  3
*PAPER_SPACE
  1

  0
ENDBLK
  5
A7
100
AcDbEntity
 67
     1
  8
0
100
AcDbBlockEnd
  0
BLOCK
  5
44
100
AcDbEntity
  8
0
100
AcDbBlockBegin
  2
HTA12_F
 70
     0
 10
0.0
 20
0.0
 30
0.0
  3
HTA12_F
  1

  0
LINE
  5
7
100
AcDbEntity
  8
USP-GEO
100
AcDbLine
 10
1.25000000000002
 20
11.92447686165263
 30
0.0
 11
1.250000000000003
 21
4.205726861652632
 31
0.0
  0
LINE
  5
9
100
AcDbEntity
  8
USP-GEO
100
AcDbLine
 10
0.0000000000000069
 20
11.92447686165264
 30
0.0
 11
0.0000000000000049
 21
4.205726861652644
 31
0.0
  0
LINE
  5
A
100
AcDbEntity
  8
USP-GEO
100
AcDbLine
 10
0.0000000000000051
 20
4.205726861652644
 30
0.0
 11
1.250000000000004
 21
4.205726861652633
 31
0.0
  0
LINE
  5
B
100
AcDbEntity
  8
USP-GEO
100
AcDbLine
 10
1.250000000000002
 20
4.143226861652633
 30
0.0
 11
0.000000000000006
 21
4.143226861652644
 31
0.0
  0
ARC
  5
C
100
AcDbEntity
  8
USP-GEO
100
AcDbCircle
 10
0.6250000000000036
 20
0.5494768616526389
 30
0.0
 40
0.375
100
AcDbArc
 50
0.0
 51
180.000000000001
  0
LINE
  5
D
100
AcDbEntity
  8
USP-GEO
100
AcDbLine
 10
0.2499999995032955
 20
0.1744768601625206
 30
0.0
 11
0.5459430560122694
 21
0.0758291754873723
 31
0.0
  0
LINE
  5
E
100
AcDbEntity
  8
USP-GEO
100
AcDbLine
 10
0.2499999995032986
 20
0.5494768616526425
 30
0.0
 11
0.5459430560122703
 21
0.5494768616526425
 31
0.0
  0
LINE
  5
F
100
AcDbEntity
  8
USP-GEO
100
AcDbLine
 10
0.2499999998219189
 20
0.2994768616526424
 30
0.0
 11
0.5459430556936491
 21
0.2994768616526424
 31
0.0
  0
LINE
  5
10
100
AcDbEntity
  8
USP-GEO
100
AcDbLine
 10
0.5260207069036769
 20
0.016062127660033
 30
0.0
 11
0.2397765025237526
 21
0.1114768616526294
 31
0.0
  0
LINE
  5
11
100
AcDbEntity
  8
USP-GEO
100
AcDbLine
 10
0.0000000000000016
 20
2.018476861652634
 30
0.0
 11
0.0000000000000042
 21
0.2994768616526424
 31
0.0
  0
LINE
  5
12
100
AcDbEntity
  8
USP-GEO
100
AcDbLine
 10
0.2500000000000015
 20
0.2994768616526424
 30
0.0
 11
0.250000000000002
 21
0.5494768616526371
 31
0.0
  0
LINE
  5
13
100
AcDbEntity
  8
USP-GEO
100
AcDbLine
 10
0.0000000000000087
 20
0.2994768616526424
 30
0.0
 11
0.2500000000000015
 21
0.2994768616526424
 31
0.0
  0
LINE
  5
14
100
AcDbEntity
  8
USP-GEO
100
AcDbLine
 10
0.0000000000000069
 20
0.1744768616526353
 30
0.0
 11
0.2500000000000007
 21
0.1744768616526353
 31
0.0
  0
LINE
  5
15
100
AcDbEntity
  8
USP-GEO
100
AcDbLine
 10
0.2397765025237533
 20
0.1114768616526311
 30
0.0
 11
0.000000000000006
 21
0.1114768616526311
 31
0.0
  0
LINE
  5
16
100
AcDbEntity
  8
USP-GEO
100
AcDbLine
 10
0.0
 20
0.1114768616526311
 30
0.0
 11
0.0
 21
0.1744768616526335
 31
0.0
  0
LINE
  5
17
100
AcDbEntity
  8
USP-GEO
100
AcDbLine
 10
0.0000000000000087
 20
0.2994768616526424
 30
0.0
 11
0.0000000000000093
 21
0.1744768616526424
 31
0.0
  0
LINE
  5
18
100
AcDbEntity
  8
USP-GEO
100
AcDbLine
 10
0.2500000000000015
 20
0.2994768616526424
 30
0.0
 11
0.2500000000000022
 21
0.1744768616526442
 31
0.0
  0
LINE
  5
19
100
AcDbEntity
  8
USP-GEO
100
AcDbLine
 10
0.0000000000000047
 20
4.143226861652644
 30
0.0
 11
0.0000000000000042
 21
2.330476861652648
 31
0.0
  0
ARC
  5
1A
100
AcDbEntity
  8
USP-GEO
100
AcDbCircle
 10
0.0000000000000024
 20
2.252476861652641
 30
0.0
 40
0.078
100
AcDbArc
 50
0.0
 51
89.99999999999852
  0
ARC
  5
1B
100
AcDbEntity
  8
USP-GEO
100
AcDbCircle
 10
0.0000000000000024
 20
2.096476861652635
 30
0.0
 40
0.078
100
AcDbArc
 50
269.9999999999993
 51
0.0000000000013231
  0
LINE
  5
1C
100
AcDbEntity
  8
USP-GEO
100
AcDbLine
 10
0.0780000000000019
 20
2.252476861652641
 30
0.0
 11
0.0780000000000019
 21
2.096476861652637
 31
0.0
  0
LINE
  5
1D
100
AcDbEntity
  8
USP-GEO
100
AcDbLine
 10
0.0000000000000209
 20
4.143226861652644
 30
0.0
 11
0.0000000000000213
 21
4.205726861652644
 31
0.0
  0
CIRCLE
  5
1E
100
AcDbEntity
  8
USP-GEO
100
AcDbCircle
 10
0.3125000000000062
 20
5.685491015062297
 30
0.0
 40
0.082
  0
LINE
  5
1F
100
AcDbEntity
  8
USP-GEO
100
AcDbLine
 10
1.25
 20
2.018476861652636
 30
0.0
 11
1.25
 21
0.2994768616526424
 31
0.0
  0
LINE
  5
20
100
AcDbEntity
  8
USP-GEO
100
AcDbLine
 10
1.000000000000003
 20
0.5494768616526389
 30
0.0
 11
1.000000000000004
 21
0.2994768616526424
 31
0.0
  0
LINE
  5
21
100
AcDbEntity
  8
USP-GEO
100
AcDbLine
 10
0.7040569390206844
 20
0.5494768616526425
 30
0.0
 11
0.7040569390206839
 21
0.2994768616526424
 31
0.0
  0
LINE
  5
22
100
AcDbEntity
  8
USP-GEO
100
AcDbLine
 10
0.5459430560122703
 20
0.2994768616526424
 30
0.0
 11
0.5459430560122703
 21
0.5494768616526425
 31
0.0
  0
LINE
  5
23
100
AcDbEntity
  8
USP-GEO
100
AcDbLine
 10
0.7040569390206813
 20
0.2994768616526424
 30
0.0
 11
1.000000000000002
 21
0.2994768616526424
 31
0.0
  0
LINE
  5
24
100
AcDbEntity
  8
USP-GEO
100
AcDbLine
 10
0.704056939020683
 20
0.0758291754873723
 30
0.0
 11
1.000000000000003
 21
0.1744768616526371
 31
0.0
  0
LINE
  5
25
100
AcDbEntity
  8
USP-GEO
100
AcDbLine
 10
1.010223492509199
 20
0.1114768616526294
 30
0.0
 11
0.723979288129276
 21
0.016062127660033
 31
0.0
  0
ARC
  5
26
100
AcDbEntity
  8
USP-GEO
100
AcDbCircle
 10
0.6249999975164738
 20
0.3130000000000002
 30
0.0
 40
0.313
100
AcDbArc
 50
251.5650512061125
 51
288.4349487938883
  0
LINE
  5
27
100
AcDbEntity
  8
USP-GEO
100
AcDbLine
 10
0.5459430560122707
 20
0.2994768616526424
 30
0.0
 11
0.7040569390206817
 21
0.2994768616526424
 31
0.0
  0
ARC
  5
28
100
AcDbEntity
  8
USP-GEO
100
AcDbCircle
 10
0.6249999975164791
 20
0.3130000000000002
 30
0.0
 40
0.25
100
AcDbArc
 50
251.5650511770779
 51
288.434948822921
  0
LINE
  5
29
100
AcDbEntity
  8
USP-GEO
100
AcDbLine
 10
0.5459430560122716
 20
0.2994768616526424
 30
0.0
 11
0.5459430560122725
 21
0.0758291754873883
 31
0.0
  0
LINE
  5
2A
100
AcDbEntity
  8
USP-GEO
100
AcDbLine
 10
0.7040569390206822
 20
0.2994768616526424
 30
0.0
 11
0.704056939020683
 21
0.075829175487383
 31
0.0
  0
LINE
  5
2B
100
AcDbEntity
  8
USP-GEO
100
AcDbLine
 10
1.000000000000001
 20
0.2994768616526424
 30
0.0
 11
1.250000000000001
 21
0.2994768616526424
 31
0.0
  0
LINE
  5
2C
100
AcDbEntity
  8
USP-GEO
100
AcDbLine
 10
1.000000000000003
 20
0.1744768616526371
 30
0.0
 11
1.25
 21
0.1744768616526371
 31
0.0
  0
LINE
  5
2D
100
AcDbEntity
  8
USP-GEO
100
AcDbLine
 10
1.25
 20
0.1114768616526311
 30
0.0
 11
1.010223492509199
 21
0.1114768616526311
 31
0.0
  0
LINE
  5
2E
100
AcDbEntity
  8
USP-GEO
100
AcDbLine
 10
1.000000000000001
 20
0.2994768616526424
 30
0.0
 11
1.000000000000002
 21
0.1744768616526549
 31
0.0
  0
LINE
  5
2F
100
AcDbEntity
  8
USP-GEO
100
AcDbLine
 10
1.250000000000001
 20
0.1744768616526335
 30
0.0
 11
1.250000000000001
 21
0.1114768616526347
 31
0.0
  0
LINE
  5
30
100
AcDbEntity
  8
USP-GEO
100
AcDbLine
 10
1.250000000000001
 20
0.2994768616526424
 30
0.0
 11
1.250000000000002
 21
0.1744768616526495
 31
0.0
  0
LINE
  5
31
100
AcDbEntity
  8
USP-GEO
100
AcDbLine
 10
1.000000000000003
 20
0.5494768616526425
 30
0.0
 11
0.7040569390206839
 21
0.5494768616526425
 31
0.0
  0
LINE
  5
32
100
AcDbEntity
  8
USP-GEO
100
AcDbLine
 10
0.5459430560122703
 20
0.5494768616526425
 30
0.0
 11
0.7040569390206848
 21
0.5494768616526425
 31
0.0
  0
ARC
  5
33
100
AcDbEntity
  8
USP-GEO
100
AcDbCircle
 10
0.6249999975164773
 20
0.5494768616526425
 30
0.0
 40
0.0790569415042071
100
AcDbArc
 50
0.0
 51
179.9999999999996
  0
LINE
  5
34
100
AcDbEntity
  8
USP-GEO
100
AcDbLine
 10
1.250000000000003
 20
4.143226861652632
 30
0.0
 11
1.249999999999999
 21
2.330476861652646
 31
0.0
  0
ARC
  5
35
100
AcDbEntity
  8
USP-GEO
100
AcDbCircle
 10
1.250000000000004
 20
2.252476861652641
 30
0.0
 40
0.078
100
AcDbArc
 50
90.0
 51
179.9999999999986
  0
ARC
  5
36
100
AcDbEntity
  8
USP-GEO
100
AcDbCircle
 10
1.250000000000004
 20
2.096476861652637
 30
0.0
 40
0.078
100
AcDbArc
 50
179.9999999999986
 51
269.9999999999973
  0
LINE
  5
37
100
AcDbEntity
  8
USP-GEO
100
AcDbLine
 10
1.172000000000003
 20
2.252476861652643
 30
0.0
 11
1.172000000000003
 21
2.096476861652639
 31
0.0
  0
LINE
  5
38
100
AcDbEntity
  8
USP-GEO
100
AcDbLine
 10
1.250000000000004
 20
4.205726861652632
 30
0.0
 11
1.250000000000003
 21
4.143226861652632
 31
0.0
  0
CIRCLE
  5
39
100
AcDbEntity
  8
USP-GEO
100
AcDbCircle
 10
0.6250000000000036
 20
5.029241015062297
 30
0.0
 40
0.082
  0
CIRCLE
  5
3A
100
AcDbEntity
  8
USP-GEO
100
AcDbCircle
 10
0.9375000000000026
 20
6.42401549354534
 30
0.0
 40
0.082
  0
LINE
  5
3B
100
AcDbEntity
  8
USP-GEO
100
AcDbLine
 10
0.250000000000006
 20
12.17447686165264
 30
0.0
 11
1.000000000000007
 21
12.17447686165264
 31
0.0
  0
CIRCLE
  5
3C
100
AcDbEntity
  8
USP-GEO
100
AcDbCircle
 10
0.3125000000000062
 20
7.736515493545342
 30
0.0
 40
0.082
  0
LINE
  5
3D
100
AcDbEntity
  8
USP-GEO
100
AcDbLine
 10
0.0000000000000078
 20
11.92447686165264
 30
0.0
 11
0.2500000000000071
 21
12.17447686165264
 31
0.0
  0
CIRCLE
  5
3E
100
AcDbEntity
  8
USP-GEO
100
AcDbCircle
 10
0.3125000000000089
 20
11.73651549354534
 30
0.0
 40
0.082
  0
CIRCLE
  5
3F
100
AcDbEntity
  8
USP-GEO
100
AcDbCircle
 10
0.9375000000000071
 20
10.42401549354534
 30
0.0
 40
0.082
  0
LINE
  5
40
100
AcDbEntity
  8
USP-GEO
100
AcDbLine
 10
1.25000000000001
 20
11.92447686165263
 30
0.0
 11
1.000000000000006
 21
12.17447686165264
 31
0.0
  0
TEXT
  5
41
100
AcDbEntity
  8
USP-TXT
100
AcDbText
 10
-1.586894167271256
 20
-1.348947891372132
 30
0.0
 40
0.25
  1
HTA12 - FRONT VIEW
 72
     1
 11
0.6214391660620766
 21
-1.348947891372132
 31
0.0
100
AcDbText
  0
ENDBLK
  5
46
100
AcDbEntity
  8
0
100
AcDbBlockEnd
  0
BLOCK
  5
6E
100
AcDbEntity
  8
0
100
AcDbBlockBegin
  2
HTA12_T
 70
     0
 10
0.0
 20
0.0
 30
0.0
  3
HTA12_T
  1

  0
LINE
  5
49
100
AcDbEntity
  8
USP-GEO
100
AcDbLine
 10
0.5260207069036707
 20
1.158414733992593
 30
0.0
 11
0.2397765025237155
 21
1.062999999999988
 31
0.0
  0
LINE
  5
4A
100
AcDbEntity
  8
USP-GEO
100
AcDbLine
 10
0.2499999999999991
 20
0.9999999999999324
 30
0.0
 11
1.0
 21
0.9999999999999324
 31
0.0
  0
LINE
  5
4B
100
AcDbEntity
  8
USP-GEO
100
AcDbLine
 10
0.2499999999999956
 20
1.062999999999931
 30
0.0
 11
0.9999999999999991
 21
1.062999999999931
 31
0.0
  0
LINE
  5
4C
100
AcDbEntity
  8
USP-GEO
100
AcDbLine
 10
0.2500000001780767
 20
0.875
 30
0.0
 11
0.5459430563308852
 21
0.8750000000000035
 31
0.0
  0
LINE
  5
4D
100
AcDbEntity
  8
USP-GEO
100
AcDbLine
 10
0.2499999995032887
 20
0.0
 30
0.0
 11
0.5459430560122627
 21
0.0
 31
0.0
  0
TEXT
  5
4E
100
AcDbEntity
  8
USP-TXT
100
AcDbText
 10
-1.336894167271264
 20
-1.293099669416895
 30
0.0
 40
0.25
  1
HTA12 - TOP VIEW
 72
     1
 11
0.6214391660620695
 21
-1.293099669416895
 31
0.0
100
AcDbText
  0
LINE
  5
4F
100
AcDbEntity
  8
USP-GEO
100
AcDbLine
 10
0.2499999999999938
 20
0.8749999999999964
 30
0.0
 11
0.2499999999999938
 21
0.0
 31
0.0
  0
LINE
  5
50
100
AcDbEntity
  8
USP-GEO
100
AcDbLine
 10
0.0
 20
0.8749999999999964
 30
0.0
 11
0.0
 21
0.0
 31
0.0
  0
LINE
  5
51
100
AcDbEntity
  8
USP-GEO
100
AcDbLine
 10
0.0
 20
-0.0000000000000036
 30
0.0
 11
0.2499999999999938
 21
-0.0000000000000036
 31
0.0
  0
LINE
  5
52
100
AcDbEntity
  8
USP-GEO
100
AcDbLine
 10
0.0000000000000009
 20
0.999999999999936
 30
0.0
 11
0.25
 21
0.9999999999999324
 31
0.0
  0
LINE
  5
53
100
AcDbEntity
  8
USP-GEO
100
AcDbLine
 10
-0.0000000000000018
 20
1.062999999999934
 30
0.0
 11
0.2499999999999969
 21
1.062999999999931
 31
0.0
  0
LINE
  5
54
100
AcDbEntity
  8
USP-GEO
100
AcDbLine
 10
0.0000000000000027
 20
0.8749999999999964
 30
0.0
 11
0.2499999999999956
 21
0.875
 31
0.0
  0
LINE
  5
55
100
AcDbEntity
  8
USP-GEO
100
AcDbLine
 10
0.0000000000000018
 20
0.9999999999999964
 30
0.0
 11
0.0000000000000024
 21
0.8749999999999964
 31
0.0
  0
LINE
  5
56
100
AcDbEntity
  8
USP-GEO
100
AcDbLine
 10
0.0000000000000009
 20
0.999999999999936
 30
0.0
 11
0.0000000000000009
 21
1.062999999999934
 31
0.0
  0
LINE
  5
57
100
AcDbEntity
  8
USP-GEO
100
AcDbLine
 10
0.2499999999999947
 20
0.9999999999999964
 30
0.0
 11
0.2499999999999953
 21
0.8749999999999964
 31
0.0
  0
LINE
  5
58
100
AcDbEntity
  8
USP-GEO
100
AcDbLine
 10
0.2499999999999991
 20
0.9999999999999324
 30
0.0
 11
0.2499999999999991
 21
1.062999999999931
 31
0.0
  0
LINE
  5
59
100
AcDbEntity
  8
USP-GEO
100
AcDbLine
 10
0.7040569390206764
 20
0.875
 30
0.0
 11
0.7040569390206764
 21
0.0
 31
0.0
  0
LINE
  5
5A
100
AcDbEntity
  8
USP-GEO
100
AcDbLine
 10
0.5459430560122627
 20
0.875
 30
0.0
 11
0.5459430560122627
 21
0.0
 31
0.0
  0
LINE
  5
5B
100
AcDbEntity
  8
USP-GEO
100
AcDbLine
 10
0.9999999999999964
 20
0.8750000000000035
 30
0.0
 11
0.9999999999999964
 21
0.0
 31
0.0
  0
LINE
  5
5C
100
AcDbEntity
  8
USP-GEO
100
AcDbLine
 10
1.249999999999993
 20
0.8750000000000035
 30
0.0
 11
1.249999999999993
 21
0.0
 31
0.0
  0
LINE
  5
5D
100
AcDbEntity
  8
USP-GEO
100
AcDbLine
 10
0.7040569390206764
 20
0.0
 30
0.0
 11
0.9999999999999964
 21
0.0
 31
0.0
  0
LINE
  5
5E
100
AcDbEntity
  8
USP-GEO
100
AcDbLine
 10
0.5459430560122623
 20
0.0
 30
0.0
 11
0.7040569390206768
 21
0.0
 31
0.0
  0
LINE
  5
5F
100
AcDbEntity
  8
USP-GEO
100
AcDbLine
 10
0.9999999999999964
 20
-0.0000000000000036
 30
0.0
 11
1.249999999999993
 21
-0.0000000000000036
 31
0.0
  0
LINE
  5
60
100
AcDbEntity
  8
USP-GEO
100
AcDbLine
 10
0.7239792881292702
 20
1.158414733992593
 30
0.0
 11
1.010223492509225
 21
1.062999999999988
 31
0.0
  0
LINE
  5
61
100
AcDbEntity
  8
USP-GEO
100
AcDbLine
 10
0.7040569390206795
 20
0.875
 30
0.0
 11
0.9999999999999985
 21
0.8750000000000035
 31
0.0
  0
LINE
  5
62
100
AcDbEntity
  8
USP-GEO
100
AcDbLine
 10
0.7040569390206755
 20
0.9999999999999609
 30
0.0
 11
0.7040569390206764
 21
0.875
 31
0.0
  0
LINE
  5
63
100
AcDbEntity
  8
USP-GEO
100
AcDbLine
 10
0.5459430560122649
 20
0.9999999999999609
 30
0.0
 11
0.5459430560122658
 21
0.875
 31
0.0
  0
LINE
  5
64
100
AcDbEntity
  8
USP-GEO
100
AcDbLine
 10
0.5459430560122614
 20
0.875
 30
0.0
 11
0.7040569390206786
 21
0.8750000000000035
 31
0.0
  0
LINE
  5
65
100
AcDbEntity
  8
USP-GEO
100
AcDbLine
 10
0.7239792881292702
 20
1.1584147339926
 30
0.0
 11
0.5260207069036702
 21
1.1584147339926
 31
0.0
  0
ARC
  5
66
100
AcDbEntity
  8
USP-GEO
100
AcDbCircle
 10
0.624999997516468
 20
0.8614768616526298
 30
0.0
 40
0.313
100
AcDbArc
 50
71.56505120611162
 51
108.4349487938875
  0
LINE
  5
67
100
AcDbEntity
  8
USP-GEO
100
AcDbLine
 10
1.250000000000003
 20
0.9999999999999324
 30
0.0
 11
0.9999999999999996
 21
0.9999999999999289
 31
0.0
  0
LINE
  5
68
100
AcDbEntity
  8
USP-GEO
100
AcDbLine
 10
0.9999999999999991
 20
1.062999999999927
 30
0.0
 11
1.250000000000003
 21
1.062999999999931
 31
0.0
  0
LINE
  5
69
100
AcDbEntity
  8
USP-GEO
100
AcDbLine
 10
0.9999999999999955
 20
0.8750000000000035
 30
0.0
 11
1.249999999999995
 21
0.8750000000000035
 31
0.0
  0
LINE
  5
6A
100
AcDbEntity
  8
USP-GEO
100
AcDbLine
 10
0.9999999999999946
 20
0.9999999999999893
 30
0.0
 11
0.9999999999999955
 21
0.8750000000000035
 31
0.0
  0
LINE
  5
6B
100
AcDbEntity
  8
USP-GEO
100
AcDbLine
 10
1.0
 20
0.9999999999999253
 30
0.0
 11
1.0
 21
1.062999999999927
 31
0.0
  0
LINE
  5
6C
100
AcDbEntity
  8
USP-GEO
100
AcDbLine
 10
1.249999999999994
 20
0.9999999999999964
 30
0.0
 11
1.249999999999995
 21
0.8750000000000035
 31
0.0
  0
LINE
  5
6D
100
AcDbEntity
  8
USP-GEO
100
AcDbLine
 10
1.250000000000002
 20
0.9999999999999324
 30
0.0
 11
1.250000000000002
 21
1.062999999999931
 31
0.0
  0
ENDBLK
  5
6F
100
AcDbEntity
  8
0
100
AcDbBlockEnd
  0
BLOCK
  5
9D
100
AcDbEntity
  8
0
100
AcDbBlockBegin
  2
HTA12_S
 70
     0
 10
0.0
 20
0.0
 30
0.0
  3
HTA12_S
  1

  0
LINE
  5
72
100
AcDbEntity
  8
USP-GEO
100
AcDbLine
 10
0.9999999999999324
 20
11.92447686165264
 30
0.0
 11
0.9999999999999751
 21
4.205726861652636
 31
0.0
  0
LINE
  5
73
100
AcDbEntity
  8
USP-GEO
100
AcDbLine
 10
1.062999999999934
 20
11.92447686165263
 30
0.0
 11
1.062999999999988
 21
2.330476861652648
 31
0.0
  0
TEXT
  5
74
100
AcDbEntity
  8
USP-TXT
100
AcDbText
 10
-1.24364820926452
 20
-1.348947891372128
 30
0.0
 40
0.25
  1
HTA12 - SIDE VIEW
 72
     1
 11
0.7980184574021472
 21
-1.348947891372128
 31
0.0
100
AcDbText
  0
LINE
  5
75
100
AcDbEntity
  8
USP-GEO
100
AcDbLine
 10
0.9999999999999893
 20
2.01847686165264
 30
0.0
 11
0.9999999999999982
 21
0.2994768616526464
 31
0.0
  0
LINE
  5
76
100
AcDbEntity
  8
USP-GEO
100
AcDbLine
 10
1.062999999999988
 20
2.018476861652636
 30
0.0
 11
1.062999999999997
 21
0.2994768616526393
 31
0.0
  0
LINE
  5
77
100
AcDbEntity
  8
USP-GEO
100
AcDbLine
 10
0.8750000000000035
 20
0.1744768616526411
 30
0.0
 11
0.0
 21
0.174476861652634
 31
0.0
  0
LINE
  5
78
100
AcDbEntity
  8
USP-GEO
100
AcDbLine
 10
0.8750000000000035
 20
0.1114768616526423
 30
0.0
 11
0.0
 21
0.1114768616526351
 31
0.0
  0
LINE
  5
79
100
AcDbEntity
  8
USP-GEO
100
AcDbLine
 10
0.875
 20
0.0160621276600406
 30
0.0
 11
0.0
 21
0.0160621276600335
 31
0.0
  0
LINE
  5
7A
100
AcDbEntity
  8
USP-GEO
100
AcDbLine
 10
0.8750000000000017
 20
0.0000000000000071
 30
0.0
 11
0.0
 21
0.0
 31
0.0
  0
LINE
  5
7B
100
AcDbEntity
  8
USP-GEO
100
AcDbLine
 10
0.0
 20
0.1114768616526334
 30
0.0
 11
0.0
 21
0.016062127660037
 31
0.0
  0
LINE
  5
7C
100
AcDbEntity
  8
USP-GEO
100
AcDbLine
 10
0.0
 20
0.016062127660037
 30
0.0
 11
0.0
 21
0.0000000000000036
 31
0.0
  0
LINE
  5
7D
100
AcDbEntity
  8
USP-GEO
100
AcDbLine
 10
-0.0000000000000071
 20
0.1744768616526375
 30
0.0
 11
-0.0000000000000071
 21
0.1114768616526387
 31
0.0
  0
LINE
  5
7E
100
AcDbEntity
  8
USP-GEO
100
AcDbLine
 10
1.174476861652628
 20
0.5494768616526465
 30
0.0
 11
1.174476861652628
 21
0.2994768616526464
 31
0.0
  0
LINE
  5
7F
100
AcDbEntity
  8
USP-GEO
100
AcDbLine
 10
1.158414733992593
 20
0.5494768616526465
 30
0.0
 11
1.158414733992595
 21
0.2994768616526464
 31
0.0
  0
ARC
  5
80
100
AcDbEntity
  8
USP-GEO
100
AcDbCircle
 10
0.875
 20
0.2994768616526464
 30
0.0
 40
0.2834147339925943
100
AcDbArc
 50
270.0000000000002
 51
0.0000000000003053
  0
ARC
  5
81
100
AcDbEntity
  8
USP-GEO
100
AcDbCircle
 10
0.8750000000000035
 20
0.2994768616526393
 30
0.0
 40
0.1879999999999942
100
AcDbArc
 50
270.0000000000002
 51
0.0000000000003053
  0
ARC
  5
82
100
AcDbEntity
  8
USP-GEO
100
AcDbCircle
 10
0.875
 20
0.2994768616526464
 30
0.0
 40
0.2994768616526298
100
AcDbArc
 50
270.0000000000002
 51
0.0000000000010178
  0
LINE
  5
83
100
AcDbEntity
  8
USP-GEO
100
AcDbLine
 10
0.8750000000000035
 20
0.0160621276600423
 30
0.0
 11
0.8750000000000035
 21
0.1114768616526405
 31
0.0
  0
LINE
  5
84
100
AcDbEntity
  8
USP-GEO
100
AcDbLine
 10
0.8750000000000017
 20
0.0000000000000071
 30
0.0
 11
0.8750000000000017
 21
0.0160621276600423
 31
0.0
  0
ARC
  5
85
100
AcDbEntity
  8
USP-GEO
100
AcDbCircle
 10
0.8750000000000035
 20
0.2994768616526464
 30
0.0
 40
0.1249999999999929
100
AcDbArc
 50
269.9999999999997
 51
0.0
  0
LINE
  5
86
100
AcDbEntity
  8
USP-GEO
100
AcDbLine
 10
1.158414733992595
 20
0.2994768616526464
 30
0.0
 11
1.063
 21
0.2994768616526429
 31
0.0
  0
LINE
  5
87
100
AcDbEntity
  8
USP-GEO
100
AcDbLine
 10
1.174476861652628
 20
0.2994768616526464
 30
0.0
 11
1.158414733992596
 21
0.2994768616526446
 31
0.0
  0
LINE
  5
88
100
AcDbEntity
  8
USP-GEO
100
AcDbLine
 10
1.158414733992602
 20
0.648456152265446
 30
0.0
 11
1.062999999999989
 21
0.9347003566454219
 31
0.0
  0
LINE
  5
89
100
AcDbEntity
  8
USP-GEO
100
AcDbLine
 10
1.158414733992595
 20
0.5494768616526465
 30
0.0
 11
1.062999999999988
 21
0.5494768616526465
 31
0.0
  0
LINE
  5
8A
100
AcDbEntity
  8
USP-GEO
100
AcDbLine
 10
1.174476861652628
 20
0.5494768616526465
 30
0.0
 11
1.158414733992595
 21
0.5494768616526465
 31
0.0
  0
LINE
  5
8B
100
AcDbEntity
  8
USP-GEO
100
AcDbLine
 10
1.158414733992602
 20
0.5494768616526465
 30
0.0
 11
1.158414733992602
 21
0.648456152265446
 31
0.0
  0
ARC
  5
8C
100
AcDbEntity
  8
USP-GEO
100
AcDbCircle
 10
0.8614768616526351
 20
0.5494768616526465
 30
0.0
 40
0.3130000000000023
100
AcDbArc
 50
0.0
 51
18.43494879388812
  0
LINE
  5
8D
100
AcDbEntity
  8
USP-GEO
100
AcDbLine
 10
0.9999999999999751
 20
4.143226861652636
 30
0.0
 11
0.9999999999999857
 21
2.33047686165265
 31
0.0
  0
LINE
  5
8E
100
AcDbEntity
  8
USP-GEO
100
AcDbLine
 10
0.9999999999999857
 20
2.252476861652647
 30
0.0
 11
1.062999999999988
 21
2.252476861652647
 31
0.0
  0
LINE
  5
8F
100
AcDbEntity
  8
USP-GEO
100
AcDbLine
 10
0.9999999999999822
 20
2.33047686165265
 30
0.0
 11
1.062999999999988
 21
2.33047686165265
 31
0.0
  0
LINE
  5
90
100
AcDbEntity
  8
USP-GEO
100
AcDbLine
 10
0.9999999999999857
 20
2.096476861652643
 30
0.0
 11
1.062999999999988
 21
2.096476861652643
 31
0.0
  0
LINE
  5
91
100
AcDbEntity
  8
USP-GEO
100
AcDbLine
 10
0.9999999999999893
 20
2.01847686165264
 30
0.0
 11
1.062999999999988
 21
2.01847686165264
 31
0.0
  0
LINE
  5
92
100
AcDbEntity
  8
USP-GEO
100
AcDbLine
 10
0.9999999999999857
 20
2.252476861652647
 30
0.0
 11
0.9999999999999857
 21
2.096476861652643
 31
0.0
  0
LINE
  5
93
100
AcDbEntity
  8
USP-GEO
100
AcDbLine
 10
0.9999999999999857
 20
2.018476861652642
 30
0.0
 11
0.9999999999999857
 21
2.096476861652643
 31
0.0
  0
LINE
  5
94
100
AcDbEntity
  8
USP-GEO
100
AcDbLine
 10
0.9999999999999857
 20
2.252476861652647
 30
0.0
 11
0.9999999999999857
 21
2.330476861652645
 31
0.0
  0
LINE
  5
95
100
AcDbEntity
  8
USP-GEO
100
AcDbLine
 10
1.062999999999988
 20
2.252476861652649
 30
0.0
 11
1.062999999999988
 21
2.096476861652643
 31
0.0
  0
LINE
  5
96
100
AcDbEntity
  8
USP-GEO
100
AcDbLine
 10
1.062999999999984
 20
2.096476861652643
 30
0.0
 11
1.062999999999984
 21
2.018476861652642
 31
0.0
  0
LINE
  5
97
100
AcDbEntity
  8
USP-GEO
100
AcDbLine
 10
1.062999999999988
 20
2.330476861652647
 30
0.0
 11
1.062999999999988
 21
2.252476861652649
 31
0.0
  0
ARC
  5
98
100
AcDbEntity
  8
USP-GEO
100
AcDbCircle
 10
0.9999999999999751
 20
4.174476861652636
 30
0.0
 40
0.03125
100
AcDbArc
 50
270.0
 51
90.0
  0
LINE
  5
99
100
AcDbEntity
  8
USP-GEO
100
AcDbLine
 10
0.9999999999999289
 20
12.17447686165264
 30
0.0
 11
1.062999999999931
 21
12.17447686165264
 31
0.0
  0
LINE
  5
9A
100
AcDbEntity
  8
USP-GEO
100
AcDbLine
 10
0.9999999999999324
 20
11.92447686165264
 30
0.0
 11
1.062999999999931
 21
11.92447686165264
 31
0.0
  0
LINE
  5
9B
100
AcDbEntity
  8
USP-GEO
100
AcDbLine
 10
0.9999999999999324
 20
11.92447686165264
 30
0.0
 11
0.9999999999999307
 21
12.17447686165264
 31
0.0
  0
LINE
  5
9C
100
AcDbEntity
  8
USP-GEO
100
AcDbLine
 10
1.062999999999929
 20
12.17447686165264
 30
0.0
 11
1.062999999999931
 21
11.92447686165264
 31
0.0
  0
ENDBLK
  5
9E
100
AcDbEntity
  8
0
100
AcDbBlockEnd
  0
ENDSEC
  0
SECTION
  2
ENTITIES
  0
INSERT
  5
3
100
AcDbEntity
  8
USP
100
AcDbBlockReference
  2
HTA12_F
 10
1.587186902081309
 20
1.349491530039216
 30
0.0
  0
INSERT
  5
47
100
AcDbEntity
  8
USP
100
AcDbBlockReference
  2
HTA12_T
 10
1.587186902081316
 20
16.4587338905772
 30
0.0
  0
INSERT
  5
70
100
AcDbEntity
  8
USP
100
AcDbBlockReference
  2
HTA12_S
 10
7.471349792072746
 20
1.349491530039211
 30
0.0
  0
ENDSEC
  0
SECTION
  2
OBJECTS
  0
DICTIONARY
  5
B7
102
{ACAD_XDICTIONARY
360
B8
102
}
100
AcDbDictionary
  3
ACAD_GROUP
350
B5
  3
ACAD_MLINESTYLE
350
B6
  0
DICTIONARY
  5
9F
100
AcDbDictionary
280
     1
  3
ACAD_LAYOUTSELFREF
360
A0
  0
DICTIONARY
  5
A4
100
AcDbDictionary
280
     1
  3
ACAD_LAYOUTSELFREF
360
A5
  0
DICTIONARY
  5
B8
100
AcDbDictionary
280
     1
  3
ACAD_XREC_ROUNDTRIP
360
B9
  0
DICTIONARY
  5
B5
102
{ACAD_REACTORS
330
B7
102
}
100
AcDbDictionary
  0
DICTIONARY
  5
B6
102
{ACAD_REACTORS
330
B7
102
}
100
AcDbDictionary
  3
STANDARD
350
BA
  0
XRECORD
  5
A0
102
{ACAD_REACTORS
330
9F
102
}
100
AcDbXrecord
340
18
  0
XRECORD
  5
A5
102
{ACAD_REACTORS
330
A4
102
}
100
AcDbXrecord
340
15
  0
XRECORD
  5
B9
102
{ACAD_REACTORS
330
B8
102
}
100
AcDbXrecord
102
EXTNAMES
  1
ACDBVARIABLEDICTIONARY
  2
AcDbVariableDictionary
  0
MLINESTYLE
  5
BA
102
{ACAD_REACTORS
330
B6
102
}
100
AcDbMlineStyle
  2
STANDARD
 70
     0
  3

 62
     0
 51
90.0
 52
90.0
 71
     2
 49
0.5
 62
   256
  6
BYLAYER
 49
-0.5
 62
   256
  6
BYLAYER
  0
ENDSEC
  0
EOF
