  0
SECTION
  2
HEADER
  9
$ACADVER
  1
AC1014
  9
$ACADMAINTVER
 70
     9
  9
$DWGCODEPAGE
  3
ANSI_1252
  9
$INSBASE
 10
0.0
 20
0.0
 30
0.0
  9
$EXTMIN
 10
0.8242715163482934
 20
0.0014060581759913
 30
0.0
  9
$EXTMAX
 10
18.97903945273458
 20
46.08014346413371
 30
0.0
  9
$LIMMIN
 10
0.0
 20
0.0
  9
$LIMMAX
 10
12.0
 20
9.0
  9
$ORTHOMODE
 70
     1
  9
$REGENMODE
 70
     1
  9
$FILLMODE
 70
     1
  9
$QTEXTMODE
 70
     0
  9
$MIRRTEXT
 70
     0
  9
$DRAGMODE
 70
     2
  9
$LTSCALE
 40
1.5
  9
$OSMODE
 70
     0
  9
$ATTMODE
 70
     1
  9
$TEXTSIZE
 40
0.75
  9
$TRACEWID
 40
0.05
  9
$TEXTSTYLE
  7
STANDARD
  9
$CLAYER
  8
USP
  9
$CELTYPE
  6
BYLAYER
  9
$CECOLOR
 62
   256
  9
$CELTSCALE
 40
1.0
  9
$DELOBJ
 70
     1
  9
$DISPSILH
 70
     1
  9
$DIMSCALE
 40
3.0
  9
$DIMASZ
 40
0.125
  9
$DIMEXO
 40
0.0625
  9
$DIMDLI
 40
0.37890625
  9
$DIMRND
 40
0.0
  9
$DIMDLE
 40
0.0
  9
$DIMEXE
 40
0.09375
  9
$DIMTP
 40
0.0
  9
$DIMTM
 40
0.0
  9
$DIMTXT
 40
0.109375
  9
$DIMCEN
 40
0.0
  9
$DIMTSZ
 40
0.0
  9
$DIMTOL
 70
     0
  9
$DIMLIM
 70
     0
  9
$DIMTIH
 70
     1
  9
$DIMTOH
 70
     1
  9
$DIMSE1
 70
     0
  9
$DIMSE2
 70
     0
  9
$DIMTAD
 70
     0
  9
$DIMZIN
 70
     8
  9
$DIMBLK
  1

  9
$DIMASO
 70
     1
  9
$DIMSHO
 70
     1
  9
$DIMPOST
  1

  9
$DIMAPOST
  1

  9
$DIMALT
 70
     0
  9
$DIMALTD
 70
     2
  9
$DIMALTF
 40
25.4
  9
$DIMLFAC
 40
1.0
  9
$DIMTOFL
 70
     0
  9
$DIMTVP
 40
0.0
  9
$DIMTIX
 70
     0
  9
$DIMSOXD
 70
     0
  9
$DIMSAH
 70
     0
  9
$DIMBLK1
  1

  9
$DIMBLK2
  1

  9
$DIMSTYLE
  2
STANDARD
  9
$DIMCLRD
 70
     0
  9
$DIMCLRE
 70
     0
  9
$DIMCLRT
 70
   256
  9
$DIMTFAC
 40
1.0
  9
$DIMGAP
 40
0.08984375
  9
$DIMJUST
 70
     0
  9
$DIMSD1
 70
     0
  9
$DIMSD2
 70
     0
  9
$DIMTOLJ
 70
     1
  9
$DIMTZIN
 70
     0
  9
$DIMALTZ
 70
     0
  9
$DIMALTTZ
 70
     0
  9
$DIMFIT
 70
     3
  9
$DIMUPT
 70
     1
  9
$DIMUNIT
 70
     7
  9
$DIMDEC
 70
     4
  9
$DIMTDEC
 70
     4
  9
$DIMALTU
 70
     2
  9
$DIMALTTD
 70
     2
  9
$DIMTXSTY
  7
STANDARD
  9
$DIMAUNIT
 70
     0
  9
$LUNITS
 70
     5
  9
$LUPREC
 70
     6
  9
$SKETCHINC
 40
0.1
  9
$FILLETRAD
 40
0.0
  9
$AUNITS
 70
     0
  9
$AUPREC
 70
     1
  9
$MENU
  1
CUSTOM
  9
$ELEVATION
 40
0.0
  9
$PELEVATION
 40
0.0
  9
$THICKNESS
 40
0.0
  9
$LIMCHECK
 70
     0
  9
$BLIPMODE
 70
     0
  9
$CHAMFERA
 40
0.0
  9
$CHAMFERB
 40
0.0
  9
$CHAMFERC
 40
0.0
  9
$CHAMFERD
 40
0.0
  9
$SKPOLY
 70
     0
  9
$TDCREATE
 40
2451263.663231366
  9
$TDUPDATE
 40
2452768.659775382
  9
$TDINDWG
 40
0.6255641204
  9
$TDUSRTIMER
 40
0.6255641204
  9
$USRTIMER
 70
     1
  9
$ANGBASE
 50
0.0
  9
$ANGDIR
 70
     0
  9
$PDMODE
 70
     0
  9
$PDSIZE
 40
0.0
  9
$PLINEWID
 40
0.0
  9
$COORDS
 70
     2
  9
$SPLFRAME
 70
     0
  9
$SPLINETYPE
 70
     6
  9
$SPLINESEGS
 70
     8
  9
$ATTDIA
 70
     0
  9
$ATTREQ
 70
     0
  9
$HANDLING
 70
     1
  9
$HANDSEED
  5
22E
  9
$SURFTAB1
 70
     6
  9
$SURFTAB2
 70
     6
  9
$SURFTYPE
 70
     6
  9
$SURFU
 70
     6
  9
$SURFV
 70
     6
  9
$UCSNAME
  2

  9
$UCSORG
 10
0.0
 20
0.0
 30
0.0
  9
$UCSXDIR
 10
1.0
 20
0.0
 30
0.0
  9
$UCSYDIR
 10
0.0
 20
1.0
 30
0.0
  9
$PUCSNAME
  2

  9
$PUCSORG
 10
0.0
 20
0.0
 30
0.0
  9
$PUCSXDIR
 10
1.0
 20
0.0
 30
0.0
  9
$PUCSYDIR
 10
0.0
 20
1.0
 30
0.0
  9
$USERI1
 70
     0
  9
$USERI2
 70
     0
  9
$USERI3
 70
     0
  9
$USERI4
 70
     0
  9
$USERI5
 70
     0
  9
$USERR1
 40
0.0
  9
$USERR2
 40
0.0
  9
$USERR3
 40
0.0
  9
$USERR4
 40
0.0
  9
$USERR5
 40
0.0
  9
$WORLDVIEW
 70
     1
  9
$SHADEDGE
 70
     3
  9
$SHADEDIF
 70
    70
  9
$TILEMODE
 70
     1
  9
$MAXACTVP
 70
    16
  9
$PINSBASE
 10
0.0
 20
0.0
 30
0.0
  9
$PLIMCHECK
 70
     0
  9
$PEXTMIN
 10
1.000000000000000E+20
 20
1.000000000000000E+20
 30
1.000000000000000E+20
  9
$PEXTMAX
 10
-1.000000000000000E+20
 20
-1.000000000000000E+20
 30
-1.000000000000000E+20
  9
$PLIMMIN
 10
0.0
 20
0.0
  9
$PLIMMAX
 10
12.0
 20
9.0
  9
$UNITMODE
 70
     0
  9
$VISRETAIN
 70
     0
  9
$PLINEGEN
 70
     0
  9
$PSLTSCALE
 70
     0
  9
$TREEDEPTH
 70
  3020
  9
$PICKSTYLE
 70
     0
  9
$CMLSTYLE
  2
STANDARD
  9
$CMLJUST
 70
     0
  9
$CMLSCALE
 40
1.0
  9
$PROXYGRAPHICS
 70
     1
  9
$MEASUREMENT
 70
     0
  0
ENDSEC
  0
SECTION
  2
CLASSES
  0
CLASS
  1
ACDBDICTIONARYWDFLT
  2
AcDbDictionaryWithDefault
  3
AutoCAD 2000
 90
        0
280
     0
281
     0
  0
CLASS
  1
ACDBPLACEHOLDER
  2
AcDbPlaceHolder
  3
AutoCAD 2000
 90
        0
280
     0
281
     0
  0
CLASS
  1
LAYOUT
  2
AcDbLayout
  3
AutoCAD 2000
 90
        0
280
     0
281
     0
  0
CLASS
  1
DICTIONARYVAR
  2
AcDbDictionaryVar
  3
"AutoCAD"
 90
        0
280
     0
281
     0
  0
CLASS
  1
LONG_TRANSACTION
  2
AcDbLongTransaction
  3
AutoCAD 2000
 90
        0
280
     0
281
     0
  0
CLASS
  1
LWPOLYLINE
  2
AcDbPolyline
  3
"AutoCAD"
 90
        0
280
     0
281
     1
  0
CLASS
  1
HATCH
  2
AcDbHatch
  3
"ACAD_SEDONA"
 90
        0
280
     0
281
     1
  0
CLASS
  1
XRECORD
  2
AcDbXrecord
  3
"<Built In>"
 90
        0
280
     0
281
     0
  0
CLASS
  1
LONG_TRANSACTION
  2
AcDbLongTransaction
  3
AutoCAD 2000
 90
        0
280
     0
281
     0
  0
CLASS
  1
LWPOLYLINE
  2
AcDbPolyline
  3
"AutoCAD"
 90
        0
280
     0
281
     1
  0
CLASS
  1
HATCH
  2
AcDbHatch
  3
"ACAD_SEDONA"
 90
        0
280
     0
281
     1
  0
CLASS
  1
XRECORD
  2
AcDbXrecord
  3
"<Built In>"
 90
        0
280
     0
281
     0
  0
ENDSEC
  0
SECTION
  2
TABLES
  0
TABLE
  2
VPORT
  5
21E
100
AcDbSymbolTable
 70
     1
  0
VPORT
  5
21F
100
AcDbSymbolTableRecord
100
AcDbViewportTableRecord
  2
*ACTIVE
 70
     0
 10
0.0
 20
0.0
 11
1.0
 21
1.0
 12
-8.164494820071901
 22
16.67609387914635
 13
0.0
 23
0.0
 14
1.0
 24
1.0
 15
0.0
 25
0.0
 16
0.0
 26
0.0
 36
1.0
 17
18.06596660309899
 27
8.119903606830565
 37
5.823974399722915
 40
49.86911548470689
 41
1.457627118644067
 42
50.0
 43
10.55307667737539
 44
10.55307667737539
 50
0.0
 51
0.0
 71
     0
 72
   100
 73
     1
 74
     1
 75
     0
 76
     0
 77
     0
 78
     0
  0
ENDTAB
  0
TABLE
  2
LTYPE
  5
219
100
AcDbSymbolTable
 70
     1
  0
LTYPE
  5
21A
100
AcDbSymbolTableRecord
100
AcDbLinetypeTableRecord
  2
BYBLOCK
 70
     0
  3

 72
    65
 73
     0
 40
0.0
  0
LTYPE
  5
21B
100
AcDbSymbolTableRecord
100
AcDbLinetypeTableRecord
  2
BYLAYER
 70
     0
  3

 72
    65
 73
     0
 40
0.0
  0
LTYPE
  5
5
100
AcDbSymbolTableRecord
100
AcDbLinetypeTableRecord
  2
CONTINUOUS
 70
     0
  3
Solid line
 72
    65
 73
     0
 40
0.0
  0
ENDTAB
  0
TABLE
  2
LAYER
  5
217
100
AcDbSymbolTable
 70
     4
  0
LAYER
  5
6C
100
AcDbSymbolTableRecord
100
AcDbLayerTableRecord
  2
0
 70
     0
 62
     7
  6
CONTINUOUS
  0
LAYER
  5
D
102
{ACAD_XDICTIONARY
360
E
102
}
100
AcDbSymbolTableRecord
100
AcDbLayerTableRecord
  2
USP-GEO
 70
     0
 62
     7
  6
CONTINUOUS
  0
LAYER
  5
8
102
{ACAD_XDICTIONARY
360
9
102
}
100
AcDbSymbolTableRecord
100
AcDbLayerTableRecord
  2
USP-TXT
 70
     0
 62
     7
  6
CONTINUOUS
  0
LAYER
  5
4
100
AcDbSymbolTableRecord
100
AcDbLayerTableRecord
  2
USP
 70
     0
 62
     7
  6
CONTINUOUS
  0
ENDTAB
  0
TABLE
  2
STYLE
  5
218
100
AcDbSymbolTable
 70
     1
  0
STYLE
  5
B
100
AcDbSymbolTableRecord
100
AcDbTextStyleTableRecord
  2
STANDARD
 70
     0
 40
0.0
 41
1.0
 50
0.0
 71
     0
 42
0.75
  3
txt
  4

  0
ENDTAB
  0
TABLE
  2
VIEW
  5
21C
100
AcDbSymbolTable
 70
     0
  0
ENDTAB
  0
TABLE
  2
UCS
  5
21D
100
AcDbSymbolTable
 70
     0
  0
ENDTAB
  0
TABLE
  2
APPID
  5
220
100
AcDbSymbolTable
 70
     1
  0
APPID
  5
221
100
AcDbSymbolTableRecord
100
AcDbRegAppTableRecord
  2
ACAD
 70
     0
  0
ENDTAB
  0
TABLE
  2
DIMSTYLE
  5
222
100
AcDbSymbolTable
 70
     1
  0
DIMSTYLE
105
22A
100
AcDbSymbolTableRecord
100
AcDbDimStyleTableRecord
  2
STANDARD
 70
     0
  3

  4

  5

  6

  7

 40
1.0
 41
0.18
 42
0.0625
 43
0.38
 44
0.18
 45
0.0
 46
0.0
 47
0.0
 48
0.0
140
0.18
141
0.09
142
0.0
143
25.4
144
1.0
145
0.0
146
1.0
147
0.09
 71
     0
 72
     0
 73
     1
 74
     1
 75
     0
 76
     0
 77
     0
 78
     0
170
     0
171
     2
172
     0
173
     0
174
     0
175
     0
176
     0
177
     0
178
     0
270
     2
271
     4
272
     4
273
     2
274
     2
340
B
275
     0
280
     0
281
     0
282
     0
283
     1
284
     0
285
     0
286
     0
287
     3
288
     0
  0
ENDTAB
  0
TABLE
  2
BLOCK_RECORD
  5
1
100
AcDbSymbolTable
 70
     3
  0
BLOCK_RECORD
  5
2
102
{ACAD_XDICTIONARY
360
20E
102
}
100
AcDbSymbolTableRecord
100
AcDbBlockTableRecord
  2
*MODEL_SPACE
  0
BLOCK_RECORD
  5
212
102
{ACAD_XDICTIONARY
360
213
102
}
100
AcDbSymbolTableRecord
100
AcDbBlockTableRecord
  2
*PAPER_SPACE
  0
BLOCK_RECORD
  5
6
100
AcDbSymbolTableRecord
100
AcDbBlockTableRecord
  2
HPAHD22_T
  0
BLOCK_RECORD
  5
6F
100
AcDbSymbolTableRecord
100
AcDbBlockTableRecord
  2
HPAHD22_F
  0
BLOCK_RECORD
  5
122
100
AcDbSymbolTableRecord
100
AcDbBlockTableRecord
  2
HPAHD22_S
  0
ENDTAB
  0
ENDSEC
  0
SECTION
  2
BLOCKS
  0
BLOCK
  5
210
100
AcDbEntity
  8
0
100
AcDbBlockBegin
  2
*MODEL_SPACE
 70
     0
 10
0.0
 20
0.0
 30
0.0
  3
*MODEL_SPACE
  1

  0
ENDBLK
  5
211
100
AcDbEntity
  8
0
100
AcDbBlockEnd
  0
BLOCK
  5
215
100
AcDbEntity
 67
     1
  8
0
100
AcDbBlockBegin
  2
*PAPER_SPACE
 70
     0
 10
0.0
 20
0.0
 30
0.0
  3
*PAPER_SPACE
  1

  0
ENDBLK
  5
216
100
AcDbEntity
 67
     1
  8
0
100
AcDbBlockEnd
  0
BLOCK
  5
6B
100
AcDbEntity
  8
0
100
AcDbBlockBegin
  2
HPAHD22_T
 70
     0
 10
0.0
 20
0.0
 30
0.0
  3
HPAHD22_T
  1

  0
TEXT
  5
7
100
AcDbEntity
  8
USP-TXT
100
AcDbText
 10
-2.620405518416337
 20
-2.071393944042107
 30
0.0
 40
0.40625
  1
HPAHD22 - TOP VIEW
 72
     1
 11
1.035844481583662
 21
-2.071393944042107
 31
0.0
100
AcDbText
  0
LWPOLYLINE
  5
C
100
AcDbEntity
  8
USP-GEO
100
AcDbPolyline
 90
        7
 70
   128
 43
0.0
 10
2.071688963167328
 20
2.715499073807563
 10
2.071688963167328
 20
5.385011711140826
 10
2.071688963167328
 20
5.476984584089429
 10
2.071688963167328
 20
5.568957457038031
 10
2.071688963167328
 20
5.476984584089429
 10
2.071688963167328
 20
5.385011711140826
 10
0.0
 20
5.385011711140826
  0
LWPOLYLINE
  5
10
100
AcDbEntity
  8
USP-GEO
100
AcDbPolyline
 90
        2
 70
   129
 43
0.0
 10
0.0
 20
2.715499073807563
 10
0.0
 20
5.385011711140826
  0
LWPOLYLINE
  5
11
100
AcDbEntity
  8
USP-GEO
100
AcDbPolyline
 90
        4
 70
   128
 43
0.0
 10
2.071688963167328
 20
5.385011711140826
 10
2.071688963167328
 20
2.715499073807563
 10
2.025702526693027
 20
1.931430331920708
 10
2.028001848516741
 20
1.931430331920708
  0
LWPOLYLINE
  5
12
100
AcDbEntity
  8
USP-GEO
100
AcDbPolyline
 90
       12
 70
   128
 43
0.0
 10
0.8277558565374434
 20
0.7817694200631422
 10
0.7817694200631422
 20
0.8737422930117446
 10
0.7817694200631422
 20
1.701498149549195
 10
0.7817694200631422
 20
1.8854438954464
 10
0.7817694200631422
 20
2.02340320486931
 10
0.7817694200631422
 20
2.117675399641633
 10
0.7817694200631422
 20
2.439580454961749
 10
0.7357829835888375
 20
2.393594018487448
 10
0.8277558565374434
 20
2.48556689143605
 10
1.011701602434655
 20
2.48556689143605
 10
1.195647348331863
 20
2.48556689143605
 10
1.333606657754774
 20
2.393594018487448
  0
LWPOLYLINE
  5
13
100
AcDbEntity
  8
USP-GEO
100
AcDbPolyline
 90
        2
 70
   128
 43
0.0
 10
1.287620221280469
 20
2.163661836115934
 10
0.7817694200631422
 20
2.163661836115934
  0
LWPOLYLINE
  5
14
100
AcDbEntity
  8
USP-GEO
100
AcDbPolyline
 90
       27
 70
   128
 43
0.0
 10
1.933729653744418
 20
1.931430331920708
 10
1.933729653744418
 20
1.8854438954464
 10
1.933729653744418
 20
1.839457458972098
 10
1.933729653744418
 20
1.793471022497797
 10
1.471565967177678
 20
1.793471022497797
 10
1.471565967177678
 20
0.9657151659603542
 10
1.425579530703377
 20
0.735782983588841
 10
1.241633784806165
 20
0.5978236741659302
 10
1.011701602434655
 20
0.551837237691629
 10
0.7817694200631422
 20
0.5978236741659302
 10
0.643810110640235
 20
0.735782983588841
 10
0.551837237691629
 20
0.9657151659603542
 10
0.551837237691629
 20
1.793471022497797
 10
0.551837237691629
 20
1.839457458972098
 10
0.551837237691629
 20
1.8854438954464
 10
0.551837237691629
 20
1.931430331920708
 10
0.6897965471145362
 20
1.931430331920708
 10
0.7357829835888375
 20
2.02340320486931
 10
0.7817694200631422
 20
2.117675399641633
 10
0.7817694200631422
 20
2.02340320486931
 10
0.7817694200631422
 20
1.8854438954464
 10
0.7817694200631422
 20
1.701498149549195
 10
0.7357829835888375
 20
1.747484586023496
 10
0.6897965471145362
 20
1.793471022497797
 10
0.551837237691629
 20
1.793471022497797
 10
0.1379593094229072
 20
1.793471022497797
 10
0.0459864364743012
 20
1.793471022497797
  0
LWPOLYLINE
  5
15
100
AcDbEntity
  8
USP-GEO
100
AcDbPolyline
 90
        5
 70
   128
 43
0.0
 10
1.287620221280469
 20
0.7817694200631422
 10
1.149660911857562
 20
0.6897965471145398
 10
1.011701602434655
 20
0.6438101106402386
 10
0.8737422930117482
 20
0.6897965471145398
 10
0.7817694200631422
 20
0.7817694200631422
  0
LWPOLYLINE
  5
16
100
AcDbEntity
  8
USP-GEO
100
AcDbPolyline
 90
        6
 70
   128
 43
0.0
 10
1.287620221280469
 20
1.701498149549195
 10
0.7817694200631422
 20
1.701498149549195
 10
0.7817694200631422
 20
0.8737422930117446
 10
0.7357829835888375
 20
0.9197287294860529
 10
0.6897965471145362
 20
0.9657151659603542
 10
0.551837237691629
 20
0.9657151659603542
  0
LWPOLYLINE
  5
17
100
AcDbEntity
  8
USP-GEO
100
AcDbPolyline
 90
        9
 70
   128
 43
0.0
 10
1.471565967177678
 20
2.301621145538838
 10
1.425579530703377
 20
2.393594018487448
 10
1.241633784806165
 20
2.48556689143605
 10
1.011701602434655
 20
2.48556689143605
 10
0.7817694200631422
 20
2.48556689143605
 10
0.643810110640235
 20
2.393594018487448
 10
0.551837237691629
 20
2.301621145538838
 10
0.6897965471145362
 20
2.347607582013147
 10
0.7357829835888375
 20
2.393594018487448
  0
LWPOLYLINE
  5
18
100
AcDbEntity
  8
USP-GEO
100
AcDbPolyline
 90
        6
 70
   128
 43
0.0
 10
0.0919728729486025
 20
0.0
 10
0.1839457458972085
 20
0.0
 10
1.887743217270116
 20
0.0
 10
1.887743217270116
 20
0.0459864364743012
 10
0.1839457458972085
 20
0.0459864364743012
 10
0.0919728729486025
 20
0.0459864364743012
  0
LWPOLYLINE
  5
19
100
AcDbEntity
  8
USP-GEO
100
AcDbPolyline
 90
        5
 70
   129
 43
0.0
 10
0.0459864364743012
 20
1.793471022497797
 10
0.0459864364743012
 20
1.839457458972098
 10
0.0459864364743012
 20
1.747484586023496
 10
0.0919728729486025
 20
0.0
 10
0.0919728729486025
 20
0.0459864364743012
  0
LWPOLYLINE
  5
1A
100
AcDbEntity
  8
USP-GEO
100
AcDbPolyline
 90
        2
 70
   128
 43
0.0
 10
0.1839457458972085
 20
0.0
 10
0.1839457458972085
 20
0.0459864364743012
  0
LWPOLYLINE
  5
1B
100
AcDbEntity
  8
USP-GEO
100
AcDbPolyline
 90
        3
 70
   128
 43
0.0
 10
0.1379593094229072
 20
1.931430331920708
 10
0.551837237691629
 20
1.931430331920708
 10
0.551837237691629
 20
2.301621145538838
  0
LWPOLYLINE
  5
1C
100
AcDbEntity
  8
USP-GEO
100
AcDbPolyline
 90
        3
 70
   128
 43
0.0
 10
0.0
 20
2.715499073807563
 10
0.0459864364743012
 20
1.931430331920708
 10
0.0482857582980181
 20
1.931430331920708
  0
LWPOLYLINE
  5
1D
100
AcDbEntity
  8
USP-GEO
100
AcDbPolyline
 90
        5
 70
   128
 43
0.0
 10
0.0459864364743012
 20
1.793471022497797
 10
0.1379593094229072
 20
1.793471022497797
 10
0.1379593094229072
 20
1.839457458972098
 10
0.1379593094229072
 20
1.8854438954464
 10
0.1379593094229072
 20
1.931430331920708
  0
LWPOLYLINE
  5
1E
100
AcDbEntity
  8
USP-GEO
100
AcDbPolyline
 90
        2
 70
   129
 43
0.0
 10
0.0459864364743012
 20
1.931430331920708
 10
0.1379593094229072
 20
1.931430331920708
  0
LWPOLYLINE
  5
1F
100
AcDbEntity
  8
USP-GEO
100
AcDbPolyline
 90
        4
 70
   128
 43
0.0
 10
0.1379593094229072
 20
1.931430331920708
 10
0.0459864364743012
 20
1.931430331920708
 10
0.0459864364743012
 20
1.8854438954464
 10
0.0459864364743012
 20
1.839457458972098
  0
LWPOLYLINE
  5
20
100
AcDbEntity
  8
USP-GEO
100
AcDbPolyline
 90
        5
 70
   128
 43
0.0
 10
0.0459864364743012
 20
1.793471022497797
 10
0.1379593094229072
 20
1.793471022497797
 10
0.1379593094229072
 20
1.839457458972098
 10
0.1379593094229072
 20
1.8854438954464
 10
0.1379593094229072
 20
1.931430331920708
  0
LWPOLYLINE
  5
21
100
AcDbEntity
  8
USP-GEO
100
AcDbPolyline
 90
        3
 70
   128
 43
0.0
 10
0.1379593094229072
 20
1.931430331920708
 10
0.1379593094229072
 20
1.8854438954464
 10
0.1402586312466205
 20
1.8854438954464
  0
LWPOLYLINE
  5
22
100
AcDbEntity
  8
USP-GEO
100
AcDbPolyline
 90
        2
 70
   129
 43
0.0
 10
0.1402586312466205
 20
1.931430331920708
 10
0.1379593094229072
 20
1.931430331920708
  0
LWPOLYLINE
  5
23
100
AcDbEntity
  8
USP-GEO
100
AcDbPolyline
 90
        2
 70
   128
 43
0.0
 10
0.1379593094229072
 20
1.793471022497797
 10
0.1379593094229072
 20
1.839457458972098
  0
LWPOLYLINE
  5
24
100
AcDbEntity
  8
USP-GEO
100
AcDbPolyline
 90
        2
 70
   128
 43
0.0
 10
0.1379593094229072
 20
1.931430331920708
 10
0.1402586312466205
 20
1.931430331920708
  0
LWPOLYLINE
  5
25
100
AcDbEntity
  8
USP-GEO
100
AcDbPolyline
 90
        2
 70
   129
 43
0.0
 10
0.1402586312466205
 20
1.931430331920708
 10
0.1379593094229072
 20
1.931430331920708
  0
LWPOLYLINE
  5
26
100
AcDbEntity
  8
USP-GEO
100
AcDbPolyline
 90
        2
 70
   128
 43
0.0
 10
0.7817694200631422
 20
2.117675399641633
 10
0.7817694200631422
 20
2.439580454961749
  0
LWPOLYLINE
  5
27
100
AcDbEntity
  8
USP-GEO
100
AcDbPolyline
 90
        4
 70
   128
 43
0.0
 10
1.887743217270116
 20
0.0459864364743012
 10
1.979716090218719
 20
0.0459864364743012
 10
2.025702526693027
 20
1.793471022497797
 10
1.933729653744418
 20
1.793471022497797
  0
LWPOLYLINE
  5
28
100
AcDbEntity
  8
USP-GEO
100
AcDbPolyline
 90
        6
 70
   128
 43
0.0
 10
1.933729653744418
 20
1.793471022497797
 10
2.025702526693027
 20
1.793471022497797
 10
2.025702526693027
 20
1.839457458972098
 10
2.025702526693027
 20
1.747484586023496
 10
1.979716090218719
 20
0.0
 10
1.887743217270116
 20
0.0
  0
LWPOLYLINE
  5
29
100
AcDbEntity
  8
USP-GEO
100
AcDbPolyline
 90
        2
 70
   128
 43
0.0
 10
1.979716090218719
 20
0.0
 10
1.979716090218719
 20
0.0459864364743012
  0
LWPOLYLINE
  5
2A
100
AcDbEntity
  8
USP-GEO
100
AcDbPolyline
 90
        6
 70
   128
 43
0.0
 10
1.933729653744418
 20
1.931430331920708
 10
1.471565967177678
 20
1.931430331920708
 10
1.471565967177678
 20
2.301621145538838
 10
1.379593094229075
 20
2.347607582013147
 10
1.287620221280469
 20
2.393594018487448
 10
1.287620221280469
 20
2.439580454961749
  0
LWPOLYLINE
  5
2B
100
AcDbEntity
  8
USP-GEO
100
AcDbPolyline
 90
        4
 70
   129
 43
0.0
 10
1.287620221280469
 20
2.02340320486931
 10
1.287620221280469
 20
2.117675399641633
 10
1.287620221280469
 20
2.439580454961749
 10
1.287620221280469
 20
2.117675399641633
  0
LWPOLYLINE
  5
2C
100
AcDbEntity
  8
USP-GEO
100
AcDbPolyline
 90
        2
 70
   129
 43
0.0
 10
1.287620221280469
 20
0.8737422930117446
 10
1.287620221280469
 20
1.701498149549195
  0
LWPOLYLINE
  5
2D
100
AcDbEntity
  8
USP-GEO
100
AcDbPolyline
 90
        5
 70
   128
 43
0.0
 10
1.471565967177678
 20
0.9657151659603542
 10
1.379593094229075
 20
0.9657151659603542
 10
1.287620221280469
 20
0.9197287294860529
 10
1.287620221280469
 20
0.8737422930117446
 10
1.241633784806165
 20
0.7817694200631422
  0
LWPOLYLINE
  5
2E
100
AcDbEntity
  8
USP-GEO
100
AcDbPolyline
 90
       12
 70
   128
 43
0.0
 10
1.287620221280469
 20
2.117675399641633
 10
1.287620221280469
 20
2.02340320486931
 10
1.379593094229075
 20
1.931430331920708
 10
1.471565967177678
 20
1.931430331920708
 10
1.471565967177678
 20
1.8854438954464
 10
1.471565967177678
 20
1.839457458972098
 10
1.471565967177678
 20
1.793471022497797
 10
1.379593094229075
 20
1.793471022497797
 10
1.287620221280469
 20
1.747484586023496
 10
1.287620221280469
 20
1.701498149549195
 10
1.287620221280469
 20
1.8854438954464
 10
1.287620221280469
 20
2.02340320486931
  0
LWPOLYLINE
  5
2F
100
AcDbEntity
  8
USP-GEO
100
AcDbPolyline
 90
        3
 70
   128
 43
0.0
 10
1.287620221280469
 20
2.02340320486931
 10
1.287620221280469
 20
1.8854438954464
 10
1.287620221280469
 20
1.701498149549195
  0
LWPOLYLINE
  5
30
100
AcDbEntity
  8
USP-GEO
100
AcDbPolyline
 90
        2
 70
   129
 43
0.0
 10
1.933729653744418
 20
1.793471022497797
 10
2.025702526693027
 20
1.793471022497797
  0
LWPOLYLINE
  5
31
100
AcDbEntity
  8
USP-GEO
100
AcDbPolyline
 90
        2
 70
   129
 43
0.0
 10
1.936028975568131
 20
1.931430331920708
 10
1.933729653744418
 20
1.931430331920708
  0
LWPOLYLINE
  5
32
100
AcDbEntity
  8
USP-GEO
100
AcDbPolyline
 90
        2
 70
   129
 43
0.0
 10
1.933729653744418
 20
1.839457458972098
 10
1.933729653744418
 20
1.793471022497797
  0
LWPOLYLINE
  5
33
100
AcDbEntity
  8
USP-GEO
100
AcDbPolyline
 90
        3
 70
   128
 43
0.0
 10
1.933729653744418
 20
1.931430331920708
 10
1.933729653744418
 20
1.8854438954464
 10
1.933729653744418
 20
1.839457458972098
  0
LWPOLYLINE
  5
34
100
AcDbEntity
  8
USP-GEO
100
AcDbPolyline
 90
        4
 70
   128
 43
0.0
 10
2.025702526693027
 20
1.839457458972098
 10
2.025702526693027
 20
1.8854438954464
 10
2.025702526693027
 20
1.931430331920708
 10
1.933729653744418
 20
1.931430331920708
  0
LWPOLYLINE
  5
35
100
AcDbEntity
  8
USP-GEO
100
AcDbPolyline
 90
        2
 70
   129
 43
0.0
 10
2.025702526693027
 20
1.931430331920708
 10
1.933729653744418
 20
1.931430331920708
  0
LWPOLYLINE
  5
36
100
AcDbEntity
  8
USP-GEO
100
AcDbPolyline
 90
        3
 70
   128
 43
0.0
 10
1.933729653744418
 20
1.931430331920708
 10
1.933729653744418
 20
1.8854438954464
 10
1.936028975568131
 20
1.8854438954464
  0
LWPOLYLINE
  5
37
100
AcDbEntity
  8
USP-GEO
100
AcDbPolyline
 90
        2
 70
   128
 43
0.0
 10
1.933729653744418
 20
1.931430331920708
 10
1.936028975568131
 20
1.931430331920708
  0
LWPOLYLINE
  5
38
100
AcDbEntity
  8
USP-GEO
100
AcDbPolyline
 90
        8
 70
   129
 43
0.0
 10
0.8737422930117482
 20
5.476984584089429
 10
1.011701602434655
 20
5.476984584089429
 10
1.149660911857562
 20
5.476984584089429
 10
1.287620221280469
 20
5.476984584089429
 10
1.149660911857562
 20
5.476984584089429
 10
1.287620221280469
 20
5.476984584089429
 10
1.149660911857562
 20
5.476984584089429
 10
1.011701602434655
 20
5.476984584089429
  0
LWPOLYLINE
  5
39
100
AcDbEntity
  8
USP-GEO
100
AcDbPolyline
 90
        3
 70
   128
 43
0.0
 10
1.287620221280469
 20
5.430998147615127
 10
1.149660911857562
 20
5.430998147615127
 10
1.057688038908956
 20
5.430998147615127
  0
LWPOLYLINE
  5
3A
100
AcDbEntity
  8
USP-GEO
100
AcDbPolyline
 90
        5
 70
   128
 43
0.0
 10
1.149660911857562
 20
5.430998147615127
 10
1.287620221280469
 20
5.430998147615127
 10
1.149660911857562
 20
5.430998147615127
 10
1.011701602434655
 20
5.430998147615127
 10
0.8737422930117482
 20
5.430998147615127
  0
LWPOLYLINE
  5
3B
100
AcDbEntity
  8
USP-GEO
100
AcDbPolyline
 90
        2
 70
   128
 43
0.0
 10
0.0
 20
5.476984584089429
 10
2.071688963167328
 20
5.476984584089429
  0
LWPOLYLINE
  5
3C
100
AcDbEntity
  8
USP-GEO
100
AcDbPolyline
 90
        2
 70
   128
 43
0.0
 10
2.071688963167328
 20
5.568957457038031
 10
0.0
 20
5.568957457038031
  0
LWPOLYLINE
  5
3D
100
AcDbEntity
  8
USP-GEO
100
AcDbPolyline
 90
        4
 70
   129
 43
0.0
 10
0.0
 20
5.385011711140826
 10
0.0
 20
5.476984584089429
 10
0.0
 20
5.568957457038031
 10
0.0
 20
5.476984584089429
  0
LWPOLYLINE
  5
3E
100
AcDbEntity
  8
USP-GEO
100
AcDbPolyline
 90
        6
 70
   129
 43
0.0
 10
0.1839457458972085
 20
5.385011711140826
 10
0.2299321823715097
 20
5.385011711140826
 10
0.2759186188458145
 20
5.385011711140826
 10
0.3219050553201157
 20
5.385011711140826
 10
0.2759186188458145
 20
5.385011711140826
 10
0.2299321823715097
 20
5.385011711140826
  0
LWPOLYLINE
  5
3F
100
AcDbEntity
  8
USP-GEO
100
AcDbPolyline
 90
        8
 70
   129
 43
0.0
 10
0.3219050553201157
 20
5.430998147615127
 10
0.2759186188458145
 20
5.430998147615127
 10
0.2299321823715097
 20
5.430998147615127
 10
0.1839457458972085
 20
5.430998147615127
 10
0.2299321823715097
 20
5.430998147615127
 10
0.2759186188458145
 20
5.430998147615127
 10
0.3219050553201157
 20
5.430998147615127
 10
0.3678914917944205
 20
5.430998147615127
  0
LWPOLYLINE
  5
40
100
AcDbEntity
  8
USP-GEO
100
AcDbPolyline
 90
       13
 70
   128
 43
0.0
 10
0.3678914917944205
 20
5.476984584089429
 10
0.3219050553201157
 20
5.476984584089429
 10
0.2759186188458145
 20
5.476984584089429
 10
0.2299321823715097
 20
5.476984584089429
 10
0.1839457458972085
 20
5.476984584089429
 10
0.2299321823715097
 20
5.476984584089429
 10
0.2759186188458145
 20
5.476984584089429
 10
0.3219050553201157
 20
5.476984584089429
 10
0.3678914917944205
 20
5.476984584089429
 10
0.3219050553201157
 20
5.476984584089429
 10
0.2759186188458145
 20
5.476984584089429
 10
0.2299321823715097
 20
5.476984584089429
 10
0.1839457458972085
 20
5.476984584089429
  0
LWPOLYLINE
  5
41
100
AcDbEntity
  8
USP-GEO
100
AcDbPolyline
 90
        8
 70
   129
 43
0.0
 10
0.1839457458972085
 20
5.476984584089429
 10
0.2299321823715097
 20
5.476984584089429
 10
0.2759186188458145
 20
5.476984584089429
 10
0.3219050553201157
 20
5.476984584089429
 10
0.3678914917944205
 20
5.476984584089429
 10
0.3219050553201157
 20
5.476984584089429
 10
0.2759186188458145
 20
5.476984584089429
 10
0.2299321823715097
 20
5.476984584089429
  0
LWPOLYLINE
  5
42
100
AcDbEntity
  8
USP-GEO
100
AcDbPolyline
 90
        8
 70
   129
 43
0.0
 10
0.1839457458972085
 20
5.430998147615127
 10
0.2299321823715097
 20
5.430998147615127
 10
0.2759186188458145
 20
5.430998147615127
 10
0.3219050553201157
 20
5.430998147615127
 10
0.3678914917944205
 20
5.430998147615127
 10
0.3219050553201157
 20
5.430998147615127
 10
0.2759186188458145
 20
5.430998147615127
 10
0.2299321823715097
 20
5.430998147615127
  0
LWPOLYLINE
  5
43
100
AcDbEntity
  8
USP-GEO
100
AcDbPolyline
 90
        8
 70
   129
 43
0.0
 10
0.1839457458972085
 20
5.430998147615127
 10
0.2299321823715097
 20
5.430998147615127
 10
0.2759186188458145
 20
5.430998147615127
 10
0.3219050553201157
 20
5.430998147615127
 10
0.3678914917944205
 20
5.430998147615127
 10
0.3219050553201157
 20
5.430998147615127
 10
0.2759186188458145
 20
5.430998147615127
 10
0.2299321823715097
 20
5.430998147615127
  0
LWPOLYLINE
  5
44
100
AcDbEntity
  8
USP-GEO
100
AcDbPolyline
 90
        6
 70
   128
 43
0.0
 10
0.3678914917944205
 20
5.430998147615127
 10
0.3219050553201157
 20
5.430998147615127
 10
0.2759186188458145
 20
5.430998147615127
 10
0.2299321823715097
 20
5.430998147615127
 10
0.1839457458972085
 20
5.430998147615127
 10
0.1862450677209253
 20
5.430998147615127
  0
LWPOLYLINE
  5
45
100
AcDbEntity
  8
USP-GEO
100
AcDbPolyline
 90
        5
 70
   128
 43
0.0
 10
0.3678914917944205
 20
5.385011711140826
 10
0.3219050553201157
 20
5.385011711140826
 10
0.2759186188458145
 20
5.385011711140826
 10
0.2299321823715097
 20
5.385011711140826
 10
0.1839457458972085
 20
5.385011711140826
  0
LWPOLYLINE
  5
46
100
AcDbEntity
  8
USP-GEO
100
AcDbPolyline
 90
        8
 70
   129
 43
0.0
 10
0.1839457458972085
 20
5.385011711140826
 10
0.2299321823715097
 20
5.385011711140826
 10
0.2759186188458145
 20
5.385011711140826
 10
0.3219050553201157
 20
5.385011711140826
 10
0.3678914917944205
 20
5.385011711140826
 10
0.3219050553201157
 20
5.385011711140826
 10
0.2759186188458145
 20
5.385011711140826
 10
0.2299321823715097
 20
5.385011711140826
  0
LWPOLYLINE
  5
47
100
AcDbEntity
  8
USP-GEO
100
AcDbPolyline
 90
        2
 70
   128
 43
0.0
 10
0.1839457458972085
 20
5.385011711140826
 10
0.1862450677209253
 20
5.385011711140826
  0
LWPOLYLINE
  5
48
100
AcDbEntity
  8
USP-GEO
100
AcDbPolyline
 90
        2
 70
   129
 43
0.0
 10
0.1862450677209253
 20
5.476984584089429
 10
0.1839457458972085
 20
5.476984584089429
  0
LWPOLYLINE
  5
49
100
AcDbEntity
  8
USP-GEO
100
AcDbPolyline
 90
        2
 70
   129
 43
0.0
 10
0.3678914917944205
 20
5.385011711140826
 10
0.3219050553201157
 20
5.385011711140826
  0
LWPOLYLINE
  5
4A
100
AcDbEntity
  8
USP-GEO
100
AcDbPolyline
 90
        2
 70
   129
 43
0.0
 10
0.3701908136181338
 20
5.476984584089429
 10
0.3678914917944205
 20
5.476984584089429
  0
LWPOLYLINE
  5
4B
100
AcDbEntity
  8
USP-GEO
100
AcDbPolyline
 90
        2
 70
   128
 43
0.0
 10
0.3678914917944205
 20
5.476984584089429
 10
0.3701908136181338
 20
5.476984584089429
  0
LWPOLYLINE
  5
4C
100
AcDbEntity
  8
USP-GEO
100
AcDbPolyline
 90
        2
 70
   129
 43
0.0
 10
0.3701908136181338
 20
5.430998147615127
 10
0.3678914917944205
 20
5.430998147615127
  0
LWPOLYLINE
  5
4D
100
AcDbEntity
  8
USP-GEO
100
AcDbPolyline
 90
        2
 70
   129
 43
0.0
 10
0.3701908136181338
 20
5.430998147615127
 10
0.3678914917944205
 20
5.430998147615127
  0
LWPOLYLINE
  5
4E
100
AcDbEntity
  8
USP-GEO
100
AcDbPolyline
 90
        2
 70
   129
 43
0.0
 10
0.3701908136181338
 20
5.385011711140826
 10
0.3678914917944205
 20
5.385011711140826
  0
LWPOLYLINE
  5
4F
100
AcDbEntity
  8
USP-GEO
100
AcDbPolyline
 90
        2
 70
   128
 43
0.0
 10
0.3678914917944205
 20
5.385011711140826
 10
0.3701908136181338
 20
5.385011711140826
  0
LWPOLYLINE
  5
50
100
AcDbEntity
  8
USP-GEO
100
AcDbPolyline
 90
        3
 70
   128
 43
0.0
 10
0.7357829835888375
 20
5.430998147615127
 10
0.7817694200631422
 20
5.430998147615127
 10
0.8737422930117482
 20
5.430998147615127
  0
LWPOLYLINE
  5
51
100
AcDbEntity
  8
USP-GEO
100
AcDbPolyline
 90
        4
 70
   129
 43
0.0
 10
1.011701602434655
 20
5.476984584089429
 10
0.8737422930117482
 20
5.476984584089429
 10
0.7817694200631422
 20
5.476984584089429
 10
0.8737422930117482
 20
5.476984584089429
  0
LWPOLYLINE
  5
52
100
AcDbEntity
  8
USP-GEO
100
AcDbPolyline
 90
        2
 70
   129
 43
0.0
 10
0.8737422930117482
 20
5.476984584089429
 10
0.7817694200631422
 20
5.476984584089429
  0
LWPOLYLINE
  5
53
100
AcDbEntity
  8
USP-GEO
100
AcDbPolyline
 90
        2
 70
   129
 43
0.0
 10
0.8737422930117482
 20
5.430998147615127
 10
0.7817694200631422
 20
5.430998147615127
  0
LWPOLYLINE
  5
54
100
AcDbEntity
  8
USP-GEO
100
AcDbPolyline
 90
        2
 70
   129
 43
0.0
 10
0.7817694200631422
 20
5.476984584089429
 10
0.7357829835888375
 20
5.476984584089429
  0
LWPOLYLINE
  5
55
100
AcDbEntity
  8
USP-GEO
100
AcDbPolyline
 90
        2
 70
   128
 43
0.0
 10
0.7357829835888375
 20
5.476984584089429
 10
0.7817694200631422
 20
5.476984584089429
  0
LWPOLYLINE
  5
56
100
AcDbEntity
  8
USP-GEO
100
AcDbPolyline
 90
        2
 70
   129
 43
0.0
 10
0.7357829835888375
 20
5.430998147615127
 10
0.7817694200631422
 20
5.430998147615127
  0
LWPOLYLINE
  5
57
100
AcDbEntity
  8
USP-GEO
100
AcDbPolyline
 90
        2
 70
   129
 43
0.0
 10
0.8737422930117482
 20
5.430998147615127
 10
1.011701602434655
 20
5.430998147615127
  0
LWPOLYLINE
  5
58
100
AcDbEntity
  8
USP-GEO
100
AcDbPolyline
 90
        2
 70
   129
 43
0.0
 10
1.011701602434655
 20
5.476984584089429
 10
1.149660911857562
 20
5.476984584089429
  0
LWPOLYLINE
  5
59
100
AcDbEntity
  8
USP-GEO
100
AcDbPolyline
 90
        2
 70
   129
 43
0.0
 10
1.011701602434655
 20
5.430998147615127
 10
1.149660911857562
 20
5.430998147615127
  0
LWPOLYLINE
  5
5A
100
AcDbEntity
  8
USP-GEO
100
AcDbPolyline
 90
        2
 70
   129
 43
0.0
 10
1.289919543104183
 20
5.476984584089429
 10
1.287620221280469
 20
5.476984584089429
  0
LWPOLYLINE
  5
5B
100
AcDbEntity
  8
USP-GEO
100
AcDbPolyline
 90
        2
 70
   129
 43
0.0
 10
1.289919543104183
 20
5.430998147615127
 10
1.287620221280469
 20
5.430998147615127
  0
LWPOLYLINE
  5
5C
100
AcDbEntity
  8
USP-GEO
100
AcDbPolyline
 90
        2
 70
   129
 43
0.0
 10
1.701498149549191
 20
5.476984584089429
 10
1.747484586023492
 20
5.476984584089429
  0
LWPOLYLINE
  5
5D
100
AcDbEntity
  8
USP-GEO
100
AcDbPolyline
 90
        9
 70
   128
 43
0.0
 10
1.747484586023492
 20
5.476984584089429
 10
1.793471022497794
 20
5.476984584089429
 10
1.841756780795815
 20
5.476984584089429
 10
1.887743217270116
 20
5.476984584089429
 10
1.841756780795815
 20
5.476984584089429
 10
1.793471022497794
 20
5.476984584089429
 10
1.747484586023492
 20
5.476984584089429
 10
1.701498149549191
 20
5.476984584089429
 10
1.703797471372904
 20
5.476984584089429
  0
LWPOLYLINE
  5
5E
100
AcDbEntity
  8
USP-GEO
100
AcDbPolyline
 90
        4
 70
   128
 43
0.0
 10
1.841756780795815
 20
5.385011711140826
 10
1.793471022497794
 20
5.385011711140826
 10
1.747484586023492
 20
5.385011711140826
 10
1.701498149549191
 20
5.385011711140826
  0
LWPOLYLINE
  5
5F
100
AcDbEntity
  8
USP-GEO
100
AcDbPolyline
 90
        8
 70
   129
 43
0.0
 10
1.701498149549191
 20
5.476984584089429
 10
1.747484586023492
 20
5.476984584089429
 10
1.793471022497794
 20
5.476984584089429
 10
1.841756780795815
 20
5.476984584089429
 10
1.887743217270116
 20
5.476984584089429
 10
1.841756780795815
 20
5.476984584089429
 10
1.793471022497794
 20
5.476984584089429
 10
1.747484586023492
 20
5.476984584089429
  0
LWPOLYLINE
  5
60
100
AcDbEntity
  8
USP-GEO
100
AcDbPolyline
 90
        8
 70
   129
 43
0.0
 10
1.841756780795815
 20
5.430998147615127
 10
1.887743217270116
 20
5.430998147615127
 10
1.841756780795815
 20
5.430998147615127
 10
1.793471022497794
 20
5.430998147615127
 10
1.747484586023492
 20
5.430998147615127
 10
1.701498149549191
 20
5.430998147615127
 10
1.747484586023492
 20
5.430998147615127
 10
1.793471022497794
 20
5.430998147615127
  0
LWPOLYLINE
  5
61
100
AcDbEntity
  8
USP-GEO
100
AcDbPolyline
 90
       33
 70
   128
 43
0.0
 10
1.887743217270116
 20
5.385011711140826
 10
1.841756780795815
 20
5.385011711140826
 10
1.793471022497794
 20
5.385011711140826
 10
1.747484586023492
 20
5.385011711140826
 10
1.701498149549191
 20
5.385011711140826
 10
1.747484586023492
 20
5.385011711140826
 10
1.793471022497794
 20
5.385011711140826
 10
1.841756780795815
 20
5.385011711140826
 10
1.887743217270116
 20
5.430998147615127
 10
1.841756780795815
 20
5.430998147615127
 10
1.793471022497794
 20
5.430998147615127
 10
1.747484586023492
 20
5.430998147615127
 10
1.701498149549191
 20
5.430998147615127
 10
1.747484586023492
 20
5.430998147615127
 10
1.793471022497794
 20
5.430998147615127
 10
1.841756780795815
 20
5.430998147615127
 10
1.887743217270116
 20
5.430998147615127
 10
1.841756780795815
 20
5.430998147615127
 10
1.793471022497794
 20
5.430998147615127
 10
1.747484586023492
 20
5.430998147615127
 10
1.701498149549191
 20
5.430998147615127
 10
1.747484586023492
 20
5.430998147615127
 10
1.793471022497794
 20
5.430998147615127
 10
1.841756780795815
 20
5.430998147615127
 10
1.887743217270116
 20
5.430998147615127
 10
1.841756780795815
 20
5.430998147615127
 10
1.793471022497794
 20
5.430998147615127
 10
1.747484586023492
 20
5.430998147615127
 10
1.701498149549191
 20
5.430998147615127
 10
1.747484586023492
 20
5.430998147615127
 10
1.793471022497794
 20
5.430998147615127
 10
1.841756780795815
 20
5.430998147615127
 10
1.887743217270116
 20
5.430998147615127
  0
LWPOLYLINE
  5
62
100
AcDbEntity
  8
USP-GEO
100
AcDbPolyline
 90
        3
 70
   128
 43
0.0
 10
1.701498149549191
 20
5.430998147615127
 10
1.701498149549191
 20
5.385011711140826
 10
1.703797471372904
 20
5.385011711140826
  0
LWPOLYLINE
  5
63
100
AcDbEntity
  8
USP-GEO
100
AcDbPolyline
 90
        2
 70
   129
 43
0.0
 10
1.703797471372904
 20
5.430998147615127
 10
1.701498149549191
 20
5.430998147615127
  0
LWPOLYLINE
  5
64
100
AcDbEntity
  8
USP-GEO
100
AcDbPolyline
 90
        2
 70
   129
 43
0.0
 10
1.703797471372904
 20
5.430998147615127
 10
1.701498149549191
 20
5.430998147615127
  0
LWPOLYLINE
  5
65
100
AcDbEntity
  8
USP-GEO
100
AcDbPolyline
 90
        2
 70
   129
 43
0.0
 10
1.703797471372904
 20
5.476984584089429
 10
1.701498149549191
 20
5.476984584089429
  0
LWPOLYLINE
  5
66
100
AcDbEntity
  8
USP-GEO
100
AcDbPolyline
 90
        2
 70
   129
 43
0.0
 10
1.703797471372904
 20
5.430998147615127
 10
1.701498149549191
 20
5.430998147615127
  0
LWPOLYLINE
  5
67
100
AcDbEntity
  8
USP-GEO
100
AcDbPolyline
 90
        4
 70
   129
 43
0.0
 10
1.841756780795815
 20
5.476984584089429
 10
1.793471022497794
 20
5.476984584089429
 10
1.747484586023492
 20
5.476984584089429
 10
1.793471022497794
 20
5.476984584089429
  0
LWPOLYLINE
  5
68
100
AcDbEntity
  8
USP-GEO
100
AcDbPolyline
 90
        2
 70
   129
 43
0.0
 10
1.844056102619529
 20
5.476984584089429
 10
1.841756780795815
 20
5.476984584089429
  0
LWPOLYLINE
  5
69
100
AcDbEntity
  8
USP-GEO
100
AcDbPolyline
 90
        2
 70
   128
 43
0.0
 10
1.841756780795815
 20
5.430998147615127
 10
1.844056102619529
 20
5.430998147615127
  0
LWPOLYLINE
  5
6A
100
AcDbEntity
  8
USP-GEO
100
AcDbPolyline
 90
        2
 70
   129
 43
0.0
 10
1.844056102619529
 20
5.385011711140826
 10
1.841756780795815
 20
5.385011711140826
  0
ENDBLK
  5
6D
100
AcDbEntity
  8
0
100
AcDbBlockEnd
  0
BLOCK
  5
11F
100
AcDbEntity
  8
0
100
AcDbBlockBegin
  2
HPAHD22_F
 70
     0
 10
0.0
 20
0.0
 30
0.0
  3
HPAHD22_F
  1

  0
LWPOLYLINE
  5
70
100
AcDbEntity
  8
USP-GEO
100
AcDbPolyline
 90
        8
 70
   128
 43
0.0
 10
0.0
 20
33.23209831815471
 10
2.071688963167328
 20
33.23209831815471
 10
2.071688963167328
 20
8.468402276742814
 10
2.071688963167328
 20
2.255634709064537
 10
2.071688963167328
 20
2.209648272590236
 10
2.025702526693027
 20
0.367891491794424
 10
1.979716090218719
 20
1.103674475383265
 10
1.887743217270116
 20
1.103674475383265
  0
LWPOLYLINE
  5
71
100
AcDbEntity
  8
USP-GEO
100
AcDbPolyline
 90
        2
 70
   129
 43
0.0
 10
0.0
 20
8.468402276742814
 10
0.0
 20
33.23209831815471
  0
LWPOLYLINE
  5
72
100
AcDbEntity
  8
USP-GEO
100
AcDbPolyline
 90
        4
 70
   128
 43
0.0
 10
0.0
 20
33.23209831815471
 10
2.071688963167328
 20
33.23209831815471
 10
2.071688963167328
 20
8.468402276742814
 10
0.0
 20
8.468402276742814
  0
TEXT
  5
73
100
AcDbEntity
  8
USP-TXT
100
AcDbText
 10
-3.027805179328193
 20
-1.89037059780043
 30
0.0
 40
0.40625
  1
HPAHD22 - FRONT VIEW
 72
     1
 11
1.034694820671806
 21
-1.89037059780043
 31
0.0
100
AcDbText
  0
LWPOLYLINE
  5
74
100
AcDbEntity
  8
USP-GEO
100
AcDbPolyline
 90
        5
 70
   128
 43
0.0
 10
2.071688963167328
 20
8.468402276742814
 10
2.071688963167328
 20
2.255634709064537
 10
2.025702526693027
 20
0.4138779282687253
 10
2.025702526693027
 20
0.367891491794424
 10
2.028001848516741
 20
0.367891491794424
  0
LWPOLYLINE
  5
75
100
AcDbEntity
  8
USP-GEO
100
AcDbPolyline
 90
        4
 70
   129
 43
0.0
 10
0.0
 20
2.209648272590236
 10
0.0
 20
2.255634709064537
 10
0.0
 20
8.468402276742814
 10
0.0
 20
2.255634709064537
  0
LWPOLYLINE
  5
76
100
AcDbEntity
  8
USP-GEO
100
AcDbPolyline
 90
       11
 70
   128
 43
0.0
 10
0.7817694200631422
 20
1.241633784806168
 10
0.8277558565374434
 20
1.333606657754778
 10
0.9197287294860494
 20
1.42557953070338
 10
1.011701602434655
 20
1.471565967177681
 10
1.149660911857562
 20
1.471565967177681
 10
1.241633784806165
 20
1.379593094229079
 10
1.287620221280469
 20
1.241633784806168
 10
1.287620221280469
 20
1.287620221280469
 10
1.379593094229075
 20
1.333606657754778
 10
1.471565967177678
 20
1.333606657754778
 10
1.471565967177678
 20
1.103674475383265
  0
LWPOLYLINE
  5
77
100
AcDbEntity
  8
USP-GEO
100
AcDbPolyline
 90
        7
 70
   128
 43
0.0
 10
1.287620221280469
 20
1.241633784806168
 10
1.241633784806165
 20
1.333606657754778
 10
1.149660911857562
 20
1.42557953070338
 10
1.011701602434655
 20
1.471565967177681
 10
0.9197287294860494
 20
1.471565967177681
 10
0.8277558565374434
 20
1.379593094229079
 10
0.7817694200631422
 20
1.241633784806168
  0
LWPOLYLINE
  5
78
100
AcDbEntity
  8
USP-GEO
100
AcDbPolyline
 90
       10
 70
   128
 43
0.0
 10
1.471565967177678
 20
1.333606657754778
 10
1.425579530703377
 20
1.563538840126284
 10
1.241633784806165
 20
1.703797471372908
 10
1.011701602434655
 20
1.749783907847209
 10
0.7817694200631422
 20
1.703797471372908
 10
0.643810110640235
 20
1.563538840126284
 10
0.551837237691629
 20
1.333606657754778
 10
0.6897965471145362
 20
1.333606657754778
 10
0.7357829835888375
 20
1.287620221280469
 10
0.7817694200631422
 20
1.241633784806168
  0
LWPOLYLINE
  5
79
100
AcDbEntity
  8
USP-GEO
100
AcDbPolyline
 90
       22
 70
   128
 43
0.0
 10
0.7817694200631422
 20
0.367891491794424
 10
0.8277558565374434
 20
0.4138779282687253
 10
0.9197287294860494
 20
0.4598643647430265
 10
1.011701602434655
 20
0.4598643647430265
 10
1.149660911857562
 20
0.4598643647430265
 10
1.241633784806165
 20
0.4138779282687253
 10
1.287620221280469
 20
0.367891491794424
 10
1.287620221280469
 20
0.0
 10
0.7817694200631422
 20
0.0
 10
0.7817694200631422
 20
0.367891491794424
 10
0.7357829835888375
 20
0.367891491794424
 10
0.6897965471145362
 20
0.4138779282687253
 10
0.6897965471145362
 20
0.4598643647430265
 10
0.7357829835888375
 20
0.551837237691629
 10
0.8277558565374434
 20
0.5978236741659373
 10
1.011701602434655
 20
0.5978236741659373
 10
1.195647348331863
 20
0.5978236741659373
 10
1.333606657754774
 20
0.551837237691629
 10
1.379593094229075
 20
0.4598643647430265
 10
1.379593094229075
 20
0.4138779282687253
 10
1.333606657754774
 20
0.367891491794424
 10
1.287620221280469
 20
0.367891491794424
  0
LWPOLYLINE
  5
7A
100
AcDbEntity
  8
USP-GEO
100
AcDbPolyline
 90
       18
 70
   128
 43
0.0
 10
0.6897965471145362
 20
0.0919728729486096
 10
0.6897965471145362
 20
0.0459864364743012
 10
0.6897965471145362
 20
0.1379593094229108
 10
0.6897965471145362
 20
0.4598643647430265
 10
0.6897965471145362
 20
0.6438101106402386
 10
0.7357829835888375
 20
0.6897965471145398
 10
0.8277558565374434
 20
0.735782983588841
 10
1.011701602434655
 20
0.7817694200631422
 10
1.195647348331863
 20
0.735782983588841
 10
1.333606657754774
 20
0.6897965471145398
 10
1.379593094229075
 20
0.6438101106402386
 10
1.379593094229075
 20
0.4598643647430265
 10
1.379593094229075
 20
0.1379593094229108
 10
1.379593094229075
 20
0.0459864364743012
 10
1.333606657754774
 20
0.0459864364743012
 10
1.287620221280469
 20
0.0
 10
0.7817694200631422
 20
0.0
 10
0.7840687418868555
 20
0.0
  0
LWPOLYLINE
  5
7B
100
AcDbEntity
  8
USP-GEO
100
AcDbPolyline
 90
        6
 70
   128
 43
0.0
 10
0.0919728729486025
 20
1.011701602434655
 10
0.1839457458972085
 20
1.011701602434655
 10
1.887743217270116
 20
1.011701602434655
 10
1.887743217270116
 20
1.103674475383265
 10
0.1839457458972085
 20
1.103674475383265
 10
0.0919728729486025
 20
1.103674475383265
  0
LWPOLYLINE
  5
7C
100
AcDbEntity
  8
USP-GEO
100
AcDbPolyline
 90
        3
 70
   129
 43
0.0
 10
0.1379593094229072
 20
0.2299321823715132
 10
0.6897965471145362
 20
0.2759186188458145
 10
0.1379593094229072
 20
0.2759186188458145
  0
LWPOLYLINE
  5
7D
100
AcDbEntity
  8
USP-GEO
100
AcDbPolyline
 90
        2
 70
   128
 43
0.0
 10
0.0
 20
2.209648272590236
 10
0.0459864364743012
 20
0.4138779282687253
  0
LWPOLYLINE
  5
7E
100
AcDbEntity
  8
USP-GEO
100
AcDbPolyline
 90
        2
 70
   128
 43
0.0
 10
0.0459864364743012
 20
0.4138779282687253
 10
0.0
 20
2.255634709064537
  0
LWPOLYLINE
  5
7F
100
AcDbEntity
  8
USP-GEO
100
AcDbPolyline
 90
        4
 70
   129
 43
0.0
 10
0.0919728729486025
 20
1.103674475383265
 10
0.0459864364743012
 20
0.367891491794424
 10
0.0459864364743012
 20
0.2759186188458145
 10
0.0919728729486025
 20
1.011701602434655
  0
LWPOLYLINE
  5
80
100
AcDbEntity
  8
USP-GEO
100
AcDbPolyline
 90
        2
 70
   128
 43
0.0
 10
0.0459864364743012
 20
0.2759186188458145
 10
0.1379593094229072
 20
0.2759186188458145
  0
LWPOLYLINE
  5
81
100
AcDbEntity
  8
USP-GEO
100
AcDbPolyline
 90
        3
 70
   128
 43
0.0
 10
0.1379593094229072
 20
0.2759186188458145
 10
0.0459864364743012
 20
0.2759186188458145
 10
0.0482857582980181
 20
0.2759186188458145
  0
LWPOLYLINE
  5
82
100
AcDbEntity
  8
USP-GEO
100
AcDbPolyline
 90
        2
 70
   128
 43
0.0
 10
0.0459864364743012
 20
0.367891491794424
 10
0.0459864364743012
 20
0.4138779282687253
  0
LWPOLYLINE
  5
83
100
AcDbEntity
  8
USP-GEO
100
AcDbPolyline
 90
        2
 70
   129
 43
0.0
 10
0.0482857582980181
 20
0.367891491794424
 10
0.0459864364743012
 20
0.367891491794424
  0
LWPOLYLINE
  5
84
100
AcDbEntity
  8
USP-GEO
100
AcDbPolyline
 90
        2
 70
   129
 43
0.0
 10
0.0482857582980181
 20
0.4138779282687253
 10
0.0459864364743012
 20
0.4138779282687253
  0
LWPOLYLINE
  5
85
100
AcDbEntity
  8
USP-GEO
100
AcDbPolyline
 90
        4
 70
   128
 43
0.0
 10
0.0482857582980181
 20
0.4138779282687253
 10
0.0459864364743012
 20
0.4138779282687253
 10
0.0459864364743012
 20
0.367891491794424
 10
0.0482857582980181
 20
0.367891491794424
  0
LWPOLYLINE
  5
86
100
AcDbEntity
  8
USP-GEO
100
AcDbPolyline
 90
        2
 70
   129
 43
0.0
 10
0.1402586312466205
 20
0.2759186188458145
 10
0.1379593094229072
 20
0.2759186188458145
  0
LWPOLYLINE
  5
87
100
AcDbEntity
  8
USP-GEO
100
AcDbPolyline
 90
        2
 70
   128
 43
0.0
 10
0.1379593094229072
 20
0.2759186188458145
 10
0.1379593094229072
 20
0.2299321823715132
  0
LWPOLYLINE
  5
88
100
AcDbEntity
  8
USP-GEO
100
AcDbPolyline
 90
        2
 70
   129
 43
0.0
 10
0.1402586312466205
 20
0.2759186188458145
 10
0.1379593094229072
 20
0.2759186188458145
  0
LWPOLYLINE
  5
89
100
AcDbEntity
  8
USP-GEO
100
AcDbPolyline
 90
        2
 70
   128
 43
0.0
 10
0.1839457458972085
 20
1.011701602434655
 10
0.1839457458972085
 20
1.103674475383265
  0
LWPOLYLINE
  5
8A
100
AcDbEntity
  8
USP-GEO
100
AcDbPolyline
 90
        5
 70
   128
 43
0.0
 10
0.6897965471145362
 20
0.1379593094229108
 10
0.6897965471145362
 20
0.0919728729486096
 10
0.6897965471145362
 20
0.1379593094229108
 10
0.6897965471145362
 20
0.4598643647430265
 10
0.6897965471145362
 20
0.6438101106402386
  0
LWPOLYLINE
  5
8B
100
AcDbEntity
  8
USP-GEO
100
AcDbPolyline
 90
        4
 70
   129
 43
0.0
 10
0.7817694200631422
 20
0.0
 10
0.7357829835888375
 20
0.0459864364743012
 10
0.6897965471145362
 20
0.0459864364743012
 10
0.7357829835888375
 20
0.0
  0
LWPOLYLINE
  5
8C
100
AcDbEntity
  8
USP-GEO
100
AcDbPolyline
 90
        2
 70
   128
 43
0.0
 10
0.551837237691629
 20
1.103674475383265
 10
0.551837237691629
 20
1.333606657754778
  0
LWPOLYLINE
  5
8D
100
AcDbEntity
  8
USP-GEO
100
AcDbPolyline
 90
        2
 70
   129
 43
0.0
 10
0.7817694200631422
 20
1.241633784806168
 10
0.7817694200631422
 20
1.103674475383265
  0
LWPOLYLINE
  5
8E
100
AcDbEntity
  8
USP-GEO
100
AcDbPolyline
 90
        4
 70
   128
 43
0.0
 10
1.933729653744418
 20
0.2759186188458145
 10
2.025702526693027
 20
0.2759186188458145
 10
1.979716090218719
 20
1.011701602434655
 10
1.887743217270116
 20
1.011701602434655
  0
LWPOLYLINE
  5
8F
100
AcDbEntity
  8
USP-GEO
100
AcDbPolyline
 90
        3
 70
   129
 43
0.0
 10
1.933729653744418
 20
0.2299321823715132
 10
1.933729653744418
 20
0.2759186188458145
 10
1.379593094229075
 20
0.2759186188458145
  0
LWPOLYLINE
  5
90
100
AcDbEntity
  8
USP-GEO
100
AcDbPolyline
 90
        3
 70
   128
 43
0.0
 10
1.379593094229075
 20
0.6438101106402386
 10
1.379593094229075
 20
0.4598643647430265
 10
1.379593094229075
 20
0.1379593094229108
  0
LWPOLYLINE
  5
91
100
AcDbEntity
  8
USP-GEO
100
AcDbPolyline
 90
        5
 70
   128
 43
0.0
 10
1.289919543104183
 20
0.0
 10
1.287620221280469
 20
0.0
 10
1.333606657754774
 20
0.0
 10
1.379593094229075
 20
0.0459864364743012
 10
1.379593094229075
 20
0.0919728729486096
  0
LWPOLYLINE
  5
92
100
AcDbEntity
  8
USP-GEO
100
AcDbPolyline
 90
        2
 70
   129
 43
0.0
 10
1.379593094229075
 20
0.1379593094229108
 10
1.379593094229075
 20
0.0919728729486096
  0
LWPOLYLINE
  5
93
100
AcDbEntity
  8
USP-GEO
100
AcDbPolyline
 90
        2
 70
   129
 43
0.0
 10
1.287620221280469
 20
1.103674475383265
 10
1.287620221280469
 20
1.241633784806168
  0
LWPOLYLINE
  5
94
100
AcDbEntity
  8
USP-GEO
100
AcDbPolyline
 90
        4
 70
   128
 43
0.0
 10
1.933729653744418
 20
0.2759186188458145
 10
1.933729653744418
 20
0.2299321823715132
 10
1.933729653744418
 20
0.2759186188458145
 10
1.933729653744418
 20
0.2299321823715132
  0
LWPOLYLINE
  5
95
100
AcDbEntity
  8
USP-GEO
100
AcDbPolyline
 90
        2
 70
   129
 43
0.0
 10
2.028001848516741
 20
0.367891491794424
 10
2.025702526693027
 20
0.367891491794424
  0
LWPOLYLINE
  5
96
100
AcDbEntity
  8
USP-GEO
100
AcDbPolyline
 90
        2
 70
   129
 43
0.0
 10
1.936028975568131
 20
0.2759186188458145
 10
1.933729653744418
 20
0.2759186188458145
  0
LWPOLYLINE
  5
97
100
AcDbEntity
  8
USP-GEO
100
AcDbPolyline
 90
        2
 70
   129
 43
0.0
 10
1.936028975568131
 20
0.2759186188458145
 10
1.933729653744418
 20
0.2759186188458145
  0
LWPOLYLINE
  5
98
100
AcDbEntity
  8
USP-GEO
100
AcDbPolyline
 90
        3
 70
   128
 43
0.0
 10
1.933729653744418
 20
0.2759186188458145
 10
2.025702526693027
 20
0.2759186188458145
 10
2.028001848516741
 20
0.2759186188458145
  0
LWPOLYLINE
  5
99
100
AcDbEntity
  8
USP-GEO
100
AcDbPolyline
 90
        2
 70
   129
 43
0.0
 10
2.028001848516741
 20
0.4138779282687253
 10
2.025702526693027
 20
0.4138779282687253
  0
LWPOLYLINE
  5
9A
100
AcDbEntity
  8
USP-GEO
100
AcDbPolyline
 90
        2
 70
   128
 43
0.0
 10
2.025702526693027
 20
0.4138779282687253
 10
2.028001848516741
 20
0.4138779282687253
  0
LWPOLYLINE
  5
9B
100
AcDbEntity
  8
USP-GEO
100
AcDbPolyline
 90
        2
 70
   128
 43
0.0
 10
1.979716090218719
 20
1.011701602434655
 10
1.979716090218719
 20
1.103674475383265
  0
LWPOLYLINE
  5
9C
100
AcDbEntity
  8
USP-GEO
100
AcDbPolyline
 90
        2
 70
   128
 43
0.0
 10
2.071688963167328
 20
2.209648272590236
 10
2.071688963167328
 20
2.255634709064537
  0
LWPOLYLINE
  5
9D
100
AcDbEntity
  8
USP-GEO
100
AcDbPolyline
 90
       12
 70
   129
 43
0.0
 10
0.1839457458972085
 20
8.928266641485834
 10
0.2299321823715097
 20
8.976552399783855
 10
0.2759186188458145
 20
8.976552399783855
 10
0.3219050553201157
 20
8.976552399783855
 10
0.3678914917944205
 20
8.928266641485834
 10
0.3678914917944205
 20
8.882280205011532
 10
0.3678914917944205
 20
8.836293768537231
 10
0.3219050553201157
 20
8.79030733206293
 10
0.2759186188458145
 20
8.79030733206293
 10
0.2299321823715097
 20
8.79030733206293
 10
0.1839457458972085
 20
8.836293768537231
 10
0.1839457458972085
 20
8.882280205011532
  0
LWPOLYLINE
  5
9E
100
AcDbEntity
  8
USP-GEO
100
AcDbPolyline
 90
        2
 70
   128
 43
0.0
 10
0.2759186188458145
 20
8.79030733206293
 10
0.2299321823715097
 20
8.79030733206293
  0
LWPOLYLINE
  5
9F
100
AcDbEntity
  8
USP-GEO
100
AcDbPolyline
 90
        2
 70
   128
 43
0.0
 10
0.1839457458972085
 20
8.928266641485834
 10
0.1862450677209253
 20
8.928266641485834
  0
LWPOLYLINE
  5
A0
100
AcDbEntity
  8
USP-GEO
100
AcDbPolyline
 90
        4
 70
   128
 43
0.0
 10
0.2299321823715097
 20
8.976552399783855
 10
0.1839457458972085
 20
8.928266641485834
 10
0.1839457458972085
 20
8.882280205011532
 10
0.1862450677209253
 20
8.882280205011532
  0
LWPOLYLINE
  5
A1
100
AcDbEntity
  8
USP-GEO
100
AcDbPolyline
 90
        2
 70
   128
 43
0.0
 10
0.3678914917944205
 20
8.928266641485834
 10
0.3219050553201157
 20
8.976552399783855
  0
LWPOLYLINE
  5
A2
100
AcDbEntity
  8
USP-GEO
100
AcDbPolyline
 90
        2
 70
   129
 43
0.0
 10
0.3678914917944205
 20
8.882280205011532
 10
0.3678914917944205
 20
8.928266641485834
  0
LWPOLYLINE
  5
A3
100
AcDbEntity
  8
USP-GEO
100
AcDbPolyline
 90
        2
 70
   128
 43
0.0
 10
0.3678914917944205
 20
8.882280205011532
 10
0.3701908136181338
 20
8.882280205011532
  0
LWPOLYLINE
  5
A4
100
AcDbEntity
  8
USP-GEO
100
AcDbPolyline
 90
        2
 70
   128
 43
0.0
 10
0.3678914917944205
 20
8.836293768537231
 10
0.3701908136181338
 20
8.836293768537231
  0
LWPOLYLINE
  5
A5
100
AcDbEntity
  8
USP-GEO
100
AcDbPolyline
 90
       11
 70
   129
 43
0.0
 10
0.2299321823715097
 20
11.4161328547456
 10
0.1839457458972085
 20
11.4621192912199
 10
0.1839457458972085
 20
11.5081057276942
 10
0.2299321823715097
 20
11.55409216416851
 10
0.2759186188458145
 20
11.60007860064281
 10
0.3219050553201157
 20
11.55409216416851
 10
0.3678914917944205
 20
11.55409216416851
 10
0.3678914917944205
 20
11.5081057276942
 10
0.3678914917944205
 20
11.4621192912199
 10
0.3219050553201157
 20
11.4161328547456
 10
0.2759186188458145
 20
11.4161328547456
  0
LWPOLYLINE
  5
A6
100
AcDbEntity
  8
USP-GEO
100
AcDbPolyline
 90
        2
 70
   129
 43
0.0
 10
0.1839457458972085
 20
11.4621192912199
 10
0.1839457458972085
 20
11.5081057276942
  0
LWPOLYLINE
  5
A7
100
AcDbEntity
  8
USP-GEO
100
AcDbPolyline
 90
        2
 70
   129
 43
0.0
 10
0.1862450677209253
 20
11.5081057276942
 10
0.1839457458972085
 20
11.5081057276942
  0
LWPOLYLINE
  5
A8
100
AcDbEntity
  8
USP-GEO
100
AcDbPolyline
 90
        2
 70
   128
 43
0.0
 10
0.2299321823715097
 20
11.4161328547456
 10
0.1839457458972085
 20
11.4621192912199
  0
LWPOLYLINE
  5
A9
100
AcDbEntity
  8
USP-GEO
100
AcDbPolyline
 90
        3
 70
   128
 43
0.0
 10
0.3701908136181338
 20
11.5081057276942
 10
0.3678914917944205
 20
11.5081057276942
 10
0.3678914917944205
 20
11.55409216416851
  0
LWPOLYLINE
  5
AA
100
AcDbEntity
  8
USP-GEO
100
AcDbPolyline
 90
        2
 70
   128
 43
0.0
 10
0.3219050553201157
 20
11.55409216416851
 10
0.2759186188458145
 20
11.60007860064281
  0
LWPOLYLINE
  5
AB
100
AcDbEntity
  8
USP-GEO
100
AcDbPolyline
 90
        2
 70
   128
 43
0.0
 10
0.3219050553201157
 20
11.4161328547456
 10
0.2759186188458145
 20
11.4161328547456
  0
LWPOLYLINE
  5
AC
100
AcDbEntity
  8
USP-GEO
100
AcDbPolyline
 90
       12
 70
   129
 43
0.0
 10
1.701498149549191
 20
8.836293768537231
 10
1.747484586023492
 20
8.79030733206293
 10
1.793471022497794
 20
8.79030733206293
 10
1.841756780795815
 20
8.79030733206293
 10
1.841756780795815
 20
8.836293768537231
 10
1.887743217270116
 20
8.882280205011532
 10
1.841756780795815
 20
8.928266641485834
 10
1.841756780795815
 20
8.976552399783855
 10
1.793471022497794
 20
8.976552399783855
 10
1.747484586023492
 20
8.976552399783855
 10
1.701498149549191
 20
8.928266641485834
 10
1.701498149549191
 20
8.882280205011532
  0
LWPOLYLINE
  5
AD
100
AcDbEntity
  8
USP-GEO
100
AcDbPolyline
 90
        4
 70
   128
 43
0.0
 10
1.747484586023492
 20
8.79030733206293
 10
1.701498149549191
 20
8.836293768537231
 10
1.701498149549191
 20
8.882280205011532
 10
1.701498149549191
 20
8.928266641485834
  0
LWPOLYLINE
  5
AE
100
AcDbEntity
  8
USP-GEO
100
AcDbPolyline
 90
        2
 70
   128
 43
0.0
 10
1.841756780795815
 20
8.79030733206293
 10
1.793471022497794
 20
8.79030733206293
  0
LWPOLYLINE
  5
AF
100
AcDbEntity
  8
USP-GEO
100
AcDbPolyline
 90
        2
 70
   128
 43
0.0
 10
1.887743217270116
 20
8.882280205011532
 10
1.841756780795815
 20
8.836293768537231
  0
LWPOLYLINE
  5
B0
100
AcDbEntity
  8
USP-GEO
100
AcDbPolyline
 90
       14
 70
   128
 43
0.0
 10
1.841756780795815
 20
11.83001078301432
 10
1.841756780795815
 20
11.78402434654002
 10
1.793471022497794
 20
11.78402434654002
 10
1.747484586023492
 20
11.78402434654002
 10
1.701498149549191
 20
11.83001078301432
 10
1.701498149549191
 20
11.87599721948862
 10
1.701498149549191
 20
11.92198365596293
 10
1.747484586023492
 20
11.92198365596293
 10
1.747484586023492
 20
11.96797009243723
 10
1.793471022497794
 20
11.96797009243723
 10
1.841756780795815
 20
11.92198365596293
 10
1.887743217270116
 20
11.87599721948862
 10
1.841756780795815
 20
11.83001078301432
 10
1.844056102619529
 20
11.83001078301432
  0
LWPOLYLINE
  5
B1
100
AcDbEntity
  8
USP-GEO
100
AcDbPolyline
 90
        2
 70
   128
 43
0.0
 10
1.701498149549191
 20
11.87599721948862
 10
1.703797471372904
 20
11.87599721948862
  0
LWPOLYLINE
  5
B2
100
AcDbEntity
  8
USP-GEO
100
AcDbPolyline
 90
        2
 70
   128
 43
0.0
 10
1.701498149549191
 20
11.92198365596293
 10
1.703797471372904
 20
11.92198365596293
  0
LWPOLYLINE
  5
B3
100
AcDbEntity
  8
USP-GEO
100
AcDbPolyline
 90
        2
 70
   128
 43
0.0
 10
1.841756780795815
 20
11.92198365596293
 10
1.793471022497794
 20
11.96797009243723
  0
LWPOLYLINE
  5
B4
100
AcDbEntity
  8
USP-GEO
100
AcDbPolyline
 90
        2
 70
   128
 43
0.0
 10
1.887743217270116
 20
11.87599721948862
 10
1.89004253909383
 20
11.87599721948862
  0
LWPOLYLINE
  5
B5
100
AcDbEntity
  8
USP-GEO
100
AcDbPolyline
 90
       12
 70
   129
 43
0.0
 10
1.011701602434655
 20
17.95080547774399
 10
1.149660911857562
 20
17.99679191421829
 10
1.287620221280469
 20
18.08876478716689
 10
1.287620221280469
 20
18.2267240965898
 10
1.287620221280469
 20
18.36468340601271
 10
1.149660911857562
 20
18.45665627896131
 10
1.011701602434655
 20
18.50264271543561
 10
0.8737422930117482
 20
18.45665627896131
 10
0.7817694200631422
 20
18.36468340601271
 10
0.7357829835888375
 20
18.2267240965898
 10
0.7817694200631422
 20
18.08876478716689
 10
0.8737422930117482
 20
17.99679191421829
  0
LWPOLYLINE
  5
B6
100
AcDbEntity
  8
USP-GEO
100
AcDbPolyline
 90
        2
 70
   128
 43
0.0
 10
1.287620221280469
 20
18.08876478716689
 10
1.149660911857562
 20
17.99679191421829
  0
LWPOLYLINE
  5
B7
100
AcDbEntity
  8
USP-GEO
100
AcDbPolyline
 90
       12
 70
   129
 43
0.0
 10
0.1839457458972085
 20
14.03965905560456
 10
0.1839457458972085
 20
14.08564549207886
 10
0.1839457458972085
 20
14.13163192855316
 10
0.2299321823715097
 20
14.17761836502747
 10
0.2759186188458145
 20
14.17761836502747
 10
0.3219050553201157
 20
14.17761836502747
 10
0.3678914917944205
 20
14.13163192855316
 10
0.3678914917944205
 20
14.08564549207886
 10
0.3678914917944205
 20
14.03965905560456
 10
0.3219050553201157
 20
14.03965905560456
 10
0.2759186188458145
 20
13.99367261913025
 10
0.2299321823715097
 20
14.03965905560456
  0
LWPOLYLINE
  5
B8
100
AcDbEntity
  8
USP-GEO
100
AcDbPolyline
 90
        2
 70
   128
 43
0.0
 10
0.2299321823715097
 20
14.17761836502747
 10
0.1839457458972085
 20
14.13163192855316
  0
LWPOLYLINE
  5
B9
100
AcDbEntity
  8
USP-GEO
100
AcDbPolyline
 90
        2
 70
   128
 43
0.0
 10
0.3219050553201157
 20
14.17761836502747
 10
0.2759186188458145
 20
14.17761836502747
  0
LWPOLYLINE
  5
BA
100
AcDbEntity
  8
USP-GEO
100
AcDbPolyline
 90
        2
 70
   128
 43
0.0
 10
0.3219050553201157
 20
14.03965905560456
 10
0.2759186188458145
 20
13.99367261913025
  0
LWPOLYLINE
  5
BB
100
AcDbEntity
  8
USP-GEO
100
AcDbPolyline
 90
        2
 70
   128
 43
0.0
 10
0.3678914917944205
 20
14.08564549207886
 10
0.3678914917944205
 20
14.13163192855316
  0
LWPOLYLINE
  5
BC
100
AcDbEntity
  8
USP-GEO
100
AcDbPolyline
 90
       10
 70
   129
 43
0.0
 10
0.1839457458972085
 20
17.12304962120654
 10
0.2299321823715097
 20
17.16903605768084
 10
0.2759186188458145
 20
17.16903605768084
 10
0.3219050553201157
 20
17.16903605768084
 10
0.3678914917944205
 20
17.12304962120654
 10
0.3678914917944205
 20
17.07706318473224
 10
0.3219050553201157
 20
17.03107674825794
 10
0.2759186188458145
 20
17.03107674825794
 10
0.2299321823715097
 20
17.03107674825794
 10
0.1839457458972085
 20
17.07706318473224
  0
LWPOLYLINE
  5
BD
100
AcDbEntity
  8
USP-GEO
100
AcDbPolyline
 90
        2
 70
   128
 43
0.0
 10
0.2759186188458145
 20
17.03107674825794
 10
0.2299321823715097
 20
17.03107674825794
  0
LWPOLYLINE
  5
BE
100
AcDbEntity
  8
USP-GEO
100
AcDbPolyline
 90
        2
 70
   128
 43
0.0
 10
0.1839457458972085
 20
17.12304962120654
 10
0.1862450677209253
 20
17.12304962120654
  0
LWPOLYLINE
  5
BF
100
AcDbEntity
  8
USP-GEO
100
AcDbPolyline
 90
        2
 70
   128
 43
0.0
 10
0.1839457458972085
 20
17.07706318473224
 10
0.1839457458972085
 20
17.12304962120654
  0
LWPOLYLINE
  5
C0
100
AcDbEntity
  8
USP-GEO
100
AcDbPolyline
 90
        2
 70
   128
 43
0.0
 10
0.3678914917944205
 20
17.12304962120654
 10
0.3701908136181338
 20
17.12304962120654
  0
LWPOLYLINE
  5
C1
100
AcDbEntity
  8
USP-GEO
100
AcDbPolyline
 90
        2
 70
   128
 43
0.0
 10
0.3678914917944205
 20
17.07706318473224
 10
0.3219050553201157
 20
17.03107674825794
  0
LWPOLYLINE
  5
C2
100
AcDbEntity
  8
USP-GEO
100
AcDbPolyline
 90
       12
 70
   129
 43
0.0
 10
0.1839457458972085
 20
18.59461558838422
 10
0.1839457458972085
 20
18.64060202485852
 10
0.2299321823715097
 20
18.68658846133283
 10
0.2759186188458145
 20
18.68658846133283
 10
0.3219050553201157
 20
18.68658846133283
 10
0.3678914917944205
 20
18.64060202485852
 10
0.3678914917944205
 20
18.59461558838422
 10
0.3678914917944205
 20
18.54862915190992
 10
0.3219050553201157
 20
18.50264271543561
 10
0.2759186188458145
 20
18.50264271543561
 10
0.2299321823715097
 20
18.50264271543561
 10
0.1839457458972085
 20
18.54862915190992
  0
LWPOLYLINE
  5
C3
100
AcDbEntity
  8
USP-GEO
100
AcDbPolyline
 90
        2
 70
   128
 43
0.0
 10
0.2759186188458145
 20
18.68658846133283
 10
0.2299321823715097
 20
18.68658846133283
  0
LWPOLYLINE
  5
C4
100
AcDbEntity
  8
USP-GEO
100
AcDbPolyline
 90
        2
 70
   128
 43
0.0
 10
0.1839457458972085
 20
18.64060202485852
 10
0.1839457458972085
 20
18.59461558838422
  0
LWPOLYLINE
  5
C5
100
AcDbEntity
  8
USP-GEO
100
AcDbPolyline
 90
        2
 70
   128
 43
0.0
 10
0.3678914917944205
 20
18.64060202485852
 10
0.3219050553201157
 20
18.68658846133283
  0
LWPOLYLINE
  5
C6
100
AcDbEntity
  8
USP-GEO
100
AcDbPolyline
 90
       12
 70
   129
 43
0.0
 10
0.1839457458972085
 20
20.11446731385992
 10
0.1839457458972085
 20
20.16045375033422
 10
0.2299321823715097
 20
20.16045375033422
 10
0.2759186188458145
 20
20.20644018680852
 10
0.3219050553201157
 20
20.16045375033422
 10
0.3678914917944205
 20
20.16045375033422
 10
0.3678914917944205
 20
20.11446731385992
 10
0.3678914917944205
 20
20.06848087738562
 10
0.3219050553201157
 20
20.02249444091132
 10
0.2759186188458145
 20
20.02249444091132
 10
0.2299321823715097
 20
20.02249444091132
 10
0.1839457458972085
 20
20.06848087738562
  0
LWPOLYLINE
  5
C7
100
AcDbEntity
  8
USP-GEO
100
AcDbPolyline
 90
        2
 70
   128
 43
0.0
 10
0.2299321823715097
 20
20.02249444091132
 10
0.1839457458972085
 20
20.06848087738562
  0
LWPOLYLINE
  5
C8
100
AcDbEntity
  8
USP-GEO
100
AcDbPolyline
 90
        2
 70
   128
 43
0.0
 10
0.1839457458972085
 20
20.11446731385992
 10
0.1839457458972085
 20
20.16045375033422
  0
LWPOLYLINE
  5
C9
100
AcDbEntity
  8
USP-GEO
100
AcDbPolyline
 90
        2
 70
   128
 43
0.0
 10
0.3678914917944205
 20
20.06848087738562
 10
0.3219050553201157
 20
20.02249444091132
  0
LWPOLYLINE
  5
CA
100
AcDbEntity
  8
USP-GEO
100
AcDbPolyline
 90
        2
 70
   128
 43
0.0
 10
0.3678914917944205
 20
20.16045375033422
 10
0.3678914917944205
 20
20.11446731385992
  0
LWPOLYLINE
  5
CB
100
AcDbEntity
  8
USP-GEO
100
AcDbPolyline
 90
        2
 70
   128
 43
0.0
 10
0.7817694200631422
 20
18.08876478716689
 10
0.7357829835888375
 20
18.2267240965898
  0
LWPOLYLINE
  5
CC
100
AcDbEntity
  8
USP-GEO
100
AcDbPolyline
 90
        2
 70
   128
 43
0.0
 10
1.011701602434655
 20
17.95080547774399
 10
0.8737422930117482
 20
17.99679191421829
  0
LWPOLYLINE
  5
CD
100
AcDbEntity
  8
USP-GEO
100
AcDbPolyline
 90
       11
 70
   129
 43
0.0
 10
1.841756780795815
 20
14.9134013486163
 10
1.887743217270116
 20
14.867414912142
 10
1.841756780795815
 20
14.8214284756677
 10
1.841756780795815
 20
14.7754420391934
 10
1.793471022497794
 20
14.7754420391934
 10
1.747484586023492
 20
14.7754420391934
 10
1.701498149549191
 20
14.8214284756677
 10
1.701498149549191
 20
14.867414912142
 10
1.701498149549191
 20
14.9134013486163
 10
1.747484586023492
 20
14.9134013486163
 10
1.793471022497794
 20
14.95938778509061
  0
LWPOLYLINE
  5
CE
100
AcDbEntity
  8
USP-GEO
100
AcDbPolyline
 90
        4
 70
   128
 43
0.0
 10
1.701498149549191
 20
14.8214284756677
 10
1.701498149549191
 20
14.867414912142
 10
1.701498149549191
 20
14.9134013486163
 10
1.747484586023492
 20
14.9134013486163
  0
LWPOLYLINE
  5
CF
100
AcDbEntity
  8
USP-GEO
100
AcDbPolyline
 90
        2
 70
   128
 43
0.0
 10
1.793471022497794
 20
14.7754420391934
 10
1.747484586023492
 20
14.7754420391934
  0
LWPOLYLINE
  5
D0
100
AcDbEntity
  8
USP-GEO
100
AcDbPolyline
 90
        2
 70
   128
 43
0.0
 10
1.841756780795815
 20
14.8214284756677
 10
1.841756780795815
 20
14.7754420391934
  0
LWPOLYLINE
  5
D1
100
AcDbEntity
  8
USP-GEO
100
AcDbPolyline
 90
        2
 70
   129
 43
0.0
 10
1.844056102619529
 20
14.9134013486163
 10
1.841756780795815
 20
14.9134013486163
  0
LWPOLYLINE
  5
D2
100
AcDbEntity
  8
USP-GEO
100
AcDbPolyline
 90
        2
 70
   128
 43
0.0
 10
1.841756780795815
 20
14.9134013486163
 10
1.887743217270116
 20
14.867414912142
  0
LWPOLYLINE
  5
D3
100
AcDbEntity
  8
USP-GEO
100
AcDbPolyline
 90
       14
 70
   128
 43
0.0
 10
1.793471022497794
 20
19.24072502084817
 10
1.841756780795815
 20
19.28671145732248
 10
1.887743217270116
 20
19.33269789379678
 10
1.841756780795815
 20
19.37868433027108
 10
1.841756780795815
 20
19.42467076674538
 10
1.793471022497794
 20
19.42467076674538
 10
1.747484586023492
 20
19.42467076674538
 10
1.701498149549191
 20
19.37868433027108
 10
1.701498149549191
 20
19.33269789379678
 10
1.701498149549191
 20
19.28671145732248
 10
1.747484586023492
 20
19.28671145732248
 10
1.793471022497794
 20
19.24072502084817
 10
1.841756780795815
 20
19.28671145732248
 10
1.844056102619529
 20
19.28671145732248
  0
LWPOLYLINE
  5
D4
100
AcDbEntity
  8
USP-GEO
100
AcDbPolyline
 90
        2
 70
   129
 43
0.0
 10
1.887743217270116
 20
19.33269789379678
 10
1.841756780795815
 20
19.37868433027108
  0
LWPOLYLINE
  5
D5
100
AcDbEntity
  8
USP-GEO
100
AcDbPolyline
 90
        2
 70
   128
 43
0.0
 10
1.701498149549191
 20
19.33269789379678
 10
1.701498149549191
 20
19.37868433027108
  0
LWPOLYLINE
  5
D6
100
AcDbEntity
  8
USP-GEO
100
AcDbPolyline
 90
       12
 70
   129
 43
0.0
 10
1.701498149549191
 20
17.85883260479538
 10
1.701498149549191
 20
17.90481904126969
 10
1.747484586023492
 20
17.95080547774399
 10
1.793471022497794
 20
17.95080547774399
 10
1.841756780795815
 20
17.95080547774399
 10
1.841756780795815
 20
17.90481904126969
 10
1.887743217270116
 20
17.85883260479538
 10
1.841756780795815
 20
17.81284616832108
 10
1.841756780795815
 20
17.76685973184678
 10
1.793471022497794
 20
17.76685973184678
 10
1.747484586023492
 20
17.76685973184678
 10
1.701498149549191
 20
17.81284616832108
  0
LWPOLYLINE
  5
D7
100
AcDbEntity
  8
USP-GEO
100
AcDbPolyline
 90
        2
 70
   128
 43
0.0
 10
1.701498149549191
 20
17.90481904126969
 10
1.701498149549191
 20
17.85883260479538
  0
LWPOLYLINE
  5
D8
100
AcDbEntity
  8
USP-GEO
100
AcDbPolyline
 90
        2
 70
   128
 43
0.0
 10
1.841756780795815
 20
17.95080547774399
 10
1.793471022497794
 20
17.95080547774399
  0
LWPOLYLINE
  5
D9
100
AcDbEntity
  8
USP-GEO
100
AcDbPolyline
 90
        2
 70
   128
 43
0.0
 10
1.887743217270116
 20
17.85883260479538
 10
1.841756780795815
 20
17.90481904126969
  0
LWPOLYLINE
  5
DA
100
AcDbEntity
  8
USP-GEO
100
AcDbPolyline
 90
        2
 70
   128
 43
0.0
 10
1.747484586023492
 20
19.28671145732248
 10
1.701498149549191
 20
19.28671145732248
  0
LWPOLYLINE
  5
DB
100
AcDbEntity
  8
USP-GEO
100
AcDbPolyline
 90
       12
 70
   129
 43
0.0
 10
1.701498149549191
 20
20.85025029744876
 10
1.701498149549191
 20
20.89623673392306
 10
1.747484586023492
 20
20.94222317039736
 10
1.793471022497794
 20
20.94222317039736
 10
1.841756780795815
 20
20.94222317039736
 10
1.841756780795815
 20
20.89623673392306
 10
1.887743217270116
 20
20.85025029744876
 10
1.841756780795815
 20
20.80426386097446
 10
1.841756780795815
 20
20.75827742450016
 10
1.793471022497794
 20
20.75827742450016
 10
1.747484586023492
 20
20.75827742450016
 10
1.701498149549191
 20
20.80426386097446
  0
LWPOLYLINE
  5
DC
100
AcDbEntity
  8
USP-GEO
100
AcDbPolyline
 90
        4
 70
   128
 43
0.0
 10
1.701498149549191
 20
20.89623673392306
 10
1.747484586023492
 20
20.94222317039736
 10
1.793471022497794
 20
20.94222317039736
 10
1.841756780795815
 20
20.94222317039736
  0
LWPOLYLINE
  5
DD
100
AcDbEntity
  8
USP-GEO
100
AcDbPolyline
 90
        7
 70
   128
 43
0.0
 10
1.701498149549191
 20
20.85025029744876
 10
1.701498149549191
 20
20.89623673392306
 10
1.747484586023492
 20
20.94222317039736
 10
1.793471022497794
 20
20.94222317039736
 10
1.841756780795815
 20
20.94222317039736
 10
1.841756780795815
 20
20.89623673392306
 10
1.887743217270116
 20
20.85025029744876
  0
LWPOLYLINE
  5
DE
100
AcDbEntity
  8
USP-GEO
100
AcDbPolyline
 90
        3
 70
   128
 43
0.0
 10
1.841756780795815
 20
20.80426386097446
 10
1.841756780795815
 20
20.75827742450016
 10
1.793471022497794
 20
20.75827742450016
  0
LWPOLYLINE
  5
DF
100
AcDbEntity
  8
USP-GEO
100
AcDbPolyline
 90
       12
 70
   129
 43
0.0
 10
1.701498149549191
 20
28.30695097175691
 10
1.701498149549191
 20
28.35293740823122
 10
1.701498149549191
 20
28.39892384470552
 10
1.747484586023492
 20
28.44491028117982
 10
1.793471022497794
 20
28.44491028117982
 10
1.841756780795815
 20
28.44491028117982
 10
1.841756780795815
 20
28.39892384470552
 10
1.887743217270116
 20
28.35293740823122
 10
1.841756780795815
 20
28.30695097175691
 10
1.841756780795815
 20
28.26096453528261
 10
1.793471022497794
 20
28.26096453528261
 10
1.747484586023492
 20
28.26096453528261
  0
LWPOLYLINE
  5
E0
100
AcDbEntity
  8
USP-GEO
100
AcDbPolyline
 90
       12
 70
   129
 43
0.0
 10
1.011701602434655
 20
22.46207489587307
 10
1.149660911857562
 20
22.50806133234737
 10
1.287620221280469
 20
22.60003420529597
 10
1.287620221280469
 20
22.73799351471888
 10
1.287620221280469
 20
22.87595282414179
 10
1.149660911857562
 20
22.96792569709039
 10
1.011701602434655
 20
23.0139121335647
 10
0.8737422930117482
 20
22.96792569709039
 10
0.7817694200631422
 20
22.87595282414179
 10
0.7357829835888375
 20
22.73799351471888
 10
0.7817694200631422
 20
22.60003420529597
 10
0.8737422930117482
 20
22.50806133234737
  0
LWPOLYLINE
  5
E1
100
AcDbEntity
  8
USP-GEO
100
AcDbPolyline
 90
       12
 70
   129
 43
0.0
 10
1.011701602434655
 20
26.97334431400214
 10
1.149660911857562
 20
26.97334431400214
 10
1.287620221280469
 20
27.11130362342505
 10
1.287620221280469
 20
27.24926293284796
 10
1.287620221280469
 20
27.38722224227087
 10
1.149660911857562
 20
27.47919511521947
 10
1.011701602434655
 20
27.52518155169378
 10
0.8737422930117482
 20
27.47919511521947
 10
0.7817694200631422
 20
27.38722224227087
 10
0.7357829835888375
 20
27.24926293284796
 10
0.7817694200631422
 20
27.11130362342505
 10
0.8737422930117482
 20
26.97334431400214
  0
LWPOLYLINE
  5
E2
100
AcDbEntity
  8
USP-GEO
100
AcDbPolyline
 90
        3
 70
   128
 43
0.0
 10
1.287620221280469
 20
27.24926293284796
 10
1.287620221280469
 20
27.38722224227087
 10
1.149660911857562
 20
27.47919511521947
  0
LWPOLYLINE
  5
E3
100
AcDbEntity
  8
USP-GEO
100
AcDbPolyline
 90
       12
 70
   129
 43
0.0
 10
0.1839457458972085
 20
21.54234616638701
 10
0.1839457458972085
 20
21.58833260286132
 10
0.1839457458972085
 20
21.63431903933562
 10
0.2299321823715097
 20
21.68030547580992
 10
0.2759186188458145
 20
21.68030547580992
 10
0.3219050553201157
 20
21.68030547580992
 10
0.3678914917944205
 20
21.63431903933562
 10
0.3678914917944205
 20
21.58833260286132
 10
0.3678914917944205
 20
21.54234616638701
 10
0.3219050553201157
 20
21.54234616638701
 10
0.2759186188458145
 20
21.49635972991271
 10
0.2299321823715097
 20
21.54234616638701
  0
LWPOLYLINE
  5
E4
100
AcDbEntity
  8
USP-GEO
100
AcDbPolyline
 90
        5
 70
   128
 43
0.0
 10
0.1839457458972085
 20
21.63431903933562
 10
0.2299321823715097
 20
21.68030547580992
 10
0.2759186188458145
 20
21.68030547580992
 10
0.3219050553201157
 20
21.68030547580992
 10
0.3678914917944205
 20
21.63431903933562
  0
LWPOLYLINE
  5
E5
100
AcDbEntity
  8
USP-GEO
100
AcDbPolyline
 90
        2
 70
   128
 43
0.0
 10
0.2299321823715097
 20
21.54234616638701
 10
0.1839457458972085
 20
21.54234616638701
  0
LWPOLYLINE
  5
E6
100
AcDbEntity
  8
USP-GEO
100
AcDbPolyline
 90
        2
 70
   128
 43
0.0
 10
0.3678914917944205
 20
21.54234616638701
 10
0.3219050553201157
 20
21.54234616638701
  0
LWPOLYLINE
  5
E7
100
AcDbEntity
  8
USP-GEO
100
AcDbPolyline
 90
       12
 70
   129
 43
0.0
 10
0.1839457458972085
 20
23.1058850065133
 10
0.1839457458972085
 20
23.1518714429876
 10
0.2299321823715097
 20
23.1978578794619
 10
0.2759186188458145
 20
23.1978578794619
 10
0.3219050553201157
 20
23.1978578794619
 10
0.3678914917944205
 20
23.1518714429876
 10
0.3678914917944205
 20
23.1058850065133
 10
0.3678914917944205
 20
23.059898570039
 10
0.3219050553201157
 20
23.0139121335647
 10
0.2759186188458145
 20
23.0139121335647
 10
0.2299321823715097
 20
23.0139121335647
 10
0.1839457458972085
 20
23.059898570039
  0
LWPOLYLINE
  5
E8
100
AcDbEntity
  8
USP-GEO
100
AcDbPolyline
 90
        2
 70
   129
 43
0.0
 10
0.2759186188458145
 20
23.1978578794619
 10
0.2299321823715097
 20
23.1978578794619
  0
LWPOLYLINE
  5
E9
100
AcDbEntity
  8
USP-GEO
100
AcDbPolyline
 90
        2
 70
   128
 43
0.0
 10
0.1839457458972085
 20
23.1518714429876
 10
0.1839457458972085
 20
23.1058850065133
  0
LWPOLYLINE
  5
EA
100
AcDbEntity
  8
USP-GEO
100
AcDbPolyline
 90
        3
 70
   128
 43
0.0
 10
0.3678914917944205
 20
23.1518714429876
 10
0.3219050553201157
 20
23.1978578794619
 10
0.2759186188458145
 20
23.1978578794619
  0
LWPOLYLINE
  5
EB
100
AcDbEntity
  8
USP-GEO
100
AcDbPolyline
 90
       12
 70
   129
 43
0.0
 10
0.1839457458972085
 20
24.625736731989
 10
0.1839457458972085
 20
24.6717231684633
 10
0.2299321823715097
 20
24.6717231684633
 10
0.2759186188458145
 20
24.7177096049376
 10
0.3219050553201157
 20
24.6717231684633
 10
0.3678914917944205
 20
24.6717231684633
 10
0.3678914917944205
 20
24.625736731989
 10
0.3678914917944205
 20
24.57975029551469
 10
0.3219050553201157
 20
24.53376385904039
 10
0.2759186188458145
 20
24.53376385904039
 10
0.2299321823715097
 20
24.53376385904039
 10
0.1839457458972085
 20
24.57975029551469
  0
LWPOLYLINE
  5
EC
100
AcDbEntity
  8
USP-GEO
100
AcDbPolyline
 90
        3
 70
   128
 43
0.0
 10
0.2299321823715097
 20
24.6717231684633
 10
0.2759186188458145
 20
24.7177096049376
 10
0.3219050553201157
 20
24.6717231684633
  0
LWPOLYLINE
  5
ED
100
AcDbEntity
  8
USP-GEO
100
AcDbPolyline
 90
        2
 70
   128
 43
0.0
 10
0.2299321823715097
 20
24.53376385904039
 10
0.1839457458972085
 20
24.57975029551469
  0
LWPOLYLINE
  5
EE
100
AcDbEntity
  8
USP-GEO
100
AcDbPolyline
 90
        2
 70
   128
 43
0.0
 10
0.8737422930117482
 20
22.50806133234737
 10
0.7817694200631422
 20
22.60003420529597
  0
LWPOLYLINE
  5
EF
100
AcDbEntity
  8
USP-GEO
100
AcDbPolyline
 90
        2
 70
   128
 43
0.0
 10
1.149660911857562
 20
22.50806133234737
 10
1.011701602434655
 20
22.46207489587307
  0
LWPOLYLINE
  5
F0
100
AcDbEntity
  8
USP-GEO
100
AcDbPolyline
 90
       12
 70
   129
 43
0.0
 10
0.1839457458972085
 20
26.09960202099039
 10
0.1839457458972085
 20
26.1455884574647
 10
0.2299321823715097
 20
26.191574893939
 10
0.2759186188458145
 20
26.191574893939
 10
0.3219050553201157
 20
26.191574893939
 10
0.3678914917944205
 20
26.1455884574647
 10
0.3678914917944205
 20
26.09960202099039
 10
0.3678914917944205
 20
26.05361558451609
 10
0.3219050553201157
 20
26.05361558451609
 10
0.2759186188458145
 20
26.00532982621807
 10
0.2299321823715097
 20
26.05361558451609
 10
0.1839457458972085
 20
26.05361558451609
  0
LWPOLYLINE
  5
F1
100
AcDbEntity
  8
USP-GEO
100
AcDbPolyline
 90
        2
 70
   128
 43
0.0
 10
0.2299321823715097
 20
26.05361558451609
 10
0.1839457458972085
 20
26.05361558451609
  0
LWPOLYLINE
  5
F2
100
AcDbEntity
  8
USP-GEO
100
AcDbPolyline
 90
       12
 70
   129
 43
0.0
 10
0.1839457458972085
 20
27.66314086111668
 10
0.2299321823715097
 20
27.70912729759098
 10
0.2759186188458145
 20
27.70912729759098
 10
0.3219050553201157
 20
27.70912729759098
 10
0.3678914917944205
 20
27.66314086111668
 10
0.3678914917944205
 20
27.61715442464238
 10
0.3678914917944205
 20
27.57116798816808
 10
0.3219050553201157
 20
27.52518155169378
 10
0.2759186188458145
 20
27.52518155169378
 10
0.2299321823715097
 20
27.52518155169378
 10
0.1839457458972085
 20
27.57116798816808
 10
0.1839457458972085
 20
27.61715442464238
  0
LWPOLYLINE
  5
F3
100
AcDbEntity
  8
USP-GEO
100
AcDbPolyline
 90
        2
 70
   128
 43
0.0
 10
0.2759186188458145
 20
27.70912729759098
 10
0.2299321823715097
 20
27.70912729759098
  0
LWPOLYLINE
  5
F4
100
AcDbEntity
  8
USP-GEO
100
AcDbPolyline
 90
        2
 70
   128
 43
0.0
 10
0.1839457458972085
 20
27.66314086111668
 10
0.1839457458972085
 20
27.61715442464238
  0
LWPOLYLINE
  5
F5
100
AcDbEntity
  8
USP-GEO
100
AcDbPolyline
 90
        2
 70
   128
 43
0.0
 10
0.3678914917944205
 20
27.57116798816808
 10
0.3219050553201157
 20
27.52518155169378
  0
LWPOLYLINE
  5
F6
100
AcDbEntity
  8
USP-GEO
100
AcDbPolyline
 90
        2
 70
   129
 43
0.0
 10
0.7817694200631422
 20
27.38722224227087
 10
0.7357829835888375
 20
27.24926293284796
  0
LWPOLYLINE
  5
F7
100
AcDbEntity
  8
USP-GEO
100
AcDbPolyline
 90
        2
 70
   128
 43
0.0
 10
1.011701602434655
 20
27.52518155169378
 10
0.8737422930117482
 20
27.47919511521947
  0
LWPOLYLINE
  5
F8
100
AcDbEntity
  8
USP-GEO
100
AcDbPolyline
 90
        2
 70
   128
 43
0.0
 10
1.287620221280469
 20
22.73799351471888
 10
1.287620221280469
 20
22.87595282414179
  0
LWPOLYLINE
  5
F9
100
AcDbEntity
  8
USP-GEO
100
AcDbPolyline
 90
       11
 70
   129
 43
0.0
 10
1.701498149549191
 20
22.37010202292446
 10
1.701498149549191
 20
22.41608845939876
 10
1.747484586023492
 20
22.41608845939876
 10
1.793471022497794
 20
22.46207489587307
 10
1.841756780795815
 20
22.41608845939876
 10
1.887743217270116
 20
22.37010202292446
 10
1.841756780795815
 20
22.32411558645016
 10
1.841756780795815
 20
22.27812914997585
 10
1.793471022497794
 20
22.27812914997585
 10
1.747484586023492
 20
22.27812914997585
 10
1.701498149549191
 20
22.32411558645016
  0
LWPOLYLINE
  5
FA
100
AcDbEntity
  8
USP-GEO
100
AcDbPolyline
 90
        6
 70
   128
 43
0.0
 10
1.844056102619529
 20
22.41608845939876
 10
1.841756780795815
 20
22.41608845939876
 10
1.793471022497794
 20
22.46207489587307
 10
1.747484586023492
 20
22.41608845939876
 10
1.701498149549191
 20
22.41608845939876
 10
1.701498149549191
 20
22.37010202292446
  0
LWPOLYLINE
  5
FB
100
AcDbEntity
  8
USP-GEO
100
AcDbPolyline
 90
        2
 70
   128
 43
0.0
 10
1.793471022497794
 20
22.46207489587307
 10
1.747484586023492
 20
22.41608845939876
  0
LWPOLYLINE
  5
FC
100
AcDbEntity
  8
USP-GEO
100
AcDbPolyline
 90
        2
 70
   129
 43
0.0
 10
1.844056102619529
 20
22.41608845939876
 10
1.841756780795815
 20
22.41608845939876
  0
LWPOLYLINE
  5
FD
100
AcDbEntity
  8
USP-GEO
100
AcDbPolyline
 90
       11
 70
   129
 43
0.0
 10
1.841756780795815
 20
23.79798087545155
 10
1.887743217270116
 20
23.84396731192585
 10
1.841756780795815
 20
23.88995374840015
 10
1.841756780795815
 20
23.93594018487446
 10
1.793471022497794
 20
23.93594018487446
 10
1.747484586023492
 20
23.93594018487446
 10
1.701498149549191
 20
23.88995374840015
 10
1.701498149549191
 20
23.84396731192585
 10
1.701498149549191
 20
23.79798087545155
 10
1.747484586023492
 20
23.79798087545155
 10
1.793471022497794
 20
23.75199443897725
  0
LWPOLYLINE
  5
FE
100
AcDbEntity
  8
USP-GEO
100
AcDbPolyline
 90
        2
 70
   128
 43
0.0
 10
1.747484586023492
 20
23.79798087545155
 10
1.701498149549191
 20
23.79798087545155
  0
LWPOLYLINE
  5
FF
100
AcDbEntity
  8
USP-GEO
100
AcDbPolyline
 90
        2
 70
   129
 43
0.0
 10
1.844056102619529
 20
23.79798087545155
 10
1.841756780795815
 20
23.79798087545155
  0
LWPOLYLINE
  5
100
100
AcDbEntity
  8
USP-GEO
100
AcDbPolyline
 90
        3
 70
   128
 43
0.0
 10
1.747484586023492
 20
23.93594018487446
 10
1.793471022497794
 20
23.93594018487446
 10
1.841756780795815
 20
23.93594018487446
  0
LWPOLYLINE
  5
101
100
AcDbEntity
  8
USP-GEO
100
AcDbPolyline
 90
       12
 70
   129
 43
0.0
 10
1.701498149549191
 20
25.36151971557784
 10
1.701498149549191
 20
25.40750615205214
 10
1.747484586023492
 20
25.45349258852644
 10
1.793471022497794
 20
25.45349258852644
 10
1.841756780795815
 20
25.45349258852644
 10
1.841756780795815
 20
25.40750615205214
 10
1.887743217270116
 20
25.36151971557784
 10
1.841756780795815
 20
25.31553327910354
 10
1.841756780795815
 20
25.26954684262923
 10
1.793471022497794
 20
25.26954684262923
 10
1.747484586023492
 20
25.26954684262923
 10
1.701498149549191
 20
25.31553327910354
  0
LWPOLYLINE
  5
102
100
AcDbEntity
  8
USP-GEO
100
AcDbPolyline
 90
        2
 70
   128
 43
0.0
 10
1.747484586023492
 20
25.45349258852644
 10
1.701498149549191
 20
25.40750615205214
  0
LWPOLYLINE
  5
103
100
AcDbEntity
  8
USP-GEO
100
AcDbPolyline
 90
        3
 70
   128
 43
0.0
 10
1.841756780795815
 20
25.31553327910354
 10
1.841756780795815
 20
25.26954684262923
 10
1.793471022497794
 20
25.26954684262923
  0
LWPOLYLINE
  5
104
100
AcDbEntity
  8
USP-GEO
100
AcDbPolyline
 90
       11
 70
   129
 43
0.0
 10
1.701498149549191
 20
26.88137144105354
 10
1.701498149549191
 20
26.92735787752784
 10
1.747484586023492
 20
26.92735787752784
 10
1.793471022497794
 20
26.92735787752784
 10
1.841756780795815
 20
26.92735787752784
 10
1.887743217270116
 20
26.88137144105354
 10
1.841756780795815
 20
26.83538500457923
 10
1.841756780795815
 20
26.78939856810493
 10
1.793471022497794
 20
26.78939856810493
 10
1.747484586023492
 20
26.78939856810493
 10
1.701498149549191
 20
26.83538500457923
  0
LWPOLYLINE
  5
105
100
AcDbEntity
  8
USP-GEO
100
AcDbPolyline
 90
        2
 70
   128
 43
0.0
 10
1.701498149549191
 20
26.92735787752784
 10
1.701498149549191
 20
26.88137144105354
  0
LWPOLYLINE
  5
106
100
AcDbEntity
  8
USP-GEO
100
AcDbPolyline
 90
        2
 70
   128
 43
0.0
 10
1.793471022497794
 20
26.92735787752784
 10
1.747484586023492
 20
26.92735787752784
  0
LWPOLYLINE
  5
107
100
AcDbEntity
  8
USP-GEO
100
AcDbPolyline
 90
        2
 70
   129
 43
0.0
 10
1.844056102619529
 20
26.92735787752784
 10
1.841756780795815
 20
26.92735787752784
  0
LWPOLYLINE
  5
108
100
AcDbEntity
  8
USP-GEO
100
AcDbPolyline
 90
        2
 70
   128
 43
0.0
 10
1.747484586023492
 20
28.26096453528261
 10
1.701498149549191
 20
28.30695097175691
  0
LWPOLYLINE
  5
109
100
AcDbEntity
  8
USP-GEO
100
AcDbPolyline
 90
       12
 70
   129
 43
0.0
 10
0.7817694200631422
 20
31.89849166039994
 10
0.7357829835888375
 20
31.76053235097703
 10
0.7817694200631422
 20
31.57658660507982
 10
0.8737422930117482
 20
31.48461373213122
 10
1.011701602434655
 20
31.43862729565692
 10
1.149660911857562
 20
31.48461373213122
 10
1.287620221280469
 20
31.57658660507982
 10
1.287620221280469
 20
31.76053235097703
 10
1.287620221280469
 20
31.89849166039994
 10
1.149660911857562
 20
31.99046453334855
 10
1.011701602434655
 20
32.03645096982285
 10
0.8737422930117482
 20
31.99046453334855
  0
LWPOLYLINE
  5
10A
100
AcDbEntity
  8
USP-GEO
100
AcDbPolyline
 90
        2
 70
   128
 43
0.0
 10
1.287620221280469
 20
31.57658660507982
 10
1.149660911857562
 20
31.48461373213122
  0
LWPOLYLINE
  5
10B
100
AcDbEntity
  8
USP-GEO
100
AcDbPolyline
 90
       12
 70
   129
 43
0.0
 10
0.1839457458972085
 20
29.13700615011808
 10
0.2299321823715097
 20
29.18299258659238
 10
0.2759186188458145
 20
29.18299258659238
 10
0.3219050553201157
 20
29.18299258659238
 10
0.3678914917944205
 20
29.13700615011808
 10
0.3678914917944205
 20
29.09101971364377
 10
0.3678914917944205
 20
29.04503327716947
 10
0.3219050553201157
 20
29.04503327716947
 10
0.2759186188458145
 20
29.04503327716947
 10
0.2299321823715097
 20
29.04503327716947
 10
0.1839457458972085
 20
29.04503327716947
 10
0.1839457458972085
 20
29.09101971364377
  0
LWPOLYLINE
  5
10C
100
AcDbEntity
  8
USP-GEO
100
AcDbPolyline
 90
        2
 70
   129
 43
0.0
 10
0.1839457458972085
 20
29.13700615011808
 10
0.1839457458972085
 20
29.09101971364377
  0
LWPOLYLINE
  5
10D
100
AcDbEntity
  8
USP-GEO
100
AcDbPolyline
 90
        2
 70
   128
 43
0.0
 10
0.1839457458972085
 20
29.13700615011808
 10
0.2299321823715097
 20
29.18299258659238
  0
LWPOLYLINE
  5
10E
100
AcDbEntity
  8
USP-GEO
100
AcDbPolyline
 90
        2
 70
   128
 43
0.0
 10
0.3219050553201157
 20
29.18299258659238
 10
0.3678914917944205
 20
29.13700615011808
  0
LWPOLYLINE
  5
10F
100
AcDbEntity
  8
USP-GEO
100
AcDbPolyline
 90
        2
 70
   129
 43
0.0
 10
0.3678914917944205
 20
29.13700615011808
 10
0.3678914917944205
 20
29.09101971364377
  0
LWPOLYLINE
  5
110
100
AcDbEntity
  8
USP-GEO
100
AcDbPolyline
 90
       12
 70
   129
 43
0.0
 10
0.1839457458972085
 20
30.60857211729576
 10
0.1839457458972085
 20
30.65455855377006
 10
0.2299321823715097
 20
30.70054499024436
 10
0.2759186188458145
 20
30.70054499024436
 10
0.3219050553201157
 20
30.70054499024436
 10
0.3678914917944205
 20
30.65455855377006
 10
0.3678914917944205
 20
30.60857211729576
 10
0.3678914917944205
 20
30.56258568082145
 10
0.3219050553201157
 20
30.51659924434715
 10
0.2759186188458145
 20
30.51659924434715
 10
0.2299321823715097
 20
30.51659924434715
 10
0.1839457458972085
 20
30.56258568082145
  0
LWPOLYLINE
  5
111
100
AcDbEntity
  8
USP-GEO
100
AcDbPolyline
 90
        2
 70
   128
 43
0.0
 10
0.2299321823715097
 20
30.70054499024436
 10
0.1839457458972085
 20
30.65455855377006
  0
LWPOLYLINE
  5
112
100
AcDbEntity
  8
USP-GEO
100
AcDbPolyline
 90
        2
 70
   128
 43
0.0
 10
0.3678914917944205
 20
30.60857211729576
 10
0.3678914917944205
 20
30.56258568082145
  0
LWPOLYLINE
  5
113
100
AcDbEntity
  8
USP-GEO
100
AcDbPolyline
 90
        2
 70
   128
 43
0.0
 10
0.7817694200631422
 20
31.89849166039994
 10
0.7357829835888375
 20
31.76053235097703
  0
LWPOLYLINE
  5
114
100
AcDbEntity
  8
USP-GEO
100
AcDbPolyline
 90
        2
 70
   128
 43
0.0
 10
1.011701602434655
 20
31.43862729565692
 10
0.8737422930117482
 20
31.48461373213122
  0
LWPOLYLINE
  5
115
100
AcDbEntity
  8
USP-GEO
100
AcDbPolyline
 90
        2
 70
   128
 43
0.0
 10
1.011701602434655
 20
32.03645096982285
 10
0.8737422930117482
 20
31.99046453334855
  0
LWPOLYLINE
  5
116
100
AcDbEntity
  8
USP-GEO
100
AcDbPolyline
 90
        3
 70
   128
 43
0.0
 10
1.701498149549191
 20
28.35293740823122
 10
1.701498149549191
 20
28.39892384470552
 10
1.747484586023492
 20
28.44491028117982
  0
LWPOLYLINE
  5
117
100
AcDbEntity
  8
USP-GEO
100
AcDbPolyline
 90
        2
 70
   129
 43
0.0
 10
1.841756780795815
 20
28.39892384470552
 10
1.841756780795815
 20
28.44491028117982
  0
LWPOLYLINE
  5
118
100
AcDbEntity
  8
USP-GEO
100
AcDbPolyline
 90
        2
 70
   128
 43
0.0
 10
1.841756780795815
 20
28.39892384470552
 10
1.887743217270116
 20
28.35293740823122
  0
LWPOLYLINE
  5
119
100
AcDbEntity
  8
USP-GEO
100
AcDbPolyline
 90
       13
 70
   128
 43
0.0
 10
1.841756780795815
 20
29.91877557018122
 10
1.887743217270116
 20
29.87278913370691
 10
1.841756780795815
 20
29.82680269723261
 10
1.841756780795815
 20
29.78081626075831
 10
1.793471022497794
 20
29.78081626075831
 10
1.747484586023492
 20
29.78081626075831
 10
1.701498149549191
 20
29.82680269723261
 10
1.701498149549191
 20
29.87278913370691
 10
1.701498149549191
 20
29.91877557018122
 10
1.747484586023492
 20
29.91877557018122
 10
1.793471022497794
 20
29.96476200665552
 10
1.841756780795815
 20
29.91877557018122
 10
1.844056102619529
 20
29.91877557018122
  0
LWPOLYLINE
  5
11A
100
AcDbEntity
  8
USP-GEO
100
AcDbPolyline
 90
        2
 70
   128
 43
0.0
 10
1.747484586023492
 20
29.78081626075831
 10
1.701498149549191
 20
29.82680269723261
  0
LWPOLYLINE
  5
11B
100
AcDbEntity
  8
USP-GEO
100
AcDbPolyline
 90
        2
 70
   128
 43
0.0
 10
1.841756780795815
 20
29.82680269723261
 10
1.841756780795815
 20
29.78081626075831
  0
LWPOLYLINE
  5
11C
100
AcDbEntity
  8
USP-GEO
100
AcDbPolyline
 90
       14
 70
   128
 43
0.0
 10
1.844056102619529
 20
31.30066798623401
 10
1.841756780795815
 20
31.30066798623401
 10
1.793471022497794
 20
31.25468154975971
 10
1.747484586023492
 20
31.30066798623401
 10
1.701498149549191
 20
31.30066798623401
 10
1.701498149549191
 20
31.34665442270831
 10
1.701498149549191
 20
31.39264085918262
 10
1.747484586023492
 20
31.43862729565692
 10
1.793471022497794
 20
31.43862729565692
 10
1.841756780795815
 20
31.43862729565692
 10
1.841756780795815
 20
31.39264085918262
 10
1.887743217270116
 20
31.34665442270831
 10
1.841756780795815
 20
31.30066798623401
 10
1.793471022497794
 20
31.25468154975971
  0
LWPOLYLINE
  5
11D
100
AcDbEntity
  8
USP-GEO
100
AcDbPolyline
 90
        2
 70
   128
 43
0.0
 10
1.747484586023492
 20
31.30066798623401
 10
1.701498149549191
 20
31.30066798623401
  0
LWPOLYLINE
  5
11E
100
AcDbEntity
  8
USP-GEO
100
AcDbPolyline
 90
        2
 70
   128
 43
0.0
 10
1.887743217270116
 20
31.34665442270831
 10
1.841756780795815
 20
31.39264085918262
  0
ENDBLK
  5
120
100
AcDbEntity
  8
0
100
AcDbBlockEnd
  0
BLOCK
  5
20C
100
AcDbEntity
  8
0
100
AcDbBlockBegin
  2
HPAHD22_S
 70
     0
 10
0.0
 20
0.0
 30
0.0
  3
HPAHD22_S
  1

  0
LWPOLYLINE
  5
123
100
AcDbEntity
  8
USP-GEO
100
AcDbPolyline
 90
       12
 70
   128
 43
0.0
 10
1.933729653744421
 20
0.4138779282687253
 10
2.715499073807563
 20
2.255634709064537
 10
5.385011711140826
 20
8.468402276742814
 10
5.476984584089429
 20
33.23209831815471
 10
5.568957457038031
 20
33.23209831815471
 10
5.476984584089429
 20
8.514388713217115
 10
5.476984584089429
 20
8.422415840268506
 10
5.476984584089429
 20
8.514388713217115
 10
5.568957457038031
 20
33.23209831815471
 10
5.476984584089429
 20
33.23209831815471
 10
5.385011711140826
 20
8.468402276742814
 10
2.715499073807563
 20
2.255634709064537
  0
LWPOLYLINE
  5
124
100
AcDbEntity
  8
USP-GEO
100
AcDbPolyline
 90
        9
 70
   128
 43
0.0
 10
0.9220280513097662
 20
0.5978236741659373
 10
0.8300551783611567
 20
0.4598643647430265
 10
1.657811034898607
 20
0.1379593094229108
 10
1.88774321727012
 20
0.0919728729486096
 10
2.025702526693024
 20
0.1379593094229108
 10
2.163661836115934
 20
0.3219050553201228
 10
2.577539764384653
 20
1.241633784806168
 10
2.623526200858961
 20
1.195647348331867
 10
2.625825522682674
 20
1.195647348331867
  0
LWPOLYLINE
  5
125
100
AcDbEntity
  8
USP-GEO
100
AcDbPolyline
 90
        8
 70
   128
 43
0.0
 10
1.66011035672232
 20
0.0459864364743012
 10
1.657811034898607
 20
0.0459864364743012
 10
1.611824598424306
 20
0.0
 10
1.88774321727012
 20
0.0
 10
2.117675399641633
 20
0.0919728729486096
 10
2.255634709064537
 20
0.2759186188458145
 10
2.209648272590236
 20
0.2759186188458145
 10
2.163661836115934
 20
0.3219050553201228
  0
LWPOLYLINE
  5
126
100
AcDbEntity
  8
USP-GEO
100
AcDbPolyline
 90
        9
 70
   128
 43
0.0
 10
2.117675399641633
 20
0.0919728729486096
 10
2.255634709064537
 20
0.2759186188458145
 10
2.669512637333262
 20
1.195647348331867
 10
2.715499073807563
 20
1.287620221280469
 10
2.761485510281865
 20
1.379593094229079
 10
2.761485510281865
 20
1.42557953070338
 10
2.761485510281865
 20
1.471565967177681
 10
2.761485510281865
 20
1.517552403651983
 10
2.715499073807563
 20
1.563538840126284
  0
LWPOLYLINE
  5
127
100
AcDbEntity
  8
USP-GEO
100
AcDbPolyline
 90
        4
 70
   128
 43
0.0
 10
2.807471946756166
 20
2.209648272590236
 10
2.715499073807563
 20
2.255634709064537
 10
1.933729653744421
 20
0.4138779282687253
 10
2.025702526693024
 20
0.367891491794424
  0
LWPOLYLINE
  5
128
100
AcDbEntity
  8
USP-GEO
100
AcDbPolyline
 90
        4
 70
   129
 43
0.0
 10
2.025702526693024
 20
0.367891491794424
 10
2.807471946756166
 20
2.209648272590236
 10
5.476984584089429
 20
8.422415840268506
 10
2.807471946756166
 20
2.209648272590236
  0
TEXT
  5
129
100
AcDbEntity
  8
USP-TXT
100
AcDbText
 10
-1.842202260680381
 20
-1.89037059780043
 30
0.0
 40
0.40625
  1
HPAHD22 - SIDE VIEW
 72
     1
 11
1.949464405986287
 21
-1.89037059780043
 31
0.0
100
AcDbText
  0
LWPOLYLINE
  5
12A
100
AcDbEntity
  8
USP-GEO
100
AcDbPolyline
 90
        3
 70
   128
 43
0.0
 10
0.0
 20
1.011701602434655
 10
1.749783907847209
 20
0.2759186188458145
 10
1.752083229670923
 20
0.2759186188458145
  0
LWPOLYLINE
  5
12B
100
AcDbEntity
  8
USP-GEO
100
AcDbPolyline
 90
        2
 70
   128
 43
0.0
 10
1.79577034432151
 20
0.367891491794424
 10
0.0459864364743012
 20
1.103674475383265
  0
LWPOLYLINE
  5
12C
100
AcDbEntity
  8
USP-GEO
100
AcDbPolyline
 90
        4
 70
   129
 43
0.0
 10
0.6001229959896506
 20
0.8737422930117517
 10
0.7380823054125543
 20
0.8277558565374505
 10
0.8300551783611567
 20
0.7817694200631422
 10
0.7380823054125543
 20
0.8277558565374505
  0
LWPOLYLINE
  5
12D
100
AcDbEntity
  8
USP-GEO
100
AcDbPolyline
 90
        8
 70
   128
 43
0.0
 10
0.6484087542876651
 20
0.735782983588841
 10
0.6461094324639518
 20
0.735782983588841
 10
0.6001229959896506
 20
0.735782983588841
 10
0.6461094324639518
 20
0.735782983588841
 10
0.7380823054125543
 20
0.6897965471145398
 10
0.8300551783611567
 20
0.6438101106402386
 10
0.7380823054125543
 20
0.6897965471145398
 10
0.6461094324639518
 20
0.735782983588841
  0
LWPOLYLINE
  5
12E
100
AcDbEntity
  8
USP-GEO
100
AcDbPolyline
 90
        8
 70
   128
 43
0.0
 10
0.5081501230410411
 20
0.5978236741659373
 10
0.5081501230410411
 20
0.551837237691629
 10
0.5541365595153423
 20
0.5058508012173278
 10
0.6001229959896506
 20
0.4598643647430265
 10
0.6920958689382531
 20
0.4138779282687253
 10
0.8300551783611567
 20
0.367891491794424
 10
1.611824598424306
 20
0.0
 10
0.8300551783611567
 20
0.367891491794424
  0
LWPOLYLINE
  5
12F
100
AcDbEntity
  8
USP-GEO
100
AcDbPolyline
 90
       10
 70
   128
 43
0.0
 10
0.6001229959896506
 20
0.7817694200631422
 10
0.5081501230410411
 20
0.5978236741659373
 10
0.5541365595153423
 20
0.5978236741659373
 10
0.6920958689382531
 20
0.551837237691629
 10
0.8300551783611567
 20
0.4598643647430265
 10
0.8300551783611567
 20
0.4138779282687253
 10
0.8300551783611567
 20
0.367891491794424
 10
0.6920958689382531
 20
0.4138779282687253
 10
0.6001229959896506
 20
0.4598643647430265
 10
0.6024223178133639
 20
0.4598643647430265
  0
LWPOLYLINE
  5
130
100
AcDbEntity
  8
USP-GEO
100
AcDbPolyline
 90
       10
 70
   128
 43
0.0
 10
2.025702526693024
 20
0.367891491794424
 10
1.933729653744421
 20
0.4138779282687253
 10
1.88774321727012
 20
0.367891491794424
 10
1.841756780795812
 20
0.367891491794424
 10
1.79577034432151
 20
0.367891491794424
 10
0.0459864364743012
 20
1.103674475383265
 10
0.0
 20
1.011701602434655
 10
1.749783907847209
 20
0.2759186188458145
 10
1.79577034432151
 20
0.2759186188458145
 10
1.79577034432151
 20
0.2299321823715132
  0
LWPOLYLINE
  5
131
100
AcDbEntity
  8
USP-GEO
100
AcDbPolyline
 90
        2
 70
   129
 43
0.0
 10
0.0482857582980145
 20
1.103674475383265
 10
0.0459864364743012
 20
1.103674475383265
  0
LWPOLYLINE
  5
132
100
AcDbEntity
  8
USP-GEO
100
AcDbPolyline
 90
        2
 70
   129
 43
0.0
 10
0.0022993218237133
 20
1.011701602434655
 10
0.0
 20
1.011701602434655
  0
LWPOLYLINE
  5
133
100
AcDbEntity
  8
USP-GEO
100
AcDbPolyline
 90
        2
 70
   128
 43
0.0
 10
0.0459864364743012
 20
1.103674475383265
 10
0.0482857582980145
 20
1.103674475383265
  0
LWPOLYLINE
  5
134
100
AcDbEntity
  8
USP-GEO
100
AcDbPolyline
 90
        2
 70
   128
 43
0.0
 10
0.0
 20
1.011701602434655
 10
0.0022993218237133
 20
1.011701602434655
  0
LWPOLYLINE
  5
135
100
AcDbEntity
  8
USP-GEO
100
AcDbPolyline
 90
        2
 70
   129
 43
0.0
 10
0.6001229959896506
 20
0.8737422930117517
 10
0.5541365595153423
 20
0.9197287294860529
  0
LWPOLYLINE
  5
136
100
AcDbEntity
  8
USP-GEO
100
AcDbPolyline
 90
        2
 70
   128
 43
0.0
 10
0.5541365595153423
 20
0.9197287294860529
 10
0.5541365595153423
 20
0.8737422930117517
  0
LWPOLYLINE
  5
137
100
AcDbEntity
  8
USP-GEO
100
AcDbPolyline
 90
        7
 70
   128
 43
0.0
 10
2.025702526693024
 20
0.367891491794424
 10
1.979716090218722
 20
0.3219050553201228
 10
1.933729653744421
 20
0.2759186188458145
 10
1.841756780795812
 20
0.2759186188458145
 10
1.749783907847209
 20
0.2759186188458145
 10
1.79577034432151
 20
0.2759186188458145
 10
1.798069666145231
 20
0.2759186188458145
  0
LWPOLYLINE
  5
138
100
AcDbEntity
  8
USP-GEO
100
AcDbPolyline
 90
        2
 70
   128
 43
0.0
 10
1.657811034898607
 20
0.0459864364743012
 10
1.657811034898607
 20
0.1379593094229108
  0
LWPOLYLINE
  5
139
100
AcDbEntity
  8
USP-GEO
100
AcDbPolyline
 90
        2
 70
   129
 43
0.0
 10
1.798069666145231
 20
0.367891491794424
 10
1.79577034432151
 20
0.367891491794424
  0
LWPOLYLINE
  5
13A
100
AcDbEntity
  8
USP-GEO
100
AcDbPolyline
 90
        5
 70
   129
 43
0.0
 10
1.841756780795812
 20
0.2759186188458145
 10
1.933729653744421
 20
0.2759186188458145
 10
1.979716090218722
 20
0.3219050553201228
 10
2.025702526693024
 20
0.367891491794424
 10
1.933729653744421
 20
0.2759186188458145
  0
LWPOLYLINE
  5
13B
100
AcDbEntity
  8
USP-GEO
100
AcDbPolyline
 90
        2
 70
   128
 43
0.0
 10
2.025702526693024
 20
0.367891491794424
 10
1.933729653744421
 20
0.4138779282687253
  0
LWPOLYLINE
  5
13C
100
AcDbEntity
  8
USP-GEO
100
AcDbPolyline
 90
        2
 70
   128
 43
0.0
 10
1.933729653744421
 20
0.4138779282687253
 10
1.88774321727012
 20
0.4138779282687253
  0
LWPOLYLINE
  5
13D
100
AcDbEntity
  8
USP-GEO
100
AcDbPolyline
 90
        2
 70
   129
 43
0.0
 10
1.936028975568135
 20
0.4138779282687253
 10
1.933729653744421
 20
0.4138779282687253
  0
LWPOLYLINE
  5
13E
100
AcDbEntity
  8
USP-GEO
100
AcDbPolyline
 90
        2
 70
   128
 43
0.0
 10
1.933729653744421
 20
0.2759186188458145
 10
1.979716090218722
 20
0.3219050553201228
  0
LWPOLYLINE
  5
13F
100
AcDbEntity
  8
USP-GEO
100
AcDbPolyline
 90
        2
 70
   128
 43
0.0
 10
2.025702526693024
 20
0.367891491794424
 10
2.028001848516737
 20
0.367891491794424
  0
LWPOLYLINE
  5
140
100
AcDbEntity
  8
USP-GEO
100
AcDbPolyline
 90
        6
 70
   128
 43
0.0
 10
2.393594018487448
 20
1.287620221280469
 10
2.577539764384653
 20
1.241633784806168
 10
2.623526200858961
 20
1.379593094229079
 10
2.669512637333262
 20
1.517552403651983
 10
2.715499073807563
 20
1.563538840126284
 10
2.531553327910351
 20
1.609525276600592
  0
LWPOLYLINE
  5
141
100
AcDbEntity
  8
USP-GEO
100
AcDbPolyline
 90
        4
 70
   128
 43
0.0
 10
2.669512637333262
 20
1.195647348331867
 10
2.715499073807563
 20
1.287620221280469
 10
2.761485510281865
 20
1.379593094229079
 10
2.761485510281865
 20
1.42557953070338
  0
LWPOLYLINE
  5
142
100
AcDbEntity
  8
USP-GEO
100
AcDbPolyline
 90
        4
 70
   128
 43
0.0
 10
2.25793403088825
 20
0.2759186188458145
 10
2.255634709064537
 20
0.2759186188458145
 10
2.669512637333262
 20
1.195647348331867
 10
2.623526200858961
 20
1.195647348331867
  0
LWPOLYLINE
  5
143
100
AcDbEntity
  8
USP-GEO
100
AcDbPolyline
 90
        6
 70
   128
 43
0.0
 10
2.487866213259763
 20
1.749783907847209
 10
2.48556689143605
 20
1.749783907847209
 10
2.48556689143605
 20
1.703797471372908
 10
2.439580454961749
 20
1.657811034898607
 10
2.48556689143605
 20
1.703797471372908
 10
2.48556689143605
 20
1.749783907847209
  0
LWPOLYLINE
  5
144
100
AcDbEntity
  8
USP-GEO
100
AcDbPolyline
 90
        2
 70
   128
 43
0.0
 10
5.385011711140826
 20
8.928266641485834
 10
5.385011711140826
 20
8.976552399783855
  0
LWPOLYLINE
  5
145
100
AcDbEntity
  8
USP-GEO
100
AcDbPolyline
 90
        2
 70
   129
 43
0.0
 10
5.387311032964539
 20
8.976552399783855
 10
5.385011711140826
 20
8.976552399783855
  0
LWPOLYLINE
  5
146
100
AcDbEntity
  8
USP-GEO
100
AcDbPolyline
 90
        2
 70
   128
 43
0.0
 10
5.385011711140826
 20
8.976552399783855
 10
5.385011711140826
 20
8.928266641485834
  0
LWPOLYLINE
  5
147
100
AcDbEntity
  8
USP-GEO
100
AcDbPolyline
 90
        2
 70
   129
 43
0.0
 10
5.387311032964539
 20
8.79030733206293
 10
5.385011711140826
 20
8.79030733206293
  0
LWPOLYLINE
  5
148
100
AcDbEntity
  8
USP-GEO
100
AcDbPolyline
 90
        6
 70
   129
 43
0.0
 10
5.385011711140826
 20
8.928266641485834
 10
5.385011711140826
 20
8.882280205011532
 10
5.385011711140826
 20
8.836293768537231
 10
5.385011711140826
 20
8.79030733206293
 10
5.385011711140826
 20
8.836293768537231
 10
5.385011711140826
 20
8.882280205011532
  0
LWPOLYLINE
  5
149
100
AcDbEntity
  8
USP-GEO
100
AcDbPolyline
 90
        6
 70
   128
 43
0.0
 10
5.385011711140826
 20
11.78402434654002
 10
5.385011711140826
 20
11.83001078301432
 10
5.385011711140826
 20
11.87599721948862
 10
5.385011711140826
 20
11.92198365596293
 10
5.385011711140826
 20
11.96797009243723
 10
5.387311032964539
 20
11.96797009243723
  0
LWPOLYLINE
  5
14A
100
AcDbEntity
  8
USP-GEO
100
AcDbPolyline
 90
        2
 70
   129
 43
0.0
 10
5.385011711140826
 20
11.4621192912199
 10
5.385011711140826
 20
11.4161328547456
  0
LWPOLYLINE
  5
14B
100
AcDbEntity
  8
USP-GEO
100
AcDbPolyline
 90
        2
 70
   129
 43
0.0
 10
5.387311032964539
 20
11.4161328547456
 10
5.385011711140826
 20
11.4161328547456
  0
LWPOLYLINE
  5
14C
100
AcDbEntity
  8
USP-GEO
100
AcDbPolyline
 90
        3
 70
   128
 43
0.0
 10
5.476984584089429
 20
11.87599721948862
 10
5.476984584089429
 20
11.83001078301432
 10
5.476984584089429
 20
11.78402434654002
  0
LWPOLYLINE
  5
14D
100
AcDbEntity
  8
USP-GEO
100
AcDbPolyline
 90
        2
 70
   129
 43
0.0
 10
5.479283905913142
 20
11.78402434654002
 10
5.476984584089429
 20
11.78402434654002
  0
LWPOLYLINE
  5
14E
100
AcDbEntity
  8
USP-GEO
100
AcDbPolyline
 90
        4
 70
   128
 43
0.0
 10
5.476984584089429
 20
11.87599721948862
 10
5.476984584089429
 20
11.83001078301432
 10
5.476984584089429
 20
11.78402434654002
 10
5.479283905913142
 20
11.78402434654002
  0
LWPOLYLINE
  5
14F
100
AcDbEntity
  8
USP-GEO
100
AcDbPolyline
 90
        2
 70
   129
 43
0.0
 10
5.387311032964539
 20
11.78402434654002
 10
5.385011711140826
 20
11.78402434654002
  0
LWPOLYLINE
  5
150
100
AcDbEntity
  8
USP-GEO
100
AcDbPolyline
 90
        2
 70
   128
 43
0.0
 10
5.385011711140826
 20
11.78402434654002
 10
5.387311032964539
 20
11.78402434654002
  0
LWPOLYLINE
  5
151
100
AcDbEntity
  8
USP-GEO
100
AcDbPolyline
 90
        5
 70
   128
 43
0.0
 10
5.385011711140826
 20
11.96797009243723
 10
5.385011711140826
 20
11.92198365596293
 10
5.385011711140826
 20
11.87599721948862
 10
5.385011711140826
 20
11.83001078301432
 10
5.385011711140826
 20
11.78402434654002
  0
LWPOLYLINE
  5
152
100
AcDbEntity
  8
USP-GEO
100
AcDbPolyline
 90
        2
 70
   129
 43
0.0
 10
5.479283905913142
 20
11.87599721948862
 10
5.476984584089429
 20
11.87599721948862
  0
LWPOLYLINE
  5
153
100
AcDbEntity
  8
USP-GEO
100
AcDbPolyline
 90
        2
 70
   129
 43
0.0
 10
5.387311032964539
 20
11.96797009243723
 10
5.385011711140826
 20
11.96797009243723
  0
LWPOLYLINE
  5
154
100
AcDbEntity
  8
USP-GEO
100
AcDbPolyline
 90
        3
 70
   128
 43
0.0
 10
5.476984584089429
 20
13.99367261913025
 10
5.52297102056373
 20
13.99367261913025
 10
5.52297102056373
 20
14.03965905560456
  0
LWPOLYLINE
  5
155
100
AcDbEntity
  8
USP-GEO
100
AcDbPolyline
 90
        6
 70
   128
 43
0.0
 10
5.387311032964539
 20
13.99367261913025
 10
5.385011711140826
 20
13.99367261913025
 10
5.385011711140826
 20
14.03965905560456
 10
5.385011711140826
 20
14.08564549207886
 10
5.385011711140826
 20
14.13163192855316
 10
5.385011711140826
 20
14.17761836502747
  0
LWPOLYLINE
  5
156
100
AcDbEntity
  8
USP-GEO
100
AcDbPolyline
 90
        2
 70
   129
 43
0.0
 10
5.387311032964539
 20
14.03965905560456
 10
5.385011711140826
 20
14.03965905560456
  0
LWPOLYLINE
  5
157
100
AcDbEntity
  8
USP-GEO
100
AcDbPolyline
 90
        5
 70
   128
 43
0.0
 10
5.385011711140826
 20
14.17761836502747
 10
5.385011711140826
 20
14.13163192855316
 10
5.385011711140826
 20
14.08564549207886
 10
5.385011711140826
 20
14.03965905560456
 10
5.385011711140826
 20
13.99367261913025
  0
LWPOLYLINE
  5
158
100
AcDbEntity
  8
USP-GEO
100
AcDbPolyline
 90
        2
 70
   129
 43
0.0
 10
5.387311032964539
 20
14.17761836502747
 10
5.385011711140826
 20
14.17761836502747
  0
LWPOLYLINE
  5
159
100
AcDbEntity
  8
USP-GEO
100
AcDbPolyline
 90
        2
 70
   128
 43
0.0
 10
5.385011711140826
 20
14.17761836502747
 10
5.387311032964539
 20
14.17761836502747
  0
LWPOLYLINE
  5
15A
100
AcDbEntity
  8
USP-GEO
100
AcDbPolyline
 90
        2
 70
   128
 43
0.0
 10
5.385011711140826
 20
14.95938778509061
 10
5.387311032964539
 20
14.95938778509061
  0
LWPOLYLINE
  5
15B
100
AcDbEntity
  8
USP-GEO
100
AcDbPolyline
 90
        2
 70
   129
 43
0.0
 10
5.385011711140826
 20
14.95938778509061
 10
5.385011711140826
 20
14.9134013486163
  0
LWPOLYLINE
  5
15C
100
AcDbEntity
  8
USP-GEO
100
AcDbPolyline
 90
        2
 70
   128
 43
0.0
 10
5.52297102056373
 20
14.03965905560456
 10
5.52297102056373
 20
14.08564549207886
  0
LWPOLYLINE
  5
15D
100
AcDbEntity
  8
USP-GEO
100
AcDbPolyline
 90
        2
 70
   129
 43
0.0
 10
5.525270342387443
 20
14.03965905560456
 10
5.52297102056373
 20
14.03965905560456
  0
LWPOLYLINE
  5
15E
100
AcDbEntity
  8
USP-GEO
100
AcDbPolyline
 90
        2
 70
   129
 43
0.0
 10
5.52297102056373
 20
14.13163192855316
 10
5.52297102056373
 20
14.08564549207886
  0
LWPOLYLINE
  5
15F
100
AcDbEntity
  8
USP-GEO
100
AcDbPolyline
 90
        3
 70
   128
 43
0.0
 10
5.52297102056373
 20
14.08564549207886
 10
5.52297102056373
 20
14.03965905560456
 10
5.52297102056373
 20
13.99367261913025
  0
LWPOLYLINE
  5
160
100
AcDbEntity
  8
USP-GEO
100
AcDbPolyline
 90
        5
 70
   128
 43
0.0
 10
5.52297102056373
 20
15.51122502278224
 10
5.52297102056373
 20
15.55721145925654
 10
5.52297102056373
 20
15.60319789573084
 10
5.52297102056373
 20
15.64918433220515
 10
5.52297102056373
 20
15.69517076867945
  0
LWPOLYLINE
  5
161
100
AcDbEntity
  8
USP-GEO
100
AcDbPolyline
 90
        2
 70
   129
 43
0.0
 10
5.525270342387443
 20
15.51122502278224
 10
5.52297102056373
 20
15.51122502278224
  0
LWPOLYLINE
  5
162
100
AcDbEntity
  8
USP-GEO
100
AcDbPolyline
 90
        2
 70
   129
 43
0.0
 10
5.525270342387443
 20
15.69517076867945
 10
5.52297102056373
 20
15.69517076867945
  0
LWPOLYLINE
  5
163
100
AcDbEntity
  8
USP-GEO
100
AcDbPolyline
 90
        7
 70
   128
 43
0.0
 10
5.525270342387443
 20
15.69517076867945
 10
5.52297102056373
 20
15.69517076867945
 10
5.52297102056373
 20
15.64918433220515
 10
5.52297102056373
 20
15.60319789573084
 10
5.52297102056373
 20
15.55721145925654
 10
5.52297102056373
 20
15.51122502278224
 10
5.525270342387443
 20
15.51122502278224
  0
LWPOLYLINE
  5
164
100
AcDbEntity
  8
USP-GEO
100
AcDbPolyline
 90
        2
 70
   128
 43
0.0
 10
5.430998147615127
 20
17.12304962120654
 10
5.430998147615127
 20
17.16903605768084
  0
LWPOLYLINE
  5
165
100
AcDbEntity
  8
USP-GEO
100
AcDbPolyline
 90
        2
 70
   129
 43
0.0
 10
5.430998147615127
 20
17.12304962120654
 10
5.430998147615127
 20
17.07706318473224
  0
LWPOLYLINE
  5
166
100
AcDbEntity
  8
USP-GEO
100
AcDbPolyline
 90
        3
 70
   128
 43
0.0
 10
5.430998147615127
 20
17.16903605768084
 10
5.430998147615127
 20
17.12304962120654
 10
5.433297469438841
 20
17.12304962120654
  0
LWPOLYLINE
  5
167
100
AcDbEntity
  8
USP-GEO
100
AcDbPolyline
 90
        2
 70
   129
 43
0.0
 10
5.433297469438841
 20
17.16903605768084
 10
5.430998147615127
 20
17.16903605768084
  0
LWPOLYLINE
  5
168
100
AcDbEntity
  8
USP-GEO
100
AcDbPolyline
 90
        2
 70
   128
 43
0.0
 10
5.430998147615127
 20
17.16903605768084
 10
5.433297469438841
 20
17.16903605768084
  0
LWPOLYLINE
  5
169
100
AcDbEntity
  8
USP-GEO
100
AcDbPolyline
 90
        4
 70
   128
 43
0.0
 10
5.52297102056373
 20
16.2952937646691
 10
5.52297102056373
 20
16.3412802011434
 10
5.52297102056373
 20
16.3872666376177
 10
5.52297102056373
 20
16.433253074092
  0
LWPOLYLINE
  5
16A
100
AcDbEntity
  8
USP-GEO
100
AcDbPolyline
 90
        2
 70
   128
 43
0.0
 10
5.52297102056373
 20
16.2952937646691
 10
5.525270342387443
 20
16.2952937646691
  0
LWPOLYLINE
  5
16B
100
AcDbEntity
  8
USP-GEO
100
AcDbPolyline
 90
        2
 70
   129
 43
0.0
 10
5.52297102056373
 20
16.2952937646691
 10
5.52297102056373
 20
16.24700800637108
  0
LWPOLYLINE
  5
16C
100
AcDbEntity
  8
USP-GEO
100
AcDbPolyline
 90
        2
 70
   129
 43
0.0
 10
5.525270342387443
 20
16.433253074092
 10
5.52297102056373
 20
16.433253074092
  0
LWPOLYLINE
  5
16D
100
AcDbEntity
  8
USP-GEO
100
AcDbPolyline
 90
        5
 70
   128
 43
0.0
 10
5.52297102056373
 20
16.2952937646691
 10
5.52297102056373
 20
16.3412802011434
 10
5.52297102056373
 20
16.3872666376177
 10
5.52297102056373
 20
16.433253074092
 10
5.525270342387443
 20
16.433253074092
  0
LWPOLYLINE
  5
16E
100
AcDbEntity
  8
USP-GEO
100
AcDbPolyline
 90
        4
 70
   129
 43
0.0
 10
5.52297102056373
 20
16.2952937646691
 10
5.52297102056373
 20
16.3412802011434
 10
5.52297102056373
 20
16.3872666376177
 10
5.52297102056373
 20
16.3412802011434
  0
LWPOLYLINE
  5
16F
100
AcDbEntity
  8
USP-GEO
100
AcDbPolyline
 90
        2
 70
   128
 43
0.0
 10
5.52297102056373
 20
16.24700800637108
 10
5.525270342387443
 20
16.24700800637108
  0
LWPOLYLINE
  5
170
100
AcDbEntity
  8
USP-GEO
100
AcDbPolyline
 90
        2
 70
   129
 43
0.0
 10
5.52297102056373
 20
16.2952937646691
 10
5.52297102056373
 20
16.24700800637108
  0
LWPOLYLINE
  5
171
100
AcDbEntity
  8
USP-GEO
100
AcDbPolyline
 90
        2
 70
   129
 43
0.0
 10
5.525270342387443
 20
17.16903605768084
 10
5.52297102056373
 20
17.16903605768084
  0
LWPOLYLINE
  5
172
100
AcDbEntity
  8
USP-GEO
100
AcDbPolyline
 90
        2
 70
   129
 43
0.0
 10
5.525270342387443
 20
17.16903605768084
 10
5.52297102056373
 20
17.16903605768084
  0
LWPOLYLINE
  5
173
100
AcDbEntity
  8
USP-GEO
100
AcDbPolyline
 90
        6
 70
   128
 43
0.0
 10
5.433297469438841
 20
19.24072502084817
 10
5.430998147615127
 20
19.24072502084817
 10
5.430998147615127
 20
19.28671145732248
 10
5.430998147615127
 20
19.33269789379678
 10
5.430998147615127
 20
19.37868433027108
 10
5.430998147615127
 20
19.42467076674538
  0
LWPOLYLINE
  5
174
100
AcDbEntity
  8
USP-GEO
100
AcDbPolyline
 90
        5
 70
   128
 43
0.0
 10
5.430998147615127
 20
19.42467076674538
 10
5.430998147615127
 20
19.37868433027108
 10
5.430998147615127
 20
19.33269789379678
 10
5.430998147615127
 20
19.28671145732248
 10
5.430998147615127
 20
19.24072502084817
  0
LWPOLYLINE
  5
175
100
AcDbEntity
  8
USP-GEO
100
AcDbPolyline
 90
        4
 70
   129
 43
0.0
 10
5.52297102056373
 20
19.37868433027108
 10
5.52297102056373
 20
19.33269789379678
 10
5.52297102056373
 20
19.37868433027108
 10
5.52297102056373
 20
19.42467076674538
  0
LWPOLYLINE
  5
176
100
AcDbEntity
  8
USP-GEO
100
AcDbPolyline
 90
        4
 70
   128
 43
0.0
 10
5.430998147615127
 20
18.2267240965898
 10
5.430998147615127
 20
18.36468340601271
 10
5.430998147615127
 20
18.45665627896131
 10
5.430998147615127
 20
18.50264271543561
  0
LWPOLYLINE
  5
177
100
AcDbEntity
  8
USP-GEO
100
AcDbPolyline
 90
        4
 70
   128
 43
0.0
 10
5.430998147615127
 20
18.50264271543561
 10
5.430998147615127
 20
18.45665627896131
 10
5.430998147615127
 20
18.36468340601271
 10
5.430998147615127
 20
18.2267240965898
  0
LWPOLYLINE
  5
178
100
AcDbEntity
  8
USP-GEO
100
AcDbPolyline
 90
        3
 70
   128
 43
0.0
 10
5.430998147615127
 20
17.85883260479538
 10
5.430998147615127
 20
17.90481904126969
 10
5.430998147615127
 20
17.95080547774399
  0
LWPOLYLINE
  5
179
100
AcDbEntity
  8
USP-GEO
100
AcDbPolyline
 90
        2
 70
   129
 43
0.0
 10
5.433297469438841
 20
17.95080547774399
 10
5.430998147615127
 20
17.95080547774399
  0
LWPOLYLINE
  5
17A
100
AcDbEntity
  8
USP-GEO
100
AcDbPolyline
 90
        3
 70
   128
 43
0.0
 10
5.430998147615127
 20
17.95080547774399
 10
5.430998147615127
 20
17.90481904126969
 10
5.430998147615127
 20
17.85883260479538
  0
LWPOLYLINE
  5
17B
100
AcDbEntity
  8
USP-GEO
100
AcDbPolyline
 90
        2
 70
   129
 43
0.0
 10
5.433297469438841
 20
17.76685973184678
 10
5.430998147615127
 20
17.76685973184678
  0
LWPOLYLINE
  5
17C
100
AcDbEntity
  8
USP-GEO
100
AcDbPolyline
 90
        4
 70
   129
 43
0.0
 10
5.430998147615127
 20
17.85883260479538
 10
5.430998147615127
 20
17.81284616832108
 10
5.430998147615127
 20
17.76685973184678
 10
5.430998147615127
 20
17.81284616832108
  0
LWPOLYLINE
  5
17D
100
AcDbEntity
  8
USP-GEO
100
AcDbPolyline
 90
        2
 70
   129
 43
0.0
 10
5.433297469438841
 20
17.95080547774399
 10
5.430998147615127
 20
17.95080547774399
  0
LWPOLYLINE
  5
17E
100
AcDbEntity
  8
USP-GEO
100
AcDbPolyline
 90
        2
 70
   129
 43
0.0
 10
5.430998147615127
 20
18.2267240965898
 10
5.430998147615127
 20
18.1807376601155
  0
LWPOLYLINE
  5
17F
100
AcDbEntity
  8
USP-GEO
100
AcDbPolyline
 90
        5
 70
   128
 43
0.0
 10
5.430998147615127
 20
18.50264271543561
 10
5.430998147615127
 20
18.54862915190992
 10
5.430998147615127
 20
18.59461558838422
 10
5.430998147615127
 20
18.64060202485852
 10
5.430998147615127
 20
18.68658846133283
  0
LWPOLYLINE
  5
180
100
AcDbEntity
  8
USP-GEO
100
AcDbPolyline
 90
        2
 70
   128
 43
0.0
 10
5.430998147615127
 20
19.28671145732248
 10
5.433297469438841
 20
19.28671145732248
  0
LWPOLYLINE
  5
181
100
AcDbEntity
  8
USP-GEO
100
AcDbPolyline
 90
        2
 70
   129
 43
0.0
 10
5.433297469438841
 20
18.50264271543561
 10
5.430998147615127
 20
18.50264271543561
  0
LWPOLYLINE
  5
182
100
AcDbEntity
  8
USP-GEO
100
AcDbPolyline
 90
        2
 70
   129
 43
0.0
 10
5.433297469438841
 20
18.50264271543561
 10
5.430998147615127
 20
18.50264271543561
  0
LWPOLYLINE
  5
183
100
AcDbEntity
  8
USP-GEO
100
AcDbPolyline
 90
        5
 70
   128
 43
0.0
 10
5.430998147615127
 20
18.68658846133283
 10
5.430998147615127
 20
18.64060202485852
 10
5.430998147615127
 20
18.59461558838422
 10
5.430998147615127
 20
18.54862915190992
 10
5.430998147615127
 20
18.50264271543561
  0
LWPOLYLINE
  5
184
100
AcDbEntity
  8
USP-GEO
100
AcDbPolyline
 90
        2
 70
   129
 43
0.0
 10
5.433297469438841
 20
18.68658846133283
 10
5.430998147615127
 20
18.68658846133283
  0
LWPOLYLINE
  5
185
100
AcDbEntity
  8
USP-GEO
100
AcDbPolyline
 90
        3
 70
   128
 43
0.0
 10
5.52297102056373
 20
18.36468340601271
 10
5.52297102056373
 20
18.45665627896131
 10
5.52297102056373
 20
18.50264271543561
  0
LWPOLYLINE
  5
186
100
AcDbEntity
  8
USP-GEO
100
AcDbPolyline
 90
        5
 70
   128
 43
0.0
 10
5.52297102056373
 20
18.59461558838422
 10
5.52297102056373
 20
18.54862915190992
 10
5.52297102056373
 20
18.50264271543561
 10
5.52297102056373
 20
18.45665627896131
 10
5.52297102056373
 20
18.36468340601271
  0
LWPOLYLINE
  5
187
100
AcDbEntity
  8
USP-GEO
100
AcDbPolyline
 90
        2
 70
   129
 43
0.0
 10
5.52297102056373
 20
18.36468340601271
 10
5.52297102056373
 20
18.31869696953841
  0
LWPOLYLINE
  5
188
100
AcDbEntity
  8
USP-GEO
100
AcDbPolyline
 90
        2
 70
   129
 43
0.0
 10
5.525270342387443
 20
18.50264271543561
 10
5.52297102056373
 20
18.50264271543561
  0
LWPOLYLINE
  5
189
100
AcDbEntity
  8
USP-GEO
100
AcDbPolyline
 90
        2
 70
   129
 43
0.0
 10
5.525270342387443
 20
18.50264271543561
 10
5.52297102056373
 20
18.50264271543561
  0
LWPOLYLINE
  5
18A
100
AcDbEntity
  8
USP-GEO
100
AcDbPolyline
 90
        3
 70
   128
 43
0.0
 10
5.52297102056373
 20
18.50264271543561
 10
5.52297102056373
 20
18.54862915190992
 10
5.52297102056373
 20
18.59461558838422
  0
LWPOLYLINE
  5
18B
100
AcDbEntity
  8
USP-GEO
100
AcDbPolyline
 90
        2
 70
   129
 43
0.0
 10
5.52297102056373
 20
18.64060202485852
 10
5.52297102056373
 20
18.59461558838422
  0
LWPOLYLINE
  5
18C
100
AcDbEntity
  8
USP-GEO
100
AcDbPolyline
 90
        2
 70
   129
 43
0.0
 10
5.525270342387443
 20
19.33269789379678
 10
5.52297102056373
 20
19.33269789379678
  0
LWPOLYLINE
  5
18D
100
AcDbEntity
  8
USP-GEO
100
AcDbPolyline
 90
        8
 70
   128
 43
0.0
 10
5.433297469438841
 20
20.02249444091132
 10
5.430998147615127
 20
20.02249444091132
 10
5.430998147615127
 20
20.06848087738562
 10
5.430998147615127
 20
20.11446731385992
 10
5.430998147615127
 20
20.16045375033422
 10
5.430998147615127
 20
20.11446731385992
 10
5.430998147615127
 20
20.06848087738562
 10
5.430998147615127
 20
20.02249444091132
  0
LWPOLYLINE
  5
18E
100
AcDbEntity
  8
USP-GEO
100
AcDbPolyline
 90
        2
 70
   129
 43
0.0
 10
5.433297469438841
 20
19.42467076674538
 10
5.430998147615127
 20
19.42467076674538
  0
LWPOLYLINE
  5
18F
100
AcDbEntity
  8
USP-GEO
100
AcDbPolyline
 90
        6
 70
   128
 43
0.0
 10
5.433297469438841
 20
20.75827742450016
 10
5.430998147615127
 20
20.75827742450016
 10
5.430998147615127
 20
20.80426386097446
 10
5.430998147615127
 20
20.85025029744876
 10
5.430998147615127
 20
20.89623673392306
 10
5.430998147615127
 20
20.94222317039736
  0
LWPOLYLINE
  5
190
100
AcDbEntity
  8
USP-GEO
100
AcDbPolyline
 90
        2
 70
   129
 43
0.0
 10
5.433297469438841
 20
20.94222317039736
 10
5.430998147615127
 20
20.94222317039736
  0
LWPOLYLINE
  5
191
100
AcDbEntity
  8
USP-GEO
100
AcDbPolyline
 90
        5
 70
   128
 43
0.0
 10
5.430998147615127
 20
20.94222317039736
 10
5.430998147615127
 20
20.89623673392306
 10
5.430998147615127
 20
20.85025029744876
 10
5.430998147615127
 20
20.80426386097446
 10
5.430998147615127
 20
20.75827742450016
  0
LWPOLYLINE
  5
192
100
AcDbEntity
  8
USP-GEO
100
AcDbPolyline
 90
        2
 70
   129
 43
0.0
 10
5.525270342387443
 20
19.42467076674538
 10
5.52297102056373
 20
19.42467076674538
  0
LWPOLYLINE
  5
193
100
AcDbEntity
  8
USP-GEO
100
AcDbPolyline
 90
        2
 70
   129
 43
0.0
 10
5.525270342387443
 20
20.75827742450016
 10
5.52297102056373
 20
20.75827742450016
  0
LWPOLYLINE
  5
194
100
AcDbEntity
  8
USP-GEO
100
AcDbPolyline
 90
        4
 70
   129
 43
0.0
 10
5.52297102056373
 20
20.85025029744876
 10
5.52297102056373
 20
20.80426386097446
 10
5.52297102056373
 20
20.75827742450016
 10
5.52297102056373
 20
20.80426386097446
  0
LWPOLYLINE
  5
195
100
AcDbEntity
  8
USP-GEO
100
AcDbPolyline
 90
        2
 70
   129
 43
0.0
 10
5.525270342387443
 20
20.85025029744876
 10
5.52297102056373
 20
20.85025029744876
  0
LWPOLYLINE
  5
196
100
AcDbEntity
  8
USP-GEO
100
AcDbPolyline
 90
        4
 70
   129
 43
0.0
 10
5.476984584089429
 20
28.35293740823122
 10
5.476984584089429
 20
28.30695097175691
 10
5.476984584089429
 20
28.26096453528261
 10
5.476984584089429
 20
28.30695097175691
  0
LWPOLYLINE
  5
197
100
AcDbEntity
  8
USP-GEO
100
AcDbPolyline
 90
       10
 70
   128
 43
0.0
 10
5.571256778861751
 20
28.44491028117982
 10
5.568957457038031
 20
28.44491028117982
 10
5.568957457038031
 20
28.39892384470552
 10
5.568957457038031
 20
28.35293740823122
 10
5.568957457038031
 20
28.30695097175691
 10
5.568957457038031
 20
28.26096453528261
 10
5.568957457038031
 20
28.30695097175691
 10
5.568957457038031
 20
28.35293740823122
 10
5.568957457038031
 20
28.39892384470552
 10
5.568957457038031
 20
28.44491028117982
  0
LWPOLYLINE
  5
198
100
AcDbEntity
  8
USP-GEO
100
AcDbPolyline
 90
        5
 70
   128
 43
0.0
 10
5.430998147615127
 20
22.60003420529597
 10
5.430998147615127
 20
22.73799351471888
 10
5.430998147615127
 20
22.87595282414179
 10
5.430998147615127
 20
22.96792569709039
 10
5.430998147615127
 20
23.0139121335647
  0
LWPOLYLINE
  5
199
100
AcDbEntity
  8
USP-GEO
100
AcDbPolyline
 90
        5
 70
   128
 43
0.0
 10
5.430998147615127
 20
23.0139121335647
 10
5.430998147615127
 20
22.96792569709039
 10
5.430998147615127
 20
22.87595282414179
 10
5.430998147615127
 20
22.73799351471888
 10
5.430998147615127
 20
22.60003420529597
  0
LWPOLYLINE
  5
19A
100
AcDbEntity
  8
USP-GEO
100
AcDbPolyline
 90
        5
 70
   128
 43
0.0
 10
5.52297102056373
 20
22.60003420529597
 10
5.52297102056373
 20
22.73799351471888
 10
5.52297102056373
 20
22.87595282414179
 10
5.52297102056373
 20
22.96792569709039
 10
5.52297102056373
 20
23.0139121335647
  0
LWPOLYLINE
  5
19B
100
AcDbEntity
  8
USP-GEO
100
AcDbPolyline
 90
        5
 70
   128
 43
0.0
 10
5.52297102056373
 20
23.0139121335647
 10
5.52297102056373
 20
22.96792569709039
 10
5.52297102056373
 20
22.87595282414179
 10
5.52297102056373
 20
22.73799351471888
 10
5.52297102056373
 20
22.60003420529597
  0
LWPOLYLINE
  5
19C
100
AcDbEntity
  8
USP-GEO
100
AcDbPolyline
 90
        6
 70
   128
 43
0.0
 10
5.433297469438841
 20
21.49635972991271
 10
5.430998147615127
 20
21.49635972991271
 10
5.430998147615127
 20
21.54234616638701
 10
5.430998147615127
 20
21.58833260286132
 10
5.430998147615127
 20
21.63431903933562
 10
5.430998147615127
 20
21.68030547580992
  0
LWPOLYLINE
  5
19D
100
AcDbEntity
  8
USP-GEO
100
AcDbPolyline
 90
        2
 70
   129
 43
0.0
 10
5.433297469438841
 20
21.68030547580992
 10
5.430998147615127
 20
21.68030547580992
  0
LWPOLYLINE
  5
19E
100
AcDbEntity
  8
USP-GEO
100
AcDbPolyline
 90
        5
 70
   128
 43
0.0
 10
5.430998147615127
 20
21.54234616638701
 10
5.430998147615127
 20
21.58833260286132
 10
5.430998147615127
 20
21.63431903933562
 10
5.430998147615127
 20
21.68030547580992
 10
5.433297469438841
 20
21.68030547580992
  0
LWPOLYLINE
  5
19F
100
AcDbEntity
  8
USP-GEO
100
AcDbPolyline
 90
        2
 70
   128
 43
0.0
 10
5.430998147615127
 20
21.54234616638701
 10
5.430998147615127
 20
21.49635972991271
  0
LWPOLYLINE
  5
1A0
100
AcDbEntity
  8
USP-GEO
100
AcDbPolyline
 90
        2
 70
   129
 43
0.0
 10
5.433297469438841
 20
21.54234616638701
 10
5.430998147615127
 20
21.54234616638701
  0
LWPOLYLINE
  5
1A1
100
AcDbEntity
  8
USP-GEO
100
AcDbPolyline
 90
        2
 70
   129
 43
0.0
 10
5.430998147615127
 20
22.32411558645016
 10
5.430998147615127
 20
22.27812914997585
  0
LWPOLYLINE
  5
1A2
100
AcDbEntity
  8
USP-GEO
100
AcDbPolyline
 90
        2
 70
   129
 43
0.0
 10
5.433297469438841
 20
22.27812914997585
 10
5.430998147615127
 20
22.27812914997585
  0
LWPOLYLINE
  5
1A3
100
AcDbEntity
  8
USP-GEO
100
AcDbPolyline
 90
        2
 70
   128
 43
0.0
 10
5.430998147615127
 20
22.27812914997585
 10
5.433297469438841
 20
22.27812914997585
  0
LWPOLYLINE
  5
1A4
100
AcDbEntity
  8
USP-GEO
100
AcDbPolyline
 90
        4
 70
   129
 43
0.0
 10
5.430998147615127
 20
22.60003420529597
 10
5.430998147615127
 20
22.50806133234737
 10
5.430998147615127
 20
22.46207489587307
 10
5.430998147615127
 20
22.50806133234737
  0
LWPOLYLINE
  5
1A5
100
AcDbEntity
  8
USP-GEO
100
AcDbPolyline
 90
        6
 70
   128
 43
0.0
 10
5.52297102056373
 20
21.68030547580992
 10
5.52297102056373
 20
21.63431903933562
 10
5.52297102056373
 20
21.58833260286132
 10
5.52297102056373
 20
21.54234616638701
 10
5.52297102056373
 20
21.49635972991271
 10
5.525270342387443
 20
21.49635972991271
  0
LWPOLYLINE
  5
1A6
100
AcDbEntity
  8
USP-GEO
100
AcDbPolyline
 90
        2
 70
   129
 43
0.0
 10
5.525270342387443
 20
21.68030547580992
 10
5.52297102056373
 20
21.68030547580992
  0
LWPOLYLINE
  5
1A7
100
AcDbEntity
  8
USP-GEO
100
AcDbPolyline
 90
        2
 70
   128
 43
0.0
 10
5.52297102056373
 20
21.54234616638701
 10
5.525270342387443
 20
21.54234616638701
  0
LWPOLYLINE
  5
1A8
100
AcDbEntity
  8
USP-GEO
100
AcDbPolyline
 90
        6
 70
   128
 43
0.0
 10
5.52297102056373
 20
21.49635972991271
 10
5.52297102056373
 20
21.54234616638701
 10
5.52297102056373
 20
21.58833260286132
 10
5.52297102056373
 20
21.63431903933562
 10
5.52297102056373
 20
21.68030547580992
 10
5.525270342387443
 20
21.68030547580992
  0
LWPOLYLINE
  5
1A9
100
AcDbEntity
  8
USP-GEO
100
AcDbPolyline
 90
        2
 70
   129
 43
0.0
 10
5.52297102056373
 20
22.60003420529597
 10
5.52297102056373
 20
22.55404776882167
  0
LWPOLYLINE
  5
1AA
100
AcDbEntity
  8
USP-GEO
100
AcDbPolyline
 90
        6
 70
   128
 43
0.0
 10
5.433297469438841
 20
23.75199443897725
 10
5.430998147615127
 20
23.75199443897725
 10
5.430998147615127
 20
23.79798087545155
 10
5.430998147615127
 20
23.84396731192585
 10
5.430998147615127
 20
23.88995374840015
 10
5.430998147615127
 20
23.93594018487446
  0
LWPOLYLINE
  5
1AB
100
AcDbEntity
  8
USP-GEO
100
AcDbPolyline
 90
        5
 70
   128
 43
0.0
 10
5.430998147615127
 20
23.93594018487446
 10
5.430998147615127
 20
23.88995374840015
 10
5.430998147615127
 20
23.84396731192585
 10
5.430998147615127
 20
23.79798087545155
 10
5.430998147615127
 20
23.75199443897725
  0
LWPOLYLINE
  5
1AC
100
AcDbEntity
  8
USP-GEO
100
AcDbPolyline
 90
        5
 70
   128
 43
0.0
 10
5.430998147615127
 20
23.0139121335647
 10
5.430998147615127
 20
23.059898570039
 10
5.430998147615127
 20
23.1058850065133
 10
5.430998147615127
 20
23.1518714429876
 10
5.430998147615127
 20
23.1978578794619
  0
LWPOLYLINE
  5
1AD
100
AcDbEntity
  8
USP-GEO
100
AcDbPolyline
 90
        2
 70
   128
 43
0.0
 10
5.430998147615127
 20
23.79798087545155
 10
5.433297469438841
 20
23.79798087545155
  0
LWPOLYLINE
  5
1AE
100
AcDbEntity
  8
USP-GEO
100
AcDbPolyline
 90
        2
 70
   129
 43
0.0
 10
5.433297469438841
 20
23.0139121335647
 10
5.430998147615127
 20
23.0139121335647
  0
LWPOLYLINE
  5
1AF
100
AcDbEntity
  8
USP-GEO
100
AcDbPolyline
 90
        2
 70
   129
 43
0.0
 10
5.433297469438841
 20
23.0139121335647
 10
5.430998147615127
 20
23.0139121335647
  0
LWPOLYLINE
  5
1B0
100
AcDbEntity
  8
USP-GEO
100
AcDbPolyline
 90
        2
 70
   129
 43
0.0
 10
5.433297469438841
 20
23.1978578794619
 10
5.430998147615127
 20
23.1978578794619
  0
LWPOLYLINE
  5
1B1
100
AcDbEntity
  8
USP-GEO
100
AcDbPolyline
 90
        5
 70
   128
 43
0.0
 10
5.430998147615127
 20
23.1978578794619
 10
5.430998147615127
 20
23.1518714429876
 10
5.430998147615127
 20
23.1058850065133
 10
5.430998147615127
 20
23.059898570039
 10
5.430998147615127
 20
23.0139121335647
  0
LWPOLYLINE
  5
1B2
100
AcDbEntity
  8
USP-GEO
100
AcDbPolyline
 90
        2
 70
   128
 43
0.0
 10
5.430998147615127
 20
24.6717231684633
 10
5.433297469438841
 20
24.6717231684633
  0
LWPOLYLINE
  5
1B3
100
AcDbEntity
  8
USP-GEO
100
AcDbPolyline
 90
        2
 70
   129
 43
0.0
 10
5.433297469438841
 20
23.93594018487446
 10
5.430998147615127
 20
23.93594018487446
  0
LWPOLYLINE
  5
1B4
100
AcDbEntity
  8
USP-GEO
100
AcDbPolyline
 90
        2
 70
   128
 43
0.0
 10
5.430998147615127
 20
24.7177096049376
 10
5.433297469438841
 20
24.7177096049376
  0
LWPOLYLINE
  5
1B5
100
AcDbEntity
  8
USP-GEO
100
AcDbPolyline
 90
        4
 70
   129
 43
0.0
 10
5.430998147615127
 20
24.7177096049376
 10
5.430998147615127
 20
24.6717231684633
 10
5.430998147615127
 20
24.625736731989
 10
5.430998147615127
 20
24.6717231684633
  0
LWPOLYLINE
  5
1B6
100
AcDbEntity
  8
USP-GEO
100
AcDbPolyline
 90
        6
 70
   128
 43
0.0
 10
5.52297102056373
 20
23.93594018487446
 10
5.52297102056373
 20
23.88995374840015
 10
5.52297102056373
 20
23.84396731192585
 10
5.52297102056373
 20
23.79798087545155
 10
5.52297102056373
 20
23.75199443897725
 10
5.525270342387443
 20
23.75199443897725
  0
LWPOLYLINE
  5
1B7
100
AcDbEntity
  8
USP-GEO
100
AcDbPolyline
 90
        6
 70
   128
 43
0.0
 10
5.525270342387443
 20
23.93594018487446
 10
5.52297102056373
 20
23.93594018487446
 10
5.52297102056373
 20
23.88995374840015
 10
5.52297102056373
 20
23.84396731192585
 10
5.52297102056373
 20
23.79798087545155
 10
5.52297102056373
 20
23.75199443897725
  0
LWPOLYLINE
  5
1B8
100
AcDbEntity
  8
USP-GEO
100
AcDbPolyline
 90
        2
 70
   128
 43
0.0
 10
5.52297102056373
 20
23.79798087545155
 10
5.525270342387443
 20
23.79798087545155
  0
LWPOLYLINE
  5
1B9
100
AcDbEntity
  8
USP-GEO
100
AcDbPolyline
 90
        2
 70
   129
 43
0.0
 10
5.525270342387443
 20
23.0139121335647
 10
5.52297102056373
 20
23.0139121335647
  0
LWPOLYLINE
  5
1BA
100
AcDbEntity
  8
USP-GEO
100
AcDbPolyline
 90
        2
 70
   129
 43
0.0
 10
5.525270342387443
 20
23.0139121335647
 10
5.52297102056373
 20
23.0139121335647
  0
LWPOLYLINE
  5
1BB
100
AcDbEntity
  8
USP-GEO
100
AcDbPolyline
 90
        3
 70
   128
 43
0.0
 10
5.52297102056373
 20
23.0139121335647
 10
5.52297102056373
 20
23.059898570039
 10
5.52297102056373
 20
23.1058850065133
  0
LWPOLYLINE
  5
1BC
100
AcDbEntity
  8
USP-GEO
100
AcDbPolyline
 90
        3
 70
   128
 43
0.0
 10
5.52297102056373
 20
23.1058850065133
 10
5.52297102056373
 20
23.059898570039
 10
5.52297102056373
 20
23.0139121335647
  0
LWPOLYLINE
  5
1BD
100
AcDbEntity
  8
USP-GEO
100
AcDbPolyline
 90
        2
 70
   129
 43
0.0
 10
5.525270342387443
 20
23.1058850065133
 10
5.52297102056373
 20
23.1058850065133
  0
LWPOLYLINE
  5
1BE
100
AcDbEntity
  8
USP-GEO
100
AcDbPolyline
 90
        2
 70
   129
 43
0.0
 10
5.525270342387443
 20
23.93594018487446
 10
5.52297102056373
 20
23.93594018487446
  0
LWPOLYLINE
  5
1BF
100
AcDbEntity
  8
USP-GEO
100
AcDbPolyline
 90
        6
 70
   128
 43
0.0
 10
5.433297469438841
 20
25.26954684262923
 10
5.430998147615127
 20
25.26954684262923
 10
5.430998147615127
 20
25.31553327910354
 10
5.430998147615127
 20
25.36151971557784
 10
5.430998147615127
 20
25.40750615205214
 10
5.430998147615127
 20
25.45349258852644
  0
LWPOLYLINE
  5
1C0
100
AcDbEntity
  8
USP-GEO
100
AcDbPolyline
 90
        2
 70
   129
 43
0.0
 10
5.433297469438841
 20
25.45349258852644
 10
5.430998147615127
 20
25.45349258852644
  0
LWPOLYLINE
  5
1C1
100
AcDbEntity
  8
USP-GEO
100
AcDbPolyline
 90
        5
 70
   128
 43
0.0
 10
5.430998147615127
 20
25.45349258852644
 10
5.430998147615127
 20
25.40750615205214
 10
5.430998147615127
 20
25.36151971557784
 10
5.430998147615127
 20
25.31553327910354
 10
5.430998147615127
 20
25.26954684262923
  0
LWPOLYLINE
  5
1C2
100
AcDbEntity
  8
USP-GEO
100
AcDbPolyline
 90
        6
 70
   128
 43
0.0
 10
5.433297469438841
 20
26.00532982621807
 10
5.430998147615127
 20
26.00532982621807
 10
5.430998147615127
 20
26.05361558451609
 10
5.430998147615127
 20
26.09960202099039
 10
5.430998147615127
 20
26.1455884574647
 10
5.430998147615127
 20
26.191574893939
  0
LWPOLYLINE
  5
1C3
100
AcDbEntity
  8
USP-GEO
100
AcDbPolyline
 90
        2
 70
   129
 43
0.0
 10
5.433297469438841
 20
26.191574893939
 10
5.430998147615127
 20
26.191574893939
  0
LWPOLYLINE
  5
1C4
100
AcDbEntity
  8
USP-GEO
100
AcDbPolyline
 90
        6
 70
   128
 43
0.0
 10
5.433297469438841
 20
26.191574893939
 10
5.430998147615127
 20
26.191574893939
 10
5.430998147615127
 20
26.1455884574647
 10
5.430998147615127
 20
26.09960202099039
 10
5.430998147615127
 20
26.05361558451609
 10
5.433297469438841
 20
26.05361558451609
  0
LWPOLYLINE
  5
1C5
100
AcDbEntity
  8
USP-GEO
100
AcDbPolyline
 90
        2
 70
   128
 43
0.0
 10
5.430998147615127
 20
26.05361558451609
 10
5.430998147615127
 20
26.00532982621807
  0
LWPOLYLINE
  5
1C6
100
AcDbEntity
  8
USP-GEO
100
AcDbPolyline
 90
        2
 70
   128
 43
0.0
 10
5.52297102056373
 20
25.26954684262923
 10
5.568957457038031
 20
25.26954684262923
  0
LWPOLYLINE
  5
1C7
100
AcDbEntity
  8
USP-GEO
100
AcDbPolyline
 90
        3
 70
   128
 43
0.0
 10
5.568957457038031
 20
25.26954684262923
 10
5.568957457038031
 20
25.31553327910354
 10
5.568957457038031
 20
25.36151971557784
  0
LWPOLYLINE
  5
1C8
100
AcDbEntity
  8
USP-GEO
100
AcDbPolyline
 90
        2
 70
   129
 43
0.0
 10
5.571256778861751
 20
25.26954684262923
 10
5.568957457038031
 20
25.26954684262923
  0
LWPOLYLINE
  5
1C9
100
AcDbEntity
  8
USP-GEO
100
AcDbPolyline
 90
        2
 70
   129
 43
0.0
 10
5.571256778861751
 20
25.36151971557784
 10
5.568957457038031
 20
25.36151971557784
  0
LWPOLYLINE
  5
1CA
100
AcDbEntity
  8
USP-GEO
100
AcDbPolyline
 90
        3
 70
   128
 43
0.0
 10
5.568957457038031
 20
25.36151971557784
 10
5.568957457038031
 20
25.31553327910354
 10
5.568957457038031
 20
25.26954684262923
  0
LWPOLYLINE
  5
1CB
100
AcDbEntity
  8
USP-GEO
100
AcDbPolyline
 90
        6
 70
   128
 43
0.0
 10
5.568957457038031
 20
26.191574893939
 10
5.568957457038031
 20
26.1455884574647
 10
5.568957457038031
 20
26.09960202099039
 10
5.568957457038031
 20
26.05361558451609
 10
5.568957457038031
 20
26.00532982621807
 10
5.571256778861751
 20
26.00532982621807
  0
LWPOLYLINE
  5
1CC
100
AcDbEntity
  8
USP-GEO
100
AcDbPolyline
 90
        2
 70
   129
 43
0.0
 10
5.571256778861751
 20
26.191574893939
 10
5.568957457038031
 20
26.191574893939
  0
LWPOLYLINE
  5
1CD
100
AcDbEntity
  8
USP-GEO
100
AcDbPolyline
 90
        2
 70
   129
 43
0.0
 10
5.571256778861751
 20
26.05361558451609
 10
5.568957457038031
 20
26.05361558451609
  0
LWPOLYLINE
  5
1CE
100
AcDbEntity
  8
USP-GEO
100
AcDbPolyline
 90
        6
 70
   128
 43
0.0
 10
5.568957457038031
 20
26.00532982621807
 10
5.568957457038031
 20
26.05361558451609
 10
5.568957457038031
 20
26.09960202099039
 10
5.568957457038031
 20
26.1455884574647
 10
5.568957457038031
 20
26.191574893939
 10
5.571256778861751
 20
26.191574893939
  0
LWPOLYLINE
  5
1CF
100
AcDbEntity
  8
USP-GEO
100
AcDbPolyline
 90
        5
 70
   128
 43
0.0
 10
5.430998147615127
 20
27.11130362342505
 10
5.430998147615127
 20
27.24926293284796
 10
5.430998147615127
 20
27.38722224227087
 10
5.430998147615127
 20
27.47919511521947
 10
5.430998147615127
 20
27.52518155169378
  0
LWPOLYLINE
  5
1D0
100
AcDbEntity
  8
USP-GEO
100
AcDbPolyline
 90
        5
 70
   128
 43
0.0
 10
5.430998147615127
 20
27.52518155169378
 10
5.430998147615127
 20
27.47919511521947
 10
5.430998147615127
 20
27.38722224227087
 10
5.430998147615127
 20
27.24926293284796
 10
5.430998147615127
 20
27.11130362342505
  0
LWPOLYLINE
  5
1D1
100
AcDbEntity
  8
USP-GEO
100
AcDbPolyline
 90
        2
 70
   129
 43
0.0
 10
5.430998147615127
 20
27.11130362342505
 10
5.430998147615127
 20
26.97334431400214
  0
LWPOLYLINE
  5
1D2
100
AcDbEntity
  8
USP-GEO
100
AcDbPolyline
 90
        2
 70
   129
 43
0.0
 10
5.433297469438841
 20
26.97334431400214
 10
5.430998147615127
 20
26.97334431400214
  0
LWPOLYLINE
  5
1D3
100
AcDbEntity
  8
USP-GEO
100
AcDbPolyline
 90
        2
 70
   129
 43
0.0
 10
5.430998147615127
 20
26.92735787752784
 10
5.430998147615127
 20
26.88137144105354
  0
LWPOLYLINE
  5
1D4
100
AcDbEntity
  8
USP-GEO
100
AcDbPolyline
 90
        2
 70
   129
 43
0.0
 10
5.433297469438841
 20
26.92735787752784
 10
5.430998147615127
 20
26.92735787752784
  0
LWPOLYLINE
  5
1D5
100
AcDbEntity
  8
USP-GEO
100
AcDbPolyline
 90
        2
 70
   128
 43
0.0
 10
5.430998147615127
 20
26.78939856810493
 10
5.433297469438841
 20
26.78939856810493
  0
LWPOLYLINE
  5
1D6
100
AcDbEntity
  8
USP-GEO
100
AcDbPolyline
 90
        4
 70
   129
 43
0.0
 10
5.430998147615127
 20
26.88137144105354
 10
5.430998147615127
 20
26.83538500457923
 10
5.430998147615127
 20
26.78939856810493
 10
5.430998147615127
 20
26.83538500457923
  0
LWPOLYLINE
  5
1D7
100
AcDbEntity
  8
USP-GEO
100
AcDbPolyline
 90
        5
 70
   128
 43
0.0
 10
5.430998147615127
 20
27.52518155169378
 10
5.430998147615127
 20
27.57116798816808
 10
5.430998147615127
 20
27.61715442464238
 10
5.430998147615127
 20
27.66314086111668
 10
5.430998147615127
 20
27.70912729759098
  0
LWPOLYLINE
  5
1D8
100
AcDbEntity
  8
USP-GEO
100
AcDbPolyline
 90
        2
 70
   129
 43
0.0
 10
5.479283905913142
 20
28.26096453528261
 10
5.476984584089429
 20
28.26096453528261
  0
LWPOLYLINE
  5
1D9
100
AcDbEntity
  8
USP-GEO
100
AcDbPolyline
 90
        2
 70
   129
 43
0.0
 10
5.433297469438841
 20
27.52518155169378
 10
5.430998147615127
 20
27.52518155169378
  0
LWPOLYLINE
  5
1DA
100
AcDbEntity
  8
USP-GEO
100
AcDbPolyline
 90
        6
 70
   128
 43
0.0
 10
5.430998147615127
 20
27.70912729759098
 10
5.430998147615127
 20
27.66314086111668
 10
5.430998147615127
 20
27.61715442464238
 10
5.430998147615127
 20
27.57116798816808
 10
5.430998147615127
 20
27.52518155169378
 10
5.433297469438841
 20
27.52518155169378
  0
LWPOLYLINE
  5
1DB
100
AcDbEntity
  8
USP-GEO
100
AcDbPolyline
 90
        2
 70
   129
 43
0.0
 10
5.433297469438841
 20
27.70912729759098
 10
5.430998147615127
 20
27.70912729759098
  0
LWPOLYLINE
  5
1DC
100
AcDbEntity
  8
USP-GEO
100
AcDbPolyline
 90
       10
 70
   129
 43
0.0
 10
5.568957457038031
 20
27.52518155169378
 10
5.568957457038031
 20
27.47919511521947
 10
5.568957457038031
 20
27.38722224227087
 10
5.568957457038031
 20
27.24926293284796
 10
5.568957457038031
 20
27.11130362342505
 10
5.568957457038031
 20
26.97334431400214
 10
5.568957457038031
 20
27.11130362342505
 10
5.568957457038031
 20
27.24926293284796
 10
5.568957457038031
 20
27.38722224227087
 10
5.568957457038031
 20
27.47919511521947
  0
LWPOLYLINE
  5
1DD
100
AcDbEntity
  8
USP-GEO
100
AcDbPolyline
 90
        2
 70
   129
 43
0.0
 10
5.571256778861751
 20
26.97334431400214
 10
5.568957457038031
 20
26.97334431400214
  0
LWPOLYLINE
  5
1DE
100
AcDbEntity
  8
USP-GEO
100
AcDbPolyline
 90
        2
 70
   129
 43
0.0
 10
5.571256778861751
 20
26.92735787752784
 10
5.568957457038031
 20
26.92735787752784
  0
LWPOLYLINE
  5
1DF
100
AcDbEntity
  8
USP-GEO
100
AcDbPolyline
 90
        2
 70
   128
 43
0.0
 10
5.568957457038031
 20
26.92735787752784
 10
5.571256778861751
 20
26.92735787752784
  0
LWPOLYLINE
  5
1E0
100
AcDbEntity
  8
USP-GEO
100
AcDbPolyline
 90
        2
 70
   129
 43
0.0
 10
5.571256778861751
 20
28.26096453528261
 10
5.568957457038031
 20
28.26096453528261
  0
LWPOLYLINE
  5
1E1
100
AcDbEntity
  8
USP-GEO
100
AcDbPolyline
 90
        2
 70
   129
 43
0.0
 10
5.571256778861751
 20
27.52518155169378
 10
5.568957457038031
 20
27.52518155169378
  0
LWPOLYLINE
  5
1E2
100
AcDbEntity
  8
USP-GEO
100
AcDbPolyline
 90
        2
 70
   129
 43
0.0
 10
5.571256778861751
 20
27.52518155169378
 10
5.568957457038031
 20
27.52518155169378
  0
LWPOLYLINE
  5
1E3
100
AcDbEntity
  8
USP-GEO
100
AcDbPolyline
 90
        3
 70
   128
 43
0.0
 10
5.568957457038031
 20
27.52518155169378
 10
5.568957457038031
 20
27.57116798816808
 10
5.568957457038031
 20
27.61715442464238
  0
LWPOLYLINE
  5
1E4
100
AcDbEntity
  8
USP-GEO
100
AcDbPolyline
 90
        3
 70
   128
 43
0.0
 10
5.568957457038031
 20
27.61715442464238
 10
5.568957457038031
 20
27.57116798816808
 10
5.568957457038031
 20
27.52518155169378
  0
LWPOLYLINE
  5
1E5
100
AcDbEntity
  8
USP-GEO
100
AcDbPolyline
 90
        2
 70
   129
 43
0.0
 10
5.571256778861751
 20
27.61715442464238
 10
5.568957457038031
 20
27.61715442464238
  0
LWPOLYLINE
  5
1E6
100
AcDbEntity
  8
USP-GEO
100
AcDbPolyline
 90
        8
 70
   128
 43
0.0
 10
5.476984584089429
 20
32.03645096982285
 10
5.476984584089429
 20
31.99046453334855
 10
5.476984584089429
 20
31.89849166039994
 10
5.476984584089429
 20
31.76053235097703
 10
5.476984584089429
 20
31.57658660507982
 10
5.476984584089429
 20
31.48461373213122
 10
5.476984584089429
 20
31.43862729565692
 10
5.479283905913142
 20
31.43862729565692
  0
LWPOLYLINE
  5
1E7
100
AcDbEntity
  8
USP-GEO
100
AcDbPolyline
 90
       13
 70
   128
 43
0.0
 10
5.479283905913142
 20
31.25468154975971
 10
5.476984584089429
 20
31.25468154975971
 10
5.476984584089429
 20
31.30066798623401
 10
5.476984584089429
 20
31.34665442270831
 10
5.476984584089429
 20
31.39264085918262
 10
5.476984584089429
 20
31.43862729565692
 10
5.476984584089429
 20
31.48461373213122
 10
5.476984584089429
 20
31.57658660507982
 10
5.476984584089429
 20
31.76053235097703
 10
5.476984584089429
 20
31.89849166039994
 10
5.476984584089429
 20
31.99046453334855
 10
5.476984584089429
 20
32.03645096982285
 10
5.479283905913142
 20
32.03645096982285
  0
LWPOLYLINE
  5
1E8
100
AcDbEntity
  8
USP-GEO
100
AcDbPolyline
 90
       11
 70
   128
 43
0.0
 10
5.568957457038031
 20
31.30066798623401
 10
5.568957457038031
 20
31.34665442270831
 10
5.568957457038031
 20
31.39264085918262
 10
5.568957457038031
 20
31.43862729565692
 10
5.568957457038031
 20
31.48461373213122
 10
5.568957457038031
 20
31.57658660507982
 10
5.568957457038031
 20
31.76053235097703
 10
5.568957457038031
 20
31.89849166039994
 10
5.568957457038031
 20
31.99046453334855
 10
5.568957457038031
 20
32.03645096982285
 10
5.571256778861751
 20
32.03645096982285
  0
LWPOLYLINE
  5
1E9
100
AcDbEntity
  8
USP-GEO
100
AcDbPolyline
 90
        7
 70
   128
 43
0.0
 10
5.568957457038031
 20
32.03645096982285
 10
5.568957457038031
 20
31.99046453334855
 10
5.568957457038031
 20
31.89849166039994
 10
5.568957457038031
 20
31.76053235097703
 10
5.568957457038031
 20
31.57658660507982
 10
5.568957457038031
 20
31.48461373213122
 10
5.568957457038031
 20
31.43862729565692
  0
LWPOLYLINE
  5
1EA
100
AcDbEntity
  8
USP-GEO
100
AcDbPolyline
 90
        3
 70
   128
 43
0.0
 10
5.476984584089429
 20
28.35293740823122
 10
5.476984584089429
 20
28.39892384470552
 10
5.476984584089429
 20
28.44491028117982
  0
LWPOLYLINE
  5
1EB
100
AcDbEntity
  8
USP-GEO
100
AcDbPolyline
 90
        5
 70
   128
 43
0.0
 10
5.479283905913142
 20
29.04503327716947
 10
5.476984584089429
 20
29.04503327716947
 10
5.476984584089429
 20
29.09101971364377
 10
5.476984584089429
 20
29.13700615011808
 10
5.476984584089429
 20
29.18299258659238
  0
LWPOLYLINE
  5
1EC
100
AcDbEntity
  8
USP-GEO
100
AcDbPolyline
 90
        2
 70
   129
 43
0.0
 10
5.479283905913142
 20
28.44491028117982
 10
5.476984584089429
 20
28.44491028117982
  0
LWPOLYLINE
  5
1ED
100
AcDbEntity
  8
USP-GEO
100
AcDbPolyline
 90
        4
 70
   128
 43
0.0
 10
5.479283905913142
 20
28.44491028117982
 10
5.476984584089429
 20
28.44491028117982
 10
5.476984584089429
 20
28.39892384470552
 10
5.476984584089429
 20
28.35293740823122
  0
LWPOLYLINE
  5
1EE
100
AcDbEntity
  8
USP-GEO
100
AcDbPolyline
 90
        2
 70
   129
 43
0.0
 10
5.479283905913142
 20
29.18299258659238
 10
5.476984584089429
 20
29.18299258659238
  0
LWPOLYLINE
  5
1EF
100
AcDbEntity
  8
USP-GEO
100
AcDbPolyline
 90
        6
 70
   128
 43
0.0
 10
5.476984584089429
 20
28.99904684069517
 10
5.476984584089429
 20
29.04503327716947
 10
5.476984584089429
 20
29.09101971364377
 10
5.476984584089429
 20
29.13700615011808
 10
5.476984584089429
 20
29.18299258659238
 10
5.479283905913142
 20
29.18299258659238
  0
LWPOLYLINE
  5
1F0
100
AcDbEntity
  8
USP-GEO
100
AcDbPolyline
 90
        3
 70
   128
 43
0.0
 10
5.476984584089429
 20
29.78081626075831
 10
5.476984584089429
 20
29.82680269723261
 10
5.476984584089429
 20
29.87278913370691
  0
LWPOLYLINE
  5
1F1
100
AcDbEntity
  8
USP-GEO
100
AcDbPolyline
 90
        3
 70
   128
 43
0.0
 10
5.476984584089429
 20
29.87278913370691
 10
5.476984584089429
 20
29.82680269723261
 10
5.476984584089429
 20
29.78081626075831
  0
LWPOLYLINE
  5
1F2
100
AcDbEntity
  8
USP-GEO
100
AcDbPolyline
 90
        2
 70
   129
 43
0.0
 10
5.476984584089429
 20
29.91877557018122
 10
5.476984584089429
 20
29.87278913370691
  0
LWPOLYLINE
  5
1F3
100
AcDbEntity
  8
USP-GEO
100
AcDbPolyline
 90
        2
 70
   129
 43
0.0
 10
5.479283905913142
 20
29.78081626075831
 10
5.476984584089429
 20
29.78081626075831
  0
LWPOLYLINE
  5
1F4
100
AcDbEntity
  8
USP-GEO
100
AcDbPolyline
 90
        2
 70
   129
 43
0.0
 10
5.571256778861751
 20
28.44491028117982
 10
5.568957457038031
 20
28.44491028117982
  0
LWPOLYLINE
  5
1F5
100
AcDbEntity
  8
USP-GEO
100
AcDbPolyline
 90
        2
 70
   129
 43
0.0
 10
5.571256778861751
 20
29.18299258659238
 10
5.568957457038031
 20
29.18299258659238
  0
LWPOLYLINE
  5
1F6
100
AcDbEntity
  8
USP-GEO
100
AcDbPolyline
 90
        2
 70
   128
 43
0.0
 10
5.568957457038031
 20
29.13700615011808
 10
5.568957457038031
 20
29.18299258659238
  0
LWPOLYLINE
  5
1F7
100
AcDbEntity
  8
USP-GEO
100
AcDbPolyline
 90
        2
 70
   129
 43
0.0
 10
5.571256778861751
 20
29.13700615011808
 10
5.568957457038031
 20
29.13700615011808
  0
LWPOLYLINE
  5
1F8
100
AcDbEntity
  8
USP-GEO
100
AcDbPolyline
 90
        3
 70
   128
 43
0.0
 10
5.568957457038031
 20
29.13700615011808
 10
5.568957457038031
 20
29.18299258659238
 10
5.571256778861751
 20
29.18299258659238
  0
LWPOLYLINE
  5
1F9
100
AcDbEntity
  8
USP-GEO
100
AcDbPolyline
 90
        2
 70
   129
 43
0.0
 10
5.571256778861751
 20
29.78081626075831
 10
5.568957457038031
 20
29.78081626075831
  0
LWPOLYLINE
  5
1FA
100
AcDbEntity
  8
USP-GEO
100
AcDbPolyline
 90
        3
 70
   128
 43
0.0
 10
5.568957457038031
 20
29.78081626075831
 10
5.568957457038031
 20
29.82680269723261
 10
5.568957457038031
 20
29.87278913370691
  0
LWPOLYLINE
  5
1FB
100
AcDbEntity
  8
USP-GEO
100
AcDbPolyline
 90
        4
 70
   128
 43
0.0
 10
5.568957457038031
 20
29.87278913370691
 10
5.568957457038031
 20
29.82680269723261
 10
5.568957457038031
 20
29.78081626075831
 10
5.571256778861751
 20
29.78081626075831
  0
LWPOLYLINE
  5
1FC
100
AcDbEntity
  8
USP-GEO
100
AcDbPolyline
 90
        2
 70
   129
 43
0.0
 10
5.571256778861751
 20
29.87278913370691
 10
5.568957457038031
 20
29.87278913370691
  0
LWPOLYLINE
  5
1FD
100
AcDbEntity
  8
USP-GEO
100
AcDbPolyline
 90
        5
 70
   128
 43
0.0
 10
5.476984584089429
 20
30.51659924434715
 10
5.476984584089429
 20
30.56258568082145
 10
5.476984584089429
 20
30.60857211729576
 10
5.476984584089429
 20
30.65455855377006
 10
5.476984584089429
 20
30.70054499024436
  0
LWPOLYLINE
  5
1FE
100
AcDbEntity
  8
USP-GEO
100
AcDbPolyline
 90
        5
 70
   128
 43
0.0
 10
5.476984584089429
 20
30.51659924434715
 10
5.476984584089429
 20
30.56258568082145
 10
5.476984584089429
 20
30.60857211729576
 10
5.476984584089429
 20
30.65455855377006
 10
5.476984584089429
 20
30.70054499024436
  0
LWPOLYLINE
  5
1FF
100
AcDbEntity
  8
USP-GEO
100
AcDbPolyline
 90
        2
 70
   129
 43
0.0
 10
5.479283905913142
 20
30.70054499024436
 10
5.476984584089429
 20
30.70054499024436
  0
LWPOLYLINE
  5
200
100
AcDbEntity
  8
USP-GEO
100
AcDbPolyline
 90
        2
 70
   129
 43
0.0
 10
5.479283905913142
 20
30.51659924434715
 10
5.476984584089429
 20
30.51659924434715
  0
LWPOLYLINE
  5
201
100
AcDbEntity
  8
USP-GEO
100
AcDbPolyline
 90
        2
 70
   128
 43
0.0
 10
5.476984584089429
 20
31.30066798623401
 10
5.479283905913142
 20
31.30066798623401
  0
LWPOLYLINE
  5
202
100
AcDbEntity
  8
USP-GEO
100
AcDbPolyline
 90
        2
 70
   129
 43
0.0
 10
5.479283905913142
 20
31.43862729565692
 10
5.476984584089429
 20
31.43862729565692
  0
LWPOLYLINE
  5
203
100
AcDbEntity
  8
USP-GEO
100
AcDbPolyline
 90
        5
 70
   128
 43
0.0
 10
5.476984584089429
 20
31.43862729565692
 10
5.476984584089429
 20
31.39264085918262
 10
5.476984584089429
 20
31.34665442270831
 10
5.476984584089429
 20
31.30066798623401
 10
5.476984584089429
 20
31.25468154975971
  0
LWPOLYLINE
  5
204
100
AcDbEntity
  8
USP-GEO
100
AcDbPolyline
 90
        5
 70
   128
 43
0.0
 10
5.568957457038031
 20
30.51659924434715
 10
5.568957457038031
 20
30.56258568082145
 10
5.568957457038031
 20
30.60857211729576
 10
5.568957457038031
 20
30.65455855377006
 10
5.568957457038031
 20
30.70054499024436
  0
LWPOLYLINE
  5
205
100
AcDbEntity
  8
USP-GEO
100
AcDbPolyline
 90
        2
 70
   129
 43
0.0
 10
5.571256778861751
 20
30.51659924434715
 10
5.568957457038031
 20
30.51659924434715
  0
LWPOLYLINE
  5
206
100
AcDbEntity
  8
USP-GEO
100
AcDbPolyline
 90
        2
 70
   129
 43
0.0
 10
5.571256778861751
 20
30.70054499024436
 10
5.568957457038031
 20
30.70054499024436
  0
LWPOLYLINE
  5
207
100
AcDbEntity
  8
USP-GEO
100
AcDbPolyline
 90
        5
 70
   128
 43
0.0
 10
5.568957457038031
 20
30.70054499024436
 10
5.568957457038031
 20
30.65455855377006
 10
5.568957457038031
 20
30.60857211729576
 10
5.568957457038031
 20
30.56258568082145
 10
5.568957457038031
 20
30.51659924434715
  0
LWPOLYLINE
  5
208
100
AcDbEntity
  8
USP-GEO
100
AcDbPolyline
 90
        2
 70
   129
 43
0.0
 10
5.571256778861751
 20
31.43862729565692
 10
5.568957457038031
 20
31.43862729565692
  0
LWPOLYLINE
  5
209
100
AcDbEntity
  8
USP-GEO
100
AcDbPolyline
 90
        2
 70
   129
 43
0.0
 10
5.571256778861751
 20
31.43862729565692
 10
5.568957457038031
 20
31.43862729565692
  0
LWPOLYLINE
  5
20A
100
AcDbEntity
  8
USP-GEO
100
AcDbPolyline
 90
        2
 70
   129
 43
0.0
 10
5.571256778861751
 20
31.30066798623401
 10
5.568957457038031
 20
31.30066798623401
  0
LWPOLYLINE
  5
20B
100
AcDbEntity
  8
USP-GEO
100
AcDbPolyline
 90
        4
 70
   128
 43
0.0
 10
5.568957457038031
 20
31.43862729565692
 10
5.568957457038031
 20
31.39264085918262
 10
5.568957457038031
 20
31.34665442270831
 10
5.568957457038031
 20
31.30066798623401
  0
ENDBLK
  5
20D
100
AcDbEntity
  8
0
100
AcDbBlockEnd
  0
ENDSEC
  0
SECTION
  2
ENTITIES
  0
INSERT
  5
3
100
AcDbEntity
  8
USP
100
AcDbBlockReference
  2
HPAHD22_T
 10
3.852076695676487
 20
40.51118600709568
 30
0.0
  0
INSERT
  5
6E
100
AcDbEntity
  8
USP
100
AcDbBlockReference
  2
HPAHD22_F
 10
3.852076695676487
 20
1.891776655976421
 30
0.0
  0
INSERT
  5
121
100
AcDbEntity
  8
USP
100
AcDbBlockReference
  2
HPAHD22_S
 10
13.23790838008163
 20
1.891776655976421
 30
0.0
  0
ENDSEC
  0
SECTION
  2
OBJECTS
  0
DICTIONARY
  5
226
102
{ACAD_XDICTIONARY
360
227
102
}
100
AcDbDictionary
  3
ACAD_GROUP
350
224
  3
ACAD_MLINESTYLE
350
225
  0
DICTIONARY
  5
E
100
AcDbDictionary
280
     1
  3
ACAD_XREC_ROUNDTRIP
360
F
  0
DICTIONARY
  5
9
100
AcDbDictionary
280
     1
  3
ACAD_XREC_ROUNDTRIP
360
A
  0
DICTIONARY
  5
20E
100
AcDbDictionary
280
     1
  3
ACAD_LAYOUTSELFREF
360
20F
  0
DICTIONARY
  5
213
100
AcDbDictionary
280
     1
  3
ACAD_LAYOUTSELFREF
360
214
  0
DICTIONARY
  5
227
100
AcDbDictionary
280
     1
  3
ACAD_XREC_ROUNDTRIP
360
228
  0
DICTIONARY
  5
224
102
{ACAD_REACTORS
330
226
102
}
100
AcDbDictionary
  0
DICTIONARY
  5
225
102
{ACAD_REACTORS
330
226
102
}
100
AcDbDictionary
  3
STANDARD
350
229
  0
XRECORD
  5
F
102
{ACAD_REACTORS
330
E
102
}
100
AcDbXrecord
102
EXTNAMES
  1
USP-GEO
  2
USP-Geo
  0
XRECORD
  5
A
102
{ACAD_REACTORS
330
9
102
}
100
AcDbXrecord
102
EXTNAMES
  1
USP-TXT
  2
USP-Txt
  0
XRECORD
  5
20F
102
{ACAD_REACTORS
330
20E
102
}
100
AcDbXrecord
340
18
  0
XRECORD
  5
214
102
{ACAD_REACTORS
330
213
102
}
100
AcDbXrecord
340
15
  0
XRECORD
  5
228
102
{ACAD_REACTORS
330
227
102
}
100
AcDbXrecord
102
EXTNAMES
  1
ACDBVARIABLEDICTIONARY
  2
AcDbVariableDictionary
  0
MLINESTYLE
  5
229
102
{ACAD_REACTORS
330
225
102
}
100
AcDbMlineStyle
  2
STANDARD
 70
     0
  3

 62
     0
 51
90.0
 52
90.0
 71
     2
 49
0.5
 62
   256
  6
BYLAYER
 49
-0.5
 62
   256
  6
BYLAYER
  0
ENDSEC
  0
EOF
