  0
SECTION
  2
HEADER
  9
$ACADVER
  1
AC1014
  9
$ACADMAINTVER
 70
     9
  9
$DWGCODEPAGE
  3
ANSI_1252
  9
$INSBASE
 10
0.0
 20
0.0
 30
0.0
  9
$EXTMIN
 10
-0.2236332774341552
 20
0.0017473096302786
 30
0.0
  9
$EXTMAX
 10
26.34997576958541
 20
57.26232302377371
 30
0.0
  9
$LIMMIN
 10
0.0
 20
0.0
  9
$LIMMAX
 10
12.0
 20
9.0
  9
$ORTHOMODE
 70
     1
  9
$REGENMODE
 70
     1
  9
$FILLMODE
 70
     1
  9
$QTEXTMODE
 70
     0
  9
$MIRRTEXT
 70
     0
  9
$DRAGMODE
 70
     2
  9
$LTSCALE
 40
1.5
  9
$OSMODE
 70
     0
  9
$ATTMODE
 70
     1
  9
$TEXTSIZE
 40
0.75
  9
$TRACEWID
 40
0.05
  9
$TEXTSTYLE
  7
STANDARD
  9
$CLAYER
  8
USP
  9
$CELTYPE
  6
BYLAYER
  9
$CECOLOR
 62
   256
  9
$CELTSCALE
 40
1.0
  9
$DELOBJ
 70
     1
  9
$DISPSILH
 70
     1
  9
$DIMSCALE
 40
3.0
  9
$DIMASZ
 40
0.125
  9
$DIMEXO
 40
0.0625
  9
$DIMDLI
 40
0.37890625
  9
$DIMRND
 40
0.0
  9
$DIMDLE
 40
0.0
  9
$DIMEXE
 40
0.09375
  9
$DIMTP
 40
0.0
  9
$DIMTM
 40
0.0
  9
$DIMTXT
 40
0.109375
  9
$DIMCEN
 40
0.0
  9
$DIMTSZ
 40
0.0
  9
$DIMTOL
 70
     0
  9
$DIMLIM
 70
     0
  9
$DIMTIH
 70
     1
  9
$DIMTOH
 70
     1
  9
$DIMSE1
 70
     0
  9
$DIMSE2
 70
     0
  9
$DIMTAD
 70
     0
  9
$DIMZIN
 70
     8
  9
$DIMBLK
  1

  9
$DIMASO
 70
     1
  9
$DIMSHO
 70
     1
  9
$DIMPOST
  1

  9
$DIMAPOST
  1

  9
$DIMALT
 70
     0
  9
$DIMALTD
 70
     2
  9
$DIMALTF
 40
25.4
  9
$DIMLFAC
 40
1.0
  9
$DIMTOFL
 70
     0
  9
$DIMTVP
 40
0.0
  9
$DIMTIX
 70
     0
  9
$DIMSOXD
 70
     0
  9
$DIMSAH
 70
     0
  9
$DIMBLK1
  1

  9
$DIMBLK2
  1

  9
$DIMSTYLE
  2
STANDARD
  9
$DIMCLRD
 70
     0
  9
$DIMCLRE
 70
     0
  9
$DIMCLRT
 70
   256
  9
$DIMTFAC
 40
1.0
  9
$DIMGAP
 40
0.08984375
  9
$DIMJUST
 70
     0
  9
$DIMSD1
 70
     0
  9
$DIMSD2
 70
     0
  9
$DIMTOLJ
 70
     1
  9
$DIMTZIN
 70
     0
  9
$DIMALTZ
 70
     0
  9
$DIMALTTZ
 70
     0
  9
$DIMFIT
 70
     3
  9
$DIMUPT
 70
     1
  9
$DIMUNIT
 70
     7
  9
$DIMDEC
 70
     4
  9
$DIMTDEC
 70
     4
  9
$DIMALTU
 70
     2
  9
$DIMALTTD
 70
     2
  9
$DIMTXSTY
  7
STANDARD
  9
$DIMAUNIT
 70
     0
  9
$LUNITS
 70
     5
  9
$LUPREC
 70
     6
  9
$SKETCHINC
 40
0.1
  9
$FILLETRAD
 40
0.0
  9
$AUNITS
 70
     0
  9
$AUPREC
 70
     1
  9
$MENU
  1
CUSTOM
  9
$ELEVATION
 40
0.0
  9
$PELEVATION
 40
0.0
  9
$THICKNESS
 40
0.0
  9
$LIMCHECK
 70
     0
  9
$BLIPMODE
 70
     0
  9
$CHAMFERA
 40
0.0
  9
$CHAMFERB
 40
0.0
  9
$CHAMFERC
 40
0.0
  9
$CHAMFERD
 40
0.0
  9
$SKPOLY
 70
     0
  9
$TDCREATE
 40
2451263.663231366
  9
$TDUPDATE
 40
2452768.660345046
  9
$TDINDWG
 40
0.6363840741
  9
$TDUSRTIMER
 40
0.6363840741
  9
$USRTIMER
 70
     1
  9
$ANGBASE
 50
0.0
  9
$ANGDIR
 70
     0
  9
$PDMODE
 70
     0
  9
$PDSIZE
 40
0.0
  9
$PLINEWID
 40
0.0
  9
$COORDS
 70
     2
  9
$SPLFRAME
 70
     0
  9
$SPLINETYPE
 70
     6
  9
$SPLINESEGS
 70
     8
  9
$ATTDIA
 70
     0
  9
$ATTREQ
 70
     0
  9
$HANDLING
 70
     1
  9
$HANDSEED
  5
F6
  9
$SURFTAB1
 70
     6
  9
$SURFTAB2
 70
     6
  9
$SURFTYPE
 70
     6
  9
$SURFU
 70
     6
  9
$SURFV
 70
     6
  9
$UCSNAME
  2

  9
$UCSORG
 10
0.0
 20
0.0
 30
0.0
  9
$UCSXDIR
 10
1.0
 20
0.0
 30
0.0
  9
$UCSYDIR
 10
0.0
 20
1.0
 30
0.0
  9
$PUCSNAME
  2

  9
$PUCSORG
 10
0.0
 20
0.0
 30
0.0
  9
$PUCSXDIR
 10
1.0
 20
0.0
 30
0.0
  9
$PUCSYDIR
 10
0.0
 20
1.0
 30
0.0
  9
$USERI1
 70
     0
  9
$USERI2
 70
     0
  9
$USERI3
 70
     0
  9
$USERI4
 70
     0
  9
$USERI5
 70
     0
  9
$USERR1
 40
0.0
  9
$USERR2
 40
0.0
  9
$USERR3
 40
0.0
  9
$USERR4
 40
0.0
  9
$USERR5
 40
0.0
  9
$WORLDVIEW
 70
     1
  9
$SHADEDGE
 70
     3
  9
$SHADEDIF
 70
    70
  9
$TILEMODE
 70
     1
  9
$MAXACTVP
 70
    16
  9
$PINSBASE
 10
0.0
 20
0.0
 30
0.0
  9
$PLIMCHECK
 70
     0
  9
$PEXTMIN
 10
1.000000000000000E+20
 20
1.000000000000000E+20
 30
1.000000000000000E+20
  9
$PEXTMAX
 10
-1.000000000000000E+20
 20
-1.000000000000000E+20
 30
-1.000000000000000E+20
  9
$PLIMMIN
 10
0.0
 20
0.0
  9
$PLIMMAX
 10
12.0
 20
9.0
  9
$UNITMODE
 70
     0
  9
$VISRETAIN
 70
     0
  9
$PLINEGEN
 70
     0
  9
$PSLTSCALE
 70
     0
  9
$TREEDEPTH
 70
  3020
  9
$PICKSTYLE
 70
     0
  9
$CMLSTYLE
  2
STANDARD
  9
$CMLJUST
 70
     0
  9
$CMLSCALE
 40
1.0
  9
$PROXYGRAPHICS
 70
     1
  9
$MEASUREMENT
 70
     0
  0
ENDSEC
  0
SECTION
  2
CLASSES
  0
CLASS
  1
ACDBDICTIONARYWDFLT
  2
AcDbDictionaryWithDefault
  3
AutoCAD 2000
 90
        0
280
     0
281
     0
  0
CLASS
  1
ACDBPLACEHOLDER
  2
AcDbPlaceHolder
  3
AutoCAD 2000
 90
        0
280
     0
281
     0
  0
CLASS
  1
LAYOUT
  2
AcDbLayout
  3
AutoCAD 2000
 90
        0
280
     0
281
     0
  0
CLASS
  1
DICTIONARYVAR
  2
AcDbDictionaryVar
  3
"AutoCAD"
 90
        0
280
     0
281
     0
  0
CLASS
  1
LONG_TRANSACTION
  2
AcDbLongTransaction
  3
AutoCAD 2000
 90
        0
280
     0
281
     0
  0
CLASS
  1
LWPOLYLINE
  2
AcDbPolyline
  3
"AutoCAD"
 90
        0
280
     0
281
     1
  0
CLASS
  1
HATCH
  2
AcDbHatch
  3
"ACAD_SEDONA"
 90
        0
280
     0
281
     1
  0
CLASS
  1
XRECORD
  2
AcDbXrecord
  3
"<Built In>"
 90
        0
280
     0
281
     0
  0
CLASS
  1
LONG_TRANSACTION
  2
AcDbLongTransaction
  3
AutoCAD 2000
 90
        0
280
     0
281
     0
  0
CLASS
  1
LWPOLYLINE
  2
AcDbPolyline
  3
"AutoCAD"
 90
        0
280
     0
281
     1
  0
CLASS
  1
HATCH
  2
AcDbHatch
  3
"ACAD_SEDONA"
 90
        0
280
     0
281
     1
  0
CLASS
  1
XRECORD
  2
AcDbXrecord
  3
"<Built In>"
 90
        0
280
     0
281
     0
  0
ENDSEC
  0
SECTION
  2
TABLES
  0
TABLE
  2
VPORT
  5
E6
100
AcDbSymbolTable
 70
     1
  0
VPORT
  5
E7
100
AcDbSymbolTableRecord
100
AcDbViewportTableRecord
  2
*ACTIVE
 70
     0
 10
0.0
 20
0.0
 11
1.0
 21
1.0
 12
-5.002627491103055
 22
22.69312084766894
 13
0.0
 23
0.0
 14
1.0
 24
1.0
 15
0.0
 25
0.0
 16
0.0
 26
0.0
 36
1.0
 17
18.06596660309899
 27
8.119903606830565
 37
5.823974399722915
 40
61.97115577020882
 41
1.457627118644067
 42
50.0
 43
10.55307667737539
 44
10.55307667737539
 50
0.0
 51
0.0
 71
     0
 72
   100
 73
     1
 74
     1
 75
     0
 76
     0
 77
     0
 78
     0
  0
ENDTAB
  0
TABLE
  2
LTYPE
  5
E1
100
AcDbSymbolTable
 70
     1
  0
LTYPE
  5
E2
100
AcDbSymbolTableRecord
100
AcDbLinetypeTableRecord
  2
BYBLOCK
 70
     0
  3

 72
    65
 73
     0
 40
0.0
  0
LTYPE
  5
E3
100
AcDbSymbolTableRecord
100
AcDbLinetypeTableRecord
  2
BYLAYER
 70
     0
  3

 72
    65
 73
     0
 40
0.0
  0
LTYPE
  5
5
100
AcDbSymbolTableRecord
100
AcDbLinetypeTableRecord
  2
CONTINUOUS
 70
     0
  3
Solid line
 72
    65
 73
     0
 40
0.0
  0
ENDTAB
  0
TABLE
  2
LAYER
  5
DF
100
AcDbSymbolTable
 70
     4
  0
LAYER
  5
27
100
AcDbSymbolTableRecord
100
AcDbLayerTableRecord
  2
0
 70
     0
 62
     7
  6
CONTINUOUS
  0
LAYER
  5
D
102
{ACAD_XDICTIONARY
360
E
102
}
100
AcDbSymbolTableRecord
100
AcDbLayerTableRecord
  2
USP-GEO
 70
     0
 62
     7
  6
CONTINUOUS
  0
LAYER
  5
8
102
{ACAD_XDICTIONARY
360
9
102
}
100
AcDbSymbolTableRecord
100
AcDbLayerTableRecord
  2
USP-TXT
 70
     0
 62
     7
  6
CONTINUOUS
  0
LAYER
  5
4
100
AcDbSymbolTableRecord
100
AcDbLayerTableRecord
  2
USP
 70
     0
 62
     7
  6
CONTINUOUS
  0
ENDTAB
  0
TABLE
  2
STYLE
  5
E0
100
AcDbSymbolTable
 70
     1
  0
STYLE
  5
B
100
AcDbSymbolTableRecord
100
AcDbTextStyleTableRecord
  2
STANDARD
 70
     0
 40
0.0
 41
1.0
 50
0.0
 71
     0
 42
0.75
  3
txt
  4

  0
ENDTAB
  0
TABLE
  2
VIEW
  5
E4
100
AcDbSymbolTable
 70
     0
  0
ENDTAB
  0
TABLE
  2
UCS
  5
E5
100
AcDbSymbolTable
 70
     0
  0
ENDTAB
  0
TABLE
  2
APPID
  5
E8
100
AcDbSymbolTable
 70
     1
  0
APPID
  5
E9
100
AcDbSymbolTableRecord
100
AcDbRegAppTableRecord
  2
ACAD
 70
     0
  0
ENDTAB
  0
TABLE
  2
DIMSTYLE
  5
EA
100
AcDbSymbolTable
 70
     1
  0
DIMSTYLE
105
F2
100
AcDbSymbolTableRecord
100
AcDbDimStyleTableRecord
  2
STANDARD
 70
     0
  3

  4

  5

  6

  7

 40
1.0
 41
0.18
 42
0.0625
 43
0.38
 44
0.18
 45
0.0
 46
0.0
 47
0.0
 48
0.0
140
0.18
141
0.09
142
0.0
143
25.4
144
1.0
145
0.0
146
1.0
147
0.09
 71
     0
 72
     0
 73
     1
 74
     1
 75
     0
 76
     0
 77
     0
 78
     0
170
     0
171
     2
172
     0
173
     0
174
     0
175
     0
176
     0
177
     0
178
     0
270
     2
271
     4
272
     4
273
     2
274
     2
340
B
275
     0
280
     0
281
     0
282
     0
283
     1
284
     0
285
     0
286
     0
287
     3
288
     0
  0
ENDTAB
  0
TABLE
  2
BLOCK_RECORD
  5
1
100
AcDbSymbolTable
 70
     3
  0
BLOCK_RECORD
  5
2
102
{ACAD_XDICTIONARY
360
D6
102
}
100
AcDbSymbolTableRecord
100
AcDbBlockTableRecord
  2
*MODEL_SPACE
  0
BLOCK_RECORD
  5
DA
102
{ACAD_XDICTIONARY
360
DB
102
}
100
AcDbSymbolTableRecord
100
AcDbBlockTableRecord
  2
*PAPER_SPACE
  0
BLOCK_RECORD
  5
6
100
AcDbSymbolTableRecord
100
AcDbBlockTableRecord
  2
HPAHD22-2P_T
  0
BLOCK_RECORD
  5
2A
100
AcDbSymbolTableRecord
100
AcDbBlockTableRecord
  2
HPAHD22-2P_F
  0
BLOCK_RECORD
  5
99
100
AcDbSymbolTableRecord
100
AcDbBlockTableRecord
  2
HPAHD22-2P_S
  0
ENDTAB
  0
ENDSEC
  0
SECTION
  2
BLOCKS
  0
BLOCK
  5
D8
100
AcDbEntity
  8
0
100
AcDbBlockBegin
  2
*MODEL_SPACE
 70
     0
 10
0.0
 20
0.0
 30
0.0
  3
*MODEL_SPACE
  1

  0
ENDBLK
  5
D9
100
AcDbEntity
  8
0
100
AcDbBlockEnd
  0
BLOCK
  5
DD
100
AcDbEntity
 67
     1
  8
0
100
AcDbBlockBegin
  2
*PAPER_SPACE
 70
     0
 10
0.0
 20
0.0
 30
0.0
  3
*PAPER_SPACE
  1

  0
ENDBLK
  5
DE
100
AcDbEntity
 67
     1
  8
0
100
AcDbBlockEnd
  0
BLOCK
  5
26
100
AcDbEntity
  8
0
100
AcDbBlockBegin
  2
HPAHD22-2P_T
 70
     0
 10
0.0
 20
0.0
 30
0.0
  3
HPAHD22-2P_T
  1

  0
TEXT
  5
7
100
AcDbEntity
  8
USP-TXT
100
AcDbText
 10
-3.235543444363919
 20
-2.041341235495707
 30
0.0
 40
0.40625
  1
HPAHD22-2P - TOP VIEW
 72
     1
 11
1.03008155563608
 21
-2.041341235495707
 31
0.0
100
AcDbText
  0
LWPOLYLINE
  5
C
100
AcDbEntity
  8
USP-GEO
100
AcDbPolyline
 90
        8
 70
   129
 43
0.0
 10
0.0
 20
8.237795076002278
 10
0.0
 20
8.123500312547513
 10
0.2314468959959015
 20
8.123500312547513
 10
1.774426202635247
 20
8.123500312547513
 10
2.06016311127216
 20
8.123500312547513
 10
2.06016311127216
 20
8.237795076002278
 10
1.774426202635247
 20
8.237795076002278
 10
0.2314468959959015
 20
8.237795076002278
  0
LWPOLYLINE
  5
10
100
AcDbEntity
  8
USP-GEO
100
AcDbPolyline
 90
        8
 70
   129
 43
0.0
 10
0.0
 20
8.237795076002278
 10
0.0
 20
8.123500312547513
 10
0.2314468959959015
 20
8.123500312547513
 10
1.774426202635247
 20
8.123500312547513
 10
2.06016311127216
 20
8.123500312547513
 10
2.06016311127216
 20
8.237795076002278
 10
1.774426202635247
 20
8.237795076002278
 10
0.2314468959959015
 20
8.237795076002278
  0
LWPOLYLINE
  5
11
100
AcDbEntity
  8
USP-GEO
100
AcDbPolyline
 90
        4
 70
   128
 43
0.0
 10
2.06016311127216
 20
1.831573584362629
 10
2.06016311127216
 20
8.123500312547513
 10
0.0
 20
8.123500312547513
 10
0.0
 20
1.831573584362629
  0
LWPOLYLINE
  5
12
100
AcDbEntity
  8
USP-GEO
100
AcDbPolyline
 90
       12
 70
   128
 43
0.0
 10
2.06016311127216
 20
0.0
 10
2.06016311127216
 20
1.831573584362629
 10
1.145805003634031
 20
1.831573584362629
 10
1.145805003634031
 20
0.8600680949971177
 10
1.088657621906648
 20
0.8000633441833642
 10
1.031510240179265
 20
0.7429159624559816
 10
0.974362858451883
 20
0.8000633441833642
 10
0.9172154767245004
 20
0.8000633441833642
 10
0.9172154767245004
 20
0.8600680949971177
 10
0.9172154767245004
 20
1.831573584362629
 10
0.0
 20
1.831573584362629
 10
0.0
 20
0.0
  0
LWPOLYLINE
  5
13
100
AcDbEntity
  8
USP-GEO
100
AcDbPolyline
 90
        4
 70
   129
 43
0.0
 10
2.06016311127216
 20
0.0
 10
0.0
 20
0.0
 10
0.0
 20
-0.0571473817273827
 10
2.06016311127216
 20
-0.0571473817273827
  0
LWPOLYLINE
  5
14
100
AcDbEntity
  8
USP-GEO
100
AcDbPolyline
 90
        2
 70
   128
 43
0.0
 10
0.0
 20
8.123500312547513
 10
0.0
 20
1.831573584362629
  0
LWPOLYLINE
  5
15
100
AcDbEntity
  8
USP-GEO
100
AcDbPolyline
 90
        7
 70
   128
 43
0.0
 10
0.9200728458108642
 20
1.831573584362629
 10
0.9172154767245004
 20
1.831573584362629
 10
0.9172154767245004
 20
2.231605256454315
 10
0.9172154767245004
 20
2.288752638181691
 10
0.974362858451883
 20
2.288752638181691
 10
1.031510240179265
 20
2.288752638181691
 10
1.088657621906648
 20
2.288752638181691
  0
LWPOLYLINE
  5
16
100
AcDbEntity
  8
USP-GEO
100
AcDbPolyline
 90
        2
 70
   128
 43
0.0
 10
0.9172154767245004
 20
1.831573584362629
 10
0.9172154767245004
 20
2.288752638181691
  0
LWPOLYLINE
  5
17
100
AcDbEntity
  8
USP-GEO
100
AcDbPolyline
 90
        2
 70
   128
 43
0.0
 10
1.088657621906648
 20
2.288752638181691
 10
1.145805003634031
 20
1.831573584362629
  0
LWPOLYLINE
  5
18
100
AcDbEntity
  8
USP-GEO
100
AcDbPolyline
 90
        3
 70
   128
 43
0.0
 10
1.148662372720401
 20
1.831573584362629
 10
1.145805003634031
 20
1.831573584362629
 10
1.145805003634031
 20
2.231605256454315
  0
LWPOLYLINE
  5
19
100
AcDbEntity
  8
USP-GEO
100
AcDbPolyline
 90
        3
 70
   128
 43
0.0
 10
0.0
 20
-0.0571473817273827
 10
0.0
 20
0.0
 10
0.0
 20
1.831573584362629
  0
LWPOLYLINE
  5
1A
100
AcDbEntity
  8
USP-GEO
100
AcDbPolyline
 90
       10
 70
   128
 43
0.0
 10
0.9172154767245004
 20
1.831573584362629
 10
0.9200728458108642
 20
1.831573584362629
 10
0.9172154767245004
 20
1.831573584362629
 10
0.9172154767245004
 20
0.8600680949971177
 10
0.9172154767245004
 20
1.831573584362629
 10
0.974362858451883
 20
1.888720966090012
 10
1.031510240179265
 20
1.888720966090012
 10
1.088657621906648
 20
1.888720966090012
 10
1.145805003634031
 20
1.831573584362629
 10
1.148662372720401
 20
1.831573584362629
  0
LWPOLYLINE
  5
1B
100
AcDbEntity
  8
USP-GEO
100
AcDbPolyline
 90
        3
 70
   128
 43
0.0
 10
0.9172154767245004
 20
0.8600680949971177
 10
0.974362858451883
 20
0.8000633441833642
 10
0.9772202275382468
 20
0.8000633441833642
  0
LWPOLYLINE
  5
1C
100
AcDbEntity
  8
USP-GEO
100
AcDbPolyline
 90
        2
 70
   129
 43
0.0
 10
0.9200728458108642
 20
0.8600680949971177
 10
0.9172154767245004
 20
0.8600680949971177
  0
LWPOLYLINE
  5
1D
100
AcDbEntity
  8
USP-GEO
100
AcDbPolyline
 90
        4
 70
   128
 43
0.0
 10
1.145805003634031
 20
0.8600680949971177
 10
1.088657621906648
 20
0.8600680949971177
 10
1.088657621906648
 20
0.8000633441833642
 10
1.091514990993012
 20
0.8000633441833642
  0
LWPOLYLINE
  5
1E
100
AcDbEntity
  8
USP-GEO
100
AcDbPolyline
 90
        3
 70
   128
 43
0.0
 10
1.088657621906648
 20
0.8000633441833642
 10
1.031510240179265
 20
0.8000633441833642
 10
0.974362858451883
 20
0.8000633441833642
  0
LWPOLYLINE
  5
1F
100
AcDbEntity
  8
USP-GEO
100
AcDbPolyline
 90
        3
 70
   128
 43
0.0
 10
1.091514990993012
 20
2.288752638181691
 10
1.088657621906648
 20
2.288752638181691
 10
1.145805003634031
 20
2.231605256454315
  0
LWPOLYLINE
  5
20
100
AcDbEntity
  8
USP-GEO
100
AcDbPolyline
 90
        2
 70
   128
 43
0.0
 10
1.145805003634031
 20
2.231605256454315
 10
1.145805003634031
 20
2.288752638181691
  0
LWPOLYLINE
  5
21
100
AcDbEntity
  8
USP-GEO
100
AcDbPolyline
 90
        2
 70
   128
 43
0.0
 10
0.2314468959959015
 20
8.123500312547513
 10
0.2314468959959015
 20
8.237795076002278
  0
LWPOLYLINE
  5
22
100
AcDbEntity
  8
USP-GEO
100
AcDbPolyline
 90
        3
 70
   128
 43
0.0
 10
2.06016311127216
 20
1.831573584362629
 10
2.06016311127216
 20
8.123500312547513
 10
2.063020480358531
 20
8.123500312547513
  0
LWPOLYLINE
  5
23
100
AcDbEntity
  8
USP-GEO
100
AcDbPolyline
 90
        3
 70
   128
 43
0.0
 10
2.06016311127216
 20
1.831573584362629
 10
2.06016311127216
 20
0.0
 10
2.06016311127216
 20
-0.0571473817273827
  0
LWPOLYLINE
  5
24
100
AcDbEntity
  8
USP-GEO
100
AcDbPolyline
 90
        2
 70
   128
 43
0.0
 10
1.774426202635247
 20
8.123500312547513
 10
1.774426202635247
 20
8.237795076002278
  0
LWPOLYLINE
  5
25
100
AcDbEntity
  8
USP-GEO
100
AcDbPolyline
 90
        2
 70
   128
 43
0.0
 10
2.06016311127216
 20
8.123500312547513
 10
2.063020480358531
 20
8.123500312547513
  0
ENDBLK
  5
28
100
AcDbEntity
  8
0
100
AcDbBlockEnd
  0
BLOCK
  5
96
100
AcDbEntity
  8
0
100
AcDbBlockBegin
  2
HPAHD22-2P_F
 70
     0
 10
0.0
 20
0.0
 30
0.0
  3
HPAHD22-2P_F
  1

  0
LWPOLYLINE
  5
2B
100
AcDbEntity
  8
USP-GEO
100
AcDbPolyline
 90
        6
 70
   129
 43
0.0
 10
0.0
 20
14.41542704073238
 10
2.06016311127216
 20
14.41542704073238
 10
2.06016311127216
 20
40.55463944283743
 10
1.774426202635247
 20
40.78322896974696
 10
0.2314468959959015
 20
40.78322896974696
 10
0.0
 20
40.55463944283743
  0
LWPOLYLINE
  5
2C
100
AcDbEntity
  8
USP-GEO
100
AcDbPolyline
 90
        6
 70
   129
 43
0.0
 10
0.0
 20
14.41542704073238
 10
2.06016311127216
 20
14.41542704073238
 10
2.06016311127216
 20
40.55463944283743
 10
1.774426202635247
 20
40.78322896974696
 10
0.2314468959959015
 20
40.78322896974696
 10
0.0
 20
40.55463944283743
  0
TEXT
  5
2D
100
AcDbEntity
  8
USP-TXT
100
AcDbText
 10
-3.697512141548115
 20
-2.461951375755763
 30
0.0
 40
0.40625
  1
HPAHD22-2P - FRONT VIEW
 72
     1
 11
0.974362858451883
 21
-2.461951375755763
 31
0.0
100
AcDbText
  0
LWPOLYLINE
  5
2E
100
AcDbEntity
  8
USP-GEO
100
AcDbPolyline
 90
        3
 70
   128
 43
0.0
 10
2.06016311127216
 20
1.085800252820277
 10
2.06016311127216
 20
14.41542704073238
 10
0.0
 20
14.41542704073238
  0
LWPOLYLINE
  5
2F
100
AcDbEntity
  8
USP-GEO
100
AcDbPolyline
 90
        4
 70
   128
 43
0.0
 10
2.06016311127216
 20
0.1142947634547653
 10
2.06016311127216
 20
0.9715054893655121
 10
0.0
 20
0.9715054893655121
 10
0.0
 20
0.1714421451821479
  0
LWPOLYLINE
  5
30
100
AcDbEntity
  8
USP-GEO
100
AcDbPolyline
 90
        2
 70
   128
 43
0.0
 10
2.06016311127216
 20
1.085800252820277
 10
0.0
 20
1.085800252820277
  0
LWPOLYLINE
  5
31
100
AcDbEntity
  8
USP-GEO
100
AcDbPolyline
 90
        2
 70
   129
 43
0.0
 10
2.06016311127216
 20
0.1714421451821479
 10
1.202952385361413
 20
0.1714421451821479
  0
LWPOLYLINE
  5
32
100
AcDbEntity
  8
USP-GEO
100
AcDbPolyline
 90
        2
 70
   129
 43
0.0
 10
2.06016311127216
 20
0.1142947634547653
 10
1.202952385361413
 20
0.1142947634547653
  0
LWPOLYLINE
  5
33
100
AcDbEntity
  8
USP-GEO
100
AcDbPolyline
 90
        4
 70
   128
 43
0.0
 10
1.202952385361413
 20
0.1142947634547653
 10
2.06016311127216
 20
0.1142947634547653
 10
2.06016311127216
 20
0.1714421451821479
 10
1.202952385361413
 20
0.1714421451821479
  0
LWPOLYLINE
  5
34
100
AcDbEntity
  8
USP-GEO
100
AcDbPolyline
 90
        4
 70
   128
 43
0.0
 10
2.06016311127216
 20
0.1142947634547653
 10
1.202952385361413
 20
0.1142947634547653
 10
2.06016311127216
 20
0.1142947634547653
 10
2.06016311127216
 20
0.1142947634547653
  0
LWPOLYLINE
  5
35
100
AcDbEntity
  8
USP-GEO
100
AcDbPolyline
 90
        2
 70
   128
 43
0.0
 10
1.202952385361413
 20
0.1142947634547653
 10
2.06016311127216
 20
0.1142947634547653
  0
LWPOLYLINE
  5
36
100
AcDbEntity
  8
USP-GEO
100
AcDbPolyline
 90
        3
 70
   128
 43
0.0
 10
0.0
 20
1.085800252820277
 10
0.0
 20
14.41542704073238
 10
0.0
 20
14.47257442245977
  0
LWPOLYLINE
  5
37
100
AcDbEntity
  8
USP-GEO
100
AcDbPolyline
 90
        2
 70
   128
 43
0.0
 10
0.0
 20
14.41542704073238
 10
0.0
 20
1.085800252820277
  0
LWPOLYLINE
  5
38
100
AcDbEntity
  8
USP-GEO
100
AcDbPolyline
 90
        2
 70
   129
 43
0.0
 10
0.802920713269728
 20
0.1142947634547653
 10
0.0
 20
0.1142947634547653
  0
LWPOLYLINE
  5
39
100
AcDbEntity
  8
USP-GEO
100
AcDbPolyline
 90
        2
 70
   129
 43
0.0
 10
0.0
 20
0.1714421451821479
 10
0.802920713269728
 20
0.1714421451821479
  0
LWPOLYLINE
  5
3A
100
AcDbEntity
  8
USP-GEO
100
AcDbPolyline
 90
        4
 70
   128
 43
0.0
 10
0.802920713269728
 20
0.1142947634547653
 10
0.802920713269728
 20
0.1714421451821479
 10
0.0
 20
0.1714421451821479
 10
0.0
 20
0.1142947634547653
  0
LWPOLYLINE
  5
3B
100
AcDbEntity
  8
USP-GEO
100
AcDbPolyline
 90
        2
 70
   128
 43
0.0
 10
0.0
 20
0.1142947634547653
 10
0.802920713269728
 20
0.1142947634547653
  0
LWPOLYLINE
  5
3C
100
AcDbEntity
  8
USP-GEO
100
AcDbPolyline
 90
        2
 70
   128
 43
0.0
 10
0.0
 20
0.1142947634547653
 10
0.802920713269728
 20
0.1142947634547653
  0
LWPOLYLINE
  5
3D
100
AcDbEntity
  8
USP-GEO
100
AcDbPolyline
 90
        3
 70
   128
 43
0.0
 10
0.0
 20
1.085800252820277
 10
0.0
 20
0.9715054893655121
 10
0.0
 20
0.1714421451821479
  0
LWPOLYLINE
  5
3E
100
AcDbEntity
  8
USP-GEO
100
AcDbPolyline
 90
        2
 70
   128
 43
0.0
 10
0.0
 20
0.1714421451821479
 10
0.0
 20
0.1142947634547653
  0
LWPOLYLINE
  5
3F
100
AcDbEntity
  8
USP-GEO
100
AcDbPolyline
 90
        2
 70
   128
 43
0.0
 10
0.0
 20
1.085800252820277
 10
0.0
 20
0.9715054893655121
  0
LWPOLYLINE
  5
40
100
AcDbEntity
  8
USP-GEO
100
AcDbPolyline
 90
        7
 70
   128
 43
0.0
 10
0.9172154767245004
 20
1.085800252820277
 10
0.9172154767245004
 20
1.257242398002425
 10
0.9172154767245004
 20
1.314389779729808
 10
0.974362858451883
 20
1.314389779729808
 10
1.031510240179265
 20
1.314389779729808
 10
1.088657621906648
 20
1.314389779729808
 10
1.091514990993012
 20
1.314389779729808
  0
LWPOLYLINE
  5
41
100
AcDbEntity
  8
USP-GEO
100
AcDbPolyline
 90
        3
 70
   128
 43
0.0
 10
0.802920713269728
 20
0.1714421451821479
 10
0.802920713269728
 20
0.5714738172738266
 10
1.202952385361413
 20
0.5714738172738266
  0
LWPOLYLINE
  5
42
100
AcDbEntity
  8
USP-GEO
100
AcDbPolyline
 90
        3
 70
   128
 43
0.0
 10
0.9172154767245004
 20
0.0
 10
1.031510240179265
 20
0.0
 10
1.145805003634031
 20
0.0
  0
LWPOLYLINE
  5
43
100
AcDbEntity
  8
USP-GEO
100
AcDbPolyline
 90
        4
 70
   128
 43
0.0
 10
1.145805003634031
 20
0.5143264355464439
 10
1.031510240179265
 20
0.4571790538190612
 10
0.9172154767245004
 20
0.5143264355464439
 10
0.802920713269728
 20
0.5714738172738266
  0
LWPOLYLINE
  5
44
100
AcDbEntity
  8
USP-GEO
100
AcDbPolyline
 90
        6
 70
   128
 43
0.0
 10
1.145805003634031
 20
1.257242398002425
 10
1.088657621906648
 20
1.200095016275042
 10
1.031510240179265
 20
1.200095016275042
 10
0.974362858451883
 20
1.200095016275042
 10
0.9172154767245004
 20
1.200095016275042
 10
0.9172154767245004
 20
1.257242398002425
  0
LWPOLYLINE
  5
45
100
AcDbEntity
  8
USP-GEO
100
AcDbPolyline
 90
        2
 70
   128
 43
0.0
 10
0.802920713269728
 20
0.1142947634547653
 10
0.8057780823560989
 20
0.1142947634547653
  0
LWPOLYLINE
  5
46
100
AcDbEntity
  8
USP-GEO
100
AcDbPolyline
 90
        2
 70
   129
 43
0.0
 10
0.8057780823560989
 20
0.1142947634547653
 10
0.802920713269728
 20
0.1142947634547653
  0
LWPOLYLINE
  5
47
100
AcDbEntity
  8
USP-GEO
100
AcDbPolyline
 90
        3
 70
   128
 43
0.0
 10
1.202952385361413
 20
0.1142947634547653
 10
1.202952385361413
 20
0.1714421451821479
 10
1.202952385361413
 20
0.5714738172738266
  0
LWPOLYLINE
  5
48
100
AcDbEntity
  8
USP-GEO
100
AcDbPolyline
 90
        2
 70
   129
 43
0.0
 10
1.205809754447784
 20
0.1142947634547653
 10
1.202952385361413
 20
0.1142947634547653
  0
LWPOLYLINE
  5
49
100
AcDbEntity
  8
USP-GEO
100
AcDbPolyline
 90
        2
 70
   128
 43
0.0
 10
1.145805003634031
 20
0.0
 10
1.202952385361413
 20
0.1142947634547653
  0
LWPOLYLINE
  5
4A
100
AcDbEntity
  8
USP-GEO
100
AcDbPolyline
 90
        3
 70
   128
 43
0.0
 10
1.088657621906648
 20
1.314389779729808
 10
1.145805003634031
 20
1.257242398002425
 10
1.145805003634031
 20
1.085800252820277
  0
LWPOLYLINE
  5
4B
100
AcDbEntity
  8
USP-GEO
100
AcDbPolyline
 90
        2
 70
   128
 43
0.0
 10
1.088657621906648
 20
1.200095016275042
 10
1.091514990993012
 20
1.200095016275042
  0
LWPOLYLINE
  5
4C
100
AcDbEntity
  8
USP-GEO
100
AcDbPolyline
 90
        2
 70
   128
 43
0.0
 10
1.088657621906648
 20
1.314389779729808
 10
1.145805003634031
 20
1.257242398002425
  0
LWPOLYLINE
  5
4D
100
AcDbEntity
  8
USP-GEO
100
AcDbPolyline
 90
        2
 70
   128
 43
0.0
 10
1.145805003634031
 20
0.5143264355464439
 10
1.202952385361413
 20
0.5714738172738266
  0
LWPOLYLINE
  5
4E
100
AcDbEntity
  8
USP-GEO
100
AcDbPolyline
 90
        3
 70
   128
 43
0.0
 10
0.0
 20
14.47257442245977
 10
0.0
 20
14.41542704073238
 10
0.0028573690863638
 20
14.41542704073238
  0
LWPOLYLINE
  5
4F
100
AcDbEntity
  8
USP-GEO
100
AcDbPolyline
 90
        2
 70
   128
 43
0.0
 10
0.0
 20
14.41542704073238
 10
0.0028573690863638
 20
14.41542704073238
  0
LWPOLYLINE
  5
50
100
AcDbEntity
  8
USP-GEO
100
AcDbPolyline
 90
        2
 70
   128
 43
0.0
 10
0.0
 20
14.41542704073238
 10
0.0028573690863638
 20
14.41542704073238
  0
LWPOLYLINE
  5
51
100
AcDbEntity
  8
USP-GEO
100
AcDbPolyline
 90
        2
 70
   128
 43
0.0
 10
0.0
 20
14.41542704073238
 10
0.0028573690863638
 20
14.41542704073238
  0
LWPOLYLINE
  5
52
100
AcDbEntity
  8
USP-GEO
100
AcDbPolyline
 90
        6
 70
   128
 43
0.0
 10
0.3457416594506668
 20
15.78696420218958
 10
0.4028890411780495
 20
15.72981682046219
 10
0.3457416594506668
 20
15.67266943873481
 10
0.2885942777232842
 20
15.61552205700743
 10
0.2314468959959015
 20
15.67266943873481
 10
0.2343042650822653
 20
15.67266943873481
  0
LWPOLYLINE
  5
53
100
AcDbEntity
  8
USP-GEO
100
AcDbPolyline
 90
        4
 70
   128
 43
0.0
 10
0.2314468959959015
 20
15.67266943873481
 10
0.2314468959959015
 20
15.72981682046219
 10
0.2314468959959015
 20
15.78696420218958
 10
0.2343042650822653
 20
15.78696420218958
  0
LWPOLYLINE
  5
54
100
AcDbEntity
  8
USP-GEO
100
AcDbPolyline
 90
        4
 70
   128
 43
0.0
 10
0.2314468959959015
 20
15.78696420218958
 10
0.2885942777232842
 20
15.78696420218958
 10
0.3457416594506668
 20
15.78696420218958
 10
0.3485990285370377
 20
15.78696420218958
  0
LWPOLYLINE
  5
55
100
AcDbEntity
  8
USP-GEO
100
AcDbPolyline
 90
       13
 70
   128
 43
0.0
 10
0.2885942777232842
 20
21.79315402173755
 10
0.3457416594506668
 20
21.79315402173755
 10
0.3457416594506668
 20
21.73600664001016
 10
0.3457416594506668
 20
21.67885925828278
 10
0.2885942777232842
 20
21.67885925828278
 10
0.2885942777232842
 20
21.6217118765554
 10
0.2314468959959015
 20
21.67885925828278
 10
0.1714421451821479
 20
21.67885925828278
 10
0.1714421451821479
 20
21.73600664001016
 10
0.1714421451821479
 20
21.79315402173755
 10
0.2314468959959015
 20
21.79315402173755
 10
0.2885942777232842
 20
21.79315402173755
 10
0.2914516468096551
 20
21.79315402173755
  0
LWPOLYLINE
  5
56
100
AcDbEntity
  8
USP-GEO
100
AcDbPolyline
 90
        8
 70
   128
 43
0.0
 10
0.2914516468096551
 20
18.81863280282725
 10
0.2885942777232842
 20
18.81863280282725
 10
0.2314468959959015
 20
18.81863280282725
 10
0.1714421451821479
 20
18.76148542109987
 10
0.1714421451821479
 20
18.70433803937249
 10
0.2314468959959015
 20
18.64719065764511
 10
0.2885942777232842
 20
18.64719065764511
 10
0.2914516468096551
 20
18.64719065764511
  0
LWPOLYLINE
  5
57
100
AcDbEntity
  8
USP-GEO
100
AcDbPolyline
 90
        3
 70
   128
 43
0.0
 10
0.2885942777232842
 20
18.64719065764511
 10
0.3457416594506668
 20
18.70433803937249
 10
0.3485990285370377
 20
18.70433803937249
  0
LWPOLYLINE
  5
58
100
AcDbEntity
  8
USP-GEO
100
AcDbPolyline
 90
        3
 70
   128
 43
0.0
 10
0.2885942777232842
 20
18.81863280282725
 10
0.3457416594506668
 20
18.76148542109987
 10
0.3457416594506668
 20
18.70433803937249
  0
LWPOLYLINE
  5
59
100
AcDbEntity
  8
USP-GEO
100
AcDbPolyline
 90
        4
 70
   128
 43
0.0
 10
0.1714421451821479
 20
24.71052785892045
 10
0.2314468959959015
 20
24.65338047719307
 10
0.2885942777232842
 20
24.65338047719307
 10
0.2914516468096551
 20
24.65338047719307
  0
LWPOLYLINE
  5
5A
100
AcDbEntity
  8
USP-GEO
100
AcDbPolyline
 90
        6
 70
   128
 43
0.0
 10
0.1742995142685189
 20
24.71052785892045
 10
0.1714421451821479
 20
24.71052785892045
 10
0.1714421451821479
 20
24.76767524064784
 10
0.2314468959959015
 20
24.82482262237522
 10
0.2885942777232842
 20
24.82482262237522
 10
0.2914516468096551
 20
24.82482262237522
  0
LWPOLYLINE
  5
5B
100
AcDbEntity
  8
USP-GEO
100
AcDbPolyline
 90
        3
 70
   128
 43
0.0
 10
0.2885942777232842
 20
24.65338047719307
 10
0.3457416594506668
 20
24.71052785892045
 10
0.3485990285370377
 20
24.71052785892045
  0
LWPOLYLINE
  5
5C
100
AcDbEntity
  8
USP-GEO
100
AcDbPolyline
 90
        3
 70
   128
 43
0.0
 10
0.2885942777232842
 20
24.82482262237522
 10
0.3457416594506668
 20
24.76767524064784
 10
0.3457416594506668
 20
24.71052785892045
  0
LWPOLYLINE
  5
5D
100
AcDbEntity
  8
USP-GEO
100
AcDbPolyline
 90
       12
 70
   129
 43
0.0
 10
0.8600680949971106
 20
25.62488596655859
 10
0.7457733315423454
 20
25.73918073001335
 10
0.7457733315423454
 20
25.85347549346812
 10
0.7457733315423454
 20
26.02491763865026
 10
0.8600680949971106
 20
26.08206502037765
 10
1.031510240179265
 20
26.13921240210503
 10
1.145805003634031
 20
26.08206502037765
 10
1.260099767088796
 20
26.02491763865026
 10
1.317247148816178
 20
25.85347549346812
 10
1.260099767088796
 20
25.73918073001335
 10
1.145805003634031
 20
25.62488596655859
 10
1.031510240179265
 20
25.5677385848312
  0
LWPOLYLINE
  5
5E
100
AcDbEntity
  8
USP-GEO
100
AcDbPolyline
 90
        2
 70
   128
 43
0.0
 10
2.06016311127216
 20
14.41542704073238
 10
2.06016311127216
 20
1.085800252820277
  0
LWPOLYLINE
  5
5F
100
AcDbEntity
  8
USP-GEO
100
AcDbPolyline
 90
        2
 70
   128
 43
0.0
 10
2.06016311127216
 20
1.085800252820277
 10
2.06016311127216
 20
14.41542704073238
  0
LWPOLYLINE
  5
60
100
AcDbEntity
  8
USP-GEO
100
AcDbPolyline
 90
        3
 70
   128
 43
0.0
 10
2.06016311127216
 20
0.1142947634547653
 10
2.06016311127216
 20
0.9715054893655121
 10
2.06016311127216
 20
1.085800252820277
  0
LWPOLYLINE
  5
61
100
AcDbEntity
  8
USP-GEO
100
AcDbPolyline
 90
        2
 70
   128
 43
0.0
 10
2.06016311127216
 20
0.1142947634547653
 10
2.063020480358531
 20
0.1142947634547653
  0
LWPOLYLINE
  5
62
100
AcDbEntity
  8
USP-GEO
100
AcDbPolyline
 90
        4
 70
   128
 43
0.0
 10
2.06016311127216
 20
0.1714421451821479
 10
2.06016311127216
 20
0.1142947634547653
 10
2.06016311127216
 20
0.1714421451821479
 10
2.063020480358531
 20
0.1714421451821479
  0
LWPOLYLINE
  5
63
100
AcDbEntity
  8
USP-GEO
100
AcDbPolyline
 90
        2
 70
   128
 43
0.0
 10
2.06016311127216
 20
0.1142947634547653
 10
2.063020480358531
 20
0.1142947634547653
  0
LWPOLYLINE
  5
64
100
AcDbEntity
  8
USP-GEO
100
AcDbPolyline
 90
        2
 70
   128
 43
0.0
 10
2.06016311127216
 20
0.9715054893655121
 10
2.06016311127216
 20
1.085800252820277
  0
LWPOLYLINE
  5
65
100
AcDbEntity
  8
USP-GEO
100
AcDbPolyline
 90
        7
 70
   128
 43
0.0
 10
1.720136189994228
 20
14.87260609455145
 10
1.717278820907857
 20
14.87260609455145
 10
1.660131439180474
 20
14.92975347627884
 10
1.660131439180474
 20
14.98690085800622
 10
1.660131439180474
 20
15.0440482397336
 10
1.717278820907857
 20
15.0440482397336
 10
1.720136189994228
 20
15.0440482397336
  0
LWPOLYLINE
  5
66
100
AcDbEntity
  8
USP-GEO
100
AcDbPolyline
 90
        7
 70
   128
 43
0.0
 10
1.717278820907857
 20
15.0440482397336
 10
1.774426202635247
 20
15.0440482397336
 10
1.831573584362629
 20
15.0440482397336
 10
1.831573584362629
 20
14.98690085800622
 10
1.831573584362629
 20
14.92975347627884
 10
1.774426202635247
 20
14.87260609455145
 10
1.717278820907857
 20
14.87260609455145
  0
LWPOLYLINE
  5
67
100
AcDbEntity
  8
USP-GEO
100
AcDbPolyline
 90
       13
 70
   128
 43
0.0
 10
1.834430953448993
 20
19.44725400182846
 10
1.831573584362629
 20
19.44725400182846
 10
1.831573584362629
 20
19.39010662010108
 10
1.774426202635247
 20
19.39010662010108
 10
1.717278820907857
 20
19.39010662010108
 10
1.717278820907857
 20
19.44725400182846
 10
1.660131439180474
 20
19.44725400182846
 10
1.717278820907857
 20
19.50440138355586
 10
1.717278820907857
 20
19.56154876528324
 10
1.774426202635247
 20
19.56154876528324
 10
1.831573584362629
 20
19.56154876528324
 10
1.831573584362629
 20
19.50440138355586
 10
1.831573584362629
 20
19.44725400182846
  0
LWPOLYLINE
  5
68
100
AcDbEntity
  8
USP-GEO
100
AcDbPolyline
 90
        4
 70
   128
 43
0.0
 10
1.717278820907857
 20
22.53606998419353
 10
1.774426202635247
 20
22.53606998419353
 10
1.831573584362629
 20
22.53606998419353
 10
1.834430953448993
 20
22.53606998419353
  0
LWPOLYLINE
  5
69
100
AcDbEntity
  8
USP-GEO
100
AcDbPolyline
 90
        4
 70
   128
 43
0.0
 10
1.717278820907857
 20
22.42177522073876
 10
1.774426202635247
 20
22.36462783901138
 10
1.831573584362629
 20
22.42177522073876
 10
1.834430953448993
 20
22.42177522073876
  0
LWPOLYLINE
  5
6A
100
AcDbEntity
  8
USP-GEO
100
AcDbPolyline
 90
        5
 70
   128
 43
0.0
 10
1.720136189994228
 20
22.42177522073876
 10
1.717278820907857
 20
22.42177522073876
 10
1.660131439180474
 20
22.47892260246615
 10
1.717278820907857
 20
22.53606998419353
 10
1.720136189994228
 20
22.53606998419353
  0
LWPOLYLINE
  5
6B
100
AcDbEntity
  8
USP-GEO
100
AcDbPolyline
 90
        3
 70
   128
 43
0.0
 10
1.831573584362629
 20
22.53606998419353
 10
1.831573584362629
 20
22.47892260246615
 10
1.831573584362629
 20
22.42177522073876
  0
LWPOLYLINE
  5
6C
100
AcDbEntity
  8
USP-GEO
100
AcDbPolyline
 90
       13
 70
   128
 43
0.0
 10
1.834430953448993
 20
25.45344382137644
 10
1.831573584362629
 20
25.45344382137644
 10
1.831573584362629
 20
25.39629643964905
 10
1.774426202635247
 20
25.39629643964905
 10
1.717278820907857
 20
25.39629643964905
 10
1.717278820907857
 20
25.45344382137644
 10
1.660131439180474
 20
25.45344382137644
 10
1.717278820907857
 20
25.51059120310382
 10
1.717278820907857
 20
25.5677385848312
 10
1.774426202635247
 20
25.5677385848312
 10
1.831573584362629
 20
25.5677385848312
 10
1.831573584362629
 20
25.51059120310382
 10
1.831573584362629
 20
25.45344382137644
  0
LWPOLYLINE
  5
6D
100
AcDbEntity
  8
USP-GEO
100
AcDbPolyline
 90
       12
 70
   129
 43
0.0
 10
0.7457733315423454
 20
34.89133391365376
 10
0.7457733315423454
 20
35.00562867710852
 10
0.8600680949971106
 20
35.11992344056329
 10
1.031510240179265
 20
35.11992344056329
 10
1.145805003634031
 20
35.11992344056329
 10
1.260099767088796
 20
35.00562867710852
 10
1.317247148816178
 20
34.89133391365376
 10
1.260099767088796
 20
34.7198917684716
 10
1.145805003634031
 20
34.60559700501684
 10
1.031510240179265
 20
34.60559700501684
 10
0.8600680949971106
 20
34.60559700501684
 10
0.7457733315423454
 20
34.7198917684716
  0
LWPOLYLINE
  5
6E
100
AcDbEntity
  8
USP-GEO
100
AcDbPolyline
 90
       12
 70
   129
 43
0.0
 10
0.7457733315423454
 20
30.37383338810412
 10
0.7457733315423454
 20
30.48812815155889
 10
0.8600680949971106
 20
30.60242291501365
 10
1.031510240179265
 20
30.65957029674104
 10
1.145805003634031
 20
30.60242291501365
 10
1.260099767088796
 20
30.48812815155889
 10
1.317247148816178
 20
30.37383338810412
 10
1.260099767088796
 20
30.20239124292197
 10
1.145805003634031
 20
30.14524386119459
 10
1.031510240179265
 20
30.0880964794672
 10
0.8600680949971106
 20
30.14524386119459
 10
0.7457733315423454
 20
30.20239124292197
  0
LWPOLYLINE
  5
6F
100
AcDbEntity
  8
USP-GEO
100
AcDbPolyline
 90
       13
 70
   128
 43
0.0
 10
0.2885942777232842
 20
27.79934384128551
 10
0.3457416594506668
 20
27.79934384128551
 10
0.3457416594506668
 20
27.74219645955813
 10
0.3457416594506668
 20
27.68504907783075
 10
0.2885942777232842
 20
27.68504907783075
 10
0.2885942777232842
 20
27.62790169610336
 10
0.2314468959959015
 20
27.68504907783075
 10
0.1714421451821479
 20
27.68504907783075
 10
0.1714421451821479
 20
27.74219645955813
 10
0.1714421451821479
 20
27.79934384128551
 10
0.2314468959959015
 20
27.79934384128551
 10
0.2885942777232842
 20
27.79934384128551
 10
0.2914516468096551
 20
27.79934384128551
  0
LWPOLYLINE
  5
70
100
AcDbEntity
  8
USP-GEO
100
AcDbPolyline
 90
       13
 70
   128
 43
0.0
 10
0.2885942777232842
 20
29.17088100274271
 10
0.3457416594506668
 20
29.17088100274271
 10
0.3457416594506668
 20
29.23088575355646
 10
0.3457416594506668
 20
29.28803313528384
 10
0.2885942777232842
 20
29.28803313528384
 10
0.2885942777232842
 20
29.34518051701122
 10
0.2314468959959015
 20
29.28803313528384
 10
0.1714421451821479
 20
29.28803313528384
 10
0.1714421451821479
 20
29.23088575355646
 10
0.1714421451821479
 20
29.17088100274271
 10
0.2314468959959015
 20
29.17088100274271
 10
0.2885942777232842
 20
29.17088100274271
 10
0.2914516468096551
 20
29.17088100274271
  0
LWPOLYLINE
  5
71
100
AcDbEntity
  8
USP-GEO
100
AcDbPolyline
 90
        8
 70
   128
 43
0.0
 10
0.2914516468096551
 20
30.83101244192318
 10
0.2885942777232842
 20
30.83101244192318
 10
0.2314468959959015
 20
30.83101244192318
 10
0.1714421451821479
 20
30.77386506019581
 10
0.1714421451821479
 20
30.71671767846842
 10
0.2314468959959015
 20
30.65957029674104
 10
0.2885942777232842
 20
30.65957029674104
 10
0.2914516468096551
 20
30.65957029674104
  0
LWPOLYLINE
  5
72
100
AcDbEntity
  8
USP-GEO
100
AcDbPolyline
 90
        4
 70
   128
 43
0.0
 10
0.2885942777232842
 20
30.83101244192318
 10
0.3457416594506668
 20
30.77386506019581
 10
0.3457416594506668
 20
30.71671767846842
 10
0.2885942777232842
 20
30.65957029674104
  0
LWPOLYLINE
  5
73
100
AcDbEntity
  8
USP-GEO
100
AcDbPolyline
 90
        2
 70
   128
 43
0.0
 10
0.3457416594506668
 20
30.71671767846842
 10
0.3485990285370377
 20
30.71671767846842
  0
LWPOLYLINE
  5
74
100
AcDbEntity
  8
USP-GEO
100
AcDbPolyline
 90
        6
 70
   128
 43
0.0
 10
0.2914516468096551
 20
32.145402221653
 10
0.2885942777232842
 20
32.145402221653
 10
0.2314468959959015
 20
32.145402221653
 10
0.1714421451821479
 20
32.20254960338038
 10
0.1714421451821479
 20
32.26255435419413
 10
0.1742995142685189
 20
32.26255435419413
  0
LWPOLYLINE
  5
75
100
AcDbEntity
  8
USP-GEO
100
AcDbPolyline
 90
        4
 70
   128
 43
0.0
 10
0.1714421451821479
 20
32.26255435419413
 10
0.2314468959959015
 20
32.31970173592152
 10
0.2885942777232842
 20
32.31970173592152
 10
0.2914516468096551
 20
32.31970173592152
  0
LWPOLYLINE
  5
76
100
AcDbEntity
  8
USP-GEO
100
AcDbPolyline
 90
        4
 70
   128
 43
0.0
 10
0.2885942777232842
 20
32.31970173592152
 10
0.3457416594506668
 20
32.26255435419413
 10
0.3457416594506668
 20
32.20254960338038
 10
0.2885942777232842
 20
32.145402221653
  0
LWPOLYLINE
  5
77
100
AcDbEntity
  8
USP-GEO
100
AcDbPolyline
 90
        2
 70
   128
 43
0.0
 10
0.3457416594506668
 20
32.26255435419413
 10
0.3485990285370377
 20
32.26255435419413
  0
LWPOLYLINE
  5
78
100
AcDbEntity
  8
USP-GEO
100
AcDbPolyline
 90
       13
 70
   128
 43
0.0
 10
0.2885942777232842
 20
33.80553366083348
 10
0.3457416594506668
 20
33.80553366083348
 10
0.3457416594506668
 20
33.74838627910609
 10
0.3457416594506668
 20
33.69123889737871
 10
0.2885942777232842
 20
33.69123889737871
 10
0.2885942777232842
 20
33.63409151565132
 10
0.2314468959959015
 20
33.69123889737871
 10
0.1714421451821479
 20
33.69123889737871
 10
0.1714421451821479
 20
33.74838627910609
 10
0.1714421451821479
 20
33.80553366083348
 10
0.2314468959959015
 20
33.80553366083348
 10
0.2885942777232842
 20
33.80553366083348
 10
0.2914516468096551
 20
33.80553366083348
  0
LWPOLYLINE
  5
79
100
AcDbEntity
  8
USP-GEO
100
AcDbPolyline
 90
       12
 70
   129
 43
0.0
 10
0.7457733315423454
 20
39.35454442656237
 10
0.7457733315423454
 20
39.52598657174453
 10
0.8600680949971106
 20
39.6402813351993
 10
1.031510240179265
 20
39.6402813351993
 10
1.145805003634031
 20
39.6402813351993
 10
1.260099767088796
 20
39.52598657174453
 10
1.317247148816178
 20
39.35454442656237
 10
1.260099767088796
 20
39.24024966310761
 10
1.145805003634031
 20
39.12595489965284
 10
1.031510240179265
 20
39.06880751792546
 10
0.8600680949971106
 20
39.12595489965284
 10
0.7457733315423454
 20
39.24024966310761
  0
LWPOLYLINE
  5
7A
100
AcDbEntity
  8
USP-GEO
100
AcDbPolyline
 90
       13
 70
   128
 43
0.0
 10
0.2885942777232842
 20
35.17707082229067
 10
0.3457416594506668
 20
35.17707082229067
 10
0.3457416594506668
 20
35.23421820401805
 10
0.3457416594506668
 20
35.29422295483181
 10
0.2885942777232842
 20
35.29422295483181
 10
0.2885942777232842
 20
35.35137033655919
 10
0.2314468959959015
 20
35.29422295483181
 10
0.1714421451821479
 20
35.29422295483181
 10
0.1714421451821479
 20
35.23421820401805
 10
0.1714421451821479
 20
35.17707082229067
 10
0.2314468959959015
 20
35.17707082229067
 10
0.2885942777232842
 20
35.17707082229067
 10
0.2914516468096551
 20
35.17707082229067
  0
LWPOLYLINE
  5
7B
100
AcDbEntity
  8
USP-GEO
100
AcDbPolyline
 90
        8
 70
   128
 43
0.0
 10
0.2914516468096551
 20
36.83720226147115
 10
0.2885942777232842
 20
36.83720226147115
 10
0.2314468959959015
 20
36.83720226147115
 10
0.1714421451821479
 20
36.78005487974376
 10
0.1714421451821479
 20
36.72290749801639
 10
0.2314468959959015
 20
36.665760116289
 10
0.2885942777232842
 20
36.665760116289
 10
0.2914516468096551
 20
36.665760116289
  0
LWPOLYLINE
  5
7C
100
AcDbEntity
  8
USP-GEO
100
AcDbPolyline
 90
        4
 70
   128
 43
0.0
 10
0.2885942777232842
 20
36.83720226147115
 10
0.3457416594506668
 20
36.78005487974376
 10
0.3457416594506668
 20
36.72290749801639
 10
0.2885942777232842
 20
36.665760116289
  0
LWPOLYLINE
  5
7D
100
AcDbEntity
  8
USP-GEO
100
AcDbPolyline
 90
        6
 70
   128
 43
0.0
 10
0.2914516468096551
 20
38.15159204120096
 10
0.2885942777232842
 20
38.15159204120096
 10
0.2314468959959015
 20
38.15159204120096
 10
0.1714421451821479
 20
38.20873942292835
 10
0.1714421451821479
 20
38.26588680465572
 10
0.1742995142685189
 20
38.26588680465572
  0
LWPOLYLINE
  5
7E
100
AcDbEntity
  8
USP-GEO
100
AcDbPolyline
 90
        4
 70
   128
 43
0.0
 10
0.1714421451821479
 20
38.26588680465572
 10
0.2314468959959015
 20
38.32589155546948
 10
0.2885942777232842
 20
38.32589155546948
 10
0.2914516468096551
 20
38.32589155546948
  0
LWPOLYLINE
  5
7F
100
AcDbEntity
  8
USP-GEO
100
AcDbPolyline
 90
        4
 70
   128
 43
0.0
 10
0.2885942777232842
 20
38.15159204120096
 10
0.3457416594506668
 20
38.20873942292835
 10
0.3457416594506668
 20
38.26588680465572
 10
0.2885942777232842
 20
38.32589155546948
  0
LWPOLYLINE
  5
80
100
AcDbEntity
  8
USP-GEO
100
AcDbPolyline
 90
       11
 70
   129
 43
0.0
 10
0.1714421451821479
 20
39.69742871692668
 10
0.1714421451821479
 20
39.75457609865406
 10
0.1714421451821479
 20
39.81172348038144
 10
0.2314468959959015
 20
39.81172348038144
 10
0.2885942777232842
 20
39.81172348038144
 10
0.3457416594506668
 20
39.81172348038144
 10
0.3457416594506668
 20
39.75457609865406
 10
0.3457416594506668
 20
39.69742871692668
 10
0.2885942777232842
 20
39.69742871692668
 10
0.2885942777232842
 20
39.6402813351993
 10
0.2314468959959015
 20
39.69742871692668
  0
LWPOLYLINE
  5
81
100
AcDbEntity
  8
USP-GEO
100
AcDbPolyline
 90
        4
 70
   128
 43
0.0
 10
1.717278820907857
 20
28.42796504028672
 10
1.774426202635247
 20
28.37081765855934
 10
1.831573584362629
 20
28.42796504028672
 10
1.834430953448993
 20
28.42796504028672
  0
LWPOLYLINE
  5
82
100
AcDbEntity
  8
USP-GEO
100
AcDbPolyline
 90
        4
 70
   128
 43
0.0
 10
1.717278820907857
 20
28.54225980374149
 10
1.774426202635247
 20
28.54225980374149
 10
1.831573584362629
 20
28.54225980374149
 10
1.834430953448993
 20
28.54225980374149
  0
LWPOLYLINE
  5
83
100
AcDbEntity
  8
USP-GEO
100
AcDbPolyline
 90
        5
 70
   128
 43
0.0
 10
1.720136189994228
 20
28.42796504028672
 10
1.717278820907857
 20
28.42796504028672
 10
1.660131439180474
 20
28.48511242201411
 10
1.717278820907857
 20
28.54225980374149
 10
1.720136189994228
 20
28.54225980374149
  0
LWPOLYLINE
  5
84
100
AcDbEntity
  8
USP-GEO
100
AcDbPolyline
 90
        3
 70
   128
 43
0.0
 10
1.831573584362629
 20
28.54225980374149
 10
1.831573584362629
 20
28.48511242201411
 10
1.831573584362629
 20
28.42796504028672
  0
LWPOLYLINE
  5
85
100
AcDbEntity
  8
USP-GEO
100
AcDbPolyline
 90
       10
 70
   128
 43
0.0
 10
1.831573584362629
 20
29.91665433428506
 10
1.831573584362629
 20
29.97380171601244
 10
1.831573584362629
 20
30.03094909773983
 10
1.831573584362629
 20
30.0880964794672
 10
1.774426202635247
 20
30.0880964794672
 10
1.717278820907857
 20
30.0880964794672
 10
1.717278820907857
 20
30.03094909773983
 10
1.660131439180474
 20
29.97380171601244
 10
1.717278820907857
 20
29.91665433428506
 10
1.720136189994228
 20
29.91665433428506
  0
LWPOLYLINE
  5
86
100
AcDbEntity
  8
USP-GEO
100
AcDbPolyline
 90
        4
 70
   128
 43
0.0
 10
1.717278820907857
 20
29.91665433428506
 10
1.774426202635247
 20
29.91665433428506
 10
1.831573584362629
 20
29.91665433428506
 10
1.834430953448993
 20
29.91665433428506
  0
LWPOLYLINE
  5
87
100
AcDbEntity
  8
USP-GEO
100
AcDbPolyline
 90
       13
 70
   128
 43
0.0
 10
1.831573584362629
 20
31.4596336409244
 10
1.831573584362629
 20
31.51678102265178
 10
1.831573584362629
 20
31.57392840437916
 10
1.774426202635247
 20
31.57392840437916
 10
1.717278820907857
 20
31.57392840437916
 10
1.717278820907857
 20
31.51678102265178
 10
1.660131439180474
 20
31.4596336409244
 10
1.717278820907857
 20
31.4596336409244
 10
1.717278820907857
 20
31.40248625919701
 10
1.774426202635247
 20
31.40248625919701
 10
1.831573584362629
 20
31.40248625919701
 10
1.831573584362629
 20
31.4596336409244
 10
1.834430953448993
 20
31.4596336409244
  0
LWPOLYLINE
  5
88
100
AcDbEntity
  8
USP-GEO
100
AcDbPolyline
 90
       11
 70
   129
 43
0.0
 10
1.717278820907857
 20
32.94832293492273
 10
1.660131439180474
 20
33.00547031665011
 10
1.717278820907857
 20
33.00547031665011
 10
1.717278820907857
 20
33.0626176983775
 10
1.774426202635247
 20
33.0626176983775
 10
1.831573584362629
 20
33.0626176983775
 10
1.831573584362629
 20
33.00547031665011
 10
1.831573584362629
 20
32.94832293492273
 10
1.831573584362629
 20
32.89117555319534
 10
1.774426202635247
 20
32.89117555319534
 10
1.717278820907857
 20
32.89117555319534
  0
LWPOLYLINE
  5
89
100
AcDbEntity
  8
USP-GEO
100
AcDbPolyline
 90
        2
 70
   128
 43
0.0
 10
1.831573584362629
 20
33.00547031665011
 10
1.834430953448993
 20
33.00547031665011
  0
LWPOLYLINE
  5
8A
100
AcDbEntity
  8
USP-GEO
100
AcDbPolyline
 90
        4
 70
   128
 43
0.0
 10
1.717278820907857
 20
34.4341548598347
 10
1.774426202635247
 20
34.37700747810731
 10
1.831573584362629
 20
34.4341548598347
 10
1.834430953448993
 20
34.4341548598347
  0
LWPOLYLINE
  5
8B
100
AcDbEntity
  8
USP-GEO
100
AcDbPolyline
 90
        4
 70
   128
 43
0.0
 10
1.717278820907857
 20
34.54844962328946
 10
1.774426202635247
 20
34.54844962328946
 10
1.831573584362629
 20
34.54844962328946
 10
1.834430953448993
 20
34.54844962328946
  0
LWPOLYLINE
  5
8C
100
AcDbEntity
  8
USP-GEO
100
AcDbPolyline
 90
        5
 70
   128
 43
0.0
 10
1.720136189994228
 20
34.4341548598347
 10
1.717278820907857
 20
34.4341548598347
 10
1.660131439180474
 20
34.49130224156207
 10
1.717278820907857
 20
34.54844962328946
 10
1.720136189994228
 20
34.54844962328946
  0
LWPOLYLINE
  5
8D
100
AcDbEntity
  8
USP-GEO
100
AcDbPolyline
 90
        3
 70
   128
 43
0.0
 10
1.831573584362629
 20
34.54844962328946
 10
1.831573584362629
 20
34.49130224156207
 10
1.831573584362629
 20
34.4341548598347
  0
LWPOLYLINE
  5
8E
100
AcDbEntity
  8
USP-GEO
100
AcDbPolyline
 90
       10
 70
   128
 43
0.0
 10
1.831573584362629
 20
35.92284415383302
 10
1.831573584362629
 20
35.9799915355604
 10
1.831573584362629
 20
36.03713891728779
 10
1.831573584362629
 20
36.09428629901517
 10
1.774426202635247
 20
36.09428629901517
 10
1.717278820907857
 20
36.09428629901517
 10
1.717278820907857
 20
36.03713891728779
 10
1.660131439180474
 20
35.9799915355604
 10
1.717278820907857
 20
35.92284415383302
 10
1.720136189994228
 20
35.92284415383302
  0
LWPOLYLINE
  5
8F
100
AcDbEntity
  8
USP-GEO
100
AcDbPolyline
 90
        4
 70
   128
 43
0.0
 10
1.717278820907857
 20
35.92284415383302
 10
1.774426202635247
 20
35.92284415383302
 10
1.831573584362629
 20
35.92284415383302
 10
1.834430953448993
 20
35.92284415383302
  0
LWPOLYLINE
  5
90
100
AcDbEntity
  8
USP-GEO
100
AcDbPolyline
 90
       13
 70
   128
 43
0.0
 10
1.831573584362629
 20
37.46582346047237
 10
1.831573584362629
 20
37.52297084219974
 10
1.831573584362629
 20
37.58011822392713
 10
1.774426202635247
 20
37.58011822392713
 10
1.717278820907857
 20
37.58011822392713
 10
1.717278820907857
 20
37.52297084219974
 10
1.660131439180474
 20
37.46582346047237
 10
1.717278820907857
 20
37.46582346047237
 10
1.717278820907857
 20
37.40867607874498
 10
1.774426202635247
 20
37.40867607874498
 10
1.831573584362629
 20
37.40867607874498
 10
1.831573584362629
 20
37.46582346047237
 10
1.834430953448993
 20
37.46582346047237
  0
LWPOLYLINE
  5
91
100
AcDbEntity
  8
USP-GEO
100
AcDbPolyline
 90
       11
 70
   129
 43
0.0
 10
1.717278820907857
 20
38.9545127544707
 10
1.660131439180474
 20
39.01166013619808
 10
1.717278820907857
 20
39.01166013619808
 10
1.717278820907857
 20
39.06880751792546
 10
1.774426202635247
 20
39.06880751792546
 10
1.831573584362629
 20
39.06880751792546
 10
1.831573584362629
 20
39.01166013619808
 10
1.831573584362629
 20
38.9545127544707
 10
1.831573584362629
 20
38.89736537274331
 10
1.774426202635247
 20
38.89736537274331
 10
1.717278820907857
 20
38.89736537274331
  0
LWPOLYLINE
  5
92
100
AcDbEntity
  8
USP-GEO
100
AcDbPolyline
 90
        2
 70
   128
 43
0.0
 10
1.831573584362629
 20
39.01166013619808
 10
1.834430953448993
 20
39.01166013619808
  0
LWPOLYLINE
  5
93
100
AcDbEntity
  8
USP-GEO
100
AcDbPolyline
 90
        4
 70
   128
 43
0.0
 10
1.717278820907857
 20
40.44034467938266
 10
1.774426202635247
 20
40.38319729765528
 10
1.831573584362629
 20
40.44034467938266
 10
1.834430953448993
 20
40.44034467938266
  0
LWPOLYLINE
  5
94
100
AcDbEntity
  8
USP-GEO
100
AcDbPolyline
 90
        5
 70
   128
 43
0.0
 10
1.717278820907857
 20
40.55463944283743
 10
1.774426202635247
 20
40.55463944283743
 10
1.831573584362629
 20
40.55463944283743
 10
1.831573584362629
 20
40.49749206111004
 10
1.831573584362629
 20
40.44034467938266
  0
LWPOLYLINE
  5
95
100
AcDbEntity
  8
USP-GEO
100
AcDbPolyline
 90
        5
 70
   128
 43
0.0
 10
1.720136189994228
 20
40.55463944283743
 10
1.717278820907857
 20
40.55463944283743
 10
1.660131439180474
 20
40.49749206111004
 10
1.717278820907857
 20
40.44034467938266
 10
1.720136189994228
 20
40.44034467938266
  0
ENDBLK
  5
97
100
AcDbEntity
  8
0
100
AcDbBlockEnd
  0
BLOCK
  5
D4
100
AcDbEntity
  8
0
100
AcDbBlockBegin
  2
HPAHD22-2P_S
 70
     0
 10
0.0
 20
0.0
 30
0.0
  3
HPAHD22-2P_S
  1

  0
LWPOLYLINE
  5
9A
100
AcDbEntity
  8
USP-GEO
100
AcDbPolyline
 90
        6
 70
   129
 43
0.0
 10
8.346375101284309
 20
40.78322896974696
 10
8.174932956102153
 20
40.78322896974696
 10
8.174932956102153
 20
40.55463944283743
 10
8.174932956102153
 20
14.41542704073238
 10
8.346375101284309
 20
14.41542704073238
 10
8.346375101284309
 20
40.55463944283743
  0
LWPOLYLINE
  5
9B
100
AcDbEntity
  8
USP-GEO
100
AcDbPolyline
 90
        4
 70
   129
 43
0.0
 10
8.346375101284309
 20
40.55463944283743
 10
8.174932956102153
 20
40.55463944283743
 10
8.174932956102153
 20
14.41542704073238
 10
8.346375101284309
 20
14.41542704073238
  0
LWPOLYLINE
  5
9C
100
AcDbEntity
  8
USP-GEO
100
AcDbPolyline
 90
        3
 70
   128
 43
0.0
 10
8.174932956102153
 20
14.41542704073238
 10
1.885863597003641
 20
0.2857369086369132
 10
2.228747887367944
 20
0.9715054893655121
  0
LWPOLYLINE
  5
9D
100
AcDbEntity
  8
USP-GEO
100
AcDbPolyline
 90
        4
 70
   128
 43
0.0
 10
2.457337414277475
 20
1.200095016275042
 10
2.000158360458414
 20
0.2285895269095306
 10
1.943010978731031
 20
0.1142947634547653
 10
8.346375101284309
 20
14.41542704073238
  0
LWPOLYLINE
  5
9E
100
AcDbEntity
  8
USP-GEO
100
AcDbPolyline
 90
        3
 70
   128
 43
0.0
 10
2.514484796004857
 20
1.314389779729808
 10
8.346375101284309
 20
14.41542704073238
 10
8.349232470370672
 20
14.41542704073238
  0
LWPOLYLINE
  5
9F
100
AcDbEntity
  8
USP-GEO
100
AcDbPolyline
 90
        5
 70
   128
 43
0.0
 10
8.289227719556926
 20
14.41542704073238
 10
8.346375101284309
 20
14.41542704073238
 10
8.349232470370672
 20
14.41542704073238
 10
8.346375101284309
 20
14.41542704073238
 10
2.514484796004857
 20
1.314389779729808
  0
LWPOLYLINE
  5
A0
100
AcDbEntity
  8
USP-GEO
100
AcDbPolyline
 90
        4
 70
   128
 43
0.0
 10
1.885863597003641
 20
0.2857369086369132
 10
8.174932956102153
 20
14.41542704073238
 10
8.346375101284309
 20
14.41542704073238
 10
1.943010978731031
 20
0.1142947634547653
  0
TEXT
  5
A1
100
AcDbEntity
  8
USP-TXT
100
AcDbText
 10
-0.9082472441509352
 20
-2.461951375755763
 30
0.0
 40
0.40625
  1
HPAHD22-2P - SIDE VIEW
 72
     1
 11
3.492794422515732
 21
-2.461951375755763
 31
0.0
100
AcDbText
  0
LWPOLYLINE
  5
A2
100
AcDbEntity
  8
USP-GEO
100
AcDbPolyline
 90
        5
 70
   128
 43
0.0
 10
1.828716215276259
 20
0.1714421451821479
 10
0.0
 20
0.9715054893655121
 10
1.943010978731031
 20
0.1142947634547653
 10
1.828716215276259
 20
0.1714421451821479
 10
0.9143581076381295
 20
0.5714738172738266
  0
LWPOLYLINE
  5
A3
100
AcDbEntity
  8
USP-GEO
100
AcDbPolyline
 90
        3
 70
   128
 43
0.0
 10
0.0
 20
0.9715054893655121
 10
1.828716215276259
 20
0.1714421451821479
 10
1.831573584362629
 20
0.1714421451821479
  0
LWPOLYLINE
  5
A4
100
AcDbEntity
  8
USP-GEO
100
AcDbPolyline
 90
        4
 70
   129
 43
0.0
 10
1.943010978731031
 20
0.1142947634547653
 10
1.885863597003641
 20
0.2857369086369132
 10
0.0571473817273827
 20
1.085800252820277
 10
0.0
 20
0.9715054893655121
  0
LWPOLYLINE
  5
A5
100
AcDbEntity
  8
USP-GEO
100
AcDbPolyline
 90
        2
 70
   128
 43
0.0
 10
1.885863597003641
 20
0.2857369086369132
 10
0.0571473817273827
 20
1.085800252820277
  0
LWPOLYLINE
  5
A6
100
AcDbEntity
  8
USP-GEO
100
AcDbPolyline
 90
        5
 70
   128
 43
0.0
 10
0.9143581076381295
 20
0.5714738172738266
 10
0.8572107259107468
 20
0.5143264355464439
 10
0.8572107259107468
 20
0.4571790538190612
 10
1.943010978731031
 20
0.0
 10
1.945868347817395
 20
0.0
  0
LWPOLYLINE
  5
A7
100
AcDbEntity
  8
USP-GEO
100
AcDbPolyline
 90
        2
 70
   129
 43
0.0
 10
0.9143581076381295
 20
0.5714738172738266
 10
1.828716215276259
 20
0.1714421451821479
  0
LWPOLYLINE
  5
A8
100
AcDbEntity
  8
USP-GEO
100
AcDbPolyline
 90
        2
 70
   128
 43
0.0
 10
0.0571473817273827
 20
1.085800252820277
 10
0.0
 20
0.9715054893655121
  0
LWPOLYLINE
  5
A9
100
AcDbEntity
  8
USP-GEO
100
AcDbPolyline
 90
        2
 70
   128
 43
0.0
 10
0.8572107259107468
 20
0.7429159624559816
 10
0.8600680949971177
 20
0.7429159624559816
  0
LWPOLYLINE
  5
AA
100
AcDbEntity
  8
USP-GEO
100
AcDbPolyline
 90
        3
 70
   128
 43
0.0
 10
0.9143581076381295
 20
0.5714738172738266
 10
0.8572107259107468
 20
0.5143264355464439
 10
0.8572107259107468
 20
0.4571790538190612
  0
LWPOLYLINE
  5
AB
100
AcDbEntity
  8
USP-GEO
100
AcDbPolyline
 90
        2
 70
   128
 43
0.0
 10
0.8572107259107468
 20
0.7429159624559816
 10
0.8600680949971177
 20
0.7429159624559816
  0
LWPOLYLINE
  5
AC
100
AcDbEntity
  8
USP-GEO
100
AcDbPolyline
 90
        3
 70
   128
 43
0.0
 10
2.400190032550092
 20
1.314389779729808
 10
2.34304265082271
 20
1.314389779729808
 10
2.34304265082271
 20
1.257242398002425
  0
LWPOLYLINE
  5
AD
100
AcDbEntity
  8
USP-GEO
100
AcDbPolyline
 90
        5
 70
   128
 43
0.0
 10
2.000158360458414
 20
0.2285895269095306
 10
2.457337414277475
 20
1.200095016275042
 10
2.514484796004857
 20
1.257242398002425
 10
2.514484796004857
 20
1.37153716145719
 10
2.517342165091228
 20
1.37153716145719
  0
LWPOLYLINE
  5
AE
100
AcDbEntity
  8
USP-GEO
100
AcDbPolyline
 90
        2
 70
   128
 43
0.0
 10
2.000158360458414
 20
0.2285895269095306
 10
2.457337414277475
 20
1.200095016275042
  0
LWPOLYLINE
  5
AF
100
AcDbEntity
  8
USP-GEO
100
AcDbPolyline
 90
        4
 70
   128
 43
0.0
 10
2.34304265082271
 20
1.257242398002425
 10
2.34304265082271
 20
1.314389779729808
 10
2.400190032550092
 20
1.314389779729808
 10
2.403047401636463
 20
1.314389779729808
  0
LWPOLYLINE
  5
B0
100
AcDbEntity
  8
USP-GEO
100
AcDbPolyline
 90
        6
 70
   128
 43
0.0
 10
2.06016311127216
 20
0.0571473817273827
 10
2.057305742185796
 20
0.0571473817273827
 10
2.57163217773224
 20
1.14294763454766
 10
2.514484796004857
 20
1.14294763454766
 10
2.457337414277475
 20
1.200095016275042
 10
2.000158360458414
 20
0.2285895269095306
  0
LWPOLYLINE
  5
B1
100
AcDbEntity
  8
USP-GEO
100
AcDbPolyline
 90
        4
 70
   128
 43
0.0
 10
1.943010978731031
 20
0.0
 10
2.000158360458414
 20
0.1142947634547653
 10
1.828716215276259
 20
0.1714421451821479
 10
1.831573584362629
 20
0.1714421451821479
  0
LWPOLYLINE
  5
B2
100
AcDbEntity
  8
USP-GEO
100
AcDbPolyline
 90
        4
 70
   129
 43
0.0
 10
1.943010978731031
 20
0.1142947634547653
 10
1.828716215276259
 20
0.1714421451821479
 10
2.000158360458414
 20
0.1142947634547653
 10
2.057305742185796
 20
0.0571473817273827
  0
LWPOLYLINE
  5
B3
100
AcDbEntity
  8
USP-GEO
100
AcDbPolyline
 90
        2
 70
   129
 43
0.0
 10
1.828716215276259
 20
0.1714421451821479
 10
1.943010978731031
 20
0.1142947634547653
  0
LWPOLYLINE
  5
B4
100
AcDbEntity
  8
USP-GEO
100
AcDbPolyline
 90
        2
 70
   128
 43
0.0
 10
1.828716215276259
 20
0.1714421451821479
 10
1.831573584362629
 20
0.1714421451821479
  0
LWPOLYLINE
  5
B5
100
AcDbEntity
  8
USP-GEO
100
AcDbPolyline
 90
        2
 70
   128
 43
0.0
 10
1.828716215276259
 20
0.1714421451821479
 10
1.831573584362629
 20
0.1714421451821479
  0
LWPOLYLINE
  5
B6
100
AcDbEntity
  8
USP-GEO
100
AcDbPolyline
 90
        2
 70
   128
 43
0.0
 10
1.828716215276259
 20
0.1714421451821479
 10
1.831573584362629
 20
0.1714421451821479
  0
LWPOLYLINE
  5
B7
100
AcDbEntity
  8
USP-GEO
100
AcDbPolyline
 90
        2
 70
   128
 43
0.0
 10
1.828716215276259
 20
0.1714421451821479
 10
1.831573584362629
 20
0.1714421451821479
  0
LWPOLYLINE
  5
B8
100
AcDbEntity
  8
USP-GEO
100
AcDbPolyline
 90
        2
 70
   128
 43
0.0
 10
2.228747887367944
 20
0.9715054893655121
 10
1.885863597003641
 20
0.2857369086369132
  0
LWPOLYLINE
  5
B9
100
AcDbEntity
  8
USP-GEO
100
AcDbPolyline
 90
        2
 70
   129
 43
0.0
 10
1.945868347817395
 20
0.1142947634547653
 10
1.943010978731031
 20
0.1142947634547653
  0
LWPOLYLINE
  5
BA
100
AcDbEntity
  8
USP-GEO
100
AcDbPolyline
 90
        2
 70
   128
 43
0.0
 10
2.000158360458414
 20
0.1142947634547653
 10
2.003015729544777
 20
0.1142947634547653
  0
LWPOLYLINE
  5
BB
100
AcDbEntity
  8
USP-GEO
100
AcDbPolyline
 90
        2
 70
   129
 43
0.0
 10
2.003015729544777
 20
0.1142947634547653
 10
2.000158360458414
 20
0.1142947634547653
  0
LWPOLYLINE
  5
BC
100
AcDbEntity
  8
USP-GEO
100
AcDbPolyline
 90
        2
 70
   128
 43
0.0
 10
1.943010978731031
 20
0.1142947634547653
 10
1.945868347817395
 20
0.1142947634547653
  0
LWPOLYLINE
  5
BD
100
AcDbEntity
  8
USP-GEO
100
AcDbPolyline
 90
        2
 70
   128
 43
0.0
 10
2.057305742185796
 20
0.0571473817273827
 10
2.06016311127216
 20
0.0571473817273827
  0
LWPOLYLINE
  5
BE
100
AcDbEntity
  8
USP-GEO
100
AcDbPolyline
 90
        2
 70
   128
 43
0.0
 10
2.000158360458414
 20
0.2285895269095306
 10
2.003015729544777
 20
0.2285895269095306
  0
LWPOLYLINE
  5
BF
100
AcDbEntity
  8
USP-GEO
100
AcDbPolyline
 90
        3
 70
   128
 43
0.0
 10
1.943010978731031
 20
0.1142947634547653
 10
2.000158360458414
 20
0.1142947634547653
 10
2.003015729544777
 20
0.1142947634547653
  0
LWPOLYLINE
  5
C0
100
AcDbEntity
  8
USP-GEO
100
AcDbPolyline
 90
        2
 70
   128
 43
0.0
 10
2.000158360458414
 20
0.1142947634547653
 10
2.000158360458414
 20
0.2285895269095306
  0
LWPOLYLINE
  5
C1
100
AcDbEntity
  8
USP-GEO
100
AcDbPolyline
 90
        4
 70
   128
 43
0.0
 10
2.003015729544777
 20
0.1142947634547653
 10
2.000158360458414
 20
0.1142947634547653
 10
2.057305742185796
 20
0.0571473817273827
 10
1.943010978731031
 20
0.1142947634547653
  0
LWPOLYLINE
  5
C2
100
AcDbEntity
  8
USP-GEO
100
AcDbPolyline
 90
        2
 70
   128
 43
0.0
 10
2.000158360458414
 20
0.1142947634547653
 10
2.003015729544777
 20
0.1142947634547653
  0
LWPOLYLINE
  5
C3
100
AcDbEntity
  8
USP-GEO
100
AcDbPolyline
 90
        2
 70
   128
 43
0.0
 10
1.943010978731031
 20
0.1142947634547653
 10
1.945868347817395
 20
0.1142947634547653
  0
LWPOLYLINE
  5
C4
100
AcDbEntity
  8
USP-GEO
100
AcDbPolyline
 90
        2
 70
   128
 43
0.0
 10
2.000158360458414
 20
0.2285895269095306
 10
2.003015729544777
 20
0.2285895269095306
  0
LWPOLYLINE
  5
C5
100
AcDbEntity
  8
USP-GEO
100
AcDbPolyline
 90
        2
 70
   128
 43
0.0
 10
2.000158360458414
 20
0.1142947634547653
 10
2.003015729544777
 20
0.1142947634547653
  0
LWPOLYLINE
  5
C6
100
AcDbEntity
  8
USP-GEO
100
AcDbPolyline
 90
        2
 70
   128
 43
0.0
 10
1.943010978731031
 20
0.1142947634547653
 10
1.945868347817395
 20
0.1142947634547653
  0
LWPOLYLINE
  5
C7
100
AcDbEntity
  8
USP-GEO
100
AcDbPolyline
 90
        4
 70
   128
 43
0.0
 10
1.945868347817395
 20
0.0
 10
1.943010978731031
 20
0.0
 10
2.000158360458414
 20
0.1142947634547653
 10
2.003015729544777
 20
0.1142947634547653
  0
LWPOLYLINE
  5
C8
100
AcDbEntity
  8
USP-GEO
100
AcDbPolyline
 90
        3
 70
   128
 43
0.0
 10
2.000158360458414
 20
0.1142947634547653
 10
1.943010978731031
 20
0.1142947634547653
 10
1.945868347817395
 20
0.1142947634547653
  0
LWPOLYLINE
  5
C9
100
AcDbEntity
  8
USP-GEO
100
AcDbPolyline
 90
        2
 70
   128
 43
0.0
 10
2.000158360458414
 20
0.2285895269095306
 10
2.003015729544777
 20
0.2285895269095306
  0
LWPOLYLINE
  5
CA
100
AcDbEntity
  8
USP-GEO
100
AcDbPolyline
 90
        2
 70
   128
 43
0.0
 10
2.000158360458414
 20
0.2285895269095306
 10
2.003015729544777
 20
0.2285895269095306
  0
LWPOLYLINE
  5
CB
100
AcDbEntity
  8
USP-GEO
100
AcDbPolyline
 90
        3
 70
   129
 43
0.0
 10
1.943010978731031
 20
0.1142947634547653
 10
2.000158360458414
 20
0.1142947634547653
 10
2.000158360458414
 20
0.2285895269095306
  0
LWPOLYLINE
  5
CC
100
AcDbEntity
  8
USP-GEO
100
AcDbPolyline
 90
        2
 70
   128
 43
0.0
 10
2.514484796004857
 20
1.37153716145719
 10
2.517342165091228
 20
1.37153716145719
  0
LWPOLYLINE
  5
CD
100
AcDbEntity
  8
USP-GEO
100
AcDbPolyline
 90
        6
 70
   128
 43
0.0
 10
2.457337414277475
 20
1.200095016275042
 10
2.514484796004857
 20
1.257242398002425
 10
2.514484796004857
 20
1.37153716145719
 10
2.57163217773224
 20
1.314389779729808
 10
2.57163217773224
 20
1.200095016275042
 10
2.57163217773224
 20
1.14294763454766
  0
LWPOLYLINE
  5
CE
100
AcDbEntity
  8
USP-GEO
100
AcDbPolyline
 90
        2
 70
   129
 43
0.0
 10
2.514484796004857
 20
1.14294763454766
 10
2.457337414277475
 20
1.200095016275042
  0
LWPOLYLINE
  5
CF
100
AcDbEntity
  8
USP-GEO
100
AcDbPolyline
 90
        2
 70
   129
 43
0.0
 10
2.514484796004857
 20
1.14294763454766
 10
2.57163217773224
 20
1.14294763454766
  0
LWPOLYLINE
  5
D0
100
AcDbEntity
  8
USP-GEO
100
AcDbPolyline
 90
        2
 70
   129
 43
0.0
 10
8.349232470370672
 20
14.41542704073238
 10
8.346375101284309
 20
14.41542704073238
  0
LWPOLYLINE
  5
D1
100
AcDbEntity
  8
USP-GEO
100
AcDbPolyline
 90
        2
 70
   129
 43
0.0
 10
8.349232470370672
 20
14.41542704073238
 10
8.346375101284309
 20
14.41542704073238
  0
LWPOLYLINE
  5
D2
100
AcDbEntity
  8
USP-GEO
100
AcDbPolyline
 90
        2
 70
   128
 43
0.0
 10
8.346375101284309
 20
14.41542704073238
 10
8.349232470370672
 20
14.41542704073238
  0
LWPOLYLINE
  5
D3
100
AcDbEntity
  8
USP-GEO
100
AcDbPolyline
 90
        4
 70
   128
 43
0.0
 10
8.346375101284309
 20
40.55463944283743
 10
8.346375101284309
 20
40.78322896974696
 10
8.174932956102153
 20
40.78322896974696
 10
8.174932956102153
 20
40.55463944283743
  0
ENDBLK
  5
D5
100
AcDbEntity
  8
0
100
AcDbBlockEnd
  0
ENDSEC
  0
SECTION
  2
ENTITIES
  0
INSERT
  5
3
100
AcDbEntity
  8
USP
100
AcDbBlockReference
  2
HPAHD22-2P_T
 10
3.473878864113959
 20
49.02452794777143
 30
0.0
  0
INSERT
  5
29
100
AcDbEntity
  8
USP
100
AcDbBlockReference
  2
HPAHD22-2P_F
 10
3.473878864113959
 20
2.463698685386042
 30
0.0
  0
INSERT
  5
98
100
AcDbEntity
  8
USP
100
AcDbBlockReference
  2
HPAHD22-2P_S
 10
18.00074329921474
 20
2.463698685386042
 30
0.0
  0
ENDSEC
  0
SECTION
  2
OBJECTS
  0
DICTIONARY
  5
EE
102
{ACAD_XDICTIONARY
360
EF
102
}
100
AcDbDictionary
  3
ACAD_GROUP
350
EC
  3
ACAD_MLINESTYLE
350
ED
  0
DICTIONARY
  5
E
100
AcDbDictionary
280
     1
  3
ACAD_XREC_ROUNDTRIP
360
F
  0
DICTIONARY
  5
9
100
AcDbDictionary
280
     1
  3
ACAD_XREC_ROUNDTRIP
360
A
  0
DICTIONARY
  5
D6
100
AcDbDictionary
280
     1
  3
ACAD_LAYOUTSELFREF
360
D7
  0
DICTIONARY
  5
DB
100
AcDbDictionary
280
     1
  3
ACAD_LAYOUTSELFREF
360
DC
  0
DICTIONARY
  5
EF
100
AcDbDictionary
280
     1
  3
ACAD_XREC_ROUNDTRIP
360
F0
  0
DICTIONARY
  5
EC
102
{ACAD_REACTORS
330
EE
102
}
100
AcDbDictionary
  0
DICTIONARY
  5
ED
102
{ACAD_REACTORS
330
EE
102
}
100
AcDbDictionary
  3
STANDARD
350
F1
  0
XRECORD
  5
F
102
{ACAD_REACTORS
330
E
102
}
100
AcDbXrecord
102
EXTNAMES
  1
USP-GEO
  2
USP-Geo
  0
XRECORD
  5
A
102
{ACAD_REACTORS
330
9
102
}
100
AcDbXrecord
102
EXTNAMES
  1
USP-TXT
  2
USP-Txt
  0
XRECORD
  5
D7
102
{ACAD_REACTORS
330
D6
102
}
100
AcDbXrecord
340
18
  0
XRECORD
  5
DC
102
{ACAD_REACTORS
330
DB
102
}
100
AcDbXrecord
340
15
  0
XRECORD
  5
F0
102
{ACAD_REACTORS
330
EF
102
}
100
AcDbXrecord
102
EXTNAMES
  1
ACDBVARIABLEDICTIONARY
  2
AcDbVariableDictionary
  0
MLINESTYLE
  5
F1
102
{ACAD_REACTORS
330
ED
102
}
100
AcDbMlineStyle
  2
STANDARD
 70
     0
  3

 62
     0
 51
90.0
 52
90.0
 71
     2
 49
0.5
 62
   256
  6
BYLAYER
 49
-0.5
 62
   256
  6
BYLAYER
  0
ENDSEC
  0
EOF
