  0
SECTION
  2
HEADER
  9
$ACADVER
  1
AC1014
  9
$ACADMAINTVER
 70
     9
  9
$DWGCODEPAGE
  3
ANSI_1252
  9
$INSBASE
 10
0.0
 20
0.0
 30
0.0
  9
$EXTMIN
 10
0.0007647981631393
 20
0.0008405102119085
 30
-0.0000000000000004
  9
$EXTMAX
 10
25.06265326012512
 20
27.54466040397252
 30
0.0000000000000017
  9
$LIMMIN
 10
0.0
 20
0.0
  9
$LIMMAX
 10
12.0
 20
9.0
  9
$ORTHOMODE
 70
     0
  9
$REGENMODE
 70
     1
  9
$FILLMODE
 70
     1
  9
$QTEXTMODE
 70
     0
  9
$MIRRTEXT
 70
     1
  9
$DRAGMODE
 70
     2
  9
$LTSCALE
 40
1.0
  9
$OSMODE
 70
    37
  9
$ATTMODE
 70
     1
  9
$TEXTSIZE
 40
0.5
  9
$TRACEWID
 40
0.05
  9
$TEXTSTYLE
  7
STANDARD
  9
$CLAYER
  8
0
  9
$CELTYPE
  6
BYLAYER
  9
$CECOLOR
 62
   256
  9
$CELTSCALE
 40
1.0
  9
$DELOBJ
 70
     1
  9
$DISPSILH
 70
     0
  9
$DIMSCALE
 40
1.0
  9
$DIMASZ
 40
0.18
  9
$DIMEXO
 40
0.0625
  9
$DIMDLI
 40
0.38
  9
$DIMRND
 40
0.0
  9
$DIMDLE
 40
0.0
  9
$DIMEXE
 40
0.18
  9
$DIMTP
 40
0.0
  9
$DIMTM
 40
0.0
  9
$DIMTXT
 40
0.18
  9
$DIMCEN
 40
0.09
  9
$DIMTSZ
 40
0.0
  9
$DIMTOL
 70
     0
  9
$DIMLIM
 70
     0
  9
$DIMTIH
 70
     1
  9
$DIMTOH
 70
     1
  9
$DIMSE1
 70
     0
  9
$DIMSE2
 70
     0
  9
$DIMTAD
 70
     0
  9
$DIMZIN
 70
     0
  9
$DIMBLK
  1

  9
$DIMASO
 70
     1
  9
$DIMSHO
 70
     1
  9
$DIMPOST
  1

  9
$DIMAPOST
  1

  9
$DIMALT
 70
     0
  9
$DIMALTD
 70
     2
  9
$DIMALTF
 40
25.4
  9
$DIMLFAC
 40
1.0
  9
$DIMTOFL
 70
     0
  9
$DIMTVP
 40
0.0
  9
$DIMTIX
 70
     0
  9
$DIMSOXD
 70
     0
  9
$DIMSAH
 70
     0
  9
$DIMBLK1
  1

  9
$DIMBLK2
  1

  9
$DIMSTYLE
  2
STANDARD
  9
$DIMCLRD
 70
     0
  9
$DIMCLRE
 70
     0
  9
$DIMCLRT
 70
     0
  9
$DIMTFAC
 40
1.0
  9
$DIMGAP
 40
0.09
  9
$DIMJUST
 70
     0
  9
$DIMSD1
 70
     0
  9
$DIMSD2
 70
     0
  9
$DIMTOLJ
 70
     1
  9
$DIMTZIN
 70
     0
  9
$DIMALTZ
 70
     0
  9
$DIMALTTZ
 70
     0
  9
$DIMFIT
 70
     3
  9
$DIMUPT
 70
     0
  9
$DIMUNIT
 70
     2
  9
$DIMDEC
 70
     4
  9
$DIMTDEC
 70
     4
  9
$DIMALTU
 70
     2
  9
$DIMALTTD
 70
     2
  9
$DIMTXSTY
  7
STANDARD
  9
$DIMAUNIT
 70
     0
  9
$LUNITS
 70
     2
  9
$LUPREC
 70
     4
  9
$SKETCHINC
 40
0.1
  9
$FILLETRAD
 40
0.5
  9
$AUNITS
 70
     0
  9
$AUPREC
 70
     0
  9
$MENU
  1
.
  9
$ELEVATION
 40
0.0
  9
$PELEVATION
 40
0.0
  9
$THICKNESS
 40
0.0
  9
$LIMCHECK
 70
     0
  9
$BLIPMODE
 70
     0
  9
$CHAMFERA
 40
0.5
  9
$CHAMFERB
 40
0.5
  9
$CHAMFERC
 40
1.0
  9
$CHAMFERD
 40
0.0
  9
$SKPOLY
 70
     0
  9
$TDCREATE
 40
2451667.537949421
  9
$TDUPDATE
 40
2452759.744857129
  9
$TDINDWG
 40
0.0071205440
  9
$TDUSRTIMER
 40
0.0071205440
  9
$USRTIMER
 70
     1
  9
$ANGBASE
 50
0.0
  9
$ANGDIR
 70
     0
  9
$PDMODE
 70
     0
  9
$PDSIZE
 40
0.0
  9
$PLINEWID
 40
0.0
  9
$COORDS
 70
     1
  9
$SPLFRAME
 70
     0
  9
$SPLINETYPE
 70
     6
  9
$SPLINESEGS
 70
     8
  9
$ATTDIA
 70
     0
  9
$ATTREQ
 70
     1
  9
$HANDLING
 70
     1
  9
$HANDSEED
  5
92
  9
$SURFTAB1
 70
     6
  9
$SURFTAB2
 70
     6
  9
$SURFTYPE
 70
     6
  9
$SURFU
 70
     6
  9
$SURFV
 70
     6
  9
$UCSNAME
  2

  9
$UCSORG
 10
0.0
 20
0.0
 30
0.0
  9
$UCSXDIR
 10
1.0
 20
0.0
 30
0.0
  9
$UCSYDIR
 10
0.0
 20
1.0
 30
0.0
  9
$PUCSNAME
  2

  9
$PUCSORG
 10
0.0
 20
0.0
 30
0.0
  9
$PUCSXDIR
 10
1.0
 20
0.0
 30
0.0
  9
$PUCSYDIR
 10
0.0
 20
1.0
 30
0.0
  9
$USERI1
 70
     0
  9
$USERI2
 70
     0
  9
$USERI3
 70
     0
  9
$USERI4
 70
     0
  9
$USERI5
 70
     0
  9
$USERR1
 40
0.0
  9
$USERR2
 40
0.0
  9
$USERR3
 40
0.0
  9
$USERR4
 40
0.0
  9
$USERR5
 40
0.0
  9
$WORLDVIEW
 70
     1
  9
$SHADEDGE
 70
     3
  9
$SHADEDIF
 70
    70
  9
$TILEMODE
 70
     1
  9
$MAXACTVP
 70
    48
  9
$PINSBASE
 10
0.0
 20
0.0
 30
0.0
  9
$PLIMCHECK
 70
     0
  9
$PEXTMIN
 10
1.000000000000000E+20
 20
1.000000000000000E+20
 30
1.000000000000000E+20
  9
$PEXTMAX
 10
-1.000000000000000E+20
 20
-1.000000000000000E+20
 30
-1.000000000000000E+20
  9
$PLIMMIN
 10
0.0
 20
0.0
  9
$PLIMMAX
 10
12.0
 20
9.0
  9
$UNITMODE
 70
     0
  9
$VISRETAIN
 70
     1
  9
$PLINEGEN
 70
     0
  9
$PSLTSCALE
 70
     1
  9
$TREEDEPTH
 70
  3020
  9
$PICKSTYLE
 70
     1
  9
$CMLSTYLE
  2
STANDARD
  9
$CMLJUST
 70
     0
  9
$CMLSCALE
 40
1.0
  9
$PROXYGRAPHICS
 70
     1
  9
$MEASUREMENT
 70
     0
  0
ENDSEC
  0
SECTION
  2
CLASSES
  0
CLASS
  1
ACDBDICTIONARYWDFLT
  2
AcDbDictionaryWithDefault
  3
AutoCAD 2000
 90
        0
280
     1
281
     0
  0
CLASS
  1
ACDBPLACEHOLDER
  2
AcDbPlaceHolder
  3
AutoCAD 2000
 90
        0
280
     1
281
     0
  0
CLASS
  1
LAYOUT
  2
AcDbLayout
  3
AutoCAD 2000
 90
        0
280
     1
281
     0
  0
CLASS
  1
LONG_TRANSACTION
  2
AcDbLongTransaction
  3
AutoCAD 2000
 90
        0
280
     1
281
     0
  0
CLASS
  1
LWPOLYLINE
  2
AcDbPolyline
  3
"AutoCAD"
 90
        0
280
     1
281
     1
  0
CLASS
  1
HATCH
  2
AcDbHatch
  3
"ACAD_SEDONA"
 90
        0
280
     1
281
     1
  0
CLASS
  1
XRECORD
  2
AcDbXrecord
  3
"<Built In>"
 90
        0
280
     0
281
     0
  0
CLASS
  1
LONG_TRANSACTION
  2
AcDbLongTransaction
  3
AutoCAD 2000
 90
        0
280
     1
281
     0
  0
CLASS
  1
LWPOLYLINE
  2
AcDbPolyline
  3
"AutoCAD"
 90
        0
280
     1
281
     1
  0
CLASS
  1
HATCH
  2
AcDbHatch
  3
"ACAD_SEDONA"
 90
        0
280
     1
281
     1
  0
CLASS
  1
XRECORD
  2
AcDbXrecord
  3
"<Built In>"
 90
        0
280
     0
281
     0
  0
CLASS
  1
LONG_TRANSACTION
  2
AcDbLongTransaction
  3
AutoCAD 2000
 90
        0
280
     1
281
     0
  0
CLASS
  1
LWPOLYLINE
  2
AcDbPolyline
  3
"AutoCAD"
 90
        0
280
     1
281
     1
  0
CLASS
  1
HATCH
  2
AcDbHatch
  3
"ACAD_SEDONA"
 90
        0
280
     1
281
     1
  0
CLASS
  1
XRECORD
  2
AcDbXrecord
  3
"<Built In>"
 90
        0
280
     0
281
     0
  0
CLASS
  1
LONG_TRANSACTION
  2
AcDbLongTransaction
  3
AutoCAD 2000
 90
        0
280
     1
281
     0
  0
CLASS
  1
LWPOLYLINE
  2
AcDbPolyline
  3
"AutoCAD"
 90
        0
280
     1
281
     1
  0
CLASS
  1
HATCH
  2
AcDbHatch
  3
"ACAD_SEDONA"
 90
        0
280
     1
281
     1
  0
CLASS
  1
XRECORD
  2
AcDbXrecord
  3
"<Built In>"
 90
        0
280
     0
281
     0
  0
CLASS
  1
LONG_TRANSACTION
  2
AcDbLongTransaction
  3
AutoCAD 2000
 90
        0
280
     1
281
     0
  0
CLASS
  1
LWPOLYLINE
  2
AcDbPolyline
  3
"AutoCAD"
 90
        0
280
     1
281
     1
  0
CLASS
  1
HATCH
  2
AcDbHatch
  3
"ACAD_SEDONA"
 90
        0
280
     1
281
     1
  0
CLASS
  1
XRECORD
  2
AcDbXrecord
  3
"<Built In>"
 90
        0
280
     0
281
     0
  0
CLASS
  1
LONG_TRANSACTION
  2
AcDbLongTransaction
  3
AutoCAD 2000
 90
        0
280
     1
281
     0
  0
CLASS
  1
LWPOLYLINE
  2
AcDbPolyline
  3
"AutoCAD"
 90
        0
280
     1
281
     1
  0
CLASS
  1
HATCH
  2
AcDbHatch
  3
"ACAD_SEDONA"
 90
        0
280
     1
281
     1
  0
CLASS
  1
XRECORD
  2
AcDbXrecord
  3
"<Built In>"
 90
        0
280
     0
281
     0
  0
CLASS
  1
DICTIONARYVAR
  2
AcDbDictionaryVar
  3
"AutoCAD"
 90
        0
280
     0
281
     0
  0
CLASS
  1
LONG_TRANSACTION
  2
AcDbLongTransaction
  3
AutoCAD 2000
 90
        0
280
     0
281
     0
  0
CLASS
  1
LWPOLYLINE
  2
AcDbPolyline
  3
"AutoCAD"
 90
        0
280
     0
281
     1
  0
CLASS
  1
HATCH
  2
AcDbHatch
  3
"ACAD_SEDONA"
 90
        0
280
     0
281
     1
  0
CLASS
  1
XRECORD
  2
AcDbXrecord
  3
"<Built In>"
 90
        0
280
     0
281
     0
  0
CLASS
  1
LONG_TRANSACTION
  2
AcDbLongTransaction
  3
AutoCAD 2000
 90
        0
280
     0
281
     0
  0
CLASS
  1
LWPOLYLINE
  2
AcDbPolyline
  3
"AutoCAD"
 90
        0
280
     0
281
     1
  0
CLASS
  1
HATCH
  2
AcDbHatch
  3
"ACAD_SEDONA"
 90
        0
280
     0
281
     1
  0
CLASS
  1
XRECORD
  2
AcDbXrecord
  3
"<Built In>"
 90
        0
280
     0
281
     0
  0
ENDSEC
  0
SECTION
  2
TABLES
  0
TABLE
  2
VPORT
  5
72
100
AcDbSymbolTable
 70
     1
  0
VPORT
  5
8E
100
AcDbSymbolTableRecord
100
AcDbViewportTableRecord
  2
*ACTIVE
 70
     0
 10
0.0
 20
0.0
 11
1.0
 21
1.0
 12
12.53228286947645
 22
14.11261864914937
 13
0.0
 23
0.0
 14
0.5
 24
0.5
 15
0.5
 25
0.5
 16
0.0
 26
0.0
 36
1.0
 17
0.0
 27
0.0
 37
0.0
 40
28.42644461381114
 41
1.457627118644067
 42
50.0
 43
0.0
 44
0.0
 50
0.0
 51
0.0
 71
     0
 72
   100
 73
     1
 74
     3
 75
     0
 76
     0
 77
     0
 78
     0
  0
ENDTAB
  0
TABLE
  2
LTYPE
  5
6B
100
AcDbSymbolTable
 70
     2
  0
LTYPE
  5
6C
102
{ACAD_XDICTIONARY
360
6D
102
}
100
AcDbSymbolTableRecord
100
AcDbLinetypeTableRecord
  2
BYBLOCK
 70
     0
  3

 72
    65
 73
     0
 40
0.0
  0
LTYPE
  5
6E
102
{ACAD_XDICTIONARY
360
6F
102
}
100
AcDbSymbolTableRecord
100
AcDbLinetypeTableRecord
  2
BYLAYER
 70
     0
  3

 72
    65
 73
     0
 40
0.0
  0
LTYPE
  5
5
102
{ACAD_XDICTIONARY
360
6
102
}
100
AcDbSymbolTableRecord
100
AcDbLinetypeTableRecord
  2
CONTINUOUS
 70
     0
  3
Solid line
 72
    65
 73
     0
 40
0.0
  0
LTYPE
  5
11
100
AcDbSymbolTableRecord
100
AcDbLinetypeTableRecord
  2
HIDDEN
 70
     0
  3
Hidden __ __ __ __ __ __ __ __ __ __ __ __ __ _
 72
    65
 73
     2
 40
0.375
 49
0.25
 74
     0
 49
-0.125
 74
     0
  0
ENDTAB
  0
TABLE
  2
LAYER
  5
69
100
AcDbSymbolTable
 70
     5
  0
LAYER
  5
2B
100
AcDbSymbolTableRecord
100
AcDbLayerTableRecord
  2
0
 70
     0
 62
     7
  6
CONTINUOUS
  0
LAYER
  5
4
100
AcDbSymbolTableRecord
100
AcDbLayerTableRecord
  2
USP
 70
     0
 62
     7
  6
CONTINUOUS
  0
LAYER
  5
10
100
AcDbSymbolTableRecord
100
AcDbLayerTableRecord
  2
USP-HID
 70
     0
 62
     7
  6
HIDDEN
  0
LAYER
  5
D
100
AcDbSymbolTableRecord
100
AcDbLayerTableRecord
  2
USP-GEO
 70
     0
 62
     7
  6
CONTINUOUS
  0
LAYER
  5
9
100
AcDbSymbolTableRecord
100
AcDbLayerTableRecord
  2
USP-TXT
 70
     0
 62
     7
  6
CONTINUOUS
  0
ENDTAB
  0
TABLE
  2
STYLE
  5
6A
100
AcDbSymbolTable
 70
     1
  0
STYLE
  5
A
102
{ACAD_XDICTIONARY
360
B
102
}
100
AcDbSymbolTableRecord
100
AcDbTextStyleTableRecord
  2
STANDARD
 70
     0
 40
0.0
 41
1.0
 50
0.0
 71
     0
 42
0.5
  3
txt
  4

  0
ENDTAB
  0
TABLE
  2
VIEW
  5
70
100
AcDbSymbolTable
 70
     0
  0
ENDTAB
  0
TABLE
  2
UCS
  5
71
100
AcDbSymbolTable
 70
     0
  0
ENDTAB
  0
TABLE
  2
APPID
  5
74
100
AcDbSymbolTable
 70
     1
  0
APPID
  5
75
100
AcDbSymbolTableRecord
100
AcDbRegAppTableRecord
  2
ACAD
 70
     0
  0
ENDTAB
  0
TABLE
  2
DIMSTYLE
  5
76
100
AcDbSymbolTable
 70
     1
  0
DIMSTYLE
105
7F
102
{ACAD_XDICTIONARY
360
80
102
}
100
AcDbSymbolTableRecord
100
AcDbDimStyleTableRecord
  2
STANDARD
 70
     0
  3

  4

  5

  6

  7

 40
1.0
 41
0.18
 42
0.0625
 43
0.38
 44
0.18
 45
0.0
 46
0.0
 47
0.0
 48
0.0
140
0.18
141
0.09
142
0.0
143
25.4
144
1.0
145
0.0
146
1.0
147
0.09
 71
     0
 72
     0
 73
     1
 74
     1
 75
     0
 76
     0
 77
     0
 78
     0
170
     0
171
     2
172
     0
173
     0
174
     0
175
     0
176
     0
177
     0
178
     0
270
     2
271
     4
272
     4
273
     2
274
     2
340
A
275
     0
280
     0
281
     0
282
     0
283
     1
284
     0
285
     0
286
     0
287
     3
288
     0
  0
ENDTAB
  0
TABLE
  2
BLOCK_RECORD
  5
1
100
AcDbSymbolTable
 70
     3
  0
BLOCK_RECORD
  5
2
102
{ACAD_XDICTIONARY
360
60
102
}
100
AcDbSymbolTableRecord
100
AcDbBlockTableRecord
  2
*MODEL_SPACE
  0
BLOCK_RECORD
  5
64
102
{ACAD_XDICTIONARY
360
65
102
}
100
AcDbSymbolTableRecord
100
AcDbBlockTableRecord
  2
*PAPER_SPACE
  0
BLOCK_RECORD
  5
7
100
AcDbSymbolTableRecord
100
AcDbBlockTableRecord
  2
HLBH35118_T
  0
BLOCK_RECORD
  5
2E
100
AcDbSymbolTableRecord
100
AcDbBlockTableRecord
  2
HLBH35118_F
  0
BLOCK_RECORD
  5
4E
100
AcDbSymbolTableRecord
100
AcDbBlockTableRecord
  2
HLBH35118_S
  0
ENDTAB
  0
ENDSEC
  0
SECTION
  2
BLOCKS
  0
BLOCK
  5
62
100
AcDbEntity
  8
0
100
AcDbBlockBegin
  2
*MODEL_SPACE
 70
     0
 10
0.0
 20
0.0
 30
0.0
  3
*MODEL_SPACE
  1

  0
ENDBLK
  5
63
100
AcDbEntity
  8
0
100
AcDbBlockEnd
  0
BLOCK
  5
67
100
AcDbEntity
 67
     1
  8
0
100
AcDbBlockBegin
  2
*PAPER_SPACE
 70
     0
 10
0.0
 20
0.0
 30
0.0
  3
*PAPER_SPACE
  1

  0
ENDBLK
  5
68
100
AcDbEntity
 67
     1
  8
0
100
AcDbBlockEnd
  0
BLOCK
  5
2A
100
AcDbEntity
  8
0
100
AcDbBlockBegin
  2
HLBH35118_T
 70
     0
 10
0.0
 20
0.0
 30
0.0
  3
HLBH35118_T
  1

  0
TEXT
  5
8
100
AcDbEntity
  8
USP-TXT
100
AcDbText
 10
1.16666666666667
 20
-1.499999999999996
 30
0.0
 40
0.5
  1
HLBH35118 - TOP VIEW
 72
     1
 11
6.0
 21
-1.499999999999996
 31
0.0
100
AcDbText
  0
LINE
  5
C
100
AcDbEntity
  8
USP-GEO
100
AcDbLine
 10
0.0
 20
6.0
 30
0.0
 11
12.00000000000001
 21
6.000000000000003
 31
0.0
  0
LINE
  5
E
100
AcDbEntity
  8
USP-GEO
100
AcDbLine
 10
1.000000000000004
 20
8.34300000000001
 30
0.0
 11
5.375
 21
8.343000000000007
 31
0.0
  0
LINE
  5
F
100
AcDbEntity
  8
USP-HID
100
AcDbLine
 10
0.0
 20
6.178999999999998
 30
0.0
 11
12.00000000000001
 21
6.179000000000002
 31
0.0
  0
ARC
  5
12
100
AcDbEntity
  8
USP-GEO
100
AcDbCircle
 10
1.000000000000002
 20
8.59300000000001
 30
0.0
 40
0.2500000000000002
100
AcDbArc
 50
179.9999999999983
 51
270.0000000000004
  0
LINE
  5
13
100
AcDbEntity
  8
USP-GEO
100
AcDbLine
 10
0.0
 20
6.0
 30
0.0
 11
-0.0000000000000009
 21
9.304000000000005
 31
0.0
  0
CIRCLE
  5
14
100
AcDbEntity
  8
USP-GEO
100
AcDbCircle
 10
0.3749999999999964
 20
8.913000000000003
 30
0.0
 40
0.1405000000000001
  0
LINE
  5
15
100
AcDbEntity
  8
USP-GEO
100
AcDbLine
 10
-0.0000000000000018
 20
9.304000000000005
 30
0.0
 11
0.75
 21
9.304000000000005
 31
0.0
  0
LINE
  5
16
100
AcDbEntity
  8
USP-GEO
100
AcDbLine
 10
0.75
 20
9.304000000000002
 30
0.0
 11
0.7500000000000071
 21
8.593000000000014
 31
0.0
  0
LINE
  5
17
100
AcDbEntity
  8
USP-GEO
100
AcDbLine
 10
4.008200000000001
 20
6.000000000000003
 30
0.0
 11
4.008200000000001
 21
0.0
 31
0.0
  0
LINE
  5
18
100
AcDbEntity
  8
USP-GEO
100
AcDbLine
 10
4.1875
 20
6.000000000000003
 30
0.0
 11
4.1875
 21
0.0
 31
0.0
  0
LINE
  5
19
100
AcDbEntity
  8
USP-GEO
100
AcDbLine
 10
7.991800000000002
 20
6.000000000000003
 30
0.0
 11
7.991800000000002
 21
0.0
 31
0.0
  0
LINE
  5
1A
100
AcDbEntity
  8
USP-GEO
100
AcDbLine
 10
7.8125
 20
6.000000000000003
 30
0.0
 11
7.8125
 21
0.0000000000000036
 31
0.0
  0
LINE
  5
1B
100
AcDbEntity
  8
USP-GEO
100
AcDbLine
 10
7.8125
 20
0.0000000000000036
 30
0.0
 11
4.1875
 21
0.0000000000000036
 31
0.0
  0
LINE
  5
1C
100
AcDbEntity
  8
USP-GEO
100
AcDbLine
 10
4.008200000000001
 20
0.0
 30
0.0
 11
4.1875
 21
0.0
 31
0.0
  0
LINE
  5
1D
100
AcDbEntity
  8
USP-GEO
100
AcDbLine
 10
7.8125
 20
0.0000000000000036
 30
0.0
 11
7.991800000000002
 21
0.0000000000000036
 31
0.0
  0
LINE
  5
1E
100
AcDbEntity
  8
USP-GEO
100
AcDbLine
 10
6.625
 20
8.343000000000007
 30
0.0
 11
11.0
 21
8.343000000000007
 31
0.0
  0
ARC
  5
1F
100
AcDbEntity
  8
USP-GEO
100
AcDbCircle
 10
6.625
 20
8.593000000000003
 30
0.0
 40
0.2500000000000002
100
AcDbArc
 50
179.9999999999991
 51
270.0000000000001
  0
ARC
  5
20
100
AcDbEntity
  8
USP-GEO
100
AcDbCircle
 10
5.375
 20
8.593000000000003
 30
0.0
 40
0.2500000000000002
100
AcDbArc
 50
269.9999999999992
 51
0.0
  0
CIRCLE
  5
21
100
AcDbEntity
  8
USP-GEO
100
AcDbCircle
 10
6.000000000000002
 20
8.913000000000003
 30
0.0
 40
0.1405000000000001
  0
LINE
  5
22
100
AcDbEntity
  8
USP-GEO
100
AcDbLine
 10
6.375000000000002
 20
9.304000000000005
 30
0.0
 11
5.625
 21
9.304000000000005
 31
0.0
  0
LINE
  5
23
100
AcDbEntity
  8
USP-GEO
100
AcDbLine
 10
5.625
 20
9.304000000000005
 30
0.0
 11
5.625
 21
8.593000000000003
 31
0.0
  0
LINE
  5
24
100
AcDbEntity
  8
USP-GEO
100
AcDbLine
 10
6.375000000000002
 20
8.593000000000003
 30
0.0
 11
6.375000000000002
 21
9.304000000000005
 31
0.0
  0
ARC
  5
25
100
AcDbEntity
  8
USP-GEO
100
AcDbCircle
 10
11.0
 20
8.593000000000007
 30
0.0
 40
0.2500000000000002
100
AcDbArc
 50
269.9999999999992
 51
0.0
  0
LINE
  5
26
100
AcDbEntity
  8
USP-GEO
100
AcDbLine
 10
12.00000000000001
 20
6.000000000000007
 30
0.0
 11
12.0
 21
9.304000000000002
 31
0.0
  0
CIRCLE
  5
27
100
AcDbEntity
  8
USP-GEO
100
AcDbCircle
 10
11.625
 20
8.913000000000007
 30
0.0
 40
0.1405000000000001
  0
LINE
  5
28
100
AcDbEntity
  8
USP-GEO
100
AcDbLine
 10
12.0
 20
9.304000000000002
 30
0.0
 11
11.25
 21
9.304000000000002
 31
0.0
  0
LINE
  5
29
100
AcDbEntity
  8
USP-GEO
100
AcDbLine
 10
11.25
 20
9.304000000000005
 30
0.0
 11
11.25
 21
8.593000000000007
 31
0.0
  0
ENDBLK
  5
2C
100
AcDbEntity
  8
0
100
AcDbBlockEnd
  0
BLOCK
  5
4B
100
AcDbEntity
  8
0
100
AcDbBlockBegin
  2
HLBH35118_F
 70
     0
 10
0.0
 20
0.0
 30
0.0
  3
HLBH35118_F
  1

  0
TEXT
  5
2F
100
AcDbEntity
  8
USP-TXT
100
AcDbText
 10
0.6666666666666697
 20
-1.500000000000001
 30
0.0000000000000002
 40
0.5
  1
HLBH35118 - FRONT VIEW
 72
     1
 11
6.0
 21
-1.500000000000001
 31
0.0000000000000002
100
AcDbText
  0
LINE
  5
30
100
AcDbEntity
  8
USP-GEO
100
AcDbLine
 10
-0.0000000000000018
 20
12.2333
 30
-0.0000000000000005
 11
12.00000000000001
 21
12.2333
 31
0.000000000000001
210
0.0
220
1.0
230
0.0
  0
LINE
  5
31
100
AcDbEntity
  8
USP-GEO
100
AcDbLine
 10
0.0
 20
7.679300000000004
 30
-0.0000000000000005
 11
4.008199999999999
 21
7.679300000000004
 31
0.0
210
0.0
220
1.0
230
0.0
  0
LINE
  5
32
100
AcDbEntity
  8
USP-HID
100
AcDbLine
 10
-0.0000000000000018
 20
12.0543
 30
-0.0000000000000005
 11
12.00000000000001
 21
12.0543
 31
0.000000000000001
210
0.0
220
1.0
230
0.0
  0
CIRCLE
  5
33
100
AcDbEntity
  8
USP-GEO
100
AcDbCircle
 10
0.3749999999999991
 20
8.054300000000004
 30
-0.0000000000000004
 40
0.1405000000000001
  0
LINE
  5
34
100
AcDbEntity
  8
USP-GEO
100
AcDbLine
 10
-0.0000000000000018
 20
12.2333
 30
-0.0000000000000005
 11
-0.0000000000000027
 21
7.679300000000004
 31
-0.0000000000000005
210
0.0
220
1.0
230
0.0
  0
CIRCLE
  5
35
100
AcDbEntity
  8
USP-GEO
100
AcDbCircle
 10
0.9999999999999991
 20
9.804300000000006
 30
-0.0000000000000004
 40
0.1405000000000001
  0
CIRCLE
  5
36
100
AcDbEntity
  8
USP-GEO
100
AcDbCircle
 10
0.9999999999999973
 20
8.429300000000006
 30
-0.0000000000000004
 40
0.1405000000000001
  0
CIRCLE
  5
37
100
AcDbEntity
  8
USP-GEO
100
AcDbCircle
 10
0.3749999999999982
 20
9.429300000000003
 30
-0.0000000000000004
 40
0.1405000000000001
  0
CIRCLE
  5
38
100
AcDbEntity
  8
USP-GEO
100
AcDbCircle
 10
0.9999999999999964
 20
11.1793
 30
-0.0000000000000004
 40
0.1405000000000001
  0
CIRCLE
  5
39
100
AcDbEntity
  8
USP-GEO
100
AcDbCircle
 10
0.3750000000000009
 20
10.8043
 30
-0.0000000000000004
 40
0.1405000000000001
  0
LINE
  5
3A
100
AcDbEntity
  8
USP-GEO
100
AcDbLine
 10
7.991800000000002
 20
11.8043
 30
0.0000000000000005
 11
7.991800000000002
 21
-0.0000000000000007
 31
0.0000000000000005
210
0.0
220
1.0
230
0.0
  0
LINE
  5
3B
100
AcDbEntity
  8
USP-GEO
100
AcDbLine
 10
4.008199999999999
 20
11.8043
 30
0.0
 11
4.008199999999999
 21
0.0
 31
0.0
210
0.0
220
1.0
230
0.0
  0
LINE
  5
3C
100
AcDbEntity
  8
USP-GEO
100
AcDbLine
 10
4.187499999999999
 20
11.8043
 30
0.0
 11
4.187499999999999
 21
0.1792999999999996
 31
0.0
210
0.0
220
1.0
230
0.0
  0
LINE
  5
3D
100
AcDbEntity
  8
USP-GEO
100
AcDbLine
 10
7.812499999999999
 20
11.8043
 30
0.0000000000000005
 11
7.812499999999999
 21
0.1792999999999996
 31
0.0000000000000005
210
0.0
220
1.0
230
0.0
  0
LINE
  5
3E
100
AcDbEntity
  8
USP-GEO
100
AcDbLine
 10
4.0082
 20
-0.0000000000000007
 30
0.0
 11
7.991800000000002
 21
-0.0000000000000007
 31
0.0000000000000005
210
0.0
220
1.0
230
0.0
  0
LINE
  5
3F
100
AcDbEntity
  8
USP-GEO
100
AcDbLine
 10
7.812499999999999
 20
0.1792999999999996
 30
0.0000000000000005
 11
4.187499999999999
 21
0.1792999999999996
 31
0.0
210
0.0
220
1.0
230
0.0
  0
LINE
  5
40
100
AcDbEntity
  8
USP-GEO
100
AcDbLine
 10
4.187499999999999
 20
7.679300000000004
 30
0.0
 11
7.812499999999999
 21
7.679300000000004
 31
0.0000000000000005
210
0.0
220
1.0
230
0.0
  0
LINE
  5
41
100
AcDbEntity
  8
USP-GEO
100
AcDbLine
 10
4.008199999999999
 20
11.8043
 30
0.0
 11
4.187499999999999
 21
11.8043
 31
0.0
210
0.0
220
1.0
230
0.0
  0
CIRCLE
  5
42
100
AcDbEntity
  8
USP-GEO
100
AcDbCircle
 10
11.625
 20
8.054300000000008
 30
0.0000000000000009
 40
0.1405000000000001
  0
LINE
  5
43
100
AcDbEntity
  8
USP-GEO
100
AcDbLine
 10
12.0
 20
12.2333
 30
0.000000000000001
 11
12.0
 21
7.679300000000008
 31
0.000000000000001
210
0.0
220
1.0
230
0.0
  0
LINE
  5
44
100
AcDbEntity
  8
USP-GEO
100
AcDbLine
 10
7.9918
 20
7.679300000000004
 30
0.0000000000000005
 11
12.0
 21
7.679300000000004
 31
0.000000000000001
210
0.0
220
1.0
230
0.0
  0
LINE
  5
45
100
AcDbEntity
  8
USP-GEO
100
AcDbLine
 10
7.812499999999999
 20
11.8043
 30
0.0000000000000005
 11
7.9918
 21
11.8043
 31
0.0000000000000005
210
0.0
220
1.0
230
0.0
  0
CIRCLE
  5
46
100
AcDbEntity
  8
USP-GEO
100
AcDbCircle
 10
11.0
 20
9.804300000000006
 30
0.0000000000000009
 40
0.1405000000000001
  0
CIRCLE
  5
47
100
AcDbEntity
  8
USP-GEO
100
AcDbCircle
 10
11.0
 20
8.429300000000004
 30
0.0000000000000009
 40
0.1405000000000001
  0
CIRCLE
  5
48
100
AcDbEntity
  8
USP-GEO
100
AcDbCircle
 10
11.625
 20
9.429300000000006
 30
0.0000000000000009
 40
0.1405000000000001
  0
CIRCLE
  5
49
100
AcDbEntity
  8
USP-GEO
100
AcDbCircle
 10
11.0
 20
11.1793
 30
0.0000000000000009
 40
0.1405000000000001
  0
CIRCLE
  5
4A
100
AcDbEntity
  8
USP-GEO
100
AcDbCircle
 10
11.62499999999999
 20
10.8043
 30
0.0000000000000009
 40
0.1405000000000001
  0
ENDBLK
  5
4C
100
AcDbEntity
  8
0
100
AcDbBlockEnd
  0
BLOCK
  5
5E
100
AcDbEntity
  8
0
100
AcDbBlockBegin
  2
HLBH35118_S
 70
     0
 10
0.0
 20
0.0
 30
0.0
  3
HLBH35118_S
  1

  0
TEXT
  5
4F
100
AcDbEntity
  8
USP-TXT
100
AcDbText
 10
-0.3479999999999972
 20
-1.500000000000001
 30
0.0000000000000002
 40
0.5
  1
HLBH35118 - SIDE VIEW
 72
     1
 11
4.652000000000001
 21
-1.500000000000001
 31
0.0000000000000002
100
AcDbText
  0
LINE
  5
50
100
AcDbEntity
  8
USP-GEO
100
AcDbLine
 10
3.303999999999998
 20
11.8043
 30
0.0
 11
9.304000000000002
 21
11.8043
 31
0.0000000000000011
210
0.0
220
1.0
230
0.0
  0
LINE
  5
51
100
AcDbEntity
  8
USP-GEO
100
AcDbLine
 10
3.303999999999994
 20
0.0
 30
0.0
 11
9.303999999999998
 21
0.0
 31
0.0000000000000011
210
0.0
220
1.0
230
0.0
  0
LINE
  5
52
100
AcDbEntity
  8
USP-HID
100
AcDbLine
 10
3.303999999999998
 20
0.1793000000000002
 30
0.0
 11
9.303999999999998
 21
0.1793000000000002
 31
0.0
  0
LINE
  5
53
100
AcDbEntity
  8
USP-GEO
100
AcDbLine
 10
3.303999999999998
 20
7.679300000000005
 30
0.0
 11
3.303999999999998
 21
0.0
 31
0.0
210
0.0
220
1.0
230
0.0
  0
LINE
  5
54
100
AcDbEntity
  8
USP-GEO
100
AcDbLine
 10
0.0
 20
12.0543
 30
-0.0000000000000006
 11
3.125
 21
12.0543
 31
0.0
210
0.0
220
1.0
230
0.0
  0
LINE
  5
55
100
AcDbEntity
  8
USP-GEO
100
AcDbLine
 10
3.304000000000002
 20
12.2333
 30
0.0
 11
-0.0000000000000036
 21
12.2333
 31
-0.0000000000000006
210
0.0
220
1.0
230
0.0
  0
LINE
  5
56
100
AcDbEntity
  8
USP-GEO
100
AcDbLine
 10
-0.0000000000000036
 20
12.2333
 30
-0.0000000000000006
 11
-0.0000000000000036
 21
12.0543
 31
-0.0000000000000006
210
0.0
220
1.0
230
0.0
  0
LINE
  5
57
100
AcDbEntity
  8
USP-GEO
100
AcDbLine
 10
3.304000000000002
 20
12.2333
 30
0.0
 11
3.304000000000002
 21
7.679300000000005
 31
0.0
210
0.0
220
1.0
230
0.0
  0
LINE
  5
58
100
AcDbEntity
  8
USP-GEO
100
AcDbLine
 10
3.125
 20
12.0543
 30
0.0
 11
3.125
 21
7.679300000000007
 31
0.0
210
0.0
220
1.0
230
0.0
  0
LINE
  5
59
100
AcDbEntity
  8
USP-GEO
100
AcDbLine
 10
3.303999999999998
 20
7.679300000000005
 30
0.0
 11
3.125
 21
7.679300000000005
 31
0.0
210
0.0
220
1.0
230
0.0
  0
LINE
  5
5A
100
AcDbEntity
  8
USP-GEO
100
AcDbLine
 10
9.303999999999998
 20
11.8043
 30
0.0000000000000011
 11
9.303999999999998
 21
0.0
 31
0.0000000000000011
210
0.0
220
1.0
230
0.0
  0
CIRCLE
  5
5B
100
AcDbEntity
  8
USP-GEO
100
AcDbCircle
 10
8.9254264879531
 20
1.154761413331799
 30
0.000000000000001
 40
0.0975000000000001
  0
CIRCLE
  5
5C
100
AcDbEntity
  8
USP-GEO
100
AcDbCircle
 10
8.9254264879531
 20
3.654761413331799
 30
0.000000000000001
 40
0.0975000000000001
  0
CIRCLE
  5
5D
100
AcDbEntity
  8
USP-HID
100
AcDbCircle
 10
8.925426487953103
 20
6.154761413331796
 30
0.000000000000001
 40
0.0975000000000001
  0
ENDBLK
  5
5F
100
AcDbEntity
  8
0
100
AcDbBlockEnd
  0
ENDSEC
  0
SECTION
  2
ENTITIES
  0
INSERT
  5
3
100
AcDbEntity
  8
USP
100
AcDbBlockReference
  2
HLBH35118_T
 10
13.0626532601251
 20
18.24066040397251
 30
0.0000000000000004
  0
INSERT
  5
2D
100
AcDbEntity
  8
USP
100
AcDbBlockReference
  2
HLBH35118_F
 10
13.06265326012511
 20
1.50084051021191
 30
0.0000000000000001
  0
INSERT
  5
4D
100
AcDbEntity
  8
USP
100
AcDbBlockReference
  2
HLBH35118_S
 10
0.3487647981631365
 20
1.500840510211909
 30
0.0000000000000006
  0
ENDSEC
  0
SECTION
  2
OBJECTS
  0
DICTIONARY
  5
7B
102
{ACAD_XDICTIONARY
360
7C
102
}
100
AcDbDictionary
  3
ACAD_GROUP
350
78
  3
ACAD_MLINESTYLE
350
79
  0
DICTIONARY
  5
6D
100
AcDbDictionary
280
     1
  0
DICTIONARY
  5
6F
100
AcDbDictionary
280
     1
  0
DICTIONARY
  5
6
100
AcDbDictionary
280
     1
  0
DICTIONARY
  5
B
100
AcDbDictionary
280
     1
  0
DICTIONARY
  5
80
100
AcDbDictionary
280
     1
  0
DICTIONARY
  5
60
100
AcDbDictionary
280
     1
  3
ACAD_LAYOUTSELFREF
360
61
  0
DICTIONARY
  5
65
100
AcDbDictionary
280
     1
  3
ACAD_LAYOUTSELFREF
360
66
  0
DICTIONARY
  5
7C
100
AcDbDictionary
280
     1
  3
ACAD_XREC_ROUNDTRIP
360
7D
  0
DICTIONARY
  5
78
102
{ACAD_REACTORS
330
7B
102
}
100
AcDbDictionary
  0
DICTIONARY
  5
79
102
{ACAD_XDICTIONARY
360
7A
102
}
102
{ACAD_REACTORS
330
7B
102
}
100
AcDbDictionary
  3
STANDARD
350
7E
  0
XRECORD
  5
61
102
{ACAD_REACTORS
330
60
102
}
100
AcDbXrecord
340
2
  0
XRECORD
  5
66
102
{ACAD_REACTORS
330
65
102
}
100
AcDbXrecord
340
66
  0
XRECORD
  5
7D
102
{ACAD_REACTORS
330
7C
102
}
100
AcDbXrecord
102
EXTNAMES
  1
ACDBVARIABLEDICTIONARY
  2
AcDbVariableDictionary
  0
DICTIONARY
  5
7A
100
AcDbDictionary
280
     1
  0
MLINESTYLE
  5
7E
102
{ACAD_REACTORS
330
79
102
}
100
AcDbMlineStyle
  2
STANDARD
 70
     0
  3

 62
   256
 51
90.0
 52
90.0
 71
     2
 49
0.5
 62
   256
  6
BYLAYER
 49
-0.5
 62
   256
  6
BYLAYER
  0
ENDSEC
  0
EOF
