  0
SECTION
  2
HEADER
  9
$ACADVER
  1
AC1014
  9
$ACADMAINTVER
 70
     9
  9
$DWGCODEPAGE
  3
ANSI_1252
  9
$INSBASE
 10
0.0
 20
0.0
 30
0.0
  9
$EXTMIN
 10
-0.0156155014924213
 20
0.0041077100438116
 30
0.0
  9
$EXTMAX
 10
16.67031910142539
 20
16.58784567426206
 30
0.0
  9
$LIMMIN
 10
0.0
 20
0.0
  9
$LIMMAX
 10
12.0
 20
9.0
  9
$ORTHOMODE
 70
     1
  9
$REGENMODE
 70
     1
  9
$FILLMODE
 70
     1
  9
$QTEXTMODE
 70
     0
  9
$MIRRTEXT
 70
     0
  9
$DRAGMODE
 70
     2
  9
$LTSCALE
 40
1.5
  9
$OSMODE
 70
    23
  9
$ATTMODE
 70
     1
  9
$TEXTSIZE
 40
0.375
  9
$TRACEWID
 40
0.05
  9
$TEXTSTYLE
  7
STANDARD
  9
$CLAYER
  8
0
  9
$CELTYPE
  6
BYLAYER
  9
$CECOLOR
 62
   256
  9
$CELTSCALE
 40
1.0
  9
$DELOBJ
 70
     1
  9
$DISPSILH
 70
     1
  9
$DIMSCALE
 40
6.0
  9
$DIMASZ
 40
0.125
  9
$DIMEXO
 40
0.0625
  9
$DIMDLI
 40
0.37890625
  9
$DIMRND
 40
0.0
  9
$DIMDLE
 40
0.0
  9
$DIMEXE
 40
0.09375
  9
$DIMTP
 40
0.0
  9
$DIMTM
 40
0.0
  9
$DIMTXT
 40
0.109375
  9
$DIMCEN
 40
0.0
  9
$DIMTSZ
 40
0.0
  9
$DIMTOL
 70
     0
  9
$DIMLIM
 70
     0
  9
$DIMTIH
 70
     1
  9
$DIMTOH
 70
     1
  9
$DIMSE1
 70
     0
  9
$DIMSE2
 70
     0
  9
$DIMTAD
 70
     0
  9
$DIMZIN
 70
     8
  9
$DIMBLK
  1

  9
$DIMASO
 70
     1
  9
$DIMSHO
 70
     1
  9
$DIMPOST
  1

  9
$DIMAPOST
  1

  9
$DIMALT
 70
     0
  9
$DIMALTD
 70
     2
  9
$DIMALTF
 40
25.4
  9
$DIMLFAC
 40
1.0
  9
$DIMTOFL
 70
     0
  9
$DIMTVP
 40
0.0
  9
$DIMTIX
 70
     0
  9
$DIMSOXD
 70
     0
  9
$DIMSAH
 70
     0
  9
$DIMBLK1
  1

  9
$DIMBLK2
  1

  9
$DIMSTYLE
  2
STANDARD
  9
$DIMCLRD
 70
     0
  9
$DIMCLRE
 70
     0
  9
$DIMCLRT
 70
   256
  9
$DIMTFAC
 40
1.0
  9
$DIMGAP
 40
0.08984375
  9
$DIMJUST
 70
     0
  9
$DIMSD1
 70
     0
  9
$DIMSD2
 70
     0
  9
$DIMTOLJ
 70
     1
  9
$DIMTZIN
 70
     0
  9
$DIMALTZ
 70
     0
  9
$DIMALTTZ
 70
     0
  9
$DIMFIT
 70
     3
  9
$DIMUPT
 70
     1
  9
$DIMUNIT
 70
     7
  9
$DIMDEC
 70
     4
  9
$DIMTDEC
 70
     4
  9
$DIMALTU
 70
     2
  9
$DIMALTTD
 70
     2
  9
$DIMTXSTY
  7
STANDARD
  9
$DIMAUNIT
 70
     0
  9
$LUNITS
 70
     5
  9
$LUPREC
 70
     6
  9
$SKETCHINC
 40
0.1
  9
$FILLETRAD
 40
0.0
  9
$AUNITS
 70
     0
  9
$AUPREC
 70
     1
  9
$MENU
  1
CUSTOM
  9
$ELEVATION
 40
0.0
  9
$PELEVATION
 40
0.0
  9
$THICKNESS
 40
0.0
  9
$LIMCHECK
 70
     0
  9
$BLIPMODE
 70
     0
  9
$CHAMFERA
 40
0.0
  9
$CHAMFERB
 40
0.0
  9
$CHAMFERC
 40
0.0
  9
$CHAMFERD
 40
0.0
  9
$SKPOLY
 70
     0
  9
$TDCREATE
 40
2451263.663231366
  9
$TDUPDATE
 40
2452759.744663981
  9
$TDINDWG
 40
0.4077957523
  9
$TDUSRTIMER
 40
0.4077957523
  9
$USRTIMER
 70
     1
  9
$ANGBASE
 50
0.0
  9
$ANGDIR
 70
     0
  9
$PDMODE
 70
     0
  9
$PDSIZE
 40
0.0
  9
$PLINEWID
 40
0.0
  9
$COORDS
 70
     2
  9
$SPLFRAME
 70
     0
  9
$SPLINETYPE
 70
     6
  9
$SPLINESEGS
 70
     8
  9
$ATTDIA
 70
     0
  9
$ATTREQ
 70
     1
  9
$HANDLING
 70
     1
  9
$HANDSEED
  5
C9
  9
$SURFTAB1
 70
     6
  9
$SURFTAB2
 70
     6
  9
$SURFTYPE
 70
     6
  9
$SURFU
 70
     6
  9
$SURFV
 70
     6
  9
$UCSNAME
  2

  9
$UCSORG
 10
0.0
 20
0.0
 30
0.0
  9
$UCSXDIR
 10
1.0
 20
0.0
 30
0.0
  9
$UCSYDIR
 10
0.0
 20
1.0
 30
0.0
  9
$PUCSNAME
  2

  9
$PUCSORG
 10
0.0
 20
0.0
 30
0.0
  9
$PUCSXDIR
 10
1.0
 20
0.0
 30
0.0
  9
$PUCSYDIR
 10
0.0
 20
1.0
 30
0.0
  9
$USERI1
 70
     0
  9
$USERI2
 70
     0
  9
$USERI3
 70
     0
  9
$USERI4
 70
     0
  9
$USERI5
 70
     0
  9
$USERR1
 40
0.0
  9
$USERR2
 40
0.0
  9
$USERR3
 40
0.0
  9
$USERR4
 40
0.0
  9
$USERR5
 40
0.0
  9
$WORLDVIEW
 70
     1
  9
$SHADEDGE
 70
     3
  9
$SHADEDIF
 70
    70
  9
$TILEMODE
 70
     1
  9
$MAXACTVP
 70
    16
  9
$PINSBASE
 10
0.0
 20
0.0
 30
0.0
  9
$PLIMCHECK
 70
     0
  9
$PEXTMIN
 10
1.052083323321005
 20
0.7937500251559762
 30
0.0
  9
$PEXTMAX
 10
9.468749909889039
 20
7.143750226403783
 30
0.0
  9
$PLIMMIN
 10
-0.2145830289585384
 20
-0.2812499887361301
  9
$PLIMMAX
 10
10.78541673074557
 20
8.218749770967978
  9
$UNITMODE
 70
     0
  9
$VISRETAIN
 70
     0
  9
$PLINEGEN
 70
     0
  9
$PSLTSCALE
 70
     0
  9
$TREEDEPTH
 70
  3020
  9
$PICKSTYLE
 70
     1
  9
$CMLSTYLE
  2
STANDARD
  9
$CMLJUST
 70
     0
  9
$CMLSCALE
 40
1.0
  9
$PROXYGRAPHICS
 70
     1
  9
$MEASUREMENT
 70
     0
  0
ENDSEC
  0
SECTION
  2
CLASSES
  0
CLASS
  1
ACDBDICTIONARYWDFLT
  2
AcDbDictionaryWithDefault
  3
AutoCAD 2000
 90
        0
280
     0
281
     0
  0
CLASS
  1
ACDBPLACEHOLDER
  2
AcDbPlaceHolder
  3
AutoCAD 2000
 90
        0
280
     0
281
     0
  0
CLASS
  1
LAYOUT
  2
AcDbLayout
  3
AutoCAD 2000
 90
        0
280
     0
281
     0
  0
CLASS
  1
DICTIONARYVAR
  2
AcDbDictionaryVar
  3
"AutoCAD"
 90
        0
280
     0
281
     0
  0
CLASS
  1
LONG_TRANSACTION
  2
AcDbLongTransaction
  3
AutoCAD 2000
 90
        0
280
     0
281
     0
  0
CLASS
  1
LWPOLYLINE
  2
AcDbPolyline
  3
"AutoCAD"
 90
        0
280
     0
281
     1
  0
CLASS
  1
HATCH
  2
AcDbHatch
  3
"ACAD_SEDONA"
 90
        0
280
     0
281
     1
  0
CLASS
  1
XRECORD
  2
AcDbXrecord
  3
"<Built In>"
 90
        0
280
     0
281
     0
  0
ENDSEC
  0
SECTION
  2
TABLES
  0
TABLE
  2
VPORT
  5
AE
100
AcDbSymbolTable
 70
     1
  0
VPORT
  5
C5
100
AcDbSymbolTableRecord
100
AcDbViewportTableRecord
  2
*ACTIVE
 70
     0
 10
0.0
 20
0.0
 11
1.0
 21
1.0
 12
-10.38670025953127
 22
19.00411666110504
 13
0.0
 23
0.0
 14
1.0
 24
1.0
 15
0.0
 25
0.0
 16
0.0
 26
0.0
 36
1.0
 17
23.09603071721725
 27
-10.27010416511325
 37
-10.44050274849355
 40
17.45980957189594
 41
1.457627118644067
 42
50.0
 43
10.55307667737539
 44
10.55307667737539
 50
0.0
 51
0.0
 71
     0
 72
   100
 73
     1
 74
     1
 75
     0
 76
     0
 77
     0
 78
     0
  0
ENDTAB
  0
TABLE
  2
LTYPE
  5
A9
100
AcDbSymbolTable
 70
     2
  0
LTYPE
  5
AA
100
AcDbSymbolTableRecord
100
AcDbLinetypeTableRecord
  2
BYBLOCK
 70
     0
  3

 72
    65
 73
     0
 40
0.0
  0
LTYPE
  5
AB
100
AcDbSymbolTableRecord
100
AcDbLinetypeTableRecord
  2
BYLAYER
 70
     0
  3

 72
    65
 73
     0
 40
0.0
  0
LTYPE
  5
5
100
AcDbSymbolTableRecord
100
AcDbLinetypeTableRecord
  2
CONTINUOUS
 70
     0
  3
Solid line
 72
    65
 73
     0
 40
0.0
  0
LTYPE
  5
76
100
AcDbSymbolTableRecord
100
AcDbLinetypeTableRecord
  2
HIDDEN
 70
     0
  3
Hidden __ __ __ __ __ __ __ __ __ __ __ __ __ _
 72
    65
 73
     2
 40
0.375
 49
0.25
 74
     0
 49
-0.125
 74
     0
  0
ENDTAB
  0
TABLE
  2
LAYER
  5
A7
100
AcDbSymbolTable
 70
     4
  0
LAYER
  5
47
100
AcDbSymbolTableRecord
100
AcDbLayerTableRecord
  2
0
 70
     0
 62
     7
  6
CONTINUOUS
  0
LAYER
  5
4
100
AcDbSymbolTableRecord
100
AcDbLayerTableRecord
  2
USP-OBJ
 70
     0
 62
     7
  6
CONTINUOUS
  0
LAYER
  5
75
100
AcDbSymbolTableRecord
100
AcDbLayerTableRecord
  2
USP-FOLD
 70
     0
 62
     7
  6
HIDDEN
  0
LAYER
  5
8
100
AcDbSymbolTableRecord
100
AcDbLayerTableRecord
  2
USP-TEXT
 70
     0
 62
     7
  6
CONTINUOUS
  0
ENDTAB
  0
TABLE
  2
STYLE
  5
A8
100
AcDbSymbolTable
 70
     1
  0
STYLE
  5
9
100
AcDbSymbolTableRecord
100
AcDbTextStyleTableRecord
  2
STANDARD
 70
     0
 40
0.0
 41
1.0
 50
0.0
 71
     0
 42
0.375
  3
txt
  4

  0
ENDTAB
  0
TABLE
  2
VIEW
  5
AC
100
AcDbSymbolTable
 70
     0
  0
ENDTAB
  0
TABLE
  2
UCS
  5
AD
100
AcDbSymbolTable
 70
     0
  0
ENDTAB
  0
TABLE
  2
APPID
  5
B0
100
AcDbSymbolTable
 70
     1
  0
APPID
  5
A2
100
AcDbSymbolTableRecord
100
AcDbRegAppTableRecord
  2
ACAD
 70
     0
  0
ENDTAB
  0
TABLE
  2
DIMSTYLE
  5
B1
100
AcDbSymbolTable
 70
     1
  0
DIMSTYLE
105
B7
100
AcDbSymbolTableRecord
100
AcDbDimStyleTableRecord
  2
STANDARD
 70
     0
  3

  4

  5

  6

  7

 40
1.0
 41
0.18
 42
0.0625
 43
0.38
 44
0.18
 45
0.0
 46
0.0
 47
0.0
 48
0.0
140
0.18
141
0.09
142
0.0
143
25.4
144
1.0
145
0.0
146
1.0
147
0.09
 71
     0
 72
     0
 73
     1
 74
     1
 75
     0
 76
     0
 77
     0
 78
     0
170
     0
171
     2
172
     0
173
     0
174
     0
175
     0
176
     0
177
     0
178
     0
270
     2
271
     4
272
     4
273
     2
274
     2
340
9
275
     0
280
     0
281
     0
282
     0
283
     1
284
     0
285
     0
286
     0
287
     3
288
     0
  0
ENDTAB
  0
TABLE
  2
BLOCK_RECORD
  5
1
100
AcDbSymbolTable
 70
     3
  0
BLOCK_RECORD
  5
2
102
{ACAD_XDICTIONARY
360
99
102
}
100
AcDbSymbolTableRecord
100
AcDbBlockTableRecord
  2
*MODEL_SPACE
  0
BLOCK_RECORD
  5
9D
102
{ACAD_XDICTIONARY
360
A3
102
}
100
AcDbSymbolTableRecord
100
AcDbBlockTableRecord
  2
*PAPER_SPACE
  0
BLOCK_RECORD
  5
6
100
AcDbSymbolTableRecord
100
AcDbBlockTableRecord
  2
HD310_F
  0
BLOCK_RECORD
  5
4A
100
AcDbSymbolTableRecord
100
AcDbBlockTableRecord
  2
HD310_T
  0
BLOCK_RECORD
  5
72
100
AcDbSymbolTableRecord
100
AcDbBlockTableRecord
  2
HD310_S
  0
ENDTAB
  0
ENDSEC
  0
SECTION
  2
BLOCKS
  0
BLOCK
  5
9B
100
AcDbEntity
  8
0
100
AcDbBlockBegin
  2
*MODEL_SPACE
 70
     0
 10
0.0
 20
0.0
 30
0.0
  3
*MODEL_SPACE
  1

  0
ENDBLK
  5
9C
100
AcDbEntity
  8
0
100
AcDbBlockEnd
  0
BLOCK
  5
A5
100
AcDbEntity
 67
     1
  8
0
100
AcDbBlockBegin
  2
*PAPER_SPACE
 70
     0
 10
0.0
 20
0.0
 30
0.0
  3
*PAPER_SPACE
  1

  0
ENDBLK
  5
A6
100
AcDbEntity
 67
     1
  8
0
100
AcDbBlockEnd
  0
BLOCK
  5
46
100
AcDbEntity
  8
0
100
AcDbBlockBegin
  2
HD310_F
 70
     0
 10
0.0
 20
0.0
 30
0.0
  3
HD310_F
  1

  0
TEXT
  5
7
100
AcDbEntity
  8
USP-TEXT
100
AcDbText
 10
-0.8398456594490699
 20
-1.980047232519988
 30
0.0
 40
0.375
  1
HD310 - FRONT VIEW
 72
     1
 11
2.44140434055093
 21
-1.980047232519988
 31
0.0
100
AcDbText
  0
LINE
  5
A
100
AcDbEntity
  8
USP-OBJ
100
AcDbLine
 10
3.762199999999601
 20
0.0746999999998987
 30
0.0
 11
1.199699999999594
 21
0.0746999999999964
 31
0.0
  0
LINE
  5
B
100
AcDbEntity
  8
USP-OBJ
100
AcDbLine
 10
3.8368999999996
 20
-0.0000000000001048
 30
0.0
 11
1.124999999999593
 21
0.0
 31
0.0
  0
LINE
  5
C
100
AcDbEntity
  8
USP-OBJ
100
AcDbLine
 10
1.124999999999929
 20
7.480949999999985
 30
0.0
 11
1.124999999999803
 21
4.215941949005246
 31
0.0
  0
LINE
  5
D
100
AcDbEntity
  8
USP-OBJ
100
AcDbLine
 10
1.199699999999802
 20
4.215941949005243
 30
0.0
 11
1.199699999999928
 21
7.480949999999983
 31
0.0
  0
LINE
  5
E
100
AcDbEntity
  8
USP-OBJ
100
AcDbLine
 10
-0.000000000000121
 20
4.17721327745682
 30
0.0
 11
-0.0000000000000071
 21
7.48095000000004
 31
0.0
  0
ARC
  5
F
100
AcDbEntity
  8
USP-OBJ
100
AcDbCircle
 10
2.49999999999982
 20
4.177213277456724
 30
0.0
 40
2.5
100
AcDbArc
 50
179.9999999999977
 51
222.4815666460695
  0
LINE
  5
10
100
AcDbEntity
  8
USP-OBJ
100
AcDbLine
 10
1.124999999999622
 20
0.8004484085206478
 30
0.0
 11
1.124999999999617
 21
0.668450000000032
 31
0.0
  0
LINE
  5
11
100
AcDbEntity
  8
USP-OBJ
100
AcDbLine
 10
1.199699999999617
 20
0.6684500000000284
 30
0.0
 11
1.199699999999622
 21
0.8004484085206442
 31
0.0
  0
LINE
  5
12
100
AcDbEntity
  8
USP-OBJ
100
AcDbLine
 10
1.199699999999617
 20
0.6684500000000284
 30
0.0
 11
1.124999999999618
 21
0.668450000000032
 31
0.0
  0
LINE
  5
13
100
AcDbEntity
  8
USP-OBJ
100
AcDbLine
 10
1.199699999999598
 20
0.16845
 30
0.0
 11
1.124999999999599
 21
0.1684500000000035
 31
0.0
  0
LINE
  5
14
100
AcDbEntity
  8
USP-OBJ
100
AcDbLine
 10
1.12499999999962
 20
0.6684500000000586
 30
0.0
 11
1.124999999999601
 21
0.1684500000000018
 31
0.0
  0
LINE
  5
15
100
AcDbEntity
  8
USP-OBJ
100
AcDbLine
 10
1.124999999999599
 20
0.1684500000000053
 30
0.0
 11
1.124999999999593
 21
0.0
 31
0.0
  0
LINE
  5
16
100
AcDbEntity
  8
USP-OBJ
100
AcDbLine
 10
1.1996999999996
 20
0.1684499999999982
 30
0.0
 11
1.199699999999619
 21
0.6684500000000551
 31
0.0
  0
LINE
  5
17
100
AcDbEntity
  8
USP-OBJ
100
AcDbLine
 10
1.199699999999595
 20
0.0746999999999964
 30
0.0
 11
1.199699999999599
 21
0.16845
 31
0.0
  0
LINE
  5
18
100
AcDbEntity
  8
USP-OBJ
100
AcDbLine
 10
1.199699999999802
 20
4.215941949005243
 30
0.0
 11
1.124999999999803
 21
4.215941949005246
 31
0.0
  0
LINE
  5
19
100
AcDbEntity
  8
USP-OBJ
100
AcDbLine
 10
1.199699999999711
 20
2.488830842988779
 30
0.0
 11
1.124999999999712
 21
2.488830842988782
 31
0.0
  0
LINE
  5
1A
100
AcDbEntity
  8
USP-OBJ
100
AcDbLine
 10
1.199699999999622
 20
0.8004484085206442
 30
0.0
 11
1.124999999999623
 21
0.8004484085206478
 31
0.0
  0
LINE
  5
1B
100
AcDbEntity
  8
USP-OBJ
100
AcDbLine
 10
1.124999999999803
 20
4.215941949005246
 30
0.0
 11
1.124999999999713
 21
2.488830842988781
 31
0.0
  0
ARC
  5
1C
100
AcDbEntity
  8
USP-OBJ
100
AcDbCircle
 10
-1.187473256841507
 20
0.8004484085207881
 30
0.0
 40
2.5
100
AcDbArc
 50
22.3332580095108
 51
42.48156664607074
  0
LINE
  5
1D
100
AcDbEntity
  8
USP-OBJ
100
AcDbLine
 10
1.124999999999712
 20
2.488830842988784
 30
0.0
 11
1.124999999999622
 21
0.800448408520646
 31
0.0
  0
CIRCLE
  5
1E
100
AcDbEntity
  8
USP-OBJ
100
AcDbCircle
 10
0.749999999999742
 20
2.870784965323769
 30
0.0
 40
0.086
  0
CIRCLE
  5
1F
100
AcDbEntity
  8
USP-OBJ
100
AcDbCircle
 10
0.5624999999997647
 20
3.480949999999991
 30
0.0
 40
0.086
  0
CIRCLE
  5
20
100
AcDbEntity
  8
USP-OBJ
100
AcDbCircle
 10
0.3749999999997888
 20
4.105950000000028
 30
0.0
 40
0.086
  0
LINE
  5
21
100
AcDbEntity
  8
USP-OBJ
100
AcDbLine
 10
1.199699999999711
 20
2.488830842988777
 30
0.0
 11
1.199699999999802
 21
4.215941949005243
 31
0.0
  0
LINE
  5
22
100
AcDbEntity
  8
USP-OBJ
100
AcDbLine
 10
1.19969999999971
 20
2.488830842988781
 30
0.0
 11
1.199699999999621
 21
0.8004484085206424
 31
0.0
  0
LINE
  5
23
100
AcDbEntity
  8
USP-OBJ
100
AcDbLine
 10
-0.0000000000000062
 20
7.48095000000004
 30
0.0
 11
1.124999999999981
 21
7.480949999999984
 31
0.0
  0
LINE
  5
24
100
AcDbEntity
  8
USP-OBJ
100
AcDbLine
 10
1.199699999999932
 20
7.480949999999983
 30
0.0
 11
1.124999999999932
 21
7.480949999999985
 31
0.0
  0
ARC
  5
25
100
AcDbEntity
  8
USP-OBJ
100
AcDbCircle
 10
1.124999999999864
 20
4.592510080790466
 30
0.0
 40
0.095
100
AcDbArc
 50
89.99999999999598
 51
270.0000000000238
  0
CIRCLE
  5
26
100
AcDbEntity
  8
USP-OBJ
100
AcDbCircle
 10
0.7499999999998286
 20
5.105950000000012
 30
0.0
 40
0.086
  0
CIRCLE
  5
27
100
AcDbEntity
  8
USP-OBJ
100
AcDbCircle
 10
0.562499999999865
 20
6.105950000000021
 30
0.0
 40
0.086
  0
CIRCLE
  5
28
100
AcDbEntity
  8
USP-OBJ
100
AcDbCircle
 10
0.3749999999999045
 20
7.105950000000029
 30
0.0
 40
0.086
  0
LINE
  5
29
100
AcDbEntity
  8
USP-OBJ
100
AcDbLine
 10
3.836899999999808
 20
4.215941949005086
 30
0.0
 11
3.836899999999933
 21
7.480949999999819
 31
0.0
  0
LINE
  5
2A
100
AcDbEntity
  8
USP-OBJ
100
AcDbLine
 10
3.762199999999809
 20
4.21594194900509
 30
0.0
 11
3.762199999999934
 21
7.480949999999819
 31
0.0
  0
LINE
  5
2B
100
AcDbEntity
  8
USP-OBJ
100
AcDbLine
 10
4.961899999999977
 20
7.480949999999771
 30
0.0
 11
4.961899999999838
 21
4.177213277456552
 31
0.0
  0
ARC
  5
2C
100
AcDbEntity
  8
USP-OBJ
100
AcDbCircle
 10
3.836899999999874
 20
4.42358089714413
 30
0.0
 40
0.095
100
AcDbArc
 50
269.9999999999756
 51
89.99999999999706
  0
ARC
  5
2D
100
AcDbEntity
  8
USP-OBJ
100
AcDbCircle
 10
6.149373256840966
 20
0.8004484085204861
 30
0.0
 40
2.5
100
AcDbArc
 50
137.518433353926
 51
157.6667419904848
  0
LINE
  5
2E
100
AcDbEntity
  8
USP-OBJ
100
AcDbLine
 10
3.836899999999626
 20
0.6684499999999183
 30
0.0
 11
3.83689999999963
 21
0.8004484085205341
 31
0.0
  0
LINE
  5
2F
100
AcDbEntity
  8
USP-OBJ
100
AcDbLine
 10
3.762199999999624
 20
0.6684499999999201
 30
0.0
 11
3.762199999999629
 21
0.8004484085205358
 31
0.0
  0
LINE
  5
30
100
AcDbEntity
  8
USP-OBJ
100
AcDbLine
 10
3.762199999999623
 20
0.6684499999999201
 30
0.0
 11
3.836899999999626
 21
0.6684499999999165
 31
0.0
  0
LINE
  5
31
100
AcDbEntity
  8
USP-OBJ
100
AcDbLine
 10
3.762199999999605
 20
0.1684499999999467
 30
0.0
 11
3.836899999999605
 21
0.1684499999999431
 31
0.0
  0
LINE
  5
32
100
AcDbEntity
  8
USP-OBJ
100
AcDbLine
 10
3.762199999999606
 20
0.1684499999998898
 30
0.0
 11
3.762199999999625
 21
0.6684499999999485
 31
0.0
  0
LINE
  5
33
100
AcDbEntity
  8
USP-OBJ
100
AcDbLine
 10
3.762199999999601
 20
0.0746999999998987
 30
0.0
 11
3.762199999999605
 21
0.1684499999999467
 31
0.0
  0
LINE
  5
34
100
AcDbEntity
  8
USP-OBJ
100
AcDbLine
 10
3.836899999999607
 20
0.1684499999998881
 30
0.0
 11
3.836899999999626
 21
0.668449999999945
 31
0.0
  0
LINE
  5
35
100
AcDbEntity
  8
USP-OBJ
100
AcDbLine
 10
3.836899999999599
 20
-0.0000000000001048
 30
0.0
 11
3.836899999999606
 21
0.1684499999999449
 31
0.0
  0
LINE
  5
36
100
AcDbEntity
  8
USP-OBJ
100
AcDbLine
 10
3.836899999999718
 20
2.488830842988662
 30
0.0
 11
3.836899999999809
 21
4.215941949005086
 31
0.0
  0
LINE
  5
37
100
AcDbEntity
  8
USP-OBJ
100
AcDbLine
 10
3.762199999999808
 20
4.21594194900509
 30
0.0
 11
3.762199999999717
 21
2.488830842988665
 31
0.0
  0
LINE
  5
38
100
AcDbEntity
  8
USP-OBJ
100
AcDbLine
 10
3.83689999999963
 20
0.8004484085205341
 30
0.0
 11
3.836899999999719
 21
2.488830842988665
 31
0.0
  0
LINE
  5
39
100
AcDbEntity
  8
USP-OBJ
100
AcDbLine
 10
3.762199999999629
 20
0.8004484085205358
 30
0.0
 11
3.762199999999718
 21
2.488830842988669
 31
0.0
  0
LINE
  5
3A
100
AcDbEntity
  8
USP-OBJ
100
AcDbLine
 10
3.762199999999629
 20
0.8004484085205358
 30
0.0
 11
3.836899999999631
 21
0.8004484085205323
 31
0.0
  0
LINE
  5
3B
100
AcDbEntity
  8
USP-OBJ
100
AcDbLine
 10
3.762199999999717
 20
2.488830842988669
 30
0.0
 11
3.836899999999718
 21
2.488830842988665
 31
0.0
  0
LINE
  5
3C
100
AcDbEntity
  8
USP-OBJ
100
AcDbLine
 10
3.762199999999809
 20
4.21594194900509
 30
0.0
 11
3.836899999999808
 21
4.215941949005086
 31
0.0
  0
ARC
  5
3D
100
AcDbEntity
  8
USP-OBJ
100
AcDbCircle
 10
2.461899999999893
 20
4.177213277456706
 30
0.0
 40
2.5
100
AcDbArc
 50
317.5184333539248
 51
359.9999999999964
  0
CIRCLE
  5
3E
100
AcDbEntity
  8
USP-OBJ
100
AcDbCircle
 10
4.211899999999868
 20
2.776603208069523
 30
0.0
 40
0.086
  0
CIRCLE
  5
3F
100
AcDbEntity
  8
USP-OBJ
100
AcDbCircle
 10
4.399399999999891
 20
3.334445044271248
 30
0.0
 40
0.086
  0
CIRCLE
  5
40
100
AcDbEntity
  8
USP-OBJ
100
AcDbCircle
 10
4.586899999999919
 20
4.105949999999786
 30
0.0
 40
0.086
  0
LINE
  5
41
100
AcDbEntity
  8
USP-OBJ
100
AcDbLine
 10
3.836899999999988
 20
7.480949999999806
 30
0.0
 11
4.961899999999964
 21
7.480949999999772
 31
0.0
  0
LINE
  5
42
100
AcDbEntity
  8
USP-OBJ
100
AcDbLine
 10
3.762199999999937
 20
7.480949999999819
 30
0.0
 11
3.836899999999938
 21
7.480949999999817
 31
0.0
  0
CIRCLE
  5
43
100
AcDbEntity
  8
USP-OBJ
100
AcDbCircle
 10
4.211899999999955
 20
4.980949999999801
 30
0.0
 40
0.086
  0
CIRCLE
  5
44
100
AcDbEntity
  8
USP-OBJ
100
AcDbCircle
 10
4.399399999999991
 20
5.980949999999795
 30
0.0
 40
0.086
  0
CIRCLE
  5
45
100
AcDbEntity
  8
USP-OBJ
100
AcDbCircle
 10
4.58690000000003
 20
6.980949999999789
 30
0.0
 40
0.086
  0
ENDBLK
  5
48
100
AcDbEntity
  8
0
100
AcDbBlockEnd
  0
BLOCK
  5
6F
100
AcDbEntity
  8
0
100
AcDbBlockBegin
  2
HD310_T
 70
     0
 10
0.0
 20
0.0
 30
0.0
  3
HD310_T
  1

  0
TEXT
  5
4B
100
AcDbEntity
  8
USP-TEXT
100
AcDbText
 10
-0.46484565944907
 20
-1.687707918385873
 30
0.0
 40
0.375
  1
HD310 - TOP VIEW
 72
     1
 11
2.44140434055093
 21
-1.687707918385873
 31
0.0
100
AcDbText
  0
LINE
  5
4C
100
AcDbEntity
  8
USP-OBJ
100
AcDbLine
 10
1.19969999999969
 20
2.499973256841234
 30
0.0
 11
3.762199999999696
 21
2.499973256841163
 31
0.0
  0
LINE
  5
4D
100
AcDbEntity
  8
USP-OBJ
100
AcDbLine
 10
3.762199999999603
 20
-0.0000000000000759
 30
0.0
 11
1.199699999999596
 21
0.0000000000000058
 31
0.0
  0
LINE
  5
4E
100
AcDbEntity
  8
USP-OBJ
100
AcDbLine
 10
-0.0000000000000031
 20
2.687500000000184
 30
0.0
 11
1.124999999999984
 21
2.687500000000142
 31
0.0
  0
LINE
  5
4F
100
AcDbEntity
  8
USP-OBJ
100
AcDbLine
 10
1.199699999999987
 20
2.76220000000014
 30
0.0
 11
0.0
 21
2.762200000000185
 31
0.0
  0
LINE
  5
50
100
AcDbEntity
  8
USP-OBJ
100
AcDbLine
 10
0.0
 20
2.762200000000186
 30
0.0
 11
-0.0000000000000027
 21
2.687500000000186
 31
0.0
  0
LINE
  5
51
100
AcDbEntity
  8
USP-OBJ
100
AcDbLine
 10
1.199699999999936
 20
1.312226743158965
 30
0.0
 11
1.124999999999934
 21
1.312226743158968
 31
0.0
  0
LINE
  5
52
100
AcDbEntity
  8
USP-OBJ
100
AcDbLine
 10
1.199699999999624
 20
-0.0000000000000027
 30
0.0
 11
1.124999999999626
 21
0.0
 31
0.0
  0
LINE
  5
53
100
AcDbEntity
  8
USP-OBJ
100
AcDbLine
 10
1.199699999999713
 20
0.6562633715794921
 30
0.0
 11
1.124999999999714
 21
0.6562633715794948
 31
0.0
  0
LINE
  5
54
100
AcDbEntity
  8
USP-OBJ
100
AcDbLine
 10
1.124999999999984
 20
2.687500000000145
 30
0.0
 11
1.124999999999932
 21
1.312226743158968
 31
0.0
  0
LINE
  5
55
100
AcDbEntity
  8
USP-OBJ
100
AcDbLine
 10
1.124999999999803
 20
1.312226743158937
 30
0.0
 11
1.124999999999715
 21
0.6562633715794975
 31
0.0
  0
LINE
  5
56
100
AcDbEntity
  8
USP-OBJ
100
AcDbLine
 10
1.124999999999714
 20
0.6562633715794939
 30
0.0
 11
1.124999999999624
 21
0.0000000000000555
 31
0.0
  0
LINE
  5
57
100
AcDbEntity
  8
USP-OBJ
100
AcDbLine
 10
1.199699999999987
 20
2.76220000000014
 30
0.0
 11
1.199699999999933
 21
1.312226743158965
 31
0.0
  0
LINE
  5
58
100
AcDbEntity
  8
USP-OBJ
100
AcDbLine
 10
1.199699999999713
 20
0.6562633715794948
 30
0.0
 11
1.199699999999801
 21
1.312226743158935
 31
0.0
  0
LINE
  5
59
100
AcDbEntity
  8
USP-OBJ
100
AcDbLine
 10
1.199699999999713
 20
0.6562633715794904
 30
0.0
 11
1.199699999999623
 21
0.0000000000000533
 31
0.0
  0
LINE
  5
5A
100
AcDbEntity
  8
USP-OBJ
100
AcDbLine
 10
1.980949999999573
 20
0.1727207793864403
 30
0.0
 11
1.853670779385963
 21
0.3000000000000327
 31
0.0
  0
LINE
  5
5B
100
AcDbEntity
  8
USP-OBJ
100
AcDbLine
 10
1.853670779385961
 20
0.300000000000034
 30
0.0
 11
1.980949999999581
 21
0.4272792206135883
 31
0.0
  0
LINE
  5
5C
100
AcDbEntity
  8
USP-OBJ
100
AcDbLine
 10
1.980949999999583
 20
0.4272792206135874
 30
0.0
 11
2.108229220613138
 21
0.3000000000000216
 31
0.0
  0
LINE
  5
5D
100
AcDbEntity
  8
USP-OBJ
100
AcDbLine
 10
2.108229220613139
 20
0.3000000000000229
 30
0.0
 11
1.980949999999575
 21
0.1727207793864394
 31
0.0
  0
LINE
  5
5E
100
AcDbEntity
  8
USP-OBJ
100
AcDbLine
 10
3.836899999999992
 20
2.687500000000046
 30
0.0
 11
4.961899999999969
 21
2.687500000000004
 31
0.0
  0
LINE
  5
5F
100
AcDbEntity
  8
USP-OBJ
100
AcDbLine
 10
3.762199999999994
 20
2.762200000000047
 30
0.0
 11
4.961899999999969
 21
2.762200000000002
 31
0.0
  0
LINE
  5
60
100
AcDbEntity
  8
USP-OBJ
100
AcDbLine
 10
3.108229220613139
 20
0.2999999999999852
 30
0.0
 11
2.980949999999576
 21
0.172720779386403
 31
0.0
  0
LINE
  5
61
100
AcDbEntity
  8
USP-OBJ
100
AcDbLine
 10
2.980949999999582
 20
0.4272792206135488
 30
0.0
 11
3.108229220613138
 21
0.2999999999999843
 31
0.0
  0
CIRCLE
  5
62
100
AcDbEntity
  8
USP-OBJ
100
AcDbCircle
 10
2.480949999999634
 20
0.9999866284205843
 30
0.0
 40
0.1535
  0
LINE
  5
63
100
AcDbEntity
  8
USP-OBJ
100
AcDbLine
 10
2.853670779385964
 20
0.2999999999999954
 30
0.0
 11
2.980949999999584
 21
0.4272792206135488
 31
0.0
  0
LINE
  5
64
100
AcDbEntity
  8
USP-OBJ
100
AcDbLine
 10
2.980949999999573
 20
0.1727207793864021
 30
0.0
 11
2.853670779385961
 21
0.2999999999999954
 31
0.0
  0
LINE
  5
65
100
AcDbEntity
  8
USP-OBJ
100
AcDbLine
 10
3.762199999999994
 20
2.762200000000047
 30
0.0
 11
3.762199999999939
 21
1.312226743158869
 31
0.0
  0
LINE
  5
66
100
AcDbEntity
  8
USP-OBJ
100
AcDbLine
 10
3.836899999999941
 20
1.312226743158869
 30
0.0
 11
3.836899999999992
 21
2.687500000000044
 31
0.0
  0
LINE
  5
67
100
AcDbEntity
  8
USP-OBJ
100
AcDbLine
 10
3.762199999999808
 20
1.312226743158839
 30
0.0
 11
3.762199999999721
 21
0.656263371579398
 31
0.0
  0
LINE
  5
68
100
AcDbEntity
  8
USP-OBJ
100
AcDbLine
 10
3.836899999999721
 20
0.6562633715793953
 30
0.0
 11
3.836899999999809
 21
1.312226743158838
 31
0.0
  0
LINE
  5
69
100
AcDbEntity
  8
USP-OBJ
100
AcDbLine
 10
3.762199999999631
 20
-0.0000000000000959
 30
0.0
 11
3.836899999999633
 21
-0.0000000000000986
 31
0.0
  0
LINE
  5
6A
100
AcDbEntity
  8
USP-OBJ
100
AcDbLine
 10
3.76219999999972
 20
0.6562633715793949
 30
0.0
 11
3.836899999999721
 21
0.6562633715793922
 31
0.0
  0
LINE
  5
6B
100
AcDbEntity
  8
USP-OBJ
100
AcDbLine
 10
3.762199999999632
 20
-0.0000000000000395
 30
0.0
 11
3.762199999999721
 21
0.6562633715793944
 31
0.0
  0
LINE
  5
6C
100
AcDbEntity
  8
USP-OBJ
100
AcDbLine
 10
3.836899999999632
 20
-0.0000000000000422
 30
0.0
 11
3.836899999999721
 21
0.6562633715793927
 31
0.0
  0
LINE
  5
6D
100
AcDbEntity
  8
USP-OBJ
100
AcDbLine
 10
3.762199999999941
 20
1.312226743158869
 30
0.0
 11
3.836899999999941
 21
1.312226743158867
 31
0.0
  0
LINE
  5
6E
100
AcDbEntity
  8
USP-OBJ
100
AcDbLine
 10
4.961899999999969
 20
2.762200000000002
 30
0.0
 11
4.961899999999966
 21
2.687500000000002
 31
0.0
  0
ENDBLK
  5
70
100
AcDbEntity
  8
0
100
AcDbBlockEnd
  0
BLOCK
  5
97
100
AcDbEntity
  8
0
100
AcDbBlockBegin
  2
HD310_S
 70
     0
 10
0.0
 20
0.0
 30
0.0
  3
HD310_S
  1

  0
TEXT
  5
73
100
AcDbEntity
  8
USP-TEXT
100
AcDbText
 10
-1.315091648501477
 20
-1.980047232519879
 30
0.0
 40
0.375
  1
HD310 - SIDE VIEW
 72
     1
 11
1.716158351498522
 21
-1.980047232519879
 31
0.0
100
AcDbText
  0
LINE
  5
74
100
AcDbEntity
  8
USP-FOLD
  6
HIDDEN
100
AcDbLine
 10
2.499973256841242
 20
0.074699999999968
 30
0.0
 11
0.0000000000000053
 21
0.0747000000000018
 31
0.0
  0
LINE
  5
77
100
AcDbEntity
  8
USP-OBJ
100
AcDbLine
 10
2.499973256841236
 20
-0.0000000000000355
 30
0.0
 11
0.0
 21
0.0000000000000036
 31
0.0
  0
ARC
  5
78
100
AcDbEntity
  8
USP-OBJ
100
AcDbCircle
 10
-1.187473256841117
 20
4.177213277456816
 30
0.0
 40
2.5
100
AcDbArc
 50
317.5184333539273
 51
0.8876312758833165
  0
LINE
  5
79
100
AcDbEntity
  8
USP-OBJ
100
AcDbLine
 10
-0.0000000000000373
 20
0.6684500000000231
 30
0.0
 11
-0.0000000000000213
 21
0.8004484085206389
 31
0.0
  0
LINE
  5
7A
100
AcDbEntity
  8
USP-OBJ
100
AcDbLine
 10
0.0624999999999858
 20
0.1684499999999929
 30
0.0
 11
0.0624999999999769
 21
0.6684500000000498
 31
0.0
  0
LINE
  5
7B
100
AcDbEntity
  8
USP-OBJ
100
AcDbLine
 10
0.0
 20
0.1684500000000213
 30
0.0
 11
0.062499999999984
 21
0.1684499999999929
 31
0.0
  0
LINE
  5
7C
100
AcDbEntity
  8
USP-OBJ
100
AcDbLine
 10
0.0
 20
0.0
 30
0.0
 11
-0.0000000000000018
 21
0.1684500000000497
 31
0.0
  0
LINE
  5
7D
100
AcDbEntity
  8
USP-OBJ
100
AcDbLine
 10
0.0624999999999769
 20
0.6684500000000498
 30
0.0
 11
-0.0000000000000373
 21
0.6684500000000213
 31
0.0
  0
ARC
  5
7E
100
AcDbEntity
  8
USP-OBJ
100
AcDbCircle
 10
2.500000000000037
 20
0.8004484085206886
 30
0.0
 40
2.5
100
AcDbArc
 50
137.5184333539264
 51
180.0000000000011
  0
LINE
  5
7F
100
AcDbEntity
  8
USP-OBJ
100
AcDbLine
 10
2.687500000000087
 20
7.480949999999876
 30
0.0
 11
2.68750000000004
 21
4.177213277456656
 31
0.0
  0
LINE
  5
80
100
AcDbEntity
  8
USP-OBJ
100
AcDbLine
 10
2.76220000000004
 20
4.177213277456656
 30
0.0
 11
2.762200000000087
 21
7.480949999999876
 31
0.0
  0
LINE
  5
81
100
AcDbEntity
  8
USP-OBJ
100
AcDbLine
 10
1.3122267431589
 20
4.215941949005193
 30
0.0
 11
1.312226743158948
 21
7.480949999999923
 31
0.0
  0
ARC
  5
82
100
AcDbEntity
  8
USP-OBJ
100
AcDbCircle
 10
2.687500000000012
 20
4.42358089714424
 30
0.0
 40
0.095
100
AcDbArc
 50
89.9999999999539
 51
270.0000000000449
  0
ARC
  5
83
100
AcDbEntity
  8
USP-OBJ
100
AcDbCircle
 10
4.999973256841267
 20
0.8004484085206549
 30
0.0
 40
2.5
100
AcDbArc
 50
157.6667419904863
 51
179.9999999999991
  0
LINE
  5
84
100
AcDbEntity
  8
USP-OBJ
100
AcDbLine
 10
2.499973256841265
 20
0.8004484085206886
 30
0.0
 11
2.499973256841263
 21
0.6684499999999592
 31
0.0
  0
LINE
  5
85
100
AcDbEntity
  8
USP-OBJ
100
AcDbLine
 10
2.437473256841263
 20
0.6684500000000178
 30
0.0
 11
2.437473256841242
 21
0.1684499999999893
 31
0.0
  0
LINE
  5
86
100
AcDbEntity
  8
USP-OBJ
100
AcDbLine
 10
2.437473256841242
 20
0.1684499999999591
 30
0.0
 11
2.499973256841228
 21
0.1684499999999875
 31
0.0
  0
LINE
  5
87
100
AcDbEntity
  8
USP-OBJ
100
AcDbLine
 10
2.499973256841242
 20
0.1684499999999893
 30
0.0
 11
2.499973256841236
 21
-0.0000000000000355
 31
0.0
  0
LINE
  5
88
100
AcDbEntity
  8
USP-OBJ
100
AcDbLine
 10
2.499973256841263
 20
0.6684499999999894
 30
0.0
 11
2.437473256841263
 21
0.6684500000000178
 31
0.0
  0
CIRCLE
  5
89
100
AcDbEntity
  8
USP-OBJ
100
AcDbCircle
 10
1.687226743158888
 20
4.339787232443505
 30
0.0
 40
0.082
  0
CIRCLE
  5
8A
100
AcDbEntity
  8
USP-OBJ
100
AcDbCircle
 10
1.687226743158863
 20
2.543449999999914
 30
0.0
 40
0.082
  0
LINE
  5
8B
100
AcDbEntity
  8
USP-OBJ
100
AcDbLine
 10
2.687500000000042
 20
4.177213277456656
 30
0.0
 11
2.687500000000044
 21
2.488830842988679
 31
0.0
  0
LINE
  5
8C
100
AcDbEntity
  8
USP-OBJ
100
AcDbLine
 10
2.762200000000044
 20
4.177213277456656
 30
0.0
 11
2.762200000000046
 21
2.488830842988678
 31
0.0
  0
LINE
  5
8D
100
AcDbEntity
  8
USP-OBJ
100
AcDbLine
 10
2.762200000000051
 20
1.750431269626103
 30
0.0
 11
2.762200000000044
 21
2.488830842988683
 31
0.0
  0
LINE
  5
8E
100
AcDbEntity
  8
USP-OBJ
100
AcDbLine
 10
2.687500000000042
 20
2.488830842988685
 30
0.0
 11
2.687500000000049
 21
1.750431269626105
 31
0.0
  0
LINE
  5
8F
100
AcDbEntity
  8
USP-OBJ
100
AcDbLine
 10
2.762200000000049
 20
1.750431269626101
 30
0.0
 11
2.687500000000049
 21
1.750431269626103
 31
0.0
  0
LINE
  5
90
100
AcDbEntity
  8
USP-OBJ
100
AcDbLine
 10
2.762200000000044
 20
2.488830842988676
 30
0.0
 11
2.687500000000042
 21
2.488830842988678
 31
0.0
  0
LINE
  5
91
100
AcDbEntity
  8
USP-OBJ
100
AcDbLine
 10
2.76220000000004
 20
4.177213277456656
 30
0.0
 11
2.68750000000004
 21
4.177213277456658
 31
0.0
  0
LINE
  5
92
100
AcDbEntity
  8
USP-OBJ
100
AcDbLine
 10
1.31222674315895
 20
7.480949999999924
 30
0.0
 11
2.687500000000126
 21
7.480949999999912
 31
0.0
  0
CIRCLE
  5
93
100
AcDbEntity
  8
USP-OBJ
100
AcDbCircle
 10
1.687226743158896
 20
5.139151308014554
 30
0.0
 40
0.082
  0
CIRCLE
  5
94
100
AcDbEntity
  8
USP-OBJ
100
AcDbCircle
 10
2.250000000000106
 20
6.860519385878474
 30
0.0
 40
0.1535
  0
ARC
  5
95
100
AcDbEntity
  8
USP-OBJ
100
AcDbCircle
 10
2.687500000000111
 20
4.592510080790564
 30
0.0
 40
0.095
100
AcDbArc
 50
242.7604912656409
 51
270.0000000000386
  0
LINE
  5
96
100
AcDbEntity
  8
USP-OBJ
100
AcDbLine
 10
2.762200000000083
 20
7.480949999999876
 30
0.0
 11
2.687500000000083
 21
7.480949999999877
 31
0.0
  0
ENDBLK
  5
98
100
AcDbEntity
  8
0
100
AcDbBlockEnd
  0
ENDSEC
  0
SECTION
  2
ENTITIES
  0
INSERT
  5
3
100
AcDbEntity
  8
USP-OBJ
100
AcDbBlockReference
  2
HD310_F
 10
0.8242301579566486
 20
1.984154942563799
 30
0.0
  0
INSERT
  5
49
100
AcDbEntity
  8
USP-OBJ
100
AcDbBlockReference
  2
HD310_T
 10
0.8242301579566415
 20
13.82564567426187
 30
0.0
  0
INSERT
  5
71
100
AcDbEntity
  8
USP-OBJ
100
AcDbBlockReference
  2
HD310_S
 10
11.92291074992687
 20
1.984154942563694
 30
0.0
  0
VIEWPORT
  5
9E
102
{ACAD_XDICTIONARY
360
9F
102
}
100
AcDbEntity
 67
     1
  8
0
100
AcDbViewport
 10
5.285416850893515
 20
5.279714980408592
 30
0.0
 40
13.50573247017707
 41
11.61492992435228
 68
    -1
 69
     1
1001
ACAD
1000
MVIEW
1002
{
1070
    16
1010
0.0
1020
0.0
1030
0.0
1010
0.0
1020
0.0
1030
1.0
1040
0.0
1040
11.61492992435228
1040
5.285416850893515
1040
5.279714980408592
1040
50.0
1040
0.0
1040
0.0
1070
     0
1070
   100
1070
     1
1070
     1
1070
     0
1070
     0
1070
     0
1070
     0
1040
0.0
1040
0.0
1040
0.0
1040
0.5
1040
0.5
1040
0.5
1040
0.5
1070
     0
1002
{
1002
}
1002
}
  0
ENDSEC
  0
SECTION
  2
OBJECTS
  0
DICTIONARY
  5
B5
100
AcDbDictionary
  3
ACAD_GROUP
350
B3
  3
ACAD_MLINESTYLE
350
B4
  0
DICTIONARY
  5
99
100
AcDbDictionary
280
     1
  3
ACAD_LAYOUTSELFREF
360
9A
  0
DICTIONARY
  5
A3
100
AcDbDictionary
280
     1
  3
ACAD_LAYOUTSELFREF
360
A4
  0
DICTIONARY
  5
9F
100
AcDbDictionary
280
     1
  3
ACAD_XREC_ROUNDTRIP
360
A0
  0
DICTIONARY
  5
B3
102
{ACAD_REACTORS
330
B5
102
}
100
AcDbDictionary
  0
DICTIONARY
  5
B4
102
{ACAD_REACTORS
330
B5
102
}
100
AcDbDictionary
  3
STANDARD
350
B6
  0
XRECORD
  5
9A
102
{ACAD_REACTORS
330
99
102
}
100
AcDbXrecord
340
18
  0
XRECORD
  5
A4
102
{ACAD_REACTORS
330
A3
102
}
100
AcDbXrecord
340
15
  0
XRECORD
  5
A0
102
{ACAD_REACTORS
330
9F
102
}
100
AcDbXrecord
102
UCS
 74
     0
 71
     1
 10
0.0
 20
0.0
 30
0.0
 10
1.0
 20
0.0
 30
0.0
 10
0.0
 20
1.0
 30
0.0
146
0.0
 79
     0
102
VIEW
281
     0
102
NEWVIEWCONTROL
280
     4
  0
MLINESTYLE
  5
B6
102
{ACAD_REACTORS
330
B4
102
}
100
AcDbMlineStyle
  2
STANDARD
 70
     0
  3

 62
     0
 51
90.0
 52
90.0
 71
     2
 49
0.5
 62
   256
  6
BYLAYER
 49
-0.5
 62
   256
  6
BYLAYER
  0
ENDSEC
  0
EOF
