  0
SECTION
  2
HEADER
  9
$ACADVER
  1
AC1014
  9
$ACADMAINTVER
 70
     9
  9
$DWGCODEPAGE
  3
ANSI_1252
  9
$INSBASE
 10
0.0
 20
0.0
 30
0.0
  9
$EXTMIN
 10
0.0005687508820458
 20
0.0009072817556124
 30
0.0
  9
$EXTMAX
 10
9.783747669997518
 20
12.03738933445921
 30
0.0
  9
$LIMMIN
 10
0.0
 20
0.0
  9
$LIMMAX
 10
12.0
 20
9.0
  9
$ORTHOMODE
 70
     0
  9
$REGENMODE
 70
     1
  9
$FILLMODE
 70
     1
  9
$QTEXTMODE
 70
     0
  9
$MIRRTEXT
 70
     0
  9
$DRAGMODE
 70
     2
  9
$LTSCALE
 40
1.5
  9
$OSMODE
 70
    37
  9
$ATTMODE
 70
     1
  9
$TEXTSIZE
 40
0.25
  9
$TRACEWID
 40
0.05
  9
$TEXTSTYLE
  7
STANDARD
  9
$CLAYER
  8
0
  9
$CELTYPE
  6
BYLAYER
  9
$CECOLOR
 62
   256
  9
$CELTSCALE
 40
1.0
  9
$DELOBJ
 70
     1
  9
$DISPSILH
 70
     1
  9
$DIMSCALE
 40
6.0
  9
$DIMASZ
 40
0.125
  9
$DIMEXO
 40
0.0625
  9
$DIMDLI
 40
0.37890625
  9
$DIMRND
 40
0.0
  9
$DIMDLE
 40
0.0
  9
$DIMEXE
 40
0.09375
  9
$DIMTP
 40
0.0
  9
$DIMTM
 40
0.0
  9
$DIMTXT
 40
0.109375
  9
$DIMCEN
 40
0.0
  9
$DIMTSZ
 40
0.0
  9
$DIMTOL
 70
     0
  9
$DIMLIM
 70
     0
  9
$DIMTIH
 70
     1
  9
$DIMTOH
 70
     1
  9
$DIMSE1
 70
     0
  9
$DIMSE2
 70
     0
  9
$DIMTAD
 70
     0
  9
$DIMZIN
 70
     8
  9
$DIMBLK
  1

  9
$DIMASO
 70
     1
  9
$DIMSHO
 70
     1
  9
$DIMPOST
  1

  9
$DIMAPOST
  1

  9
$DIMALT
 70
     0
  9
$DIMALTD
 70
     2
  9
$DIMALTF
 40
25.4
  9
$DIMLFAC
 40
1.0
  9
$DIMTOFL
 70
     0
  9
$DIMTVP
 40
0.0
  9
$DIMTIX
 70
     0
  9
$DIMSOXD
 70
     0
  9
$DIMSAH
 70
     0
  9
$DIMBLK1
  1

  9
$DIMBLK2
  1

  9
$DIMSTYLE
  2
STANDARD
  9
$DIMCLRD
 70
     0
  9
$DIMCLRE
 70
     0
  9
$DIMCLRT
 70
   256
  9
$DIMTFAC
 40
1.0
  9
$DIMGAP
 40
0.08984375
  9
$DIMJUST
 70
     0
  9
$DIMSD1
 70
     0
  9
$DIMSD2
 70
     0
  9
$DIMTOLJ
 70
     1
  9
$DIMTZIN
 70
     0
  9
$DIMALTZ
 70
     0
  9
$DIMALTTZ
 70
     0
  9
$DIMFIT
 70
     3
  9
$DIMUPT
 70
     1
  9
$DIMUNIT
 70
     7
  9
$DIMDEC
 70
     4
  9
$DIMTDEC
 70
     4
  9
$DIMALTU
 70
     2
  9
$DIMALTTD
 70
     2
  9
$DIMTXSTY
  7
STANDARD
  9
$DIMAUNIT
 70
     0
  9
$LUNITS
 70
     5
  9
$LUPREC
 70
     6
  9
$SKETCHINC
 40
0.1
  9
$FILLETRAD
 40
0.0
  9
$AUNITS
 70
     0
  9
$AUPREC
 70
     1
  9
$MENU
  1
CUSTOM
  9
$ELEVATION
 40
0.0
  9
$PELEVATION
 40
0.0
  9
$THICKNESS
 40
0.0
  9
$LIMCHECK
 70
     0
  9
$BLIPMODE
 70
     0
  9
$CHAMFERA
 40
0.0
  9
$CHAMFERB
 40
0.0
  9
$CHAMFERC
 40
0.0
  9
$CHAMFERD
 40
0.0
  9
$SKPOLY
 70
     0
  9
$TDCREATE
 40
2451263.663231366
  9
$TDUPDATE
 40
2452759.744630532
  9
$TDINDWG
 40
0.1195259144
  9
$TDUSRTIMER
 40
0.1195259144
  9
$USRTIMER
 70
     1
  9
$ANGBASE
 50
0.0
  9
$ANGDIR
 70
     0
  9
$PDMODE
 70
     0
  9
$PDSIZE
 40
0.0
  9
$PLINEWID
 40
0.0
  9
$COORDS
 70
     1
  9
$SPLFRAME
 70
     0
  9
$SPLINETYPE
 70
     6
  9
$SPLINESEGS
 70
     8
  9
$ATTDIA
 70
     0
  9
$ATTREQ
 70
     1
  9
$HANDLING
 70
     1
  9
$HANDSEED
  5
C5
  9
$SURFTAB1
 70
     6
  9
$SURFTAB2
 70
     6
  9
$SURFTYPE
 70
     6
  9
$SURFU
 70
     6
  9
$SURFV
 70
     6
  9
$UCSNAME
  2

  9
$UCSORG
 10
0.0
 20
0.0
 30
0.0
  9
$UCSXDIR
 10
1.0
 20
0.0
 30
0.0
  9
$UCSYDIR
 10
0.0
 20
1.0
 30
0.0
  9
$PUCSNAME
  2

  9
$PUCSORG
 10
0.0
 20
0.0
 30
0.0
  9
$PUCSXDIR
 10
1.0
 20
0.0
 30
0.0
  9
$PUCSYDIR
 10
0.0
 20
1.0
 30
0.0
  9
$USERI1
 70
     0
  9
$USERI2
 70
     0
  9
$USERI3
 70
     0
  9
$USERI4
 70
     0
  9
$USERI5
 70
     0
  9
$USERR1
 40
0.0
  9
$USERR2
 40
0.0
  9
$USERR3
 40
0.0
  9
$USERR4
 40
0.0
  9
$USERR5
 40
0.0
  9
$WORLDVIEW
 70
     1
  9
$SHADEDGE
 70
     3
  9
$SHADEDIF
 70
    70
  9
$TILEMODE
 70
     1
  9
$MAXACTVP
 70
    16
  9
$PINSBASE
 10
0.0
 20
0.0
 30
0.0
  9
$PLIMCHECK
 70
     0
  9
$PEXTMIN
 10
1.052083323321005
 20
0.7937500251559762
 30
0.0
  9
$PEXTMAX
 10
9.468749909889039
 20
7.143750226403783
 30
0.0
  9
$PLIMMIN
 10
-0.2145830289585384
 20
-0.2812499887361301
  9
$PLIMMAX
 10
10.78541673074557
 20
8.218749770967978
  9
$UNITMODE
 70
     0
  9
$VISRETAIN
 70
     0
  9
$PLINEGEN
 70
     0
  9
$PSLTSCALE
 70
     0
  9
$TREEDEPTH
 70
  3020
  9
$PICKSTYLE
 70
     1
  9
$CMLSTYLE
  2
STANDARD
  9
$CMLJUST
 70
     0
  9
$CMLSCALE
 40
1.0
  9
$PROXYGRAPHICS
 70
     1
  9
$MEASUREMENT
 70
     0
  0
ENDSEC
  0
SECTION
  2
CLASSES
  0
CLASS
  1
ACDBDICTIONARYWDFLT
  2
AcDbDictionaryWithDefault
  3
AutoCAD 2000
 90
        0
280
     0
281
     0
  0
CLASS
  1
ACDBPLACEHOLDER
  2
AcDbPlaceHolder
  3
AutoCAD 2000
 90
        0
280
     0
281
     0
  0
CLASS
  1
LAYOUT
  2
AcDbLayout
  3
AutoCAD 2000
 90
        0
280
     0
281
     0
  0
CLASS
  1
DICTIONARYVAR
  2
AcDbDictionaryVar
  3
"AutoCAD"
 90
        0
280
     0
281
     0
  0
CLASS
  1
LONG_TRANSACTION
  2
AcDbLongTransaction
  3
AutoCAD 2000
 90
        0
280
     0
281
     0
  0
CLASS
  1
LWPOLYLINE
  2
AcDbPolyline
  3
"AutoCAD"
 90
        0
280
     0
281
     1
  0
CLASS
  1
HATCH
  2
AcDbHatch
  3
"ACAD_SEDONA"
 90
        0
280
     0
281
     1
  0
CLASS
  1
XRECORD
  2
AcDbXrecord
  3
"<Built In>"
 90
        0
280
     0
281
     0
  0
CLASS
  1
LONG_TRANSACTION
  2
AcDbLongTransaction
  3
AutoCAD 2000
 90
        0
280
     0
281
     0
  0
CLASS
  1
LWPOLYLINE
  2
AcDbPolyline
  3
"AutoCAD"
 90
        0
280
     0
281
     1
  0
CLASS
  1
HATCH
  2
AcDbHatch
  3
"ACAD_SEDONA"
 90
        0
280
     0
281
     1
  0
CLASS
  1
XRECORD
  2
AcDbXrecord
  3
"<Built In>"
 90
        0
280
     0
281
     0
  0
ENDSEC
  0
SECTION
  2
TABLES
  0
TABLE
  2
VPORT
  5
A7
100
AcDbSymbolTable
 70
     1
  0
VPORT
  5
C1
100
AcDbSymbolTableRecord
100
AcDbViewportTableRecord
  2
*ACTIVE
 70
     0
 10
0.0
 20
0.0
 11
1.0
 21
1.0
 12
-18.18642375695321
 22
16.43768861288717
 13
0.0
 23
0.0
 14
1.0
 24
1.0
 15
0.0
 25
0.0
 16
0.0
 26
0.0
 36
1.0
 17
23.09603071721725
 27
-10.27010416511325
 37
-10.44050274849355
 40
12.4223619066687
 41
1.457627118644067
 42
50.0
 43
10.55307667737539
 44
10.55307667737539
 50
0.0
 51
0.0
 71
     0
 72
   100
 73
     1
 74
     1
 75
     0
 76
     0
 77
     0
 78
     0
  0
ENDTAB
  0
TABLE
  2
LTYPE
  5
A2
100
AcDbSymbolTable
 70
     2
  0
LTYPE
  5
A3
100
AcDbSymbolTableRecord
100
AcDbLinetypeTableRecord
  2
BYBLOCK
 70
     0
  3

 72
    65
 73
     0
 40
0.0
  0
LTYPE
  5
A4
100
AcDbSymbolTableRecord
100
AcDbLinetypeTableRecord
  2
BYLAYER
 70
     0
  3

 72
    65
 73
     0
 40
0.0
  0
LTYPE
  5
5
100
AcDbSymbolTableRecord
100
AcDbLinetypeTableRecord
  2
CONTINUOUS
 70
     0
  3
Solid line
 72
    65
 73
     0
 40
0.0
  0
LTYPE
  5
73
100
AcDbSymbolTableRecord
100
AcDbLinetypeTableRecord
  2
HIDDEN
 70
     0
  3
Hidden __ __ __ __ __ __ __ __ __ __ __ __ __ _
 72
    65
 73
     2
 40
0.375
 49
0.25
 74
     0
 49
-0.125
 74
     0
  0
ENDTAB
  0
TABLE
  2
LAYER
  5
A0
100
AcDbSymbolTable
 70
     5
  0
LAYER
  5
3F
100
AcDbSymbolTableRecord
100
AcDbLayerTableRecord
  2
0
 70
     0
 62
     7
  6
CONTINUOUS
  0
LAYER
  5
8
100
AcDbSymbolTableRecord
100
AcDbLayerTableRecord
  2
USP-GEO
 70
     0
 62
     7
  6
CONTINUOUS
  0
LAYER
  5
F
100
AcDbSymbolTableRecord
100
AcDbLayerTableRecord
  2
USP-TXT
 70
     0
 62
     7
  6
CONTINUOUS
  0
LAYER
  5
72
100
AcDbSymbolTableRecord
100
AcDbLayerTableRecord
  2
USP-HID
 70
     0
 62
     7
  6
HIDDEN
  0
LAYER
  5
4
100
AcDbSymbolTableRecord
100
AcDbLayerTableRecord
  2
USP
 70
     0
 62
     7
  6
CONTINUOUS
  0
ENDTAB
  0
TABLE
  2
STYLE
  5
A1
100
AcDbSymbolTable
 70
     1
  0
STYLE
  5
10
100
AcDbSymbolTableRecord
100
AcDbTextStyleTableRecord
  2
STANDARD
 70
     0
 40
0.0
 41
1.0
 50
0.0
 71
     0
 42
0.25
  3
txt
  4

  0
ENDTAB
  0
TABLE
  2
VIEW
  5
A5
100
AcDbSymbolTable
 70
     0
  0
ENDTAB
  0
TABLE
  2
UCS
  5
A6
100
AcDbSymbolTable
 70
     0
  0
ENDTAB
  0
TABLE
  2
APPID
  5
A9
100
AcDbSymbolTable
 70
     1
  0
APPID
  5
9B
100
AcDbSymbolTableRecord
100
AcDbRegAppTableRecord
  2
ACAD
 70
     0
  0
ENDTAB
  0
TABLE
  2
DIMSTYLE
  5
AA
100
AcDbSymbolTable
 70
     1
  0
DIMSTYLE
105
B2
100
AcDbSymbolTableRecord
100
AcDbDimStyleTableRecord
  2
STANDARD
 70
     0
  3

  4

  5

  6

  7

 40
1.0
 41
0.18
 42
0.0625
 43
0.38
 44
0.18
 45
0.0
 46
0.0
 47
0.0
 48
0.0
140
0.18
141
0.09
142
0.0
143
25.4
144
1.0
145
0.0
146
1.0
147
0.09
 71
     0
 72
     0
 73
     1
 74
     1
 75
     0
 76
     0
 77
     0
 78
     0
170
     0
171
     2
172
     0
173
     0
174
     0
175
     0
176
     0
177
     0
178
     0
270
     2
271
     4
272
     4
273
     2
274
     2
340
10
275
     0
280
     0
281
     0
282
     0
283
     1
284
     0
285
     0
286
     0
287
     3
288
     0
  0
ENDTAB
  0
TABLE
  2
BLOCK_RECORD
  5
1
100
AcDbSymbolTable
 70
     3
  0
BLOCK_RECORD
  5
2
102
{ACAD_XDICTIONARY
360
92
102
}
100
AcDbSymbolTableRecord
100
AcDbBlockTableRecord
  2
*MODEL_SPACE
  0
BLOCK_RECORD
  5
96
102
{ACAD_XDICTIONARY
360
9C
102
}
100
AcDbSymbolTableRecord
100
AcDbBlockTableRecord
  2
*PAPER_SPACE
  0
BLOCK_RECORD
  5
6
100
AcDbSymbolTableRecord
100
AcDbBlockTableRecord
  2
HD28_F
  0
BLOCK_RECORD
  5
42
100
AcDbSymbolTableRecord
100
AcDbBlockTableRecord
  2
HD28_T
  0
BLOCK_RECORD
  5
6A
100
AcDbSymbolTableRecord
100
AcDbBlockTableRecord
  2
HD28_S
  0
ENDTAB
  0
ENDSEC
  0
SECTION
  2
BLOCKS
  0
BLOCK
  5
94
100
AcDbEntity
  8
0
100
AcDbBlockBegin
  2
*MODEL_SPACE
 70
     0
 10
0.0
 20
0.0
 30
0.0
  3
*MODEL_SPACE
  1

  0
ENDBLK
  5
95
100
AcDbEntity
  8
0
100
AcDbBlockEnd
  0
BLOCK
  5
9E
100
AcDbEntity
 67
     1
  8
0
100
AcDbBlockBegin
  2
*PAPER_SPACE
 70
     0
 10
0.0
 20
0.0
 30
0.0
  3
*PAPER_SPACE
  1

  0
ENDBLK
  5
9F
100
AcDbEntity
 67
     1
  8
0
100
AcDbBlockEnd
  0
BLOCK
  5
3E
100
AcDbEntity
  8
0
100
AcDbBlockBegin
  2
HD28_F
 70
     0
 10
0.0
 20
0.0
 30
0.0
  3
HD28_F
  1

  0
LINE
  5
7
100
AcDbEntity
  8
USP-GEO
100
AcDbLine
 10
2.762200000000024
 20
3.989943540483466
 30
0.0
 11
2.762200000000023
 21
5.324450000000028
 31
0.0
  0
LINE
  5
9
100
AcDbEntity
  8
USP-GEO
100
AcDbLine
 10
2.836900000000023
 20
3.989943540483465
 30
0.0
 11
2.836900000000021
 21
5.324450000000027
 31
0.0
  0
LINE
  5
A
100
AcDbEntity
  8
USP-GEO
100
AcDbLine
 10
3.961899999999971
 20
5.324450000000005
 30
0.0
 11
3.961899999999967
 21
3.951214868935951
 31
0.0
  0
LINE
  5
B
100
AcDbEntity
  8
USP-GEO
100
AcDbLine
 10
1.125000000000025
 20
5.324449999999965
 30
0.0
 11
1.125000000000026
 21
3.989943540482681
 31
0.0
  0
LINE
  5
C
100
AcDbEntity
  8
USP-GEO
100
AcDbLine
 10
1.199700000000025
 20
3.989943540482681
 30
0.0
 11
1.199700000000024
 21
5.324449999999965
 31
0.0
  0
LINE
  5
D
100
AcDbEntity
  8
USP-GEO
100
AcDbLine
 10
0.0000000000000002
 20
3.951214868936085
 30
0.0
 11
-0.0000000000000051
 21
5.324449999999941
 31
0.0
  0
TEXT
  5
E
100
AcDbEntity
  8
USP-TXT
100
AcDbText
 10
-0.1234225283989878
 20
-1.405038011281679
 30
0.0
 40
0.25
  1
HD28 - FRONT VIEW
 72
     1
 11
2.001577471601012
 21
-1.405038011281679
 31
0.0
100
AcDbText
  0
LINE
  5
11
100
AcDbEntity
  8
USP-GEO
100
AcDbLine
 10
1.199700000000066
 20
0.0747000000000001
 30
0.0
 11
2.762200000000036
 21
0.0747000000000015
 31
0.0
  0
LINE
  5
12
100
AcDbEntity
  8
USP-GEO
100
AcDbLine
 10
1.125000000000067
 20
0.0
 30
0.0
 11
2.836900000000064
 21
0.0000000000000014
 31
0.0
  0
LINE
  5
13
100
AcDbEntity
  8
USP-GEO
100
AcDbLine
 10
1.125000000000047
 20
2.262832434468057
 30
0.0
 11
1.125000000000067
 21
0.5744499999999955
 31
0.0
  0
LINE
  5
14
100
AcDbEntity
  8
USP-GEO
100
AcDbLine
 10
1.199700000000047
 20
2.262832434468057
 30
0.0
 11
1.199700000000067
 21
0.574449999999996
 31
0.0
  0
ARC
  5
15
100
AcDbEntity
  8
USP-GEO
100
AcDbCircle
 10
-1.187473256841197
 20
0.5744500000000158
 30
0.0
 40
2.5
100
AcDbArc
 50
22.3332580095156
 51
42.48156664607267
  0
LINE
  5
16
100
AcDbEntity
  8
USP-GEO
100
AcDbLine
 10
1.125000000000064
 20
0.5744499999999914
 30
0.0
 11
1.125000000000065
 21
0.1994499999999922
 31
0.0
  0
LINE
  5
17
100
AcDbEntity
  8
USP-GEO
100
AcDbLine
 10
1.199700000000063
 20
0.5744499999999924
 30
0.0
 11
1.199700000000063
 21
0.1994499999999927
 31
0.0
  0
LINE
  5
18
100
AcDbEntity
  8
USP-GEO
100
AcDbLine
 10
1.125000000000067
 20
0.1994499999999877
 30
0.0
 11
1.125000000000067
 21
0.0000000000000006
 31
0.0
  0
LINE
  5
19
100
AcDbEntity
  8
USP-GEO
100
AcDbLine
 10
1.199700000000066
 20
0.1994499999999882
 30
0.0
 11
1.199700000000066
 21
0.0747000000000003
 31
0.0
  0
LINE
  5
1A
100
AcDbEntity
  8
USP-GEO
100
AcDbLine
 10
1.199700000000066
 20
0.1994499999999882
 30
0.0
 11
1.125000000000067
 21
0.1994499999999881
 31
0.0
  0
LINE
  5
1B
100
AcDbEntity
  8
USP-GEO
100
AcDbLine
 10
1.199700000000066
 20
0.5744499999999958
 30
0.0
 11
1.125000000000067
 21
0.5744499999999958
 31
0.0
  0
ARC
  5
1C
100
AcDbEntity
  8
USP-GEO
100
AcDbCircle
 10
2.5
 20
3.951214868936096
 30
0.0
 40
2.5
100
AcDbArc
 50
180.0000000000002
 51
222.4815666460721
  0
LINE
  5
1D
100
AcDbEntity
  8
USP-GEO
100
AcDbLine
 10
1.125000000000025
 20
3.989943540482681
 30
0.0
 11
1.125000000000045
 21
2.262832434468053
 31
0.0
  0
LINE
  5
1E
100
AcDbEntity
  8
USP-GEO
100
AcDbLine
 10
1.199700000000045
 20
2.262832434468053
 30
0.0
 11
1.199700000000025
 21
3.989943540482681
 31
0.0
  0
CIRCLE
  5
1F
100
AcDbEntity
  8
USP-GEO
100
AcDbCircle
 10
0.7499999999999878
 20
2.543403143199282
 30
0.0
 40
0.086
  0
LINE
  5
20
100
AcDbEntity
  8
USP-GEO
100
AcDbLine
 10
1.199700000000045
 20
2.262832434468057
 30
0.0
 11
1.125000000000046
 21
2.262832434468057
 31
0.0
  0
CIRCLE
  5
21
100
AcDbEntity
  8
USP-GEO
100
AcDbCircle
 10
0.5624999999999874
 20
3.199450000000001
 30
0.0
 40
0.086
  0
CIRCLE
  5
22
100
AcDbEntity
  8
USP-GEO
100
AcDbCircle
 10
0.7499999999999857
 20
3.79340314319928
 30
0.0
 40
0.086
  0
LINE
  5
23
100
AcDbEntity
  8
USP-GEO
100
AcDbLine
 10
1.199700000000025
 20
3.989943540482681
 30
0.0
 11
1.125000000000026
 21
3.989943540482681
 31
0.0
  0
CIRCLE
  5
24
100
AcDbEntity
  8
USP-GEO
100
AcDbCircle
 10
0.3749999999999856
 20
4.793403143199281
 30
0.0
 40
0.086
  0
LINE
  5
25
100
AcDbEntity
  8
USP-GEO
100
AcDbLine
 10
2.762200000000065
 20
0.574449999999861
 30
0.0
 11
2.762200000000045
 21
2.262832434467918
 31
0.0
  0
LINE
  5
26
100
AcDbEntity
  8
USP-GEO
100
AcDbLine
 10
2.836900000000063
 20
0.5744499999998612
 30
0.0
 11
2.836900000000044
 21
2.262832434467919
 31
0.0
  0
ARC
  5
27
100
AcDbEntity
  8
USP-GEO
100
AcDbCircle
 10
5.149373256841199
 20
0.5744499999998808
 30
0.0
 40
2.5
100
AcDbArc
 50
137.5184333539273
 51
157.6667419904854
  0
LINE
  5
28
100
AcDbEntity
  8
USP-GEO
100
AcDbLine
 10
2.762200000000063
 20
0.1374500000000136
 30
0.0
 11
2.762200000000063
 21
0.5124500000000141
 31
0.0
  0
LINE
  5
29
100
AcDbEntity
  8
USP-GEO
100
AcDbLine
 10
2.836900000000061
 20
0.1374500000000139
 30
0.0
 11
2.836900000000061
 21
0.5124500000000144
 31
0.0
  0
LINE
  5
2A
100
AcDbEntity
  8
USP-GEO
100
AcDbLine
 10
2.762200000000066
 20
0.0747000000000025
 30
0.0
 11
2.762200000000065
 21
0.1374500000000131
 31
0.0
  0
LINE
  5
2B
100
AcDbEntity
  8
USP-GEO
100
AcDbLine
 10
2.836900000000064
 20
0.0000000000000013
 30
0.0
 11
2.836900000000064
 21
0.1374500000000134
 31
0.0
  0
LINE
  5
2C
100
AcDbEntity
  8
USP-GEO
100
AcDbLine
 10
2.762200000000065
 20
0.1374500000000131
 30
0.0
 11
2.836900000000063
 21
0.1374500000000132
 31
0.0
  0
LINE
  5
2D
100
AcDbEntity
  8
USP-GEO
100
AcDbLine
 10
2.762200000000064
 20
0.5124500000000133
 30
0.0
 11
2.762200000000064
 21
0.5744499999998611
 31
0.0
  0
LINE
  5
2E
100
AcDbEntity
  8
USP-GEO
100
AcDbLine
 10
2.836900000000063
 20
0.5124500000000136
 30
0.0
 11
2.836900000000063
 21
0.5744499999998613
 31
0.0
  0
LINE
  5
2F
100
AcDbEntity
  8
USP-GEO
100
AcDbLine
 10
2.762200000000064
 20
0.5124500000000133
 30
0.0
 11
2.836900000000063
 21
0.5124500000000135
 31
0.0
  0
LINE
  5
30
100
AcDbEntity
  8
USP-GEO
100
AcDbLine
 10
2.762200000000065
 20
0.5744499999998611
 30
0.0
 11
2.836900000000063
 21
0.5744499999998612
 31
0.0
  0
LINE
  5
31
100
AcDbEntity
  8
USP-GEO
100
AcDbLine
 10
2.762200000000024
 20
3.989943540483466
 30
0.0
 11
2.762200000000044
 21
2.262832434467918
 31
0.0
  0
LINE
  5
32
100
AcDbEntity
  8
USP-GEO
100
AcDbLine
 10
2.836900000000042
 20
2.262832434467918
 30
0.0
 11
2.836900000000022
 21
3.989943540483465
 31
0.0
  0
ARC
  5
33
100
AcDbEntity
  8
USP-GEO
100
AcDbCircle
 10
1.461899999999994
 20
3.951214868935961
 30
0.0
 40
2.5
100
AcDbArc
 50
317.5184333539279
 51
359.9999999999997
  0
CIRCLE
  5
34
100
AcDbEntity
  8
USP-GEO
100
AcDbCircle
 10
3.399399999999995
 20
3.19945000000001
 30
0.0
 40
0.086
  0
LINE
  5
35
100
AcDbEntity
  8
USP-GEO
100
AcDbLine
 10
2.762200000000046
 20
2.262832434467918
 30
0.0
 11
2.836900000000044
 21
2.262832434467918
 31
0.0
  0
CIRCLE
  5
36
100
AcDbEntity
  8
USP-GEO
100
AcDbCircle
 10
3.211899999999996
 20
2.543403143199287
 30
0.0
 40
0.086
  0
LINE
  5
37
100
AcDbEntity
  8
USP-GEO
100
AcDbLine
 10
2.762200000000024
 20
3.989943540483466
 30
0.0
 11
2.836900000000023
 21
3.989943540483466
 31
0.0
  0
CIRCLE
  5
38
100
AcDbEntity
  8
USP-GEO
100
AcDbCircle
 10
3.211899999999996
 20
3.918403143199288
 30
0.0
 40
0.086
  0
CIRCLE
  5
39
100
AcDbEntity
  8
USP-GEO
100
AcDbCircle
 10
3.586899999999995
 20
4.918403143199289
 30
0.0
 40
0.086
  0
LINE
  5
3A
100
AcDbEntity
  8
USP-GEO
100
AcDbLine
 10
0.0000000000000135
 20
5.324449999999941
 30
0.0
 11
1.124999999999999
 21
5.324449999999959
 31
0.0
  0
LINE
  5
3B
100
AcDbEntity
  8
USP-GEO
100
AcDbLine
 10
1.199700000000023
 20
5.324449999999965
 30
0.0
 11
1.125000000000024
 21
5.324449999999965
 31
0.0
  0
LINE
  5
3C
100
AcDbEntity
  8
USP-GEO
100
AcDbLine
 10
2.836899999999997
 20
5.324450000000024
 30
0.0
 11
3.961899999999965
 21
5.324450000000005
 31
0.0
  0
LINE
  5
3D
100
AcDbEntity
  8
USP-GEO
100
AcDbLine
 10
2.762200000000023
 20
5.324450000000028
 30
0.0
 11
2.836900000000022
 21
5.324450000000028
 31
0.0
  0
ENDBLK
  5
40
100
AcDbEntity
  8
0
100
AcDbBlockEnd
  0
BLOCK
  5
67
100
AcDbEntity
  8
0
100
AcDbBlockBegin
  2
HD28_T
 70
     0
 10
0.0
 20
0.0
 30
0.0
  3
HD28_T
  1

  0
TEXT
  5
43
100
AcDbEntity
  8
USP-TXT
100
AcDbText
 10
0.1265774716009971
 20
-1.181010896055576
 30
0.0
 40
0.25
  1
HD28 - TOP VIEW
 72
     1
 11
2.001577471600997
 21
-1.181010896055576
 31
0.0
100
AcDbText
  0
LINE
  5
44
100
AcDbEntity
  8
USP-GEO
100
AcDbLine
 10
1.199700000000052
 20
0.0000000000000639
 30
0.0
 11
2.762200000000022
 21
0.0000000000000639
 31
0.0
  0
LINE
  5
45
100
AcDbEntity
  8
USP-GEO
100
AcDbLine
 10
1.199699999999995
 20
1.999973256841194
 30
0.0
 11
2.762199999999967
 21
1.999973256841284
 31
0.0
  0
LINE
  5
46
100
AcDbEntity
  8
USP-GEO
100
AcDbLine
 10
1.125000000000033
 20
0.6562633715793904
 30
0.0
 11
1.125000000000053
 21
0.0
 31
0.0
  0
LINE
  5
47
100
AcDbEntity
  8
USP-GEO
100
AcDbLine
 10
1.199700000000033
 20
0.656263371579394
 30
0.0
 11
1.199700000000053
 21
0.0000000000000036
 31
0.0
  0
LINE
  5
48
100
AcDbEntity
  8
USP-GEO
100
AcDbLine
 10
1.199700000000052
 20
0.0000000000000107
 30
0.0
 11
1.125000000000053
 21
0.0000000000000089
 31
0.0
  0
LINE
  5
49
100
AcDbEntity
  8
USP-GEO
100
AcDbLine
 10
1.199699999999983
 20
2.262199999999982
 30
0.0
 11
-0.0000000000000016
 21
2.262199999999948
 31
0.0
  0
LINE
  5
4A
100
AcDbEntity
  8
USP-GEO
100
AcDbLine
 10
0.0
 20
2.18749999999995
 30
0.0
 11
1.124999999999986
 21
2.187499999999982
 31
0.0
  0
LINE
  5
4B
100
AcDbEntity
  8
USP-GEO
100
AcDbLine
 10
-0.0000000000000016
 20
2.262199999999946
 30
0.0
 11
0.0000000000000007
 21
2.187499999999948
 31
0.0
  0
LINE
  5
4C
100
AcDbEntity
  8
USP-GEO
100
AcDbLine
 10
1.124999999999986
 20
2.18749999999998
 30
0.0
 11
1.12500000000001
 21
1.312226743158801
 31
0.0
  0
LINE
  5
4D
100
AcDbEntity
  8
USP-GEO
100
AcDbLine
 10
1.199699999999983
 20
2.262199999999982
 30
0.0
 11
1.19970000000001
 21
1.312226743158804
 31
0.0
  0
LINE
  5
4E
100
AcDbEntity
  8
USP-GEO
100
AcDbLine
 10
1.125000000000012
 20
1.312226743158808
 30
0.0
 11
1.125000000000032
 21
0.6562633715793958
 31
0.0
  0
LINE
  5
4F
100
AcDbEntity
  8
USP-GEO
100
AcDbLine
 10
1.199700000000031
 20
0.6562633715793993
 30
0.0
 11
1.199700000000012
 21
1.312226743158809
 31
0.0
  0
LINE
  5
50
100
AcDbEntity
  8
USP-GEO
100
AcDbLine
 10
1.199700000000031
 20
0.656263371579394
 30
0.0
 11
1.125000000000033
 21
0.6562633715793922
 31
0.0
  0
LINE
  5
51
100
AcDbEntity
  8
USP-GEO
100
AcDbLine
 10
1.19970000000001
 20
1.312226743158804
 30
0.0
 11
1.125000000000011
 21
1.312226743158802
 31
0.0
  0
CIRCLE
  5
52
100
AcDbEntity
  8
USP-GEO
100
AcDbCircle
 10
1.980950000000026
 20
1.000000000000069
 30
0.0
 40
0.1535
  0
LINE
  5
53
100
AcDbEntity
  8
USP-GEO
100
AcDbLine
 10
1.480950000000038
 20
0.5272792206136199
 30
0.0
 11
1.608229220613601
 21
0.4000000000000626
 31
0.0
  0
LINE
  5
54
100
AcDbEntity
  8
USP-GEO
100
AcDbLine
 10
1.608229220613601
 20
0.4000000000000643
 30
0.0
 11
1.480950000000045
 21
0.2727207793864732
 31
0.0
  0
LINE
  5
55
100
AcDbEntity
  8
USP-GEO
100
AcDbLine
 10
1.353670779386427
 20
0.400000000000059
 30
0.0
 11
1.480950000000038
 21
0.5272792206136199
 31
0.0
  0
LINE
  5
56
100
AcDbEntity
  8
USP-GEO
100
AcDbLine
 10
1.480950000000046
 20
0.2727207793864732
 30
0.0
 11
1.353670779386425
 21
0.4000000000000572
 31
0.0
  0
LINE
  5
57
100
AcDbEntity
  8
USP-GEO
100
AcDbLine
 10
2.762200000000052
 20
0.0000000000000551
 30
0.0
 11
2.762200000000031
 21
0.6562633715794455
 31
0.0
  0
LINE
  5
58
100
AcDbEntity
  8
USP-GEO
100
AcDbLine
 10
2.83690000000005
 20
0.0000000000000568
 30
0.0
 11
2.83690000000003
 21
0.6562633715794473
 31
0.0
  0
LINE
  5
59
100
AcDbEntity
  8
USP-GEO
100
AcDbLine
 10
2.762200000000051
 20
0.0000000000000551
 30
0.0
 11
2.83690000000005
 21
0.0000000000000568
 31
0.0
  0
LINE
  5
5A
100
AcDbEntity
  8
USP-GEO
100
AcDbLine
 10
2.762199999999982
 20
2.262200000000039
 30
0.0
 11
2.762200000000009
 21
1.312226743158838
 31
0.0
  0
LINE
  5
5B
100
AcDbEntity
  8
USP-GEO
100
AcDbLine
 10
2.836900000000008
 20
1.312226743158841
 30
0.0
 11
2.836899999999983
 21
2.18750000000004
 31
0.0
  0
LINE
  5
5C
100
AcDbEntity
  8
USP-GEO
100
AcDbLine
 10
2.762200000000011
 20
1.312226743158845
 30
0.0
 11
2.762200000000031
 21
0.6562633715794455
 31
0.0
  0
LINE
  5
5D
100
AcDbEntity
  8
USP-GEO
100
AcDbLine
 10
2.836900000000028
 20
0.6562633715794491
 30
0.0
 11
2.836900000000008
 21
1.312226743158849
 31
0.0
  0
LINE
  5
5E
100
AcDbEntity
  8
USP-GEO
100
AcDbLine
 10
2.480950000000039
 20
0.5272792206136483
 30
0.0
 11
2.608229220613601
 21
0.4000000000000945
 31
0.0
  0
LINE
  5
5F
100
AcDbEntity
  8
USP-GEO
100
AcDbLine
 10
2.608229220613601
 20
0.4000000000000945
 30
0.0
 11
2.480950000000045
 21
0.2727207793865034
 31
0.0
  0
LINE
  5
60
100
AcDbEntity
  8
USP-GEO
100
AcDbLine
 10
2.353670779386426
 20
0.4000000000000874
 30
0.0
 11
2.480950000000038
 21
0.5272792206136501
 31
0.0
  0
LINE
  5
61
100
AcDbEntity
  8
USP-GEO
100
AcDbLine
 10
2.480950000000047
 20
0.2727207793865034
 30
0.0
 11
2.353670779386428
 21
0.4000000000000857
 31
0.0
  0
LINE
  5
62
100
AcDbEntity
  8
USP-GEO
100
AcDbLine
 10
2.762200000000032
 20
0.6562633715794455
 30
0.0
 11
2.83690000000003
 21
0.6562633715794473
 31
0.0
  0
LINE
  5
63
100
AcDbEntity
  8
USP-GEO
100
AcDbLine
 10
2.76220000000001
 20
1.312226743158838
 30
0.0
 11
2.836900000000008
 21
1.31222674315884
 31
0.0
  0
LINE
  5
64
100
AcDbEntity
  8
USP-GEO
100
AcDbLine
 10
2.836899999999983
 20
2.18750000000004
 30
0.0
 11
3.961899999999952
 21
2.187500000000072
 31
0.0
  0
LINE
  5
65
100
AcDbEntity
  8
USP-GEO
100
AcDbLine
 10
2.762199999999982
 20
2.262200000000039
 30
0.0
 11
3.961899999999949
 21
2.262200000000072
 31
0.0
  0
LINE
  5
66
100
AcDbEntity
  8
USP-GEO
100
AcDbLine
 10
3.961899999999949
 20
2.262200000000072
 30
0.0
 11
3.961899999999952
 21
2.187500000000072
 31
0.0
  0
ENDBLK
  5
68
100
AcDbEntity
  8
0
100
AcDbBlockEnd
  0
BLOCK
  5
90
100
AcDbEntity
  8
0
100
AcDbBlockBegin
  2
HD28_S
 70
     0
 10
0.0
 20
0.0
 30
0.0
  3
HD28_S
  1

  0
LINE
  5
6B
100
AcDbEntity
  8
USP-GEO
100
AcDbLine
 10
1.312226743158785
 20
3.989943540483464
 30
0.0
 11
1.312226743158776
 21
5.324450000000025
 31
0.0
  0
LINE
  5
6C
100
AcDbEntity
  8
USP-GEO
100
AcDbLine
 10
2.187500000000007
 20
5.324450000000003
 30
0.0
 11
2.187500000000021
 21
3.951214868935949
 31
0.0
  0
LINE
  5
6D
100
AcDbEntity
  8
USP-GEO
100
AcDbLine
 10
2.262200000000021
 20
3.951214868935949
 30
0.0
 11
2.262200000000007
 21
5.324450000000003
 31
0.0
  0
ARC
  5
6E
100
AcDbEntity
  8
USP-GEO
100
AcDbCircle
 10
2.499999999999989
 20
0.5744499999998835
 30
0.0
 40
2.5
100
AcDbArc
 50
137.5184333539278
 51
180.0000000000005
  0
LINE
  5
6F
100
AcDbEntity
  8
USP-GEO
100
AcDbLine
 10
2.187500000000021
 20
2.262832434467929
 30
0.0
 11
2.187500000000014
 21
1.524432861105369
 31
0.0
  0
LINE
  5
70
100
AcDbEntity
  8
USP-GEO
100
AcDbLine
 10
2.262200000000014
 20
1.524432861105371
 30
0.0
 11
2.262200000000021
 21
2.26283243446793
 31
0.0
  0
LINE
  5
71
100
AcDbEntity
  8
USP-HID
100
AcDbLine
 10
1.999973256841217
 20
0.0747000000000196
 30
0.0
 11
-0.0000000000000027
 21
0.0746999999999999
 31
0.0
  0
LINE
  5
74
100
AcDbEntity
  8
USP-GEO
100
AcDbLine
 10
1.999973256841213
 20
0.0000000000000198
 30
0.0
 11
0.0
 21
0.0
 31
0.0
  0
LINE
  5
75
100
AcDbEntity
  8
USP-GEO
100
AcDbLine
 10
0.0624999999999929
 20
0.1374500000000125
 30
0.0
 11
0.0624999999999822
 21
0.5124500000000128
 31
0.0
  0
LINE
  5
76
100
AcDbEntity
  8
USP-GEO
100
AcDbLine
 10
-0.0000000000000071
 20
0.1374500000000119
 30
0.0
 11
0.0624999999999929
 21
0.1374500000000125
 31
0.0
  0
LINE
  5
77
100
AcDbEntity
  8
USP-GEO
100
AcDbLine
 10
0.0625000000000045
 20
0.1994499999999912
 30
0.0
 11
0.0000000000000036
 21
0.1994499999999906
 31
0.0
  0
LINE
  5
78
100
AcDbEntity
  8
USP-GEO
100
AcDbLine
 10
0.0
 20
-0.0000000000000003
 30
0.0
 11
-0.0000000000000062
 21
0.1374500000000118
 31
0.0
  0
LINE
  5
79
100
AcDbEntity
  8
USP-GEO
100
AcDbLine
 10
0.0000000000000036
 20
0.1994499999999867
 30
0.0
 11
0.0000000000000027
 21
0.1374500000000117
 31
0.0
  0
LINE
  5
7A
100
AcDbEntity
  8
USP-GEO
100
AcDbLine
 10
0.0624999999999822
 20
0.5124500000000128
 30
0.0
 11
-0.0000000000000187
 21
0.5124500000000121
 31
0.0
  0
LINE
  5
7B
100
AcDbEntity
  8
USP-GEO
100
AcDbLine
 10
-0.0000000000000187
 20
0.5124500000000121
 30
0.0
 11
-0.0000000000000266
 21
0.5744499999998598
 31
0.0
  0
CIRCLE
  5
7C
100
AcDbEntity
  8
USP-GEO
100
AcDbCircle
 10
0.9997267431588126
 20
1.324450000000062
 30
0.0
 40
0.082
  0
LINE
  5
7D
100
AcDbEntity
  8
USP-GEO
100
AcDbLine
 10
1.937473256841219
 20
0.5124500000000312
 30
0.0
 11
1.937473256841215
 21
0.1374500000000305
 31
0.0
  0
LINE
  5
7E
100
AcDbEntity
  8
USP-GEO
100
AcDbLine
 10
1.999973256841216
 20
0.1374500000000285
 30
0.0
 11
1.999973256841213
 21
0.0000000000000198
 31
0.0
  0
LINE
  5
7F
100
AcDbEntity
  8
USP-GEO
100
AcDbLine
 10
1.937473256841215
 20
0.1374500000000305
 30
0.0
 11
1.999973256841215
 21
0.1374500000000312
 31
0.0
  0
LINE
  5
80
100
AcDbEntity
  8
USP-GEO
100
AcDbLine
 10
1.999973256841127
 20
0.1994500000000098
 30
0.0
 11
1.99997325684113
 21
0.1374500000000279
 31
0.0
  0
LINE
  5
81
100
AcDbEntity
  8
USP-GEO
100
AcDbLine
 10
1.999973256841127
 20
0.1994500000000098
 30
0.0
 11
1.937473256841126
 21
0.1994500000000092
 31
0.0
  0
ARC
  5
82
100
AcDbEntity
  8
USP-GEO
100
AcDbCircle
 10
4.499973256841219
 20
0.5744499999999042
 30
0.0
 40
2.5
100
AcDbArc
 50
157.6667419904858
 51
180.0000000000005
  0
LINE
  5
83
100
AcDbEntity
  8
USP-GEO
100
AcDbLine
 10
1.999973256841218
 20
0.5744499999998798
 30
0.0
 11
1.999973256841219
 21
0.512450000000028
 31
0.0
  0
LINE
  5
84
100
AcDbEntity
  8
USP-GEO
100
AcDbLine
 10
1.999973256841219
 20
0.512450000000028
 30
0.0
 11
1.937473256841219
 21
0.5124500000000274
 31
0.0
  0
LINE
  5
85
100
AcDbEntity
  8
USP-GEO
100
AcDbLine
 10
2.26220000000001
 20
1.524432861105372
 30
0.0
 11
2.187500000000012
 21
1.524432861105371
 31
0.0
  0
CIRCLE
  5
86
100
AcDbEntity
  8
USP-GEO
100
AcDbCircle
 10
1.749999999999959
 20
5.074699999999964
 30
0.0
 40
0.1535
  0
CIRCLE
  5
87
100
AcDbEntity
  8
USP-GEO
100
AcDbCircle
 10
1.624726743158787
 20
3.824450000000021
 30
0.0
 40
0.082
  0
ARC
  5
88
100
AcDbEntity
  8
USP-GEO
100
AcDbCircle
 10
-1.187473256841246
 20
3.95121486893593
 30
0.0
 40
2.5
100
AcDbArc
 50
317.5184333539284
 51
0.8876312758639135
  0
LINE
  5
89
100
AcDbEntity
  8
USP-GEO
100
AcDbLine
 10
2.187500000000019
 20
3.951214868935949
 30
0.0
 11
2.187500000000015
 21
2.26283243446793
 31
0.0
  0
LINE
  5
8A
100
AcDbEntity
  8
USP-GEO
100
AcDbLine
 10
2.262200000000019
 20
3.951214868935949
 30
0.0
 11
2.262200000000015
 21
2.26283243446793
 31
0.0
  0
LINE
  5
8B
100
AcDbEntity
  8
USP-GEO
100
AcDbLine
 10
2.262200000000017
 20
2.262832434467929
 30
0.0
 11
2.187500000000017
 21
2.262832434467928
 31
0.0
  0
LINE
  5
8C
100
AcDbEntity
  8
USP-GEO
100
AcDbLine
 10
2.262200000000021
 20
3.951214868935949
 30
0.0
 11
2.187500000000021
 21
3.951214868935948
 31
0.0
  0
LINE
  5
8D
100
AcDbEntity
  8
USP-GEO
100
AcDbLine
 10
1.312226743158776
 20
5.324450000000027
 30
0.0
 11
2.187499999999975
 21
5.324450000000026
 31
0.0
  0
LINE
  5
8E
100
AcDbEntity
  8
USP-GEO
100
AcDbLine
 10
2.262200000000007
 20
5.324450000000003
 30
0.0
 11
2.187500000000007
 21
5.324450000000002
 31
0.0
  0
TEXT
  5
8F
100
AcDbEntity
  8
USP-TXT
100
AcDbText
 10
-0.7136128931321741
 20
-1.405038011281679
 30
0.0
 40
0.25
  1
HD28 - SIDE VIEW
 72
     1
 11
1.24472044020116
 21
-1.405038011281679
 31
0.0
100
AcDbText
  0
ENDBLK
  5
91
100
AcDbEntity
  8
0
100
AcDbBlockEnd
  0
ENDSEC
  0
SECTION
  2
ENTITIES
  0
INSERT
  5
3
100
AcDbEntity
  8
USP
100
AcDbBlockReference
  2
HD28_F
 10
0.1588658354204555
 20
1.405945293037292
 30
0.0
  0
INSERT
  5
41
100
AcDbEntity
  8
USP
100
AcDbBlockReference
  2
HD28_T
 10
0.1588658354204502
 20
9.77518933445914
 30
0.0
  0
INSERT
  5
69
100
AcDbEntity
  8
USP
100
AcDbBlockReference
  2
HD28_S
 10
6.580693896463023
 20
1.405945293037293
 30
0.0
  0
VIEWPORT
  5
97
102
{ACAD_XDICTIONARY
360
98
102
}
100
AcDbEntity
 67
     1
  8
0
100
AcDbViewport
 10
5.285416850893516
 20
3.968749891115924
 30
0.0
 40
13.50573247017707
 41
8.992999745766947
 68
    -1
 69
     1
1001
ACAD
1000
MVIEW
1002
{
1070
    16
1010
0.0
1020
0.0
1030
0.0
1010
0.0
1020
0.0
1030
1.0
1040
0.0
1040
8.992999745766947
1040
5.285416850893516
1040
3.968749891115924
1040
50.0
1040
0.0
1040
0.0
1070
     0
1070
   100
1070
     1
1070
     1
1070
     0
1070
     0
1070
     0
1070
     0
1040
0.0
1040
0.0
1040
0.0
1040
0.5
1040
0.5
1040
0.5
1040
0.5
1070
     0
1002
{
1002
}
1002
}
  0
ENDSEC
  0
SECTION
  2
OBJECTS
  0
DICTIONARY
  5
AE
102
{ACAD_XDICTIONARY
360
AF
102
}
100
AcDbDictionary
  3
ACAD_GROUP
350
AC
  3
ACAD_MLINESTYLE
350
AD
  0
DICTIONARY
  5
92
100
AcDbDictionary
280
     1
  3
ACAD_LAYOUTSELFREF
360
93
  0
DICTIONARY
  5
9C
100
AcDbDictionary
280
     1
  3
ACAD_LAYOUTSELFREF
360
9D
  0
DICTIONARY
  5
98
100
AcDbDictionary
280
     1
  3
ACAD_XREC_ROUNDTRIP
360
99
  0
DICTIONARY
  5
AF
100
AcDbDictionary
280
     1
  3
ACAD_XREC_ROUNDTRIP
360
B0
  0
DICTIONARY
  5
AC
102
{ACAD_REACTORS
330
AE
102
}
100
AcDbDictionary
  0
DICTIONARY
  5
AD
102
{ACAD_REACTORS
330
AE
102
}
100
AcDbDictionary
  3
STANDARD
350
B1
  0
XRECORD
  5
93
102
{ACAD_REACTORS
330
92
102
}
100
AcDbXrecord
340
18
  0
XRECORD
  5
9D
102
{ACAD_REACTORS
330
9C
102
}
100
AcDbXrecord
340
15
  0
XRECORD
  5
99
102
{ACAD_REACTORS
330
98
102
}
100
AcDbXrecord
102
UCS
 74
     0
 71
     1
 10
0.0
 20
0.0
 30
0.0
 10
1.0
 20
0.0
 30
0.0
 10
0.0
 20
1.0
 30
0.0
146
0.0
 79
     0
102
VIEW
281
     0
102
NEWVIEWCONTROL
280
     4
  0
XRECORD
  5
B0
102
{ACAD_REACTORS
330
AF
102
}
100
AcDbXrecord
102
EXTNAMES
  1
ACDBVARIABLEDICTIONARY
  2
AcDbVariableDictionary
  0
MLINESTYLE
  5
B1
102
{ACAD_REACTORS
330
AD
102
}
100
AcDbMlineStyle
  2
STANDARD
 70
     0
  3

 62
     0
 51
90.0
 52
90.0
 71
     2
 49
0.5
 62
   256
  6
BYLAYER
 49
-0.5
 62
   256
  6
BYLAYER
  0
ENDSEC
  0
EOF
