  0
SECTION
  2
HEADER
  9
$ACADVER
  1
AC1014
  9
$ACADMAINTVER
 70
     9
  9
$DWGCODEPAGE
  3
ANSI_1252
  9
$INSBASE
 10
0.0
 20
0.0
 30
0.0
  9
$EXTMIN
 10
0.0004552005450726
 20
0.0004636469800374
 30
0.0
  9
$EXTMAX
 10
15.07532376921057
 20
15.19331698311819
 30
0.0000000000000013
  9
$LIMMIN
 10
0.0
 20
0.0
  9
$LIMMAX
 10
12.0
 20
9.0
  9
$ORTHOMODE
 70
     0
  9
$REGENMODE
 70
     1
  9
$FILLMODE
 70
     1
  9
$QTEXTMODE
 70
     0
  9
$MIRRTEXT
 70
     1
  9
$DRAGMODE
 70
     2
  9
$LTSCALE
 40
1.0
  9
$OSMODE
 70
    37
  9
$ATTMODE
 70
     1
  9
$TEXTSIZE
 40
0.375
  9
$TRACEWID
 40
0.05
  9
$TEXTSTYLE
  7
STANDARD
  9
$CLAYER
  8
0
  9
$CELTYPE
  6
BYLAYER
  9
$CECOLOR
 62
   256
  9
$CELTSCALE
 40
1.0
  9
$DELOBJ
 70
     1
  9
$DISPSILH
 70
     0
  9
$DIMSCALE
 40
1.0
  9
$DIMASZ
 40
0.18
  9
$DIMEXO
 40
0.0625
  9
$DIMDLI
 40
0.38
  9
$DIMRND
 40
0.0
  9
$DIMDLE
 40
0.0
  9
$DIMEXE
 40
0.18
  9
$DIMTP
 40
0.0
  9
$DIMTM
 40
0.0
  9
$DIMTXT
 40
0.18
  9
$DIMCEN
 40
0.09
  9
$DIMTSZ
 40
0.0
  9
$DIMTOL
 70
     0
  9
$DIMLIM
 70
     0
  9
$DIMTIH
 70
     1
  9
$DIMTOH
 70
     1
  9
$DIMSE1
 70
     0
  9
$DIMSE2
 70
     0
  9
$DIMTAD
 70
     0
  9
$DIMZIN
 70
     0
  9
$DIMBLK
  1

  9
$DIMASO
 70
     1
  9
$DIMSHO
 70
     1
  9
$DIMPOST
  1

  9
$DIMAPOST
  1

  9
$DIMALT
 70
     0
  9
$DIMALTD
 70
     2
  9
$DIMALTF
 40
25.4
  9
$DIMLFAC
 40
1.0
  9
$DIMTOFL
 70
     0
  9
$DIMTVP
 40
0.0
  9
$DIMTIX
 70
     0
  9
$DIMSOXD
 70
     0
  9
$DIMSAH
 70
     0
  9
$DIMBLK1
  1

  9
$DIMBLK2
  1

  9
$DIMSTYLE
  2
STANDARD
  9
$DIMCLRD
 70
     0
  9
$DIMCLRE
 70
     0
  9
$DIMCLRT
 70
     0
  9
$DIMTFAC
 40
1.0
  9
$DIMGAP
 40
0.09
  9
$DIMJUST
 70
     0
  9
$DIMSD1
 70
     0
  9
$DIMSD2
 70
     0
  9
$DIMTOLJ
 70
     1
  9
$DIMTZIN
 70
     0
  9
$DIMALTZ
 70
     0
  9
$DIMALTTZ
 70
     0
  9
$DIMFIT
 70
     3
  9
$DIMUPT
 70
     0
  9
$DIMUNIT
 70
     2
  9
$DIMDEC
 70
     4
  9
$DIMTDEC
 70
     4
  9
$DIMALTU
 70
     2
  9
$DIMALTTD
 70
     2
  9
$DIMTXSTY
  7
STANDARD
  9
$DIMAUNIT
 70
     0
  9
$LUNITS
 70
     2
  9
$LUPREC
 70
     4
  9
$SKETCHINC
 40
0.1
  9
$FILLETRAD
 40
0.5
  9
$AUNITS
 70
     0
  9
$AUPREC
 70
     0
  9
$MENU
  1
.
  9
$ELEVATION
 40
0.0
  9
$PELEVATION
 40
0.0
  9
$THICKNESS
 40
0.0
  9
$LIMCHECK
 70
     0
  9
$BLIPMODE
 70
     0
  9
$CHAMFERA
 40
0.5
  9
$CHAMFERB
 40
0.5
  9
$CHAMFERC
 40
1.0
  9
$CHAMFERD
 40
0.0
  9
$SKPOLY
 70
     0
  9
$TDCREATE
 40
2451667.537949421
  9
$TDUPDATE
 40
2452759.744652592
  9
$TDINDWG
 40
0.1513286227
  9
$TDUSRTIMER
 40
0.1513286227
  9
$USRTIMER
 70
     1
  9
$ANGBASE
 50
0.0
  9
$ANGDIR
 70
     0
  9
$PDMODE
 70
     0
  9
$PDSIZE
 40
0.0
  9
$PLINEWID
 40
0.0
  9
$COORDS
 70
     1
  9
$SPLFRAME
 70
     0
  9
$SPLINETYPE
 70
     6
  9
$SPLINESEGS
 70
     8
  9
$ATTDIA
 70
     0
  9
$ATTREQ
 70
     1
  9
$HANDLING
 70
     1
  9
$HANDSEED
  5
D9
  9
$SURFTAB1
 70
     6
  9
$SURFTAB2
 70
     6
  9
$SURFTYPE
 70
     6
  9
$SURFU
 70
     6
  9
$SURFV
 70
     6
  9
$UCSNAME
  2

  9
$UCSORG
 10
0.0
 20
0.0
 30
0.0
  9
$UCSXDIR
 10
1.0
 20
0.0
 30
0.0
  9
$UCSYDIR
 10
0.0
 20
1.0
 30
0.0
  9
$PUCSNAME
  2

  9
$PUCSORG
 10
0.0
 20
0.0
 30
0.0
  9
$PUCSXDIR
 10
1.0
 20
0.0
 30
0.0
  9
$PUCSYDIR
 10
0.0
 20
1.0
 30
0.0
  9
$USERI1
 70
     0
  9
$USERI2
 70
     0
  9
$USERI3
 70
     0
  9
$USERI4
 70
     0
  9
$USERI5
 70
     0
  9
$USERR1
 40
0.0
  9
$USERR2
 40
0.0
  9
$USERR3
 40
0.0
  9
$USERR4
 40
0.0
  9
$USERR5
 40
0.0
  9
$WORLDVIEW
 70
     1
  9
$SHADEDGE
 70
     3
  9
$SHADEDIF
 70
    70
  9
$TILEMODE
 70
     1
  9
$MAXACTVP
 70
    48
  9
$PINSBASE
 10
0.0
 20
0.0
 30
0.0
  9
$PLIMCHECK
 70
     0
  9
$PEXTMIN
 10
1.000000000000000E+20
 20
1.000000000000000E+20
 30
1.000000000000000E+20
  9
$PEXTMAX
 10
-1.000000000000000E+20
 20
-1.000000000000000E+20
 30
-1.000000000000000E+20
  9
$PLIMMIN
 10
0.0
 20
0.0
  9
$PLIMMAX
 10
12.0
 20
9.0
  9
$UNITMODE
 70
     0
  9
$VISRETAIN
 70
     1
  9
$PLINEGEN
 70
     0
  9
$PSLTSCALE
 70
     1
  9
$TREEDEPTH
 70
  3020
  9
$PICKSTYLE
 70
     1
  9
$CMLSTYLE
  2
STANDARD
  9
$CMLJUST
 70
     0
  9
$CMLSCALE
 40
1.0
  9
$PROXYGRAPHICS
 70
     1
  9
$MEASUREMENT
 70
     0
  0
ENDSEC
  0
SECTION
  2
CLASSES
  0
CLASS
  1
ACDBDICTIONARYWDFLT
  2
AcDbDictionaryWithDefault
  3
AutoCAD 2000
 90
        0
280
     1
281
     0
  0
CLASS
  1
ACDBPLACEHOLDER
  2
AcDbPlaceHolder
  3
AutoCAD 2000
 90
        0
280
     1
281
     0
  0
CLASS
  1
LAYOUT
  2
AcDbLayout
  3
AutoCAD 2000
 90
        0
280
     1
281
     0
  0
CLASS
  1
LONG_TRANSACTION
  2
AcDbLongTransaction
  3
AutoCAD 2000
 90
        0
280
     1
281
     0
  0
CLASS
  1
LWPOLYLINE
  2
AcDbPolyline
  3
"AutoCAD"
 90
        0
280
     1
281
     1
  0
CLASS
  1
HATCH
  2
AcDbHatch
  3
"ACAD_SEDONA"
 90
        0
280
     1
281
     1
  0
CLASS
  1
XRECORD
  2
AcDbXrecord
  3
"<Built In>"
 90
        0
280
     0
281
     0
  0
CLASS
  1
LONG_TRANSACTION
  2
AcDbLongTransaction
  3
AutoCAD 2000
 90
        0
280
     1
281
     0
  0
CLASS
  1
LWPOLYLINE
  2
AcDbPolyline
  3
"AutoCAD"
 90
        0
280
     1
281
     1
  0
CLASS
  1
HATCH
  2
AcDbHatch
  3
"ACAD_SEDONA"
 90
        0
280
     1
281
     1
  0
CLASS
  1
XRECORD
  2
AcDbXrecord
  3
"<Built In>"
 90
        0
280
     0
281
     0
  0
CLASS
  1
LONG_TRANSACTION
  2
AcDbLongTransaction
  3
AutoCAD 2000
 90
        0
280
     1
281
     0
  0
CLASS
  1
LWPOLYLINE
  2
AcDbPolyline
  3
"AutoCAD"
 90
        0
280
     1
281
     1
  0
CLASS
  1
HATCH
  2
AcDbHatch
  3
"ACAD_SEDONA"
 90
        0
280
     1
281
     1
  0
CLASS
  1
XRECORD
  2
AcDbXrecord
  3
"<Built In>"
 90
        0
280
     0
281
     0
  0
CLASS
  1
LONG_TRANSACTION
  2
AcDbLongTransaction
  3
AutoCAD 2000
 90
        0
280
     1
281
     0
  0
CLASS
  1
LWPOLYLINE
  2
AcDbPolyline
  3
"AutoCAD"
 90
        0
280
     1
281
     1
  0
CLASS
  1
HATCH
  2
AcDbHatch
  3
"ACAD_SEDONA"
 90
        0
280
     1
281
     1
  0
CLASS
  1
XRECORD
  2
AcDbXrecord
  3
"<Built In>"
 90
        0
280
     0
281
     0
  0
CLASS
  1
LONG_TRANSACTION
  2
AcDbLongTransaction
  3
AutoCAD 2000
 90
        0
280
     1
281
     0
  0
CLASS
  1
LWPOLYLINE
  2
AcDbPolyline
  3
"AutoCAD"
 90
        0
280
     1
281
     1
  0
CLASS
  1
HATCH
  2
AcDbHatch
  3
"ACAD_SEDONA"
 90
        0
280
     1
281
     1
  0
CLASS
  1
XRECORD
  2
AcDbXrecord
  3
"<Built In>"
 90
        0
280
     0
281
     0
  0
CLASS
  1
LONG_TRANSACTION
  2
AcDbLongTransaction
  3
AutoCAD 2000
 90
        0
280
     1
281
     0
  0
CLASS
  1
LWPOLYLINE
  2
AcDbPolyline
  3
"AutoCAD"
 90
        0
280
     1
281
     1
  0
CLASS
  1
HATCH
  2
AcDbHatch
  3
"ACAD_SEDONA"
 90
        0
280
     1
281
     1
  0
CLASS
  1
XRECORD
  2
AcDbXrecord
  3
"<Built In>"
 90
        0
280
     0
281
     0
  0
CLASS
  1
LONG_TRANSACTION
  2
AcDbLongTransaction
  3
AutoCAD 2000
 90
        0
280
     1
281
     0
  0
CLASS
  1
LWPOLYLINE
  2
AcDbPolyline
  3
"AutoCAD"
 90
        0
280
     1
281
     1
  0
CLASS
  1
HATCH
  2
AcDbHatch
  3
"ACAD_SEDONA"
 90
        0
280
     1
281
     1
  0
CLASS
  1
XRECORD
  2
AcDbXrecord
  3
"<Built In>"
 90
        0
280
     0
281
     0
  0
CLASS
  1
LONG_TRANSACTION
  2
AcDbLongTransaction
  3
AutoCAD 2000
 90
        0
280
     1
281
     0
  0
CLASS
  1
LWPOLYLINE
  2
AcDbPolyline
  3
"AutoCAD"
 90
        0
280
     1
281
     1
  0
CLASS
  1
HATCH
  2
AcDbHatch
  3
"ACAD_SEDONA"
 90
        0
280
     1
281
     1
  0
CLASS
  1
XRECORD
  2
AcDbXrecord
  3
"<Built In>"
 90
        0
280
     0
281
     0
  0
CLASS
  1
LONG_TRANSACTION
  2
AcDbLongTransaction
  3
AutoCAD 2000
 90
        0
280
     1
281
     0
  0
CLASS
  1
LWPOLYLINE
  2
AcDbPolyline
  3
"AutoCAD"
 90
        0
280
     1
281
     1
  0
CLASS
  1
HATCH
  2
AcDbHatch
  3
"ACAD_SEDONA"
 90
        0
280
     1
281
     1
  0
CLASS
  1
XRECORD
  2
AcDbXrecord
  3
"<Built In>"
 90
        0
280
     0
281
     0
  0
CLASS
  1
LONG_TRANSACTION
  2
AcDbLongTransaction
  3
AutoCAD 2000
 90
        0
280
     1
281
     0
  0
CLASS
  1
LWPOLYLINE
  2
AcDbPolyline
  3
"AutoCAD"
 90
        0
280
     1
281
     1
  0
CLASS
  1
HATCH
  2
AcDbHatch
  3
"ACAD_SEDONA"
 90
        0
280
     1
281
     1
  0
CLASS
  1
XRECORD
  2
AcDbXrecord
  3
"<Built In>"
 90
        0
280
     0
281
     0
  0
CLASS
  1
DICTIONARYVAR
  2
AcDbDictionaryVar
  3
"AutoCAD"
 90
        0
280
     0
281
     0
  0
CLASS
  1
LONG_TRANSACTION
  2
AcDbLongTransaction
  3
AutoCAD 2000
 90
        0
280
     0
281
     0
  0
CLASS
  1
LWPOLYLINE
  2
AcDbPolyline
  3
"AutoCAD"
 90
        0
280
     0
281
     1
  0
CLASS
  1
HATCH
  2
AcDbHatch
  3
"ACAD_SEDONA"
 90
        0
280
     0
281
     1
  0
CLASS
  1
XRECORD
  2
AcDbXrecord
  3
"<Built In>"
 90
        0
280
     0
281
     0
  0
CLASS
  1
LONG_TRANSACTION
  2
AcDbLongTransaction
  3
AutoCAD 2000
 90
        0
280
     0
281
     0
  0
CLASS
  1
LWPOLYLINE
  2
AcDbPolyline
  3
"AutoCAD"
 90
        0
280
     0
281
     1
  0
CLASS
  1
HATCH
  2
AcDbHatch
  3
"ACAD_SEDONA"
 90
        0
280
     0
281
     1
  0
CLASS
  1
XRECORD
  2
AcDbXrecord
  3
"<Built In>"
 90
        0
280
     0
281
     0
  0
ENDSEC
  0
SECTION
  2
TABLES
  0
TABLE
  2
VPORT
  5
B9
100
AcDbSymbolTable
 70
     1
  0
VPORT
  5
D5
100
AcDbSymbolTableRecord
100
AcDbViewportTableRecord
  2
*ACTIVE
 70
     0
 10
0.0
 20
0.0
 11
1.0
 21
1.0
 12
7.458870253686334
 22
7.784357674181675
 13
0.0
 23
0.0
 14
0.5
 24
0.5
 15
0.5
 25
0.5
 16
0.0
 26
0.0
 36
1.0
 17
0.0
 27
0.0
 37
0.0
 40
15.67969898290696
 41
1.457627118644067
 42
50.0
 43
0.0
 44
0.0
 50
0.0
 51
0.0
 71
     0
 72
   100
 73
     1
 74
     3
 75
     0
 76
     0
 77
     0
 78
     0
  0
ENDTAB
  0
TABLE
  2
LTYPE
  5
B2
100
AcDbSymbolTable
 70
     2
  0
LTYPE
  5
B3
102
{ACAD_XDICTIONARY
360
B4
102
}
100
AcDbSymbolTableRecord
100
AcDbLinetypeTableRecord
  2
BYBLOCK
 70
     0
  3

 72
    65
 73
     0
 40
0.0
  0
LTYPE
  5
B5
102
{ACAD_XDICTIONARY
360
B6
102
}
100
AcDbSymbolTableRecord
100
AcDbLinetypeTableRecord
  2
BYLAYER
 70
     0
  3

 72
    65
 73
     0
 40
0.0
  0
LTYPE
  5
5
102
{ACAD_XDICTIONARY
360
6
102
}
100
AcDbSymbolTableRecord
100
AcDbLinetypeTableRecord
  2
CONTINUOUS
 70
     0
  3
Solid line
 72
    65
 73
     0
 40
0.0
  0
LTYPE
  5
8E
100
AcDbSymbolTableRecord
100
AcDbLinetypeTableRecord
  2
HIDDEN
 70
     0
  3
Hidden __ __ __ __ __ __ __ __ __ __ __ __ __ _
 72
    65
 73
     2
 40
0.375
 49
0.25
 74
     0
 49
-0.125
 74
     0
  0
ENDTAB
  0
TABLE
  2
LAYER
  5
B0
100
AcDbSymbolTable
 70
     5
  0
LAYER
  5
43
100
AcDbSymbolTableRecord
100
AcDbLayerTableRecord
  2
0
 70
     0
 62
     7
  6
CONTINUOUS
  0
LAYER
  5
4
100
AcDbSymbolTableRecord
100
AcDbLayerTableRecord
  2
USP
 70
     0
 62
     7
  6
CONTINUOUS
  0
LAYER
  5
8D
100
AcDbSymbolTableRecord
100
AcDbLayerTableRecord
  2
USP-HID
 70
     0
 62
     7
  6
HIDDEN
  0
LAYER
  5
D
100
AcDbSymbolTableRecord
100
AcDbLayerTableRecord
  2
USP-GEO
 70
     0
 62
     7
  6
CONTINUOUS
  0
LAYER
  5
9
100
AcDbSymbolTableRecord
100
AcDbLayerTableRecord
  2
USP-TXT
 70
     0
 62
     7
  6
CONTINUOUS
  0
ENDTAB
  0
TABLE
  2
STYLE
  5
B1
100
AcDbSymbolTable
 70
     1
  0
STYLE
  5
A
102
{ACAD_XDICTIONARY
360
B
102
}
100
AcDbSymbolTableRecord
100
AcDbTextStyleTableRecord
  2
STANDARD
 70
     0
 40
0.0
 41
1.0
 50
0.0
 71
     0
 42
0.375
  3
txt
  4

  0
ENDTAB
  0
TABLE
  2
VIEW
  5
B7
100
AcDbSymbolTable
 70
     0
  0
ENDTAB
  0
TABLE
  2
UCS
  5
B8
100
AcDbSymbolTable
 70
     0
  0
ENDTAB
  0
TABLE
  2
APPID
  5
BB
100
AcDbSymbolTable
 70
     1
  0
APPID
  5
BC
100
AcDbSymbolTableRecord
100
AcDbRegAppTableRecord
  2
ACAD
 70
     0
  0
ENDTAB
  0
TABLE
  2
DIMSTYLE
  5
BD
100
AcDbSymbolTable
 70
     1
  0
DIMSTYLE
105
C6
102
{ACAD_XDICTIONARY
360
C7
102
}
100
AcDbSymbolTableRecord
100
AcDbDimStyleTableRecord
  2
STANDARD
 70
     0
  3

  4

  5

  6

  7

 40
1.0
 41
0.18
 42
0.0625
 43
0.38
 44
0.18
 45
0.0
 46
0.0
 47
0.0
 48
0.0
140
0.18
141
0.09
142
0.0
143
25.4
144
1.0
145
0.0
146
1.0
147
0.09
 71
     0
 72
     0
 73
     1
 74
     1
 75
     0
 76
     0
 77
     0
 78
     0
170
     0
171
     2
172
     0
173
     0
174
     0
175
     0
176
     0
177
     0
178
     0
270
     2
271
     4
272
     4
273
     2
274
     2
340
A
275
     0
280
     0
281
     0
282
     0
283
     1
284
     0
285
     0
286
     0
287
     3
288
     0
  0
ENDTAB
  0
TABLE
  2
BLOCK_RECORD
  5
1
100
AcDbSymbolTable
 70
     3
  0
BLOCK_RECORD
  5
2
102
{ACAD_XDICTIONARY
360
A7
102
}
100
AcDbSymbolTableRecord
100
AcDbBlockTableRecord
  2
*MODEL_SPACE
  0
BLOCK_RECORD
  5
AB
102
{ACAD_XDICTIONARY
360
AC
102
}
100
AcDbSymbolTableRecord
100
AcDbBlockTableRecord
  2
*PAPER_SPACE
  0
BLOCK_RECORD
  5
7
100
AcDbSymbolTableRecord
100
AcDbBlockTableRecord
  2
HD28-3_T
  0
BLOCK_RECORD
  5
46
100
AcDbSymbolTableRecord
100
AcDbBlockTableRecord
  2
HD28-3_F
  0
BLOCK_RECORD
  5
89
100
AcDbSymbolTableRecord
100
AcDbBlockTableRecord
  2
HD28-3_S
  0
ENDTAB
  0
ENDSEC
  0
SECTION
  2
BLOCKS
  0
BLOCK
  5
A9
100
AcDbEntity
  8
0
100
AcDbBlockBegin
  2
*MODEL_SPACE
 70
     0
 10
0.0
 20
0.0
 30
0.0
  3
*MODEL_SPACE
  1

  0
ENDBLK
  5
AA
100
AcDbEntity
  8
0
100
AcDbBlockEnd
  0
BLOCK
  5
AE
100
AcDbEntity
 67
     1
  8
0
100
AcDbBlockBegin
  2
*PAPER_SPACE
 70
     0
 10
0.0
 20
0.0
 30
0.0
  3
*PAPER_SPACE
  1

  0
ENDBLK
  5
AF
100
AcDbEntity
 67
     1
  8
0
100
AcDbBlockEnd
  0
BLOCK
  5
42
100
AcDbEntity
  8
0
100
AcDbBlockBegin
  2
HD28-3_T
 70
     0
 10
0.0
 20
0.0
 30
0.0
  3
HD28-3_T
  1

  0
TEXT
  5
8
100
AcDbEntity
  8
USP-TXT
100
AcDbText
 10
0.5070794925621414
 20
-1.448922029681511
 30
-0.0000000000000007
 40
0.375
  1
HD28-3 - TOP VIEW
100
AcDbText
  0
LINE
  5
C
100
AcDbEntity
  8
USP-GEO
100
AcDbLine
 10
4.887200000000049
 20
0.0624999999999858
 30
0.0
 11
5.387200000000106
 21
0.0624999999999716
 31
0.0
  0
LINE
  5
E
100
AcDbEntity
  8
USP-GEO
100
AcDbLine
 10
4.887200000000078
 20
2.437473256841244
 30
0.0
 11
5.387200000000106
 21
2.437473256841258
 31
0.0
  0
LINE
  5
F
100
AcDbEntity
  8
USP-GEO
100
AcDbLine
 10
1.637199999999992
 20
-0.0000000000000284
 30
0.0
 11
1.50520159147932
 21
-0.0000000000000284
 31
0.0
  0
LINE
  5
10
100
AcDbEntity
  8
USP-GEO
100
AcDbLine
 10
1.505201591479405
 20
2.49997325684113
 30
0.0
 11
1.637200000000021
 21
2.499973256841144
 31
0.0
  0
LINE
  5
11
100
AcDbEntity
  8
USP-GEO
100
AcDbLine
 10
1.125000000000056
 20
2.687499999999957
 30
0.0
 11
1.125000000000056
 21
1.312226743158859
 31
0.0
  0
LINE
  5
12
100
AcDbEntity
  8
USP-GEO
100
AcDbLine
 10
1.199700000000049
 20
2.762199999999964
 30
0.0
 11
1.199700000000049
 21
1.312226743158859
 31
0.0
  0
ARC
  5
13
100
AcDbEntity
  8
USP-GEO
100
AcDbCircle
 10
1.50520159147932
 20
2.500000000000028
 30
0.0
 40
2.5
100
AcDbArc
 50
262.9808753571067
 51
270.0
  0
LINE
  5
14
100
AcDbEntity
  8
USP-GEO
100
AcDbLine
 10
1.125000000000056
 20
0.656263371579442
 30
0.0
 11
1.125000000000056
 21
0.0187364554317355
 31
0.0
  0
LINE
  5
15
100
AcDbEntity
  8
USP-GEO
100
AcDbLine
 10
1.125000000000056
 20
1.312226743158845
 30
0.0
 11
1.125000000000056
 21
0.6562633715794562
 31
0.0
  0
LINE
  5
16
100
AcDbEntity
  8
USP-GEO
100
AcDbLine
 10
1.199700000000049
 20
1.312226743158859
 30
0.0
 11
1.125000000000056
 21
1.312226743158859
 31
0.0
  0
LINE
  5
17
100
AcDbEntity
  8
USP-GEO
100
AcDbLine
 10
1.199700000000049
 20
0.6562633715794562
 30
0.0
 11
1.199700000000049
 21
1.312226743158845
 31
0.0
  0
LINE
  5
18
100
AcDbEntity
  8
USP-GEO
100
AcDbLine
 10
1.199700000000049
 20
0.0187364554317355
 30
0.0
 11
1.125000000000056
 21
0.0187364554317355
 31
0.0
  0
LINE
  5
19
100
AcDbEntity
  8
USP-GEO
100
AcDbLine
 10
1.199700000000049
 20
0.656263371579442
 30
0.0
 11
1.199700000000049
 21
0.0187364554317355
 31
0.0
  0
LINE
  5
1A
100
AcDbEntity
  8
USP-GEO
100
AcDbLine
 10
0.0
 20
2.687499999999957
 30
0.0
 11
1.125000000000056
 21
2.687499999999957
 31
0.0
  0
LINE
  5
1B
100
AcDbEntity
  8
USP-GEO
100
AcDbLine
 10
1.199700000000049
 20
2.762199999999964
 30
0.0
 11
0.0
 21
2.762199999999964
 31
0.0
  0
LINE
  5
1C
100
AcDbEntity
  8
USP-GEO
100
AcDbLine
 10
0.0
 20
2.762199999999964
 30
0.0
 11
0.0
 21
2.687499999999957
 31
0.0
  0
ARC
  5
1D
100
AcDbEntity
  8
USP-GEO
100
AcDbCircle
 10
1.50520159147932
 20
4.999973256841258
 30
0.0
 40
2.5
100
AcDbArc
 50
262.9808753571067
 51
270.0000000000016
  0
LINE
  5
1E
100
AcDbEntity
  8
USP-GEO
100
AcDbLine
 10
2.137200000000021
 20
0.0000000000000568
 30
0.0
 11
4.887200000000106
 21
0.0
 31
0.0
  0
LINE
  5
1F
100
AcDbEntity
  8
USP-GEO
100
AcDbLine
 10
2.137200000000021
 20
2.499973256841158
 30
0.0
 11
4.887200000000078
 21
2.499973256841244
 31
0.0
  0
LINE
  5
20
100
AcDbEntity
  8
USP-GEO
100
AcDbLine
 10
1.637199999999992
 20
0.0624999999999716
 30
0.0
 11
1.637200000000021
 21
-0.0000000000000284
 31
0.0
  0
LINE
  5
21
100
AcDbEntity
  8
USP-GEO
100
AcDbLine
 10
2.137200000000021
 20
0.0624999999999858
 30
0.0
 11
1.637199999999992
 21
0.0624999999999716
 31
0.0
  0
LINE
  5
22
100
AcDbEntity
  8
USP-GEO
100
AcDbLine
 10
2.137200000000049
 20
0.0624999999999858
 30
0.0
 11
2.137200000000021
 21
0.0
 31
0.0
  0
LINE
  5
23
100
AcDbEntity
  8
USP-GEO
100
AcDbLine
 10
3.012200000000021
 20
0.1727207793864522
 30
0.0
 11
2.884920779386405
 21
0.3000000000000398
 31
0.0
  0
LINE
  5
24
100
AcDbEntity
  8
USP-GEO
100
AcDbLine
 10
2.884920779386405
 20
0.3000000000000398
 30
0.0
 11
3.012200000000021
 21
0.4272792206135989
 31
0.0
  0
LINE
  5
25
100
AcDbEntity
  8
USP-GEO
100
AcDbLine
 10
3.012200000000021
 20
0.4272792206135989
 30
0.0
 11
3.13947922061358
 21
0.3000000000000398
 31
0.0
  0
LINE
  5
26
100
AcDbEntity
  8
USP-GEO
100
AcDbLine
 10
3.13947922061358
 20
0.3000000000000398
 30
0.0
 11
3.012200000000021
 21
0.1727207793864522
 31
0.0
  0
LINE
  5
27
100
AcDbEntity
  8
USP-GEO
100
AcDbLine
 10
2.137200000000049
 20
2.437473256841244
 30
0.0
 11
2.137200000000021
 21
2.499973256841158
 31
0.0
  0
LINE
  5
28
100
AcDbEntity
  8
USP-GEO
100
AcDbLine
 10
2.137200000000049
 20
2.437473256841244
 30
0.0
 11
1.637199999999992
 21
2.437473256841258
 31
0.0
  0
LINE
  5
29
100
AcDbEntity
  8
USP-GEO
100
AcDbLine
 10
1.637199999999992
 20
2.437473256841258
 30
0.0
 11
1.637200000000021
 21
2.499973256841272
 31
0.0
  0
LINE
  5
2A
100
AcDbEntity
  8
USP-GEO
100
AcDbLine
 10
4.012200000000021
 20
0.4272792206135989
 30
0.0
 11
4.13947922061358
 21
0.3000000000000398
 31
0.0
  0
LINE
  5
2B
100
AcDbEntity
  8
USP-GEO
100
AcDbLine
 10
4.13947922061358
 20
0.3000000000000398
 30
0.0
 11
4.012200000000021
 21
0.1727207793864522
 31
0.0
  0
LINE
  5
2C
100
AcDbEntity
  8
USP-GEO
100
AcDbLine
 10
4.012200000000021
 20
0.1727207793864522
 30
0.0
 11
3.884920779386405
 21
0.3000000000000398
 31
0.0
  0
LINE
  5
2D
100
AcDbEntity
  8
USP-GEO
100
AcDbLine
 10
3.884920779386405
 20
0.3000000000000398
 30
0.0
 11
4.012200000000021
 21
0.4272792206135989
 31
0.0
  0
CIRCLE
  5
2E
100
AcDbEntity
  8
USP-GEO
100
AcDbCircle
 10
3.512200000000049
 20
0.9999866284206149
 30
0.0
 40
0.1535
  0
LINE
  5
2F
100
AcDbEntity
  8
USP-GEO
100
AcDbLine
 10
4.887200000000049
 20
0.0624999999999858
 30
0.0
 11
4.887200000000078
 21
0.0
 31
0.0
  0
LINE
  5
30
100
AcDbEntity
  8
USP-GEO
100
AcDbLine
 10
4.887200000000049
 20
2.437473256841244
 30
0.0
 11
4.887200000000078
 21
2.499973256841229
 31
0.0
  0
LINE
  5
31
100
AcDbEntity
  8
USP-GEO
100
AcDbLine
 10
5.824700000000049
 20
2.762199999999964
 30
0.0
 11
7.024400000000085
 21
2.762199999999964
 31
0.0
  0
LINE
  5
32
100
AcDbEntity
  8
USP-GEO
100
AcDbLine
 10
5.899400000000056
 20
2.687499999999971
 30
0.0
 11
7.024400000000085
 21
2.687499999999971
 31
0.0
  0
LINE
  5
33
100
AcDbEntity
  8
USP-GEO
100
AcDbLine
 10
5.899400000000056
 20
1.312226743158859
 30
0.0
 11
5.899400000000056
 21
2.687499999999971
 31
0.0
  0
LINE
  5
34
100
AcDbEntity
  8
USP-GEO
100
AcDbLine
 10
5.824700000000049
 20
2.762199999999964
 30
0.0
 11
5.824700000000049
 21
1.312226743158859
 31
0.0
  0
LINE
  5
35
100
AcDbEntity
  8
USP-GEO
100
AcDbLine
 10
5.899400000000056
 20
0.656263371579442
 30
0.0
 11
5.899400000000056
 21
1.312226743158845
 31
0.0
  0
LINE
  5
36
100
AcDbEntity
  8
USP-GEO
100
AcDbLine
 10
5.899400000000056
 20
0.0187364554317355
 30
0.0
 11
5.899400000000056
 21
0.656263371579442
 31
0.0
  0
LINE
  5
37
100
AcDbEntity
  8
USP-GEO
100
AcDbLine
 10
5.387200000000106
 20
0.0624999999999716
 30
0.0
 11
5.387200000000078
 21
-0.0000000000000426
 31
0.0
  0
LINE
  5
38
100
AcDbEntity
  8
USP-GEO
100
AcDbLine
 10
5.387200000000078
 20
-0.0000000000000426
 30
0.0
 11
5.519198408520693
 21
-0.0000000000000284
 31
0.0
  0
ARC
  5
39
100
AcDbEntity
  8
USP-GEO
100
AcDbCircle
 10
5.519198408520779
 20
2.500000000000028
 30
0.0
 40
2.5
100
AcDbArc
 50
269.9999999999975
 51
277.0191246428932
  0
LINE
  5
3A
100
AcDbEntity
  8
USP-GEO
100
AcDbLine
 10
5.824700000000049
 20
0.0187364554317355
 30
0.0
 11
5.899400000000056
 21
0.0187364554317355
 31
0.0
  0
LINE
  5
3B
100
AcDbEntity
  8
USP-GEO
100
AcDbLine
 10
5.824700000000049
 20
0.0187364554317355
 30
0.0
 11
5.824700000000049
 21
0.656263371579442
 31
0.0
  0
LINE
  5
3C
100
AcDbEntity
  8
USP-GEO
100
AcDbLine
 10
5.824700000000049
 20
1.312226743158845
 30
0.0
 11
5.824700000000049
 21
0.656263371579442
 31
0.0
  0
LINE
  5
3D
100
AcDbEntity
  8
USP-GEO
100
AcDbLine
 10
5.824700000000049
 20
1.312226743158859
 30
0.0
 11
5.899400000000056
 21
1.312226743158859
 31
0.0
  0
ARC
  5
3E
100
AcDbEntity
  8
USP-GEO
100
AcDbCircle
 10
5.519198408520779
 20
4.999973256841258
 30
0.0
 40
2.5
100
AcDbArc
 50
270.0
 51
277.0191246428932
  0
LINE
  5
3F
100
AcDbEntity
  8
USP-GEO
100
AcDbLine
 10
5.387200000000049
 20
2.499973256841258
 30
0.0
 11
5.519198408520779
 21
2.499973256841258
 31
0.0
  0
LINE
  5
40
100
AcDbEntity
  8
USP-GEO
100
AcDbLine
 10
5.387200000000106
 20
2.437473256841258
 30
0.0
 11
5.387200000000078
 21
2.499973256841258
 31
0.0
  0
LINE
  5
41
100
AcDbEntity
  8
USP-GEO
100
AcDbLine
 10
7.024400000000085
 20
2.762199999999964
 30
0.0
 11
7.024400000000085
 21
2.687499999999971
 31
0.0
  0
ENDBLK
  5
44
100
AcDbEntity
  8
0
100
AcDbBlockEnd
  0
BLOCK
  5
86
100
AcDbEntity
  8
0
100
AcDbBlockBegin
  2
HD28-3_F
 70
     0
 10
0.0
 20
0.0
 30
0.0
  3
HD28-3_F
  1

  0
LINE
  5
47
100
AcDbEntity
  8
USP-GEO
100
AcDbLine
 10
2.137200000000078
 20
0.0
 30
0.0000000000000001
 11
4.887200000000163
 21
0.0
 31
0.0000000000000005
210
0.0
220
1.0
230
0.0
  0
LINE
  5
48
100
AcDbEntity
  8
USP-GEO
100
AcDbLine
 10
2.137200000000078
 20
0.0746999999999929
 30
0.0000000000000001
 11
4.887200000000163
 21
0.0746999999999929
 31
0.0000000000000005
210
0.0
220
1.0
230
0.0
  0
TEXT
  5
49
100
AcDbEntity
  8
USP-TXT
100
AcDbText
 10
-0.1513177701355488
 20
-1.21885399600265
 30
-0.0000000000000004
 40
0.375
  1
HD28-3 - FRONT VIEW
100
AcDbText
  0
LINE
  5
4A
100
AcDbEntity
  8
USP-GEO
100
AcDbLine
 10
1.199700000000106
 20
3.184691949005255
 30
0.0
 11
1.199700000000106
 21
6.449699999999992
 31
0.0
210
0.0
220
1.0
230
0.0
  0
LINE
  5
4B
100
AcDbEntity
  8
USP-GEO
100
AcDbLine
 10
1.125000000000113
 20
6.449699999999992
 30
0.0
 11
1.125000000000113
 21
3.184691949005255
 31
0.0
210
0.0
220
1.0
230
0.0
  0
LINE
  5
4C
100
AcDbEntity
  8
USP-GEO
100
AcDbLine
 10
0.0000000000000568
 20
3.1459632774568
 30
-0.0000000000000001
 11
0.0000000000000426
 21
6.449700000000021
 31
-0.0000000000000001
210
0.0
220
1.0
230
0.0
  0
LINE
  5
4D
100
AcDbEntity
  8
USP-GEO
100
AcDbLine
 10
1.505201591479377
 20
0.0
 30
0.0
 11
1.637200000000049
 21
0.0
 31
0.0000000000000001
210
0.0
220
1.0
230
0.0
  0
LINE
  5
4E
100
AcDbEntity
  8
USP-GEO
100
AcDbLine
 10
1.637200000000049
 20
0.0746999999999929
 30
0.0000000000000001
 11
1.505201591479377
 21
0.0746999999999929
 31
0.0
210
0.0
220
1.0
230
0.0
  0
LINE
  5
4F
100
AcDbEntity
  8
USP-GEO
100
AcDbLine
 10
1.199700000000106
 20
1.457580842988789
 30
0.0
 11
1.199700000000106
 21
0.0746999999999929
 31
0.0
210
0.0
220
1.0
230
0.0
  0
LINE
  5
50
100
AcDbEntity
  8
USP-GEO
100
AcDbLine
 10
1.125000000000113
 20
1.457580842988789
 30
0.0
 11
1.125000000000113
 21
0.0746999999999929
 31
0.0
210
0.0
220
1.0
230
0.0
  0
LINE
  5
51
100
AcDbEntity
  8
USP-GEO
100
AcDbLine
 10
1.199700000000106
 20
0.0
 30
0.0
 11
1.125000000000113
 21
0.0
 31
0.0
210
0.0
220
1.0
230
0.0
  0
LINE
  5
52
100
AcDbEntity
  8
USP-GEO
100
AcDbLine
 10
1.199700000000106
 20
0.0746999999999929
 30
0.0
 11
1.125000000000113
 21
0.0746999999999929
 31
0.0
210
0.0
220
1.0
230
0.0
  0
LINE
  5
53
100
AcDbEntity
  8
USP-GEO
100
AcDbLine
 10
1.125000000000113
 20
0.0746999999999929
 30
0.0
 11
1.125000000000113
 21
0.0
 31
0.0
210
0.0
220
1.0
230
0.0
  0
LINE
  5
54
100
AcDbEntity
  8
USP-GEO
100
AcDbLine
 10
1.199700000000106
 20
0.0746999999999929
 30
0.0
 11
1.199700000000106
 21
0.0
 31
0.0
210
0.0
220
1.0
230
0.0
  0
LINE
  5
55
100
AcDbEntity
  8
USP-GEO
100
AcDbLine
 10
1.199700000000106
 20
0.0
 30
0.0
 11
1.505201591479377
 21
0.0
 31
0.0
210
0.0
220
1.0
230
0.0
  0
LINE
  5
56
100
AcDbEntity
  8
USP-GEO
100
AcDbLine
 10
1.199700000000106
 20
0.0746999999999929
 30
0.0
 11
1.505201591479377
 21
0.0746999999999929
 31
0.0
210
0.0
220
1.0
230
0.0
  0
ARC
  5
57
100
AcDbEntity
  8
USP-GEO
100
AcDbCircle
 10
2.5
 20
3.1459632774568
 30
0.0000000000000002
 40
2.5
100
AcDbArc
 50
180.0
 51
222.4815666460718
  0
LINE
  5
58
100
AcDbEntity
  8
USP-GEO
100
AcDbLine
 10
1.199700000000106
 20
1.457580842988775
 30
0.0
 11
1.199700000000106
 21
3.184691949005255
 31
0.0
210
0.0
220
1.0
230
0.0
  0
LINE
  5
59
100
AcDbEntity
  8
USP-GEO
100
AcDbLine
 10
1.125000000000113
 20
3.184691949005255
 30
0.0
 11
1.125000000000113
 21
1.457580842988775
 31
0.0
210
0.0
220
1.0
230
0.0
  0
CIRCLE
  5
5A
100
AcDbEntity
  8
USP-GEO
100
AcDbCircle
 10
0.7499999999999716
 20
1.839534965323778
 30
0.0
 40
0.086
  0
ARC
  5
5B
100
AcDbEntity
  8
USP-GEO
100
AcDbCircle
 10
-1.187473256841201
 20
-0.2308015914792776
 30
-0.0000000000000003
 40
2.5
100
AcDbArc
 50
22.33325800951294
 51
42.48156664607296
  0
CIRCLE
  5
5C
100
AcDbEntity
  8
USP-GEO
100
AcDbCircle
 10
0.5624999999999716
 20
2.449699999999992
 30
-0.0000000000000001
 40
0.086
  0
CIRCLE
  5
5D
100
AcDbEntity
  8
USP-GEO
100
AcDbCircle
 10
0.3749999999999716
 20
3.074700000000021
 30
-0.0000000000000001
 40
0.086
  0
LINE
  5
5E
100
AcDbEntity
  8
USP-GEO
100
AcDbLine
 10
1.199700000000106
 20
3.184691949005255
 30
0.0
 11
1.125000000000113
 21
3.184691949005255
 31
0.0
210
0.0
220
1.0
230
0.0
  0
LINE
  5
5F
100
AcDbEntity
  8
USP-GEO
100
AcDbLine
 10
2.137200000000078
 20
0.0746999999999929
 30
0.0000000000000001
 11
2.137200000000078
 21
0.0
 31
0.0000000000000001
210
0.0
220
1.0
230
0.0
  0
LINE
  5
60
100
AcDbEntity
  8
USP-GEO
100
AcDbLine
 10
1.637200000000049
 20
0.0
 30
0.0000000000000001
 11
2.137200000000078
 21
0.0
 31
0.0000000000000001
210
0.0
220
1.0
230
0.0
  0
LINE
  5
61
100
AcDbEntity
  8
USP-GEO
100
AcDbLine
 10
1.637200000000049
 20
0.0746999999999929
 30
0.0000000000000001
 11
1.637200000000049
 21
0.0
 31
0.0000000000000001
210
0.0
220
1.0
230
0.0
  0
LINE
  5
62
100
AcDbEntity
  8
USP-GEO
100
AcDbLine
 10
2.137200000000078
 20
0.0746999999999929
 30
0.0000000000000001
 11
1.637200000000049
 21
0.0746999999999929
 31
0.0000000000000001
210
0.0
220
1.0
230
0.0
  0
CIRCLE
  5
63
100
AcDbEntity
  8
USP-GEO
100
AcDbCircle
 10
0.5624999999999716
 20
5.074700000000021
 30
-0.0000000000000001
 40
0.086
  0
CIRCLE
  5
64
100
AcDbEntity
  8
USP-GEO
100
AcDbCircle
 10
0.7499999999999716
 20
4.074700000000021
 30
0.0
 40
0.086
  0
LINE
  5
65
100
AcDbEntity
  8
USP-GEO
100
AcDbLine
 10
0.0000000000000568
 20
6.449700000000021
 30
-0.0000000000000001
 11
1.125000000000113
 21
6.449700000000007
 31
0.0
210
0.0
220
1.0
230
0.0
  0
CIRCLE
  5
66
100
AcDbEntity
  8
USP-GEO
100
AcDbCircle
 10
0.3749999999999716
 20
6.074700000000021
 30
-0.0000000000000001
 40
0.086
  0
LINE
  5
67
100
AcDbEntity
  8
USP-GEO
100
AcDbLine
 10
1.199700000000106
 20
6.449699999999992
 30
0.0
 11
1.125000000000113
 21
6.449699999999992
 31
0.0
210
0.0
220
1.0
230
0.0
  0
LINE
  5
68
100
AcDbEntity
  8
USP-GEO
100
AcDbLine
 10
4.887200000000106
 20
0.0
 30
0.0000000000000005
 11
5.387200000000163
 21
0.0
 31
0.0000000000000005
210
0.0
220
1.0
230
0.0
  0
LINE
  5
69
100
AcDbEntity
  8
USP-GEO
100
AcDbLine
 10
4.887200000000106
 20
0.0746999999999929
 30
0.0000000000000005
 11
5.387200000000163
 21
0.0746999999999929
 31
0.0000000000000005
210
0.0
220
1.0
230
0.0
  0
LINE
  5
6A
100
AcDbEntity
  8
USP-GEO
100
AcDbLine
 10
4.887200000000163
 20
0.0746999999999929
 30
0.0000000000000005
 11
4.887200000000163
 21
0.0
 31
0.0000000000000005
210
0.0
220
1.0
230
0.0
  0
CIRCLE
  5
6B
100
AcDbEntity
  8
USP-GEO
100
AcDbCircle
 10
6.274400000000227
 20
3.949699999999964
 30
0.0000000000000006
 40
0.086
  0
LINE
  5
6C
100
AcDbEntity
  8
USP-GEO
100
AcDbLine
 10
7.024400000000156
 20
6.449699999999978
 30
0.0000000000000007
 11
7.024400000000142
 21
3.145963277456743
 31
0.0000000000000007
210
0.0
220
1.0
230
0.0
  0
LINE
  5
6D
100
AcDbEntity
  8
USP-GEO
100
AcDbLine
 10
5.824700000000106
 20
3.184691949005241
 30
0.0000000000000006
 11
5.824700000000106
 21
6.449699999999936
 31
0.0000000000000006
210
0.0
220
1.0
230
0.0
  0
LINE
  5
6E
100
AcDbEntity
  8
USP-GEO
100
AcDbLine
 10
5.899400000000113
 20
3.184691949005241
 30
0.0000000000000006
 11
5.899400000000113
 21
6.44969999999995
 31
0.0000000000000006
210
0.0
220
1.0
230
0.0
  0
LINE
  5
6F
100
AcDbEntity
  8
USP-GEO
100
AcDbLine
 10
5.824700000000106
 20
0.0746999999999929
 30
0.0000000000000006
 11
5.824700000000106
 21
1.457580842988775
 31
0.0000000000000006
210
0.0
220
1.0
230
0.0
  0
LINE
  5
70
100
AcDbEntity
  8
USP-GEO
100
AcDbLine
 10
5.899400000000113
 20
0.0746999999999929
 30
0.0000000000000006
 11
5.899400000000113
 21
1.457580842988789
 31
0.0000000000000006
210
0.0
220
1.0
230
0.0
  0
LINE
  5
71
100
AcDbEntity
  8
USP-GEO
100
AcDbLine
 10
5.824700000000106
 20
0.0746999999999929
 30
0.0000000000000006
 11
5.899400000000113
 21
0.0746999999999929
 31
0.0000000000000006
210
0.0
220
1.0
230
0.0
  0
LINE
  5
72
100
AcDbEntity
  8
USP-GEO
100
AcDbLine
 10
5.824700000000106
 20
0.0
 30
0.0000000000000006
 11
5.899400000000113
 21
0.0
 31
0.0000000000000006
210
0.0
220
1.0
230
0.0
  0
LINE
  5
73
100
AcDbEntity
  8
USP-GEO
100
AcDbLine
 10
5.824700000000106
 20
0.0
 30
0.0000000000000006
 11
5.824700000000106
 21
0.0746999999999929
 31
0.0000000000000006
210
0.0
220
1.0
230
0.0
  0
LINE
  5
74
100
AcDbEntity
  8
USP-GEO
100
AcDbLine
 10
5.51919840852075
 20
0.0
 30
0.0000000000000005
 11
5.824700000000106
 21
0.0
 31
0.0000000000000006
210
0.0
220
1.0
230
0.0
  0
LINE
  5
75
100
AcDbEntity
  8
USP-GEO
100
AcDbLine
 10
5.387200000000134
 20
0.0
 30
0.0000000000000005
 11
5.51919840852075
 21
0.0
 31
0.0000000000000005
210
0.0
220
1.0
230
0.0
  0
LINE
  5
76
100
AcDbEntity
  8
USP-GEO
100
AcDbLine
 10
5.387200000000134
 20
0.0746999999999929
 30
0.0000000000000005
 11
5.387200000000134
 21
0.0
 31
0.0000000000000005
210
0.0
220
1.0
230
0.0
  0
LINE
  5
77
100
AcDbEntity
  8
USP-GEO
100
AcDbLine
 10
5.51919840852075
 20
0.0746999999999929
 30
0.0000000000000005
 11
5.824700000000106
 21
0.0746999999999929
 31
0.0000000000000006
210
0.0
220
1.0
230
0.0
  0
LINE
  5
78
100
AcDbEntity
  8
USP-GEO
100
AcDbLine
 10
5.387200000000134
 20
0.0746999999999929
 30
0.0000000000000005
 11
5.51919840852075
 21
0.0746999999999929
 31
0.0000000000000005
210
0.0
220
1.0
230
0.0
  0
LINE
  5
79
100
AcDbEntity
  8
USP-GEO
100
AcDbLine
 10
5.899400000000113
 20
0.0
 30
0.0000000000000006
 11
5.899400000000113
 21
0.0746999999999929
 31
0.0000000000000006
210
0.0
220
1.0
230
0.0
  0
ARC
  5
7A
100
AcDbEntity
  8
USP-GEO
100
AcDbCircle
 10
4.524400000000198
 20
3.1459632774568
 30
0.0000000000000004
 40
2.5
100
AcDbArc
 50
317.518433353927
 51
359.9999999999983
  0
LINE
  5
7B
100
AcDbEntity
  8
USP-GEO
100
AcDbLine
 10
5.824700000000106
 20
3.184691949005241
 30
0.0000000000000006
 11
5.824700000000106
 21
1.457580842988775
 31
0.0000000000000006
210
0.0
220
1.0
230
0.0
  0
LINE
  5
7C
100
AcDbEntity
  8
USP-GEO
100
AcDbLine
 10
5.899400000000113
 20
1.457580842988775
 30
0.0000000000000006
 11
5.899400000000113
 21
3.184691949005241
 31
0.0000000000000006
210
0.0
220
1.0
230
0.0
  0
ARC
  5
7D
100
AcDbEntity
  8
USP-GEO
100
AcDbCircle
 10
8.2118732568414
 20
-0.2308015914792776
 30
0.0000000000000009
 40
2.5
100
AcDbArc
 50
137.5184333539282
 51
157.666741990487
  0
CIRCLE
  5
7E
100
AcDbEntity
  8
USP-GEO
100
AcDbCircle
 10
6.274400000000227
 20
1.745353208069687
 30
0.0000000000000006
 40
0.086
  0
LINE
  5
7F
100
AcDbEntity
  8
USP-GEO
100
AcDbLine
 10
5.824700000000106
 20
3.184691949005241
 30
0.0000000000000006
 11
5.899400000000113
 21
3.184691949005241
 31
0.0000000000000006
210
0.0
220
1.0
230
0.0
  0
CIRCLE
  5
80
100
AcDbEntity
  8
USP-GEO
100
AcDbCircle
 10
6.461900000000227
 20
2.303195044271419
 30
0.0000000000000007
 40
0.086
  0
CIRCLE
  5
81
100
AcDbEntity
  8
USP-GEO
100
AcDbCircle
 10
6.649400000000227
 20
3.074699999999964
 30
0.0000000000000007
 40
0.086
  0
LINE
  5
82
100
AcDbEntity
  8
USP-GEO
100
AcDbLine
 10
5.899400000000113
 20
6.449699999999964
 30
0.0000000000000006
 11
7.024400000000142
 21
6.449699999999964
 31
0.0000000000000007
210
0.0
220
1.0
230
0.0
  0
CIRCLE
  5
83
100
AcDbEntity
  8
USP-GEO
100
AcDbCircle
 10
6.461900000000227
 20
4.949699999999964
 30
0.0000000000000007
 40
0.086
  0
LINE
  5
84
100
AcDbEntity
  8
USP-GEO
100
AcDbLine
 10
5.824700000000106
 20
6.449699999999936
 30
0.0000000000000006
 11
5.899400000000113
 21
6.449699999999936
 31
0.0000000000000006
210
0.0
220
1.0
230
0.0
  0
CIRCLE
  5
85
100
AcDbEntity
  8
USP-GEO
100
AcDbCircle
 10
6.649400000000227
 20
5.949699999999964
 30
0.0000000000000007
 40
0.086
  0
ENDBLK
  5
87
100
AcDbEntity
  8
0
100
AcDbBlockEnd
  0
BLOCK
  5
A5
100
AcDbEntity
  8
0
100
AcDbBlockBegin
  2
HD28-3_S
 70
     0
 10
0.0
 20
0.0
 30
0.0
  3
HD28-3_S
  1

  0
LINE
  5
8A
100
AcDbEntity
  8
USP-GEO
100
AcDbLine
 10
0.0747000000000071
 20
6.449700000000007
 30
0.0
 11
1.449973256841104
 21
6.449699999999992
 31
0.0000000000000002
210
0.0
220
1.0
230
0.0
  0
LINE
  5
8B
100
AcDbEntity
  8
USP-GEO
100
AcDbLine
 10
2.743463544568228
 20
0.0
 30
0.0000000000000005
 11
0.2434902877269991
 21
0.0
 31
0.0
210
0.0
220
1.0
230
0.0
  0
LINE
  5
8C
100
AcDbEntity
  8
USP-HID
100
AcDbLine
 10
2.743463544568228
 20
0.0747000000000071
 30
0.0000000000000005
 11
0.2434902877269991
 21
0.0747000000000071
 31
0.0
210
0.0
220
1.0
230
0.0
  0
TEXT
  5
8F
100
AcDbEntity
  8
USP-TXT
100
AcDbText
 10
-2.152278153335018
 20
-1.104087453574379
 30
-0.0000000000000005
 40
0.375
  1
HD28-3 - SIDE VIEW
100
AcDbText
  0
CIRCLE
  5
90
100
AcDbEntity
  8
USP-GEO
100
AcDbCircle
 10
1.074973256841133
 20
3.920401308014632
 30
0.0000000000000002
 40
0.082
  0
LINE
  5
91
100
AcDbEntity
  8
USP-GEO
100
AcDbLine
 10
0.0
 20
3.1459632774568
 30
0.0
 11
0.0
 21
6.449700000000021
 31
0.0
210
0.0
220
1.0
230
0.0
  0
LINE
  5
92
100
AcDbEntity
  8
USP-GEO
100
AcDbLine
 10
0.0747000000000071
 20
3.1459632774568
 30
0.0
 11
0.0747000000000071
 21
6.449700000000021
 31
0.0
210
0.0
220
1.0
230
0.0
  0
ARC
  5
93
100
AcDbEntity
  8
USP-GEO
100
AcDbCircle
 10
-2.237773256841293
 20
-0.2308015914792776
 30
-0.0000000000000005
 40
2.5
100
AcDbArc
 50
7.019124642893329
 51
22.33325800951262
  0
LINE
  5
94
100
AcDbEntity
  8
USP-GEO
100
AcDbLine
 10
0.2434902877269991
 20
0.0
 30
0.0
 11
0.2434902877269991
 21
0.0746999999999929
 31
0.0
210
0.0
220
1.0
230
0.0
  0
LINE
  5
95
100
AcDbEntity
  8
USP-GEO
100
AcDbLine
 10
0.0
 20
1.457580842988775
 30
0.0
 11
0.0
 21
3.1459632774568
 31
0.0
210
0.0
220
1.0
230
0.0
  0
LINE
  5
96
100
AcDbEntity
  8
USP-GEO
100
AcDbLine
 10
0.0747000000000071
 20
1.457580842988775
 30
0.0
 11
0.0747000000000071
 21
3.1459632774568
 31
0.0
210
0.0
220
1.0
230
0.0
  0
LINE
  5
97
100
AcDbEntity
  8
USP-GEO
100
AcDbLine
 10
0.0
 20
1.457580842988789
 30
0.0
 11
0.0000000000000142
 21
0.719181269626148
 31
0.0
210
0.0
220
1.0
230
0.0
  0
LINE
  5
98
100
AcDbEntity
  8
USP-GEO
100
AcDbLine
 10
0.0
 20
0.719181269626148
 30
0.0
 11
0.0747000000000071
 21
0.719181269626148
 31
0.0
210
0.0
220
1.0
230
0.0
  0
LINE
  5
99
100
AcDbEntity
  8
USP-GEO
100
AcDbLine
 10
0.0747000000000071
 20
0.719181269626148
 30
0.0
 11
0.0747000000000071
 21
1.457580842988789
 31
0.0
210
0.0
220
1.0
230
0.0
  0
CIRCLE
  5
9A
100
AcDbEntity
  8
USP-GEO
100
AcDbCircle
 10
1.074973256841133
 20
1.512199999999992
 30
0.0000000000000002
 40
0.082
  0
CIRCLE
  5
9B
100
AcDbEntity
  8
USP-GEO
100
AcDbCircle
 10
1.074973256841133
 20
3.121037232443583
 30
0.0000000000000002
 40
0.082
  0
CIRCLE
  5
9C
100
AcDbEntity
  8
USP-GEO
100
AcDbCircle
 10
0.5121999999999503
 20
5.829269385878504
 30
0.0
 40
0.1535
  0
LINE
  5
9D
100
AcDbEntity
  8
USP-GEO
100
AcDbLine
 10
0.0
 20
6.449700000000021
 30
0.0
 11
0.0747000000000071
 21
6.449700000000021
 31
0.0
210
0.0
220
1.0
230
0.0
  0
ARC
  5
9E
100
AcDbEntity
  8
USP-GEO
100
AcDbCircle
 10
0.262199999999936
 20
-0.2308015914792776
 30
0.0
 40
2.5
100
AcDbArc
 50
7.019124642893329
 51
42.48156664607296
  0
ARC
  5
9F
100
AcDbEntity
  8
USP-GEO
100
AcDbCircle
 10
3.949673256841137
 20
3.1459632774568
 30
0.0000000000000007
 40
2.5
100
AcDbArc
 50
179.1123687241146
 51
222.4815666460718
  0
LINE
  5
A0
100
AcDbEntity
  8
USP-GEO
100
AcDbLine
 10
1.449973256841104
 20
6.449699999999992
 30
0.0000000000000002
 11
1.449973256841118
 21
3.184691949005255
 31
0.0000000000000002
210
0.0
220
1.0
230
0.0
  0
LINE
  5
A1
100
AcDbEntity
  8
USP-GEO
100
AcDbLine
 10
2.743463544568228
 20
0.0746999999999929
 30
0.0000000000000005
 11
2.743463544568228
 21
0.0
 31
0.0000000000000005
210
0.0
220
1.0
230
0.0
  0
LINE
  5
A2
100
AcDbEntity
  8
USP-GEO
100
AcDbLine
 10
2.762199999999936
 20
0.0746999999999929
 30
0.0000000000000005
 11
2.762199999999936
 21
0.0
 31
0.0000000000000005
210
0.0
220
1.0
230
0.0
  0
LINE
  5
A3
100
AcDbEntity
  8
USP-GEO
100
AcDbLine
 10
2.743463544568228
 20
0.0
 30
0.0000000000000005
 11
2.762199999999936
 21
0.0
 31
0.0000000000000005
210
0.0
220
1.0
230
0.0
  0
LINE
  5
A4
100
AcDbEntity
  8
USP-GEO
100
AcDbLine
 10
2.743463544568228
 20
0.0746999999999929
 30
0.0000000000000005
 11
2.762199999999936
 21
0.0746999999999929
 31
0.0000000000000005
210
0.0
220
1.0
230
0.0
  0
ENDBLK
  5
A6
100
AcDbEntity
  8
0
100
AcDbBlockEnd
  0
ENDSEC
  0
SECTION
  2
ENTITIES
  0
INSERT
  5
3
100
AcDbEntity
  8
USP
100
AcDbBlockReference
  2
HD28-3_T
 10
7.892626684672027
 20
12.43111698311823
 30
0.0000000000000007
  0
INSERT
  5
45
100
AcDbEntity
  8
USP
100
AcDbBlockReference
  2
HD28-3_F
 10
7.89262668467197
 20
1.219317642982687
 30
0.0000000000000004
  0
INSERT
  5
88
100
AcDbEntity
  8
USP
100
AcDbBlockReference
  2
HD28-3_S
 10
2.152733353880091
 20
1.219317642982687
 30
0.0000000000000005
  0
ENDSEC
  0
SECTION
  2
OBJECTS
  0
DICTIONARY
  5
C2
102
{ACAD_XDICTIONARY
360
C3
102
}
100
AcDbDictionary
  3
ACAD_GROUP
350
BF
  3
ACAD_MLINESTYLE
350
C0
  0
DICTIONARY
  5
B4
100
AcDbDictionary
280
     1
  0
DICTIONARY
  5
B6
100
AcDbDictionary
280
     1
  0
DICTIONARY
  5
6
100
AcDbDictionary
280
     1
  0
DICTIONARY
  5
B
100
AcDbDictionary
280
     1
  0
DICTIONARY
  5
C7
100
AcDbDictionary
280
     1
  0
DICTIONARY
  5
A7
100
AcDbDictionary
280
     1
  3
ACAD_LAYOUTSELFREF
360
A8
  0
DICTIONARY
  5
AC
100
AcDbDictionary
280
     1
  3
ACAD_LAYOUTSELFREF
360
AD
  0
DICTIONARY
  5
C3
100
AcDbDictionary
280
     1
  3
ACAD_XREC_ROUNDTRIP
360
C4
  0
DICTIONARY
  5
BF
102
{ACAD_REACTORS
330
C2
102
}
100
AcDbDictionary
  0
DICTIONARY
  5
C0
102
{ACAD_XDICTIONARY
360
C1
102
}
102
{ACAD_REACTORS
330
C2
102
}
100
AcDbDictionary
  3
STANDARD
350
C5
  0
XRECORD
  5
A8
102
{ACAD_REACTORS
330
A7
102
}
100
AcDbXrecord
340
2
  0
XRECORD
  5
AD
102
{ACAD_REACTORS
330
AC
102
}
100
AcDbXrecord
340
AD
  0
XRECORD
  5
C4
102
{ACAD_REACTORS
330
C3
102
}
100
AcDbXrecord
102
EXTNAMES
  1
ACDBVARIABLEDICTIONARY
  2
AcDbVariableDictionary
  0
DICTIONARY
  5
C1
100
AcDbDictionary
280
     1
  0
MLINESTYLE
  5
C5
102
{ACAD_REACTORS
330
C0
102
}
100
AcDbMlineStyle
  2
STANDARD
 70
     0
  3

 62
   256
 51
90.0
 52
90.0
 71
     2
 49
0.5
 62
   256
  6
BYLAYER
 49
-0.5
 62
   256
  6
BYLAYER
  0
ENDSEC
  0
EOF
