  0
SECTION
  2
HEADER
  9
$ACADVER
  1
AC1014
  9
$ACADMAINTVER
 70
     9
  9
$DWGCODEPAGE
  3
ANSI_1252
  9
$INSBASE
 10
0.0
 20
0.0
 30
0.0
  9
$EXTMIN
 10
0.0004504867010517
 20
0.0004317627109849
 30
0.0
  9
$EXTMAX
 10
14.76216741623868
 20
14.14941709520212
 30
0.0000000000000015
  9
$LIMMIN
 10
0.0
 20
0.0
  9
$LIMMAX
 10
12.0
 20
9.0
  9
$ORTHOMODE
 70
     0
  9
$REGENMODE
 70
     1
  9
$FILLMODE
 70
     1
  9
$QTEXTMODE
 70
     0
  9
$MIRRTEXT
 70
     1
  9
$DRAGMODE
 70
     2
  9
$LTSCALE
 40
1.0
  9
$OSMODE
 70
    37
  9
$ATTMODE
 70
     1
  9
$TEXTSIZE
 40
0.375
  9
$TRACEWID
 40
0.05
  9
$TEXTSTYLE
  7
STANDARD
  9
$CLAYER
  8
0
  9
$CELTYPE
  6
BYLAYER
  9
$CECOLOR
 62
   256
  9
$CELTSCALE
 40
1.0
  9
$DELOBJ
 70
     1
  9
$DISPSILH
 70
     0
  9
$DIMSCALE
 40
1.0
  9
$DIMASZ
 40
0.18
  9
$DIMEXO
 40
0.0625
  9
$DIMDLI
 40
0.38
  9
$DIMRND
 40
0.0
  9
$DIMDLE
 40
0.0
  9
$DIMEXE
 40
0.18
  9
$DIMTP
 40
0.0
  9
$DIMTM
 40
0.0
  9
$DIMTXT
 40
0.18
  9
$DIMCEN
 40
0.09
  9
$DIMTSZ
 40
0.0
  9
$DIMTOL
 70
     0
  9
$DIMLIM
 70
     0
  9
$DIMTIH
 70
     1
  9
$DIMTOH
 70
     1
  9
$DIMSE1
 70
     0
  9
$DIMSE2
 70
     0
  9
$DIMTAD
 70
     0
  9
$DIMZIN
 70
     0
  9
$DIMBLK
  1

  9
$DIMASO
 70
     1
  9
$DIMSHO
 70
     1
  9
$DIMPOST
  1

  9
$DIMAPOST
  1

  9
$DIMALT
 70
     0
  9
$DIMALTD
 70
     2
  9
$DIMALTF
 40
25.4
  9
$DIMLFAC
 40
1.0
  9
$DIMTOFL
 70
     0
  9
$DIMTVP
 40
0.0
  9
$DIMTIX
 70
     0
  9
$DIMSOXD
 70
     0
  9
$DIMSAH
 70
     0
  9
$DIMBLK1
  1

  9
$DIMBLK2
  1

  9
$DIMSTYLE
  2
STANDARD
  9
$DIMCLRD
 70
     0
  9
$DIMCLRE
 70
     0
  9
$DIMCLRT
 70
     0
  9
$DIMTFAC
 40
1.0
  9
$DIMGAP
 40
0.09
  9
$DIMJUST
 70
     0
  9
$DIMSD1
 70
     0
  9
$DIMSD2
 70
     0
  9
$DIMTOLJ
 70
     1
  9
$DIMTZIN
 70
     0
  9
$DIMALTZ
 70
     0
  9
$DIMALTTZ
 70
     0
  9
$DIMFIT
 70
     3
  9
$DIMUPT
 70
     0
  9
$DIMUNIT
 70
     2
  9
$DIMDEC
 70
     4
  9
$DIMTDEC
 70
     4
  9
$DIMALTU
 70
     2
  9
$DIMALTTD
 70
     2
  9
$DIMTXSTY
  7
STANDARD
  9
$DIMAUNIT
 70
     0
  9
$LUNITS
 70
     2
  9
$LUPREC
 70
     4
  9
$SKETCHINC
 40
0.1
  9
$FILLETRAD
 40
0.5
  9
$AUNITS
 70
     0
  9
$AUPREC
 70
     0
  9
$MENU
  1
.
  9
$ELEVATION
 40
0.0
  9
$PELEVATION
 40
0.0
  9
$THICKNESS
 40
0.0
  9
$LIMCHECK
 70
     0
  9
$BLIPMODE
 70
     0
  9
$CHAMFERA
 40
0.5
  9
$CHAMFERB
 40
0.5
  9
$CHAMFERC
 40
1.0
  9
$CHAMFERD
 40
0.0
  9
$SKPOLY
 70
     0
  9
$TDCREATE
 40
2451667.537949421
  9
$TDUPDATE
 40
2452759.744641921
  9
$TDINDWG
 40
0.1449048727
  9
$TDUSRTIMER
 40
0.1449048727
  9
$USRTIMER
 70
     1
  9
$ANGBASE
 50
0.0
  9
$ANGDIR
 70
     0
  9
$PDMODE
 70
     0
  9
$PDSIZE
 40
0.0
  9
$PLINEWID
 40
0.0
  9
$COORDS
 70
     1
  9
$SPLFRAME
 70
     0
  9
$SPLINETYPE
 70
     6
  9
$SPLINESEGS
 70
     8
  9
$ATTDIA
 70
     0
  9
$ATTREQ
 70
     1
  9
$HANDLING
 70
     1
  9
$HANDSEED
  5
D0
  9
$SURFTAB1
 70
     6
  9
$SURFTAB2
 70
     6
  9
$SURFTYPE
 70
     6
  9
$SURFU
 70
     6
  9
$SURFV
 70
     6
  9
$UCSNAME
  2

  9
$UCSORG
 10
0.0
 20
0.0
 30
0.0
  9
$UCSXDIR
 10
1.0
 20
0.0
 30
0.0
  9
$UCSYDIR
 10
0.0
 20
1.0
 30
0.0
  9
$PUCSNAME
  2

  9
$PUCSORG
 10
0.0
 20
0.0
 30
0.0
  9
$PUCSXDIR
 10
1.0
 20
0.0
 30
0.0
  9
$PUCSYDIR
 10
0.0
 20
1.0
 30
0.0
  9
$USERI1
 70
     0
  9
$USERI2
 70
     0
  9
$USERI3
 70
     0
  9
$USERI4
 70
     0
  9
$USERI5
 70
     0
  9
$USERR1
 40
0.0
  9
$USERR2
 40
0.0
  9
$USERR3
 40
0.0
  9
$USERR4
 40
0.0
  9
$USERR5
 40
0.0
  9
$WORLDVIEW
 70
     1
  9
$SHADEDGE
 70
     3
  9
$SHADEDIF
 70
    70
  9
$TILEMODE
 70
     1
  9
$MAXACTVP
 70
    48
  9
$PINSBASE
 10
0.0
 20
0.0
 30
0.0
  9
$PLIMCHECK
 70
     0
  9
$PEXTMIN
 10
1.000000000000000E+20
 20
1.000000000000000E+20
 30
1.000000000000000E+20
  9
$PEXTMAX
 10
-1.000000000000000E+20
 20
-1.000000000000000E+20
 30
-1.000000000000000E+20
  9
$PLIMMIN
 10
0.0
 20
0.0
  9
$PLIMMAX
 10
12.0
 20
9.0
  9
$UNITMODE
 70
     0
  9
$VISRETAIN
 70
     1
  9
$PLINEGEN
 70
     0
  9
$PSLTSCALE
 70
     1
  9
$TREEDEPTH
 70
  3020
  9
$PICKSTYLE
 70
     1
  9
$CMLSTYLE
  2
STANDARD
  9
$CMLJUST
 70
     0
  9
$CMLSCALE
 40
1.0
  9
$PROXYGRAPHICS
 70
     1
  9
$MEASUREMENT
 70
     0
  0
ENDSEC
  0
SECTION
  2
CLASSES
  0
CLASS
  1
ACDBDICTIONARYWDFLT
  2
AcDbDictionaryWithDefault
  3
AutoCAD 2000
 90
        0
280
     1
281
     0
  0
CLASS
  1
ACDBPLACEHOLDER
  2
AcDbPlaceHolder
  3
AutoCAD 2000
 90
        0
280
     1
281
     0
  0
CLASS
  1
LAYOUT
  2
AcDbLayout
  3
AutoCAD 2000
 90
        0
280
     1
281
     0
  0
CLASS
  1
LONG_TRANSACTION
  2
AcDbLongTransaction
  3
AutoCAD 2000
 90
        0
280
     1
281
     0
  0
CLASS
  1
LWPOLYLINE
  2
AcDbPolyline
  3
"AutoCAD"
 90
        0
280
     1
281
     1
  0
CLASS
  1
HATCH
  2
AcDbHatch
  3
"ACAD_SEDONA"
 90
        0
280
     1
281
     1
  0
CLASS
  1
XRECORD
  2
AcDbXrecord
  3
"<Built In>"
 90
        0
280
     0
281
     0
  0
CLASS
  1
LONG_TRANSACTION
  2
AcDbLongTransaction
  3
AutoCAD 2000
 90
        0
280
     1
281
     0
  0
CLASS
  1
LWPOLYLINE
  2
AcDbPolyline
  3
"AutoCAD"
 90
        0
280
     1
281
     1
  0
CLASS
  1
HATCH
  2
AcDbHatch
  3
"ACAD_SEDONA"
 90
        0
280
     1
281
     1
  0
CLASS
  1
XRECORD
  2
AcDbXrecord
  3
"<Built In>"
 90
        0
280
     0
281
     0
  0
CLASS
  1
LONG_TRANSACTION
  2
AcDbLongTransaction
  3
AutoCAD 2000
 90
        0
280
     1
281
     0
  0
CLASS
  1
LWPOLYLINE
  2
AcDbPolyline
  3
"AutoCAD"
 90
        0
280
     1
281
     1
  0
CLASS
  1
HATCH
  2
AcDbHatch
  3
"ACAD_SEDONA"
 90
        0
280
     1
281
     1
  0
CLASS
  1
XRECORD
  2
AcDbXrecord
  3
"<Built In>"
 90
        0
280
     0
281
     0
  0
CLASS
  1
LONG_TRANSACTION
  2
AcDbLongTransaction
  3
AutoCAD 2000
 90
        0
280
     1
281
     0
  0
CLASS
  1
LWPOLYLINE
  2
AcDbPolyline
  3
"AutoCAD"
 90
        0
280
     1
281
     1
  0
CLASS
  1
HATCH
  2
AcDbHatch
  3
"ACAD_SEDONA"
 90
        0
280
     1
281
     1
  0
CLASS
  1
XRECORD
  2
AcDbXrecord
  3
"<Built In>"
 90
        0
280
     0
281
     0
  0
CLASS
  1
LONG_TRANSACTION
  2
AcDbLongTransaction
  3
AutoCAD 2000
 90
        0
280
     1
281
     0
  0
CLASS
  1
LWPOLYLINE
  2
AcDbPolyline
  3
"AutoCAD"
 90
        0
280
     1
281
     1
  0
CLASS
  1
HATCH
  2
AcDbHatch
  3
"ACAD_SEDONA"
 90
        0
280
     1
281
     1
  0
CLASS
  1
XRECORD
  2
AcDbXrecord
  3
"<Built In>"
 90
        0
280
     0
281
     0
  0
CLASS
  1
LONG_TRANSACTION
  2
AcDbLongTransaction
  3
AutoCAD 2000
 90
        0
280
     1
281
     0
  0
CLASS
  1
LWPOLYLINE
  2
AcDbPolyline
  3
"AutoCAD"
 90
        0
280
     1
281
     1
  0
CLASS
  1
HATCH
  2
AcDbHatch
  3
"ACAD_SEDONA"
 90
        0
280
     1
281
     1
  0
CLASS
  1
XRECORD
  2
AcDbXrecord
  3
"<Built In>"
 90
        0
280
     0
281
     0
  0
CLASS
  1
LONG_TRANSACTION
  2
AcDbLongTransaction
  3
AutoCAD 2000
 90
        0
280
     1
281
     0
  0
CLASS
  1
LWPOLYLINE
  2
AcDbPolyline
  3
"AutoCAD"
 90
        0
280
     1
281
     1
  0
CLASS
  1
HATCH
  2
AcDbHatch
  3
"ACAD_SEDONA"
 90
        0
280
     1
281
     1
  0
CLASS
  1
XRECORD
  2
AcDbXrecord
  3
"<Built In>"
 90
        0
280
     0
281
     0
  0
CLASS
  1
LONG_TRANSACTION
  2
AcDbLongTransaction
  3
AutoCAD 2000
 90
        0
280
     1
281
     0
  0
CLASS
  1
LWPOLYLINE
  2
AcDbPolyline
  3
"AutoCAD"
 90
        0
280
     1
281
     1
  0
CLASS
  1
HATCH
  2
AcDbHatch
  3
"ACAD_SEDONA"
 90
        0
280
     1
281
     1
  0
CLASS
  1
XRECORD
  2
AcDbXrecord
  3
"<Built In>"
 90
        0
280
     0
281
     0
  0
CLASS
  1
LONG_TRANSACTION
  2
AcDbLongTransaction
  3
AutoCAD 2000
 90
        0
280
     1
281
     0
  0
CLASS
  1
LWPOLYLINE
  2
AcDbPolyline
  3
"AutoCAD"
 90
        0
280
     1
281
     1
  0
CLASS
  1
HATCH
  2
AcDbHatch
  3
"ACAD_SEDONA"
 90
        0
280
     1
281
     1
  0
CLASS
  1
XRECORD
  2
AcDbXrecord
  3
"<Built In>"
 90
        0
280
     0
281
     0
  0
CLASS
  1
DICTIONARYVAR
  2
AcDbDictionaryVar
  3
"AutoCAD"
 90
        0
280
     0
281
     0
  0
CLASS
  1
LONG_TRANSACTION
  2
AcDbLongTransaction
  3
AutoCAD 2000
 90
        0
280
     0
281
     0
  0
CLASS
  1
LWPOLYLINE
  2
AcDbPolyline
  3
"AutoCAD"
 90
        0
280
     0
281
     1
  0
CLASS
  1
HATCH
  2
AcDbHatch
  3
"ACAD_SEDONA"
 90
        0
280
     0
281
     1
  0
CLASS
  1
XRECORD
  2
AcDbXrecord
  3
"<Built In>"
 90
        0
280
     0
281
     0
  0
CLASS
  1
LONG_TRANSACTION
  2
AcDbLongTransaction
  3
AutoCAD 2000
 90
        0
280
     0
281
     0
  0
CLASS
  1
LWPOLYLINE
  2
AcDbPolyline
  3
"AutoCAD"
 90
        0
280
     0
281
     1
  0
CLASS
  1
HATCH
  2
AcDbHatch
  3
"ACAD_SEDONA"
 90
        0
280
     0
281
     1
  0
CLASS
  1
XRECORD
  2
AcDbXrecord
  3
"<Built In>"
 90
        0
280
     0
281
     0
  0
ENDSEC
  0
SECTION
  2
TABLES
  0
TABLE
  2
VPORT
  5
B0
100
AcDbSymbolTable
 70
     1
  0
VPORT
  5
CC
100
AcDbSymbolTableRecord
100
AcDbViewportTableRecord
  2
*ACTIVE
 70
     0
 10
0.0
 20
0.0
 11
1.0
 21
1.0
 12
7.381646943231423
 22
7.249511326106005
 13
0.0
 23
0.0
 14
0.5
 24
0.5
 15
0.5
 25
0.5
 16
0.0
 26
0.0
 36
1.0
 17
0.0
 27
0.0
 37
0.0
 40
14.60238084171361
 41
1.457627118644067
 42
50.0
 43
0.0
 44
0.0
 50
0.0
 51
0.0
 71
     0
 72
   100
 73
     1
 74
     3
 75
     0
 76
     0
 77
     0
 78
     0
  0
ENDTAB
  0
TABLE
  2
LTYPE
  5
A9
100
AcDbSymbolTable
 70
     2
  0
LTYPE
  5
AA
102
{ACAD_XDICTIONARY
360
AB
102
}
100
AcDbSymbolTableRecord
100
AcDbLinetypeTableRecord
  2
BYBLOCK
 70
     0
  3

 72
    65
 73
     0
 40
0.0
  0
LTYPE
  5
AC
102
{ACAD_XDICTIONARY
360
AD
102
}
100
AcDbSymbolTableRecord
100
AcDbLinetypeTableRecord
  2
BYLAYER
 70
     0
  3

 72
    65
 73
     0
 40
0.0
  0
LTYPE
  5
5
102
{ACAD_XDICTIONARY
360
6
102
}
100
AcDbSymbolTableRecord
100
AcDbLinetypeTableRecord
  2
CONTINUOUS
 70
     0
  3
Solid line
 72
    65
 73
     0
 40
0.0
  0
LTYPE
  5
80
100
AcDbSymbolTableRecord
100
AcDbLinetypeTableRecord
  2
HIDDEN
 70
     0
  3
Hidden __ __ __ __ __ __ __ __ __ __ __ __ __ _
 72
    65
 73
     2
 40
0.375
 49
0.25
 74
     0
 49
-0.125
 74
     0
  0
ENDTAB
  0
TABLE
  2
LAYER
  5
A7
100
AcDbSymbolTable
 70
     5
  0
LAYER
  5
37
100
AcDbSymbolTableRecord
100
AcDbLayerTableRecord
  2
0
 70
     0
 62
     7
  6
CONTINUOUS
  0
LAYER
  5
D
100
AcDbSymbolTableRecord
100
AcDbLayerTableRecord
  2
USP-GEO
 70
     0
 62
     7
  6
CONTINUOUS
  0
LAYER
  5
9
100
AcDbSymbolTableRecord
100
AcDbLayerTableRecord
  2
USP-TXT
 70
     0
 62
     7
  6
CONTINUOUS
  0
LAYER
  5
7F
100
AcDbSymbolTableRecord
100
AcDbLayerTableRecord
  2
USP-HID
 70
     0
 62
     7
  6
HIDDEN
  0
LAYER
  5
4
100
AcDbSymbolTableRecord
100
AcDbLayerTableRecord
  2
USP
 70
     0
 62
     7
  6
CONTINUOUS
  0
ENDTAB
  0
TABLE
  2
STYLE
  5
A8
100
AcDbSymbolTable
 70
     1
  0
STYLE
  5
A
102
{ACAD_XDICTIONARY
360
B
102
}
100
AcDbSymbolTableRecord
100
AcDbTextStyleTableRecord
  2
STANDARD
 70
     0
 40
0.0
 41
1.0
 50
0.0
 71
     0
 42
0.375
  3
txt
  4

  0
ENDTAB
  0
TABLE
  2
VIEW
  5
AE
100
AcDbSymbolTable
 70
     0
  0
ENDTAB
  0
TABLE
  2
UCS
  5
AF
100
AcDbSymbolTable
 70
     0
  0
ENDTAB
  0
TABLE
  2
APPID
  5
B2
100
AcDbSymbolTable
 70
     1
  0
APPID
  5
B3
100
AcDbSymbolTableRecord
100
AcDbRegAppTableRecord
  2
ACAD
 70
     0
  0
ENDTAB
  0
TABLE
  2
DIMSTYLE
  5
B4
100
AcDbSymbolTable
 70
     1
  0
DIMSTYLE
105
BD
102
{ACAD_XDICTIONARY
360
BE
102
}
100
AcDbSymbolTableRecord
100
AcDbDimStyleTableRecord
  2
STANDARD
 70
     0
  3

  4

  5

  6

  7

 40
1.0
 41
0.18
 42
0.0625
 43
0.38
 44
0.18
 45
0.0
 46
0.0
 47
0.0
 48
0.0
140
0.18
141
0.09
142
0.0
143
25.4
144
1.0
145
0.0
146
1.0
147
0.09
 71
     0
 72
     0
 73
     1
 74
     1
 75
     0
 76
     0
 77
     0
 78
     0
170
     0
171
     2
172
     0
173
     0
174
     0
175
     0
176
     0
177
     0
178
     0
270
     2
271
     4
272
     4
273
     2
274
     2
340
A
275
     0
280
     0
281
     0
282
     0
283
     1
284
     0
285
     0
286
     0
287
     3
288
     0
  0
ENDTAB
  0
TABLE
  2
BLOCK_RECORD
  5
1
100
AcDbSymbolTable
 70
     3
  0
BLOCK_RECORD
  5
2
102
{ACAD_XDICTIONARY
360
9E
102
}
100
AcDbSymbolTableRecord
100
AcDbBlockTableRecord
  2
*MODEL_SPACE
  0
BLOCK_RECORD
  5
A2
102
{ACAD_XDICTIONARY
360
A3
102
}
100
AcDbSymbolTableRecord
100
AcDbBlockTableRecord
  2
*PAPER_SPACE
  0
BLOCK_RECORD
  5
7
100
AcDbSymbolTableRecord
100
AcDbBlockTableRecord
  2
HD28-2_T
  0
BLOCK_RECORD
  5
3A
100
AcDbSymbolTableRecord
100
AcDbBlockTableRecord
  2
HD28-2_F
  0
BLOCK_RECORD
  5
77
100
AcDbSymbolTableRecord
100
AcDbBlockTableRecord
  2
HD28-2_S
  0
ENDTAB
  0
ENDSEC
  0
SECTION
  2
BLOCKS
  0
BLOCK
  5
A0
100
AcDbEntity
  8
0
100
AcDbBlockBegin
  2
*MODEL_SPACE
 70
     0
 10
0.0
 20
0.0
 30
0.0
  3
*MODEL_SPACE
  1

  0
ENDBLK
  5
A1
100
AcDbEntity
  8
0
100
AcDbBlockEnd
  0
BLOCK
  5
A5
100
AcDbEntity
 67
     1
  8
0
100
AcDbBlockBegin
  2
*PAPER_SPACE
 70
     0
 10
0.0
 20
0.0
 30
0.0
  3
*PAPER_SPACE
  1

  0
ENDBLK
  5
A6
100
AcDbEntity
 67
     1
  8
0
100
AcDbBlockEnd
  0
BLOCK
  5
36
100
AcDbEntity
  8
0
100
AcDbBlockBegin
  2
HD28-2_T
 70
     0
 10
0.0
 20
0.0
 30
0.0
  3
HD28-2_T
  1

  0
TEXT
  5
8
100
AcDbEntity
  8
USP-TXT
100
AcDbText
 10
-0.4253000000000072
 20
-1.411508503048366
 30
-0.000000000000001
 40
0.375
  1
HD28-2 - TOP VIEW
 72
     1
 11
2.762199999999992
 21
-1.411508503048366
 31
-0.000000000000001
100
AcDbText
  0
LINE
  5
C
100
AcDbEntity
  8
USP-GEO
100
AcDbLine
 10
4.324699999999978
 20
2.762200000000021
 30
0.0
 11
5.524399999999957
 21
2.762200000000021
 31
0.0
  0
LINE
  5
E
100
AcDbEntity
  8
USP-GEO
100
AcDbLine
 10
4.399399999999985
 20
2.687500000000028
 30
0.0
 11
5.524399999999957
 21
2.687500000000028
 31
0.0
  0
LINE
  5
F
100
AcDbEntity
  8
USP-GEO
100
AcDbLine
 10
4.399399999999985
 20
0.0000000000000284
 30
0.0
 11
4.399399999999985
 21
0.656263371579442
 31
0.0
  0
LINE
  5
10
100
AcDbEntity
  8
USP-GEO
100
AcDbLine
 10
4.324699999999978
 20
0.0000000000000284
 30
0.0
 11
4.324699999999978
 21
0.656263371579442
 31
0.0
  0
LINE
  5
11
100
AcDbEntity
  8
USP-GEO
100
AcDbLine
 10
1.124999999999985
 20
0.656263371579442
 30
0.0
 11
1.124999999999985
 21
0.0000000000000284
 31
0.0
  0
LINE
  5
12
100
AcDbEntity
  8
USP-GEO
100
AcDbLine
 10
1.199699999999992
 20
0.656263371579442
 30
0.0
 11
1.199699999999992
 21
0.0000000000000284
 31
0.0
  0
LINE
  5
13
100
AcDbEntity
  8
USP-GEO
100
AcDbLine
 10
4.137200000000049
 20
0.0000000000000711
 30
0.0
 11
1.38719999999995
 21
-0.0000000000000142
 31
0.0
  0
LINE
  5
14
100
AcDbEntity
  8
USP-GEO
100
AcDbLine
 10
1.199699999999978
 20
-0.0000000000000284
 30
0.0
 11
1.124999999999985
 21
-0.0000000000000284
 31
0.0
  0
LINE
  5
15
100
AcDbEntity
  8
USP-GEO
100
AcDbLine
 10
1.387199999999964
 20
0.0624999999999858
 30
0.0
 11
1.199699999999992
 21
0.0624999999999858
 31
0.0
  0
LINE
  5
16
100
AcDbEntity
  8
USP-GEO
100
AcDbLine
 10
1.387199999999992
 20
0.0624999999999858
 30
0.0
 11
1.387199999999964
 21
0.0
 31
0.0
  0
LINE
  5
17
100
AcDbEntity
  8
USP-GEO
100
AcDbLine
 10
4.324699999999992
 20
-0.0000000000000284
 30
0.0
 11
4.399399999999985
 21
-0.0000000000000284
 31
0.0
  0
LINE
  5
18
100
AcDbEntity
  8
USP-GEO
100
AcDbLine
 10
4.137199999999992
 20
0.0624999999999858
 30
0.0
 11
4.324699999999978
 21
0.0624999999999858
 31
0.0
  0
LINE
  5
19
100
AcDbEntity
  8
USP-GEO
100
AcDbLine
 10
4.137199999999992
 20
0.0624999999999858
 30
0.0
 11
4.137200000000021
 21
0.0
 31
0.0
  0
LINE
  5
1A
100
AcDbEntity
  8
USP-GEO
100
AcDbLine
 10
2.26219999999995
 20
0.1727207793864522
 30
0.0
 11
2.134920779386334
 21
0.3000000000000398
 31
0.0
  0
LINE
  5
1B
100
AcDbEntity
  8
USP-GEO
100
AcDbLine
 10
2.134920779386348
 20
0.3000000000000398
 30
0.0
 11
2.26219999999995
 21
0.4272792206135989
 31
0.0
  0
LINE
  5
1C
100
AcDbEntity
  8
USP-GEO
100
AcDbLine
 10
1.387199999999964
 20
2.499973256841158
 30
0.0
 11
4.137200000000021
 21
2.499973256841244
 31
0.0
  0
LINE
  5
1D
100
AcDbEntity
  8
USP-GEO
100
AcDbLine
 10
1.124999999999985
 20
2.687500000000028
 30
0.0
 11
1.124999999999985
 21
1.312226743158845
 31
0.0
  0
LINE
  5
1E
100
AcDbEntity
  8
USP-GEO
100
AcDbLine
 10
1.199699999999992
 20
2.762200000000021
 30
0.0
 11
1.199699999999992
 21
1.312226743158845
 31
0.0
  0
LINE
  5
1F
100
AcDbEntity
  8
USP-GEO
100
AcDbLine
 10
1.124999999999985
 20
1.312226743158845
 30
0.0
 11
1.124999999999985
 21
0.656263371579442
 31
0.0
  0
LINE
  5
20
100
AcDbEntity
  8
USP-GEO
100
AcDbLine
 10
1.199699999999978
 20
0.656263371579442
 30
0.0
 11
1.199699999999978
 21
1.312226743158845
 31
0.0
  0
LINE
  5
21
100
AcDbEntity
  8
USP-GEO
100
AcDbLine
 10
1.199699999999992
 20
1.312226743158845
 30
0.0
 11
1.124999999999985
 21
1.312226743158845
 31
0.0
  0
LINE
  5
22
100
AcDbEntity
  8
USP-GEO
100
AcDbLine
 10
1.199699999999992
 20
2.762200000000021
 30
0.0
 11
0.0
 21
2.762200000000021
 31
0.0
  0
LINE
  5
23
100
AcDbEntity
  8
USP-GEO
100
AcDbLine
 10
0.0
 20
2.687500000000028
 30
0.0
 11
1.124999999999985
 21
2.687500000000028
 31
0.0
  0
LINE
  5
24
100
AcDbEntity
  8
USP-GEO
100
AcDbLine
 10
0.0
 20
2.762200000000021
 30
0.0
 11
0.0
 21
2.687500000000028
 31
0.0
  0
LINE
  5
25
100
AcDbEntity
  8
USP-GEO
100
AcDbLine
 10
1.387199999999964
 20
2.437473256841244
 30
0.0
 11
1.199699999999992
 21
2.437473256841258
 31
0.0
  0
LINE
  5
26
100
AcDbEntity
  8
USP-GEO
100
AcDbLine
 10
1.387199999999978
 20
2.437473256841244
 30
0.0
 11
1.38719999999995
 21
2.499973256841158
 31
0.0
  0
LINE
  5
27
100
AcDbEntity
  8
USP-GEO
100
AcDbLine
 10
4.399399999999985
 20
1.312226743158845
 30
0.0
 11
4.399399999999985
 21
2.687500000000028
 31
0.0
  0
LINE
  5
28
100
AcDbEntity
  8
USP-GEO
100
AcDbLine
 10
4.324699999999978
 20
2.762200000000021
 30
0.0
 11
4.324699999999978
 21
1.312226743158845
 31
0.0
  0
LINE
  5
29
100
AcDbEntity
  8
USP-GEO
100
AcDbLine
 10
2.26219999999995
 20
0.4272792206135989
 30
0.0
 11
2.389479220613509
 21
0.3000000000000398
 31
0.0
  0
LINE
  5
2A
100
AcDbEntity
  8
USP-GEO
100
AcDbLine
 10
2.389479220613509
 20
0.3000000000000398
 30
0.0
 11
2.26219999999995
 21
0.1727207793864522
 31
0.0
  0
CIRCLE
  5
2B
100
AcDbEntity
  8
USP-GEO
100
AcDbCircle
 10
2.762199999999992
 20
0.9999866284206149
 30
0.0
 40
0.1535
  0
LINE
  5
2C
100
AcDbEntity
  8
USP-GEO
100
AcDbLine
 10
3.26219999999995
 20
0.4272792206135989
 30
0.0
 11
3.389479220613509
 21
0.3000000000000398
 31
0.0
  0
LINE
  5
2D
100
AcDbEntity
  8
USP-GEO
100
AcDbLine
 10
3.389479220613523
 20
0.3000000000000398
 30
0.0
 11
3.262199999999964
 21
0.1727207793864522
 31
0.0
  0
LINE
  5
2E
100
AcDbEntity
  8
USP-GEO
100
AcDbLine
 10
3.134920779386334
 20
0.3000000000000398
 30
0.0
 11
3.26219999999995
 21
0.4272792206135989
 31
0.0
  0
LINE
  5
2F
100
AcDbEntity
  8
USP-GEO
100
AcDbLine
 10
3.262199999999964
 20
0.1727207793864522
 30
0.0
 11
3.134920779386348
 21
0.3000000000000398
 31
0.0
  0
LINE
  5
30
100
AcDbEntity
  8
USP-GEO
100
AcDbLine
 10
4.399399999999985
 20
0.656263371579442
 30
0.0
 11
4.399399999999985
 21
1.312226743158845
 31
0.0
  0
LINE
  5
31
100
AcDbEntity
  8
USP-GEO
100
AcDbLine
 10
4.324699999999978
 20
1.312226743158845
 30
0.0
 11
4.324699999999978
 21
0.656263371579442
 31
0.0
  0
LINE
  5
32
100
AcDbEntity
  8
USP-GEO
100
AcDbLine
 10
4.324699999999978
 20
1.312226743158845
 30
0.0
 11
4.399399999999985
 21
1.312226743158845
 31
0.0
  0
LINE
  5
33
100
AcDbEntity
  8
USP-GEO
100
AcDbLine
 10
4.137200000000021
 20
2.437473256841244
 30
0.0
 11
4.324699999999978
 21
2.437473256841258
 31
0.0
  0
LINE
  5
34
100
AcDbEntity
  8
USP-GEO
100
AcDbLine
 10
4.137199999999992
 20
2.437473256841244
 30
0.0
 11
4.137200000000021
 21
2.499973256841229
 31
0.0
  0
LINE
  5
35
100
AcDbEntity
  8
USP-GEO
100
AcDbLine
 10
5.524399999999957
 20
2.762200000000021
 30
0.0
 11
5.524399999999957
 21
2.687500000000028
 31
0.0
  0
ENDBLK
  5
38
100
AcDbEntity
  8
0
100
AcDbBlockEnd
  0
BLOCK
  5
74
100
AcDbEntity
  8
0
100
AcDbBlockBegin
  2
HD28-2_F
 70
     0
 10
0.0
 20
0.0
 30
0.0
  3
HD28-2_F
  1

  0
TEXT
  5
3B
100
AcDbEntity
  8
USP-TXT
100
AcDbText
 10
-0.8002999999999644
 20
-1.325425709562111
 30
-0.0000000000000008
 40
0.375
  1
HD28-2 - FRONT VIEW
 72
     1
 11
2.762200000000035
 21
-1.325425709562111
 31
-0.0000000000000008
100
AcDbText
  0
CIRCLE
  5
3C
100
AcDbEntity
  8
USP-GEO
100
AcDbCircle
 10
5.149400000000085
 20
6.699699999999964
 30
0.0000000000000005
 40
0.086
  0
LINE
  5
3D
100
AcDbEntity
  8
USP-GEO
100
AcDbLine
 10
4.399400000000028
 20
7.199699999999964
 30
0.0000000000000004
 11
5.524399999999999
 21
7.199699999999964
 31
0.0000000000000005
210
0.0
220
1.0
230
0.0
  0
CIRCLE
  5
3E
100
AcDbEntity
  8
USP-GEO
100
AcDbCircle
 10
5.149400000000085
 20
3.824699999999964
 30
0.0000000000000005
 40
0.086
  0
ARC
  5
3F
100
AcDbEntity
  8
USP-GEO
100
AcDbCircle
 10
3.024400000000056
 20
3.8959632774568
 30
0.0000000000000002
 40
2.5
100
AcDbArc
 50
317.518433353927
 51
359.9999999999983
  0
CIRCLE
  5
40
100
AcDbEntity
  8
USP-GEO
100
AcDbCircle
 10
4.961900000000085
 20
5.699699999999964
 30
0.0000000000000005
 40
0.086
  0
LINE
  5
41
100
AcDbEntity
  8
USP-GEO
100
AcDbLine
 10
4.399400000000028
 20
3.934691949005213
 30
0.0000000000000004
 11
4.399400000000028
 21
7.19969999999995
 31
0.0000000000000004
210
0.0
220
1.0
230
0.0
  0
LINE
  5
42
100
AcDbEntity
  8
USP-GEO
100
AcDbLine
 10
4.324700000000021
 20
3.934691949005213
 30
0.0000000000000004
 11
4.324700000000021
 21
7.19969999999995
 31
0.0000000000000004
210
0.0
220
1.0
230
0.0
  0
LINE
  5
43
100
AcDbEntity
  8
USP-GEO
100
AcDbLine
 10
1.125000000000028
 20
7.199700000000007
 30
0.0
 11
1.125000000000028
 21
3.934691949005255
 31
0.0
210
0.0
220
1.0
230
0.0
  0
LINE
  5
44
100
AcDbEntity
  8
USP-GEO
100
AcDbLine
 10
1.199700000000021
 20
3.934691949005255
 30
0.0
 11
1.199700000000021
 21
7.199700000000007
 31
0.0
210
0.0
220
1.0
230
0.0
  0
LINE
  5
45
100
AcDbEntity
  8
USP-GEO
100
AcDbLine
 10
0.0000000000000568
 20
3.895963277456814
 30
-0.0000000000000001
 11
0.0000000000000426
 21
7.199700000000035
 31
-0.0000000000000001
210
0.0
220
1.0
230
0.0
  0
LINE
  5
46
100
AcDbEntity
  8
USP-GEO
100
AcDbLine
 10
4.399400000000028
 20
0.5191984085206514
 30
0.0000000000000004
 11
4.399400000000028
 21
2.207580842988789
 31
0.0000000000000004
210
0.0
220
1.0
230
0.0
  0
LINE
  5
47
100
AcDbEntity
  8
USP-GEO
100
AcDbLine
 10
4.324700000000021
 20
0.5191984085206514
 30
0.0000000000000004
 11
4.324700000000021
 21
2.207580842988789
 31
0.0000000000000004
210
0.0
220
1.0
230
0.0
  0
LINE
  5
48
100
AcDbEntity
  8
USP-GEO
100
AcDbLine
 10
1.125000000000028
 20
2.207580842988789
 30
0.0
 11
1.125000000000028
 21
0.5191984085206514
 31
0.0
210
0.0
220
1.0
230
0.0
  0
LINE
  5
49
100
AcDbEntity
  8
USP-GEO
100
AcDbLine
 10
1.199700000000035
 20
2.207580842988789
 30
0.0
 11
1.199700000000035
 21
0.5191984085206514
 31
0.0
210
0.0
220
1.0
230
0.0
  0
LINE
  5
4A
100
AcDbEntity
  8
USP-GEO
100
AcDbLine
 10
4.137200000000092
 20
0.0747000000000071
 30
0.0000000000000004
 11
1.387199999999992
 21
0.0747000000000071
 31
0.0
210
0.0
220
1.0
230
0.0
  0
LINE
  5
4B
100
AcDbEntity
  8
USP-GEO
100
AcDbLine
 10
1.387199999999992
 20
0.0
 30
0.0
 11
4.137200000000092
 21
0.0
 31
0.0000000000000004
210
0.0
220
1.0
230
0.0
  0
LINE
  5
4C
100
AcDbEntity
  8
USP-GEO
100
AcDbLine
 10
1.125000000000028
 20
0.3872000000000639
 30
0.0
 11
1.125000000000028
 21
0.0
 31
0.0
210
0.0
220
1.0
230
0.0
  0
LINE
  5
4D
100
AcDbEntity
  8
USP-GEO
100
AcDbLine
 10
1.199700000000035
 20
0.3872000000000639
 30
0.0
 11
1.199700000000035
 21
0.0747000000000071
 31
0.0
210
0.0
220
1.0
230
0.0
  0
LINE
  5
4E
100
AcDbEntity
  8
USP-GEO
100
AcDbLine
 10
1.387200000000007
 20
0.0
 30
0.0
 11
1.125000000000028
 21
0.0
 31
0.0
210
0.0
220
1.0
230
0.0
  0
LINE
  5
4F
100
AcDbEntity
  8
USP-GEO
100
AcDbLine
 10
1.387200000000007
 20
0.0747000000000071
 30
0.0
 11
1.199700000000035
 21
0.0747000000000071
 31
0.0
210
0.0
220
1.0
230
0.0
  0
LINE
  5
50
100
AcDbEntity
  8
USP-GEO
100
AcDbLine
 10
1.387199999999992
 20
0.0747000000000071
 30
0.0
 11
1.387199999999992
 21
0.0
 31
0.0
210
0.0
220
1.0
230
0.0
  0
LINE
  5
51
100
AcDbEntity
  8
USP-GEO
100
AcDbLine
 10
1.199700000000021
 20
0.3872000000000355
 30
0.0
 11
1.125000000000028
 21
0.3872000000000355
 31
0.0
210
0.0
220
1.0
230
0.0
  0
LINE
  5
52
100
AcDbEntity
  8
USP-GEO
100
AcDbLine
 10
1.125000000000028
 20
0.5191984085206514
 30
0.0
 11
1.125000000000028
 21
0.3872000000000213
 31
0.0
210
0.0
220
1.0
230
0.0
  0
LINE
  5
53
100
AcDbEntity
  8
USP-GEO
100
AcDbLine
 10
1.199700000000021
 20
0.3872000000000355
 30
0.0
 11
1.199700000000021
 21
0.5191984085206514
 31
0.0
210
0.0
220
1.0
230
0.0
  0
LINE
  5
54
100
AcDbEntity
  8
USP-GEO
100
AcDbLine
 10
4.399400000000028
 20
0.0
 30
0.0000000000000004
 11
4.399400000000028
 21
0.3872000000000497
 31
0.0000000000000004
210
0.0
220
1.0
230
0.0
  0
LINE
  5
55
100
AcDbEntity
  8
USP-GEO
100
AcDbLine
 10
4.324700000000021
 20
0.0747000000000071
 30
0.0000000000000004
 11
4.324700000000021
 21
0.3872000000000639
 31
0.0000000000000004
210
0.0
220
1.0
230
0.0
  0
LINE
  5
56
100
AcDbEntity
  8
USP-GEO
100
AcDbLine
 10
4.137200000000035
 20
0.0
 30
0.0000000000000004
 11
4.399400000000028
 21
0.0
 31
0.0000000000000004
210
0.0
220
1.0
230
0.0
  0
LINE
  5
57
100
AcDbEntity
  8
USP-GEO
100
AcDbLine
 10
4.137200000000035
 20
0.0747000000000071
 30
0.0000000000000004
 11
4.324700000000021
 21
0.0747000000000071
 31
0.0000000000000004
210
0.0
220
1.0
230
0.0
  0
LINE
  5
58
100
AcDbEntity
  8
USP-GEO
100
AcDbLine
 10
4.137200000000092
 20
0.0747000000000071
 30
0.0000000000000004
 11
4.137200000000092
 21
0.0
 31
0.0000000000000004
210
0.0
220
1.0
230
0.0
  0
LINE
  5
59
100
AcDbEntity
  8
USP-GEO
100
AcDbLine
 10
4.324700000000021
 20
0.3872000000000355
 30
0.0000000000000004
 11
4.399400000000028
 21
0.3872000000000355
 31
0.0000000000000004
210
0.0
220
1.0
230
0.0
  0
LINE
  5
5A
100
AcDbEntity
  8
USP-GEO
100
AcDbLine
 10
4.324700000000021
 20
0.3872000000000355
 30
0.0000000000000004
 11
4.324700000000021
 21
0.5191984085206514
 31
0.0000000000000004
210
0.0
220
1.0
230
0.0
  0
LINE
  5
5B
100
AcDbEntity
  8
USP-GEO
100
AcDbLine
 10
4.399400000000028
 20
0.3872000000000355
 30
0.0000000000000004
 11
4.399400000000028
 21
0.5191984085206514
 31
0.0000000000000004
210
0.0
220
1.0
230
0.0
  0
ARC
  5
5C
100
AcDbEntity
  8
USP-GEO
100
AcDbCircle
 10
2.5
 20
3.895963277456814
 30
0.0000000000000002
 40
2.5
100
AcDbArc
 50
180.0
 51
222.4815666460718
  0
LINE
  5
5D
100
AcDbEntity
  8
USP-GEO
100
AcDbLine
 10
1.125000000000028
 20
3.934691949005255
 30
0.0
 11
1.125000000000028
 21
2.207580842988789
 31
0.0
210
0.0
220
1.0
230
0.0
  0
LINE
  5
5E
100
AcDbEntity
  8
USP-GEO
100
AcDbLine
 10
1.199700000000021
 20
2.207580842988789
 30
0.0
 11
1.199700000000021
 21
3.934691949005255
 31
0.0
210
0.0
220
1.0
230
0.0
  0
ARC
  5
5F
100
AcDbEntity
  8
USP-GEO
100
AcDbCircle
 10
-1.187473256841201
 20
0.5191984085207367
 30
-0.0000000000000003
 40
2.5
100
AcDbArc
 50
22.33325800951295
 51
42.48156664607297
  0
CIRCLE
  5
60
100
AcDbEntity
  8
USP-GEO
100
AcDbCircle
 10
0.7499999999999716
 20
2.589534965323792
 30
0.0
 40
0.086
  0
CIRCLE
  5
61
100
AcDbEntity
  8
USP-GEO
100
AcDbCircle
 10
0.5624999999999716
 20
3.199700000000007
 30
-0.0000000000000001
 40
0.086
  0
CIRCLE
  5
62
100
AcDbEntity
  8
USP-GEO
100
AcDbCircle
 10
0.7499999999999716
 20
4.824700000000035
 30
0.0
 40
0.086
  0
CIRCLE
  5
63
100
AcDbEntity
  8
USP-GEO
100
AcDbCircle
 10
0.3749999999999716
 20
3.824700000000035
 30
-0.0000000000000001
 40
0.086
  0
LINE
  5
64
100
AcDbEntity
  8
USP-GEO
100
AcDbLine
 10
1.199700000000021
 20
3.934691949005255
 30
0.0
 11
1.125000000000028
 21
3.934691949005255
 31
0.0
210
0.0
220
1.0
230
0.0
  0
ARC
  5
65
100
AcDbEntity
  8
USP-GEO
100
AcDbCircle
 10
1.125000000000028
 20
4.311260080790503
 30
0.0
 40
0.0950000000000001
100
AcDbArc
 50
90.00000000000081
 51
270.0000000000252
  0
LINE
  5
66
100
AcDbEntity
  8
USP-GEO
100
AcDbLine
 10
4.399400000000028
 20
2.207580842988789
 30
0.0000000000000004
 11
4.399400000000028
 21
3.934691949005213
 31
0.0000000000000004
210
0.0
220
1.0
230
0.0
  0
LINE
  5
67
100
AcDbEntity
  8
USP-GEO
100
AcDbLine
 10
4.324700000000021
 20
3.934691949005213
 30
0.0000000000000004
 11
4.324700000000021
 21
2.207580842988789
 31
0.0000000000000004
210
0.0
220
1.0
230
0.0
  0
ARC
  5
68
100
AcDbEntity
  8
USP-GEO
100
AcDbCircle
 10
6.711873256841258
 20
0.5191984085207224
 30
0.0000000000000007
 40
2.5
100
AcDbArc
 50
137.5184333539282
 51
157.666741990487
  0
CIRCLE
  5
69
100
AcDbEntity
  8
USP-GEO
100
AcDbCircle
 10
4.774400000000085
 20
2.495353208069687
 30
0.0000000000000004
 40
0.086
  0
CIRCLE
  5
6A
100
AcDbEntity
  8
USP-GEO
100
AcDbCircle
 10
4.961900000000085
 20
3.053195044271419
 30
0.0000000000000005
 40
0.086
  0
CIRCLE
  5
6B
100
AcDbEntity
  8
USP-GEO
100
AcDbCircle
 10
4.774400000000085
 20
4.699699999999964
 30
0.0000000000000004
 40
0.086
  0
ARC
  5
6C
100
AcDbEntity
  8
USP-GEO
100
AcDbCircle
 10
4.399400000000028
 20
4.142330897144276
 30
0.0000000000000004
 40
0.0950000000000001
100
AcDbArc
 50
269.9999999999771
 51
90.0
  0
LINE
  5
6D
100
AcDbEntity
  8
USP-GEO
100
AcDbLine
 10
4.324700000000021
 20
3.934691949005213
 30
0.0000000000000004
 11
4.399400000000028
 21
3.934691949005213
 31
0.0000000000000004
210
0.0
220
1.0
230
0.0
  0
LINE
  5
6E
100
AcDbEntity
  8
USP-GEO
100
AcDbLine
 10
0.0000000000000426
 20
7.199700000000035
 30
-0.0000000000000001
 11
1.125000000000028
 21
7.199700000000021
 31
0.0
210
0.0
220
1.0
230
0.0
  0
CIRCLE
  5
6F
100
AcDbEntity
  8
USP-GEO
100
AcDbCircle
 10
0.3749999999999716
 20
6.824700000000035
 30
-0.0000000000000001
 40
0.086
  0
CIRCLE
  5
70
100
AcDbEntity
  8
USP-GEO
100
AcDbCircle
 10
0.5624999999999716
 20
5.824700000000035
 30
-0.0000000000000001
 40
0.086
  0
LINE
  5
71
100
AcDbEntity
  8
USP-GEO
100
AcDbLine
 10
1.199700000000035
 20
7.199700000000007
 30
0.0
 11
1.125000000000028
 21
7.199700000000007
 31
0.0
210
0.0
220
1.0
230
0.0
  0
LINE
  5
72
100
AcDbEntity
  8
USP-GEO
100
AcDbLine
 10
4.324700000000021
 20
7.19969999999995
 30
0.0000000000000004
 11
4.399400000000028
 21
7.19969999999995
 31
0.0000000000000004
210
0.0
220
1.0
230
0.0
  0
LINE
  5
73
100
AcDbEntity
  8
USP-GEO
100
AcDbLine
 10
5.524400000000014
 20
7.199699999999964
 30
0.0000000000000005
 11
5.524399999999999
 21
3.895963277456743
 31
0.0000000000000005
210
0.0
220
1.0
230
0.0
  0
ENDBLK
  5
75
100
AcDbEntity
  8
0
100
AcDbBlockEnd
  0
BLOCK
  5
9C
100
AcDbEntity
  8
0
100
AcDbBlockBegin
  2
HD28-2_S
 70
     0
 10
0.0
 20
0.0
 30
0.0
  3
HD28-2_S
  1

  0
LINE
  5
78
100
AcDbEntity
  8
USP-GEO
100
AcDbLine
 10
1.449973256841175
 20
7.199700000000007
 30
0.0000000000000002
 11
1.449973256841175
 21
3.934691949005255
 31
0.0000000000000002
210
0.0
220
1.0
230
0.0
  0
LINE
  5
79
100
AcDbEntity
  8
USP-GEO
100
AcDbLine
 10
0.0
 20
3.895963277456814
 30
0.0
 11
0.0
 21
7.199700000000035
 31
0.0
210
0.0
220
1.0
230
0.0
  0
LINE
  5
7A
100
AcDbEntity
  8
USP-GEO
100
AcDbLine
 10
0.0747000000000071
 20
3.895963277456814
 30
0.0
 11
0.0746999999999929
 21
7.199700000000035
 31
0.0
210
0.0
220
1.0
230
0.0
  0
TEXT
  5
7B
100
AcDbEntity
  8
USP-TXT
100
AcDbText
 10
-0.8501271468270203
 20
-1.346368022635743
 30
-0.0000000000000008
 40
0.375
  1
HD28-2 - SIDE VIEW
100
AcDbText
  0
LINE
  5
7C
100
AcDbEntity
  8
USP-GEO
100
AcDbLine
 10
2.699700000000035
 20
0.0
 30
0.0000000000000004
 11
0.3247267431587772
 21
0.0
 31
0.0
210
0.0
220
1.0
230
0.0
  0
ARC
  5
7D
100
AcDbEntity
  8
USP-GEO
100
AcDbCircle
 10
0.2621999999999929
 20
0.5191984085207367
 30
0.0
 40
2.5
100
AcDbArc
 50
359.9999999999983
 51
42.48156664607297
  0
LINE
  5
7E
100
AcDbEntity
  8
USP-HID
100
AcDbLine
 10
2.699700000000039
 20
0.0747000000000071
 30
0.0000000000000004
 11
0.3247267431587772
 21
0.0747000000000073
 31
0.0000000000000001
210
0.0
220
1.0
230
0.0
  0
ARC
  5
81
100
AcDbEntity
  8
USP-GEO
100
AcDbCircle
 10
-2.237773256841236
 20
0.5191984085207224
 30
-0.0000000000000005
 40
2.5
100
AcDbArc
 50
0.0
 51
22.33325800951296
  0
LINE
  5
82
100
AcDbEntity
  8
USP-GEO
100
AcDbLine
 10
0.3247267431587772
 20
0.0
 30
0.0
 11
0.324726743158763
 21
0.3872000000000497
 31
0.0
210
0.0
220
1.0
230
0.0
  0
LINE
  5
83
100
AcDbEntity
  8
USP-GEO
100
AcDbLine
 10
0.3247267431587772
 20
0.0747000000000071
 30
0.0
 11
0.2622267431588625
 21
0.0747000000000071
 31
0.0
210
0.0
220
1.0
230
0.0
  0
LINE
  5
84
100
AcDbEntity
  8
USP-GEO
100
AcDbLine
 10
0.2622267431588625
 20
0.0747000000000071
 30
0.0
 11
0.2622267431588625
 21
0.0
 31
0.0
210
0.0
220
1.0
230
0.0
  0
LINE
  5
85
100
AcDbEntity
  8
USP-GEO
100
AcDbLine
 10
0.2622267431588625
 20
0.0
 30
0.0
 11
0.3247267431587772
 21
0.0
 31
0.0
210
0.0
220
1.0
230
0.0
  0
LINE
  5
86
100
AcDbEntity
  8
USP-GEO
100
AcDbLine
 10
0.2622267431588767
 20
0.3872000000000071
 30
0.0
 11
0.2622267431588909
 21
0.5191984085207367
 31
0.0
210
0.0
220
1.0
230
0.0
  0
LINE
  5
87
100
AcDbEntity
  8
USP-GEO
100
AcDbLine
 10
0.324726743158763
 20
0.3872000000000497
 30
0.0
 11
0.2622267431588767
 21
0.3872000000000213
 31
0.0
210
0.0
220
1.0
230
0.0
  0
ARC
  5
88
100
AcDbEntity
  8
USP-GEO
100
AcDbCircle
 10
3.949673256841194
 20
3.895963277456814
 30
0.0000000000000007
 40
2.5
100
AcDbArc
 50
179.1123687241154
 51
222.4815666460718
  0
LINE
  5
89
100
AcDbEntity
  8
USP-GEO
100
AcDbLine
 10
0.0
 20
2.207580842988789
 30
0.0
 11
0.0
 21
3.895963277456814
 31
0.0
210
0.0
220
1.0
230
0.0
  0
LINE
  5
8A
100
AcDbEntity
  8
USP-GEO
100
AcDbLine
 10
0.0747000000000071
 20
2.207580842988789
 30
0.0
 11
0.0747000000000071
 21
3.895963277456814
 31
0.0
210
0.0
220
1.0
230
0.0
  0
LINE
  5
8B
100
AcDbEntity
  8
USP-GEO
100
AcDbLine
 10
0.0
 20
2.207580842988789
 30
0.0
 11
0.0
 21
1.469181269626162
 31
0.0
210
0.0
220
1.0
230
0.0
  0
LINE
  5
8C
100
AcDbEntity
  8
USP-GEO
100
AcDbLine
 10
0.0747000000000071
 20
1.469181269626162
 30
0.0
 11
0.0747000000000071
 21
2.207580842988789
 31
0.0
210
0.0
220
1.0
230
0.0
  0
LINE
  5
8D
100
AcDbEntity
  8
USP-GEO
100
AcDbLine
 10
0.0
 20
1.469181269626162
 30
0.0
 11
0.0747000000000071
 21
1.469181269626162
 31
0.0
210
0.0
220
1.0
230
0.0
  0
CIRCLE
  5
8E
100
AcDbEntity
  8
USP-GEO
100
AcDbCircle
 10
1.07497325684119
 20
2.262200000000007
 30
0.0000000000000001
 40
0.082
  0
ARC
  5
8F
100
AcDbEntity
  8
USP-GEO
100
AcDbCircle
 10
0.0747000000000639
 20
4.311260080790489
 30
0.0
 40
0.095
100
AcDbArc
 50
269.9999999999584
 51
90.00000000004153
  0
ARC
  5
90
100
AcDbEntity
  8
USP-GEO
100
AcDbCircle
 10
0.0747000000000639
 20
4.14233089714429
 30
0.0
 40
0.095
100
AcDbArc
 50
62.76049126559987
 51
90.00000000004153
  0
CIRCLE
  5
91
100
AcDbEntity
  8
USP-GEO
100
AcDbCircle
 10
1.07497325684119
 20
4.670401308014646
 30
0.0000000000000001
 40
0.082
  0
CIRCLE
  5
92
100
AcDbEntity
  8
USP-GEO
100
AcDbCircle
 10
1.07497325684119
 20
3.871037232443597
 30
0.0000000000000001
 40
0.082
  0
LINE
  5
93
100
AcDbEntity
  8
USP-GEO
100
AcDbLine
 10
2.699700000000049
 20
0.3872000000000639
 30
0.0000000000000004
 11
2.699700000000035
 21
0.0
 31
0.0000000000000004
210
0.0
220
1.0
230
0.0
  0
LINE
  5
94
100
AcDbEntity
  8
USP-GEO
100
AcDbLine
 10
2.699700000000035
 20
0.0746999999999929
 30
0.0000000000000004
 11
2.762200000000021
 21
0.0746999999999929
 31
0.0000000000000005
210
0.0
220
1.0
230
0.0
  0
LINE
  5
95
100
AcDbEntity
  8
USP-GEO
100
AcDbLine
 10
2.699700000000035
 20
0.0
 30
0.0000000000000004
 11
2.762200000000021
 21
0.0
 31
0.0000000000000005
210
0.0
220
1.0
230
0.0
  0
LINE
  5
96
100
AcDbEntity
  8
USP-GEO
100
AcDbLine
 10
2.762200000000021
 20
0.0747000000000071
 30
0.0000000000000005
 11
2.762200000000021
 21
0.0
 31
0.0000000000000005
210
0.0
220
1.0
230
0.0
  0
LINE
  5
97
100
AcDbEntity
  8
USP-GEO
100
AcDbLine
 10
2.762200000000063
 20
0.3872000000000355
 30
0.0000000000000005
 11
2.699700000000049
 21
0.3872000000000639
 31
0.0000000000000004
210
0.0
220
1.0
230
0.0
  0
LINE
  5
98
100
AcDbEntity
  8
USP-GEO
100
AcDbLine
 10
2.762200000000049
 20
0.5191984085206514
 30
0.0000000000000005
 11
2.762200000000049
 21
0.3872000000000213
 31
0.0000000000000005
210
0.0
220
1.0
230
0.0
  0
LINE
  5
99
100
AcDbEntity
  8
USP-GEO
100
AcDbLine
 10
0.0746999999999929
 20
7.199700000000021
 30
0.0
 11
1.449973256841175
 21
7.199700000000007
 31
0.0000000000000002
210
0.0
220
1.0
230
0.0
  0
CIRCLE
  5
9A
100
AcDbEntity
  8
USP-GEO
100
AcDbCircle
 10
0.5122000000000071
 20
6.579269385878518
 30
0.0
 40
0.1535
  0
LINE
  5
9B
100
AcDbEntity
  8
USP-GEO
100
AcDbLine
 10
0.0
 20
7.199700000000035
 30
0.0
 11
0.0746999999999929
 21
7.199700000000035
 31
0.0
210
0.0
220
1.0
230
0.0
  0
ENDBLK
  5
9D
100
AcDbEntity
  8
0
100
AcDbBlockEnd
  0
ENDSEC
  0
SECTION
  2
ENTITIES
  0
INSERT
  5
3
100
AcDbEntity
  8
USP
100
AcDbBlockReference
  2
HD28-2_T
 10
8.437467416238686
 20
11.3872170952021
 30
0.000000000000001
  0
INSERT
  5
39
100
AcDbEntity
  8
USP
100
AcDbBlockReference
  2
HD28-2_F
 10
8.437467416238643
 20
1.346799785346728
 30
0.0000000000000008
  0
INSERT
  5
76
100
AcDbEntity
  8
USP
100
AcDbBlockReference
  2
HD28-2_S
 10
0.8505776335280721
 20
1.346799785346728
 30
0.0000000000000008
  0
ENDSEC
  0
SECTION
  2
OBJECTS
  0
DICTIONARY
  5
B9
102
{ACAD_XDICTIONARY
360
BA
102
}
100
AcDbDictionary
  3
ACAD_GROUP
350
B6
  3
ACAD_MLINESTYLE
350
B7
  0
DICTIONARY
  5
AB
100
AcDbDictionary
280
     1
  0
DICTIONARY
  5
AD
100
AcDbDictionary
280
     1
  0
DICTIONARY
  5
6
100
AcDbDictionary
280
     1
  0
DICTIONARY
  5
B
100
AcDbDictionary
280
     1
  0
DICTIONARY
  5
BE
100
AcDbDictionary
280
     1
  0
DICTIONARY
  5
9E
100
AcDbDictionary
280
     1
  3
ACAD_LAYOUTSELFREF
360
9F
  0
DICTIONARY
  5
A3
100
AcDbDictionary
280
     1
  3
ACAD_LAYOUTSELFREF
360
A4
  0
DICTIONARY
  5
BA
100
AcDbDictionary
280
     1
  3
ACAD_XREC_ROUNDTRIP
360
BB
  0
DICTIONARY
  5
B6
102
{ACAD_REACTORS
330
B9
102
}
100
AcDbDictionary
  0
DICTIONARY
  5
B7
102
{ACAD_XDICTIONARY
360
B8
102
}
102
{ACAD_REACTORS
330
B9
102
}
100
AcDbDictionary
  3
STANDARD
350
BC
  0
XRECORD
  5
9F
102
{ACAD_REACTORS
330
9E
102
}
100
AcDbXrecord
340
2
  0
XRECORD
  5
A4
102
{ACAD_REACTORS
330
A3
102
}
100
AcDbXrecord
340
A4
  0
XRECORD
  5
BB
102
{ACAD_REACTORS
330
BA
102
}
100
AcDbXrecord
102
EXTNAMES
  1
ACDBVARIABLEDICTIONARY
  2
AcDbVariableDictionary
  0
DICTIONARY
  5
B8
100
AcDbDictionary
280
     1
  0
MLINESTYLE
  5
BC
102
{ACAD_REACTORS
330
B7
102
}
100
AcDbMlineStyle
  2
STANDARD
 70
     0
  3

 62
   256
 51
90.0
 52
90.0
 71
     2
 49
0.5
 62
   256
  6
BYLAYER
 49
-0.5
 62
   256
  6
BYLAYER
  0
ENDSEC
  0
EOF
