  0
SECTION
  2
HEADER
  9
$ACADVER
  1
AC1014
  9
$ACADMAINTVER
 70
     9
  9
$DWGCODEPAGE
  3
ANSI_1252
  9
$INSBASE
 10
0.0
 20
0.0
 30
0.0
  9
$EXTMIN
 10
0.0011305848963445
 20
0.0006372781756099
 30
0.0
  9
$EXTMAX
 10
18.36349159112083
 20
20.87634423388227
 30
0.0
  9
$LIMMIN
 10
0.0
 20
0.0
  9
$LIMMAX
 10
12.0
 20
9.0
  9
$ORTHOMODE
 70
     0
  9
$REGENMODE
 70
     1
  9
$FILLMODE
 70
     1
  9
$QTEXTMODE
 70
     0
  9
$MIRRTEXT
 70
     0
  9
$DRAGMODE
 70
     2
  9
$LTSCALE
 40
1.5
  9
$OSMODE
 70
    37
  9
$ATTMODE
 70
     1
  9
$TEXTSIZE
 40
0.5
  9
$TRACEWID
 40
0.05
  9
$TEXTSTYLE
  7
STANDARD
  9
$CLAYER
  8
0
  9
$CELTYPE
  6
BYLAYER
  9
$CECOLOR
 62
   256
  9
$CELTSCALE
 40
1.0
  9
$DELOBJ
 70
     1
  9
$DISPSILH
 70
     1
  9
$DIMSCALE
 40
6.0
  9
$DIMASZ
 40
0.125
  9
$DIMEXO
 40
0.0625
  9
$DIMDLI
 40
0.37890625
  9
$DIMRND
 40
0.0
  9
$DIMDLE
 40
0.0
  9
$DIMEXE
 40
0.09375
  9
$DIMTP
 40
0.0
  9
$DIMTM
 40
0.0
  9
$DIMTXT
 40
0.109375
  9
$DIMCEN
 40
0.0
  9
$DIMTSZ
 40
0.0
  9
$DIMTOL
 70
     0
  9
$DIMLIM
 70
     0
  9
$DIMTIH
 70
     1
  9
$DIMTOH
 70
     1
  9
$DIMSE1
 70
     0
  9
$DIMSE2
 70
     0
  9
$DIMTAD
 70
     0
  9
$DIMZIN
 70
     8
  9
$DIMBLK
  1

  9
$DIMASO
 70
     1
  9
$DIMSHO
 70
     1
  9
$DIMPOST
  1

  9
$DIMAPOST
  1

  9
$DIMALT
 70
     0
  9
$DIMALTD
 70
     2
  9
$DIMALTF
 40
25.4
  9
$DIMLFAC
 40
1.0
  9
$DIMTOFL
 70
     0
  9
$DIMTVP
 40
0.0
  9
$DIMTIX
 70
     0
  9
$DIMSOXD
 70
     0
  9
$DIMSAH
 70
     0
  9
$DIMBLK1
  1

  9
$DIMBLK2
  1

  9
$DIMSTYLE
  2
STANDARD
  9
$DIMCLRD
 70
     0
  9
$DIMCLRE
 70
     0
  9
$DIMCLRT
 70
   256
  9
$DIMTFAC
 40
1.0
  9
$DIMGAP
 40
0.08984375
  9
$DIMJUST
 70
     0
  9
$DIMSD1
 70
     0
  9
$DIMSD2
 70
     0
  9
$DIMTOLJ
 70
     1
  9
$DIMTZIN
 70
     0
  9
$DIMALTZ
 70
     0
  9
$DIMALTTZ
 70
     0
  9
$DIMFIT
 70
     3
  9
$DIMUPT
 70
     1
  9
$DIMUNIT
 70
     7
  9
$DIMDEC
 70
     4
  9
$DIMTDEC
 70
     4
  9
$DIMALTU
 70
     2
  9
$DIMALTTD
 70
     2
  9
$DIMTXSTY
  7
STANDARD
  9
$DIMAUNIT
 70
     0
  9
$LUNITS
 70
     5
  9
$LUPREC
 70
     6
  9
$SKETCHINC
 40
0.1
  9
$FILLETRAD
 40
0.0
  9
$AUNITS
 70
     0
  9
$AUPREC
 70
     1
  9
$MENU
  1
CUSTOM
  9
$ELEVATION
 40
0.0
  9
$PELEVATION
 40
0.0
  9
$THICKNESS
 40
0.0
  9
$LIMCHECK
 70
     0
  9
$BLIPMODE
 70
     0
  9
$CHAMFERA
 40
0.0
  9
$CHAMFERB
 40
0.0
  9
$CHAMFERC
 40
0.0
  9
$CHAMFERD
 40
0.0
  9
$SKPOLY
 70
     0
  9
$TDCREATE
 40
2451263.663231366
  9
$TDUPDATE
 40
2452759.744511713
  9
$TDINDWG
 40
0.1325246644
  9
$TDUSRTIMER
 40
0.1325246644
  9
$USRTIMER
 70
     1
  9
$ANGBASE
 50
0.0
  9
$ANGDIR
 70
     0
  9
$PDMODE
 70
     0
  9
$PDSIZE
 40
0.0
  9
$PLINEWID
 40
0.0
  9
$COORDS
 70
     1
  9
$SPLFRAME
 70
     0
  9
$SPLINETYPE
 70
     6
  9
$SPLINESEGS
 70
     8
  9
$ATTDIA
 70
     0
  9
$ATTREQ
 70
     1
  9
$HANDLING
 70
     1
  9
$HANDSEED
  5
11B
  9
$SURFTAB1
 70
     6
  9
$SURFTAB2
 70
     6
  9
$SURFTYPE
 70
     6
  9
$SURFU
 70
     6
  9
$SURFV
 70
     6
  9
$UCSNAME
  2

  9
$UCSORG
 10
0.0
 20
0.0
 30
0.0
  9
$UCSXDIR
 10
1.0
 20
0.0
 30
0.0
  9
$UCSYDIR
 10
0.0
 20
1.0
 30
0.0
  9
$PUCSNAME
  2

  9
$PUCSORG
 10
0.0
 20
0.0
 30
0.0
  9
$PUCSXDIR
 10
1.0
 20
0.0
 30
0.0
  9
$PUCSYDIR
 10
0.0
 20
1.0
 30
0.0
  9
$USERI1
 70
     0
  9
$USERI2
 70
     0
  9
$USERI3
 70
     0
  9
$USERI4
 70
     0
  9
$USERI5
 70
     0
  9
$USERR1
 40
0.0
  9
$USERR2
 40
0.0
  9
$USERR3
 40
0.0
  9
$USERR4
 40
0.0
  9
$USERR5
 40
0.0
  9
$WORLDVIEW
 70
     1
  9
$SHADEDGE
 70
     3
  9
$SHADEDIF
 70
    70
  9
$TILEMODE
 70
     1
  9
$MAXACTVP
 70
    16
  9
$PINSBASE
 10
0.0
 20
0.0
 30
0.0
  9
$PLIMCHECK
 70
     0
  9
$PEXTMIN
 10
1.052083323321005
 20
0.7937500251559762
 30
0.0
  9
$PEXTMAX
 10
9.468749909889039
 20
7.143750226403783
 30
0.0
  9
$PLIMMIN
 10
-0.2145830289585384
 20
-0.2812499887361301
  9
$PLIMMAX
 10
10.78541673074557
 20
8.218749770967978
  9
$UNITMODE
 70
     0
  9
$VISRETAIN
 70
     0
  9
$PLINEGEN
 70
     0
  9
$PSLTSCALE
 70
     0
  9
$TREEDEPTH
 70
  3020
  9
$PICKSTYLE
 70
     1
  9
$CMLSTYLE
  2
STANDARD
  9
$CMLJUST
 70
     0
  9
$CMLSCALE
 40
1.0
  9
$PROXYGRAPHICS
 70
     1
  9
$MEASUREMENT
 70
     0
  0
ENDSEC
  0
SECTION
  2
CLASSES
  0
CLASS
  1
ACDBDICTIONARYWDFLT
  2
AcDbDictionaryWithDefault
  3
AutoCAD 2000
 90
        0
280
     0
281
     0
  0
CLASS
  1
ACDBPLACEHOLDER
  2
AcDbPlaceHolder
  3
AutoCAD 2000
 90
        0
280
     0
281
     0
  0
CLASS
  1
LAYOUT
  2
AcDbLayout
  3
AutoCAD 2000
 90
        0
280
     0
281
     0
  0
CLASS
  1
DICTIONARYVAR
  2
AcDbDictionaryVar
  3
"AutoCAD"
 90
        0
280
     0
281
     0
  0
CLASS
  1
LONG_TRANSACTION
  2
AcDbLongTransaction
  3
AutoCAD 2000
 90
        0
280
     0
281
     0
  0
CLASS
  1
LWPOLYLINE
  2
AcDbPolyline
  3
"AutoCAD"
 90
        0
280
     0
281
     1
  0
CLASS
  1
HATCH
  2
AcDbHatch
  3
"ACAD_SEDONA"
 90
        0
280
     0
281
     1
  0
CLASS
  1
XRECORD
  2
AcDbXrecord
  3
"<Built In>"
 90
        0
280
     0
281
     0
  0
CLASS
  1
LONG_TRANSACTION
  2
AcDbLongTransaction
  3
AutoCAD 2000
 90
        0
280
     0
281
     0
  0
CLASS
  1
LWPOLYLINE
  2
AcDbPolyline
  3
"AutoCAD"
 90
        0
280
     0
281
     1
  0
CLASS
  1
HATCH
  2
AcDbHatch
  3
"ACAD_SEDONA"
 90
        0
280
     0
281
     1
  0
CLASS
  1
XRECORD
  2
AcDbXrecord
  3
"<Built In>"
 90
        0
280
     0
281
     0
  0
ENDSEC
  0
SECTION
  2
TABLES
  0
TABLE
  2
VPORT
  5
FD
100
AcDbSymbolTable
 70
     1
  0
VPORT
  5
117
100
AcDbSymbolTableRecord
100
AcDbViewportTableRecord
  2
*ACTIVE
 70
     0
 10
0.0
 20
0.0
 11
1.0
 21
1.0
 12
-13.91330411988485
 22
20.96618393666342
 13
0.0
 23
0.0
 14
1.0
 24
1.0
 15
0.0
 25
0.0
 16
0.0
 26
0.0
 36
1.0
 17
23.09603071721725
 27
-10.27010416511325
 37
-10.44050274849355
 40
21.54465636533037
 41
1.457627118644067
 42
50.0
 43
10.55307667737539
 44
10.55307667737539
 50
0.0
 51
0.0
 71
     0
 72
   100
 73
     1
 74
     1
 75
     0
 76
     0
 77
     0
 78
     0
  0
ENDTAB
  0
TABLE
  2
LTYPE
  5
F8
100
AcDbSymbolTable
 70
     2
  0
LTYPE
  5
F9
100
AcDbSymbolTableRecord
100
AcDbLinetypeTableRecord
  2
BYBLOCK
 70
     0
  3

 72
    65
 73
     0
 40
0.0
  0
LTYPE
  5
FA
100
AcDbSymbolTableRecord
100
AcDbLinetypeTableRecord
  2
BYLAYER
 70
     0
  3

 72
    65
 73
     0
 40
0.0
  0
LTYPE
  5
5
100
AcDbSymbolTableRecord
100
AcDbLinetypeTableRecord
  2
CONTINUOUS
 70
     0
  3
Solid line
 72
    65
 73
     0
 40
0.0
  0
LTYPE
  5
46
100
AcDbSymbolTableRecord
100
AcDbLinetypeTableRecord
  2
HIDDEN
 70
     0
  3
Hidden __ __ __ __ __ __ __ __ __ __ __ __ __ _
 72
    65
 73
     2
 40
0.375
 49
0.25
 74
     0
 49
-0.125
 74
     0
  0
ENDTAB
  0
TABLE
  2
LAYER
  5
F6
100
AcDbSymbolTable
 70
     5
  0
LAYER
  5
56
100
AcDbSymbolTableRecord
100
AcDbLayerTableRecord
  2
0
 70
     0
 62
     7
  6
CONTINUOUS
  0
LAYER
  5
B
100
AcDbSymbolTableRecord
100
AcDbLayerTableRecord
  2
USP-GEO
 70
     0
 62
     7
  6
CONTINUOUS
  0
LAYER
  5
8
100
AcDbSymbolTableRecord
100
AcDbLayerTableRecord
  2
USP-TXT
 70
     0
 62
     7
  6
CONTINUOUS
  0
LAYER
  5
45
100
AcDbSymbolTableRecord
100
AcDbLayerTableRecord
  2
USP-HID
 70
     0
 62
     7
  6
HIDDEN
  0
LAYER
  5
4
100
AcDbSymbolTableRecord
100
AcDbLayerTableRecord
  2
USP
 70
     0
 62
     7
  6
CONTINUOUS
  0
ENDTAB
  0
TABLE
  2
STYLE
  5
F7
100
AcDbSymbolTable
 70
     1
  0
STYLE
  5
9
100
AcDbSymbolTableRecord
100
AcDbTextStyleTableRecord
  2
STANDARD
 70
     0
 40
0.0
 41
1.0
 50
0.0
 71
     0
 42
0.5
  3
txt
  4

  0
ENDTAB
  0
TABLE
  2
VIEW
  5
FB
100
AcDbSymbolTable
 70
     0
  0
ENDTAB
  0
TABLE
  2
UCS
  5
FC
100
AcDbSymbolTable
 70
     0
  0
ENDTAB
  0
TABLE
  2
APPID
  5
FF
100
AcDbSymbolTable
 70
     1
  0
APPID
  5
F1
100
AcDbSymbolTableRecord
100
AcDbRegAppTableRecord
  2
ACAD
 70
     0
  0
ENDTAB
  0
TABLE
  2
DIMSTYLE
  5
100
100
AcDbSymbolTable
 70
     1
  0
DIMSTYLE
105
108
100
AcDbSymbolTableRecord
100
AcDbDimStyleTableRecord
  2
STANDARD
 70
     0
  3

  4

  5

  6

  7

 40
1.0
 41
0.18
 42
0.0625
 43
0.38
 44
0.18
 45
0.0
 46
0.0
 47
0.0
 48
0.0
140
0.18
141
0.09
142
0.0
143
25.4
144
1.0
145
0.0
146
1.0
147
0.09
 71
     0
 72
     0
 73
     1
 74
     1
 75
     0
 76
     0
 77
     0
 78
     0
170
     0
171
     2
172
     0
173
     0
174
     0
175
     0
176
     0
177
     0
178
     0
270
     2
271
     4
272
     4
273
     2
274
     2
340
9
275
     0
280
     0
281
     0
282
     0
283
     1
284
     0
285
     0
286
     0
287
     3
288
     0
  0
ENDTAB
  0
TABLE
  2
BLOCK_RECORD
  5
1
100
AcDbSymbolTable
 70
     3
  0
BLOCK_RECORD
  5
2
102
{ACAD_XDICTIONARY
360
E8
102
}
100
AcDbSymbolTableRecord
100
AcDbBlockTableRecord
  2
*MODEL_SPACE
  0
BLOCK_RECORD
  5
EC
102
{ACAD_XDICTIONARY
360
F2
102
}
100
AcDbSymbolTableRecord
100
AcDbBlockTableRecord
  2
*PAPER_SPACE
  0
BLOCK_RECORD
  5
6
100
AcDbSymbolTableRecord
100
AcDbBlockTableRecord
  2
FA3_F
  0
BLOCK_RECORD
  5
59
100
AcDbSymbolTableRecord
100
AcDbBlockTableRecord
  2
FA3_T
  0
BLOCK_RECORD
  5
B8
100
AcDbSymbolTableRecord
100
AcDbBlockTableRecord
  2
FA3_S
  0
ENDTAB
  0
ENDSEC
  0
SECTION
  2
BLOCKS
  0
BLOCK
  5
EA
100
AcDbEntity
  8
0
100
AcDbBlockBegin
  2
*MODEL_SPACE
 70
     0
 10
0.0
 20
0.0
 30
0.0
  3
*MODEL_SPACE
  1

  0
ENDBLK
  5
EB
100
AcDbEntity
  8
0
100
AcDbBlockEnd
  0
BLOCK
  5
F4
100
AcDbEntity
 67
     1
  8
0
100
AcDbBlockBegin
  2
*PAPER_SPACE
 70
     0
 10
0.0
 20
0.0
 30
0.0
  3
*PAPER_SPACE
  1

  0
ENDBLK
  5
F5
100
AcDbEntity
 67
     1
  8
0
100
AcDbBlockEnd
  0
BLOCK
  5
55
100
AcDbEntity
  8
0
100
AcDbBlockBegin
  2
FA3_F
 70
     0
 10
0.0
 20
0.0
 30
0.0
  3
FA3_F
  1

  0
TEXT
  5
7
100
AcDbEntity
  8
USP-TXT
100
AcDbText
 10
-2.281599371156328
 20
-1.906516228719143
 30
0.0
 40
0.375
  1
FA3 - FRONT VIEW
 72
     1
 11
0.7184006288436713
 21
-1.906516228719143
 31
0.0
100
AcDbText
  0
LINE
  5
A
100
AcDbEntity
  8
USP-GEO
100
AcDbLine
 10
-0.0000000000000018
 20
0.968093617304385
 30
0.0
 11
-0.0000000000000107
 21
4.320569261478755
 31
0.0
  0
LINE
  5
C
100
AcDbEntity
  8
USP-GEO
100
AcDbLine
 10
0.127699999999999
 20
0.9680936173043868
 30
0.0
 11
0.1276999999999919
 21
3.826850827940527
 31
0.0
  0
LINE
  5
D
100
AcDbEntity
  8
USP-GEO
100
AcDbLine
 10
1.372299999999993
 20
0.9680936173043885
 30
0.0
 11
1.372299999999986
 21
3.826850827940528
 31
0.0
  0
LINE
  5
E
100
AcDbEntity
  8
USP-GEO
100
AcDbLine
 10
1.499999999999989
 20
4.32056926147876
 30
0.0
 11
1.5
 21
0.968093617304385
 31
0.0
  0
LINE
  5
F
100
AcDbEntity
  8
USP-GEO
100
AcDbLine
 10
1.12735009755754
 20
0.7833810347757329
 30
0.0
 11
1.127350097557533
 21
3.67603363585155
 31
0.0
  0
LINE
  5
10
100
AcDbEntity
  8
USP-GEO
100
AcDbLine
 10
0.9416319143470257
 20
0.6433340908852206
 30
0.0
 11
0.9416319143470186
 21
3.561685784995573
 31
0.0
  0
LINE
  5
11
100
AcDbEntity
  8
USP-GEO
100
AcDbLine
 10
0.3726499024424523
 20
0.7833810347757276
 30
0.0
 11
0.3726499024424452
 21
3.676033635851548
 31
0.0
  0
LINE
  5
12
100
AcDbEntity
  8
USP-GEO
100
AcDbLine
 10
0.5583680856529707
 20
0.6433340908852188
 30
0.0
 11
0.5583680856529636
 21
3.561685784995575
 31
0.0
  0
LINE
  5
13
100
AcDbEntity
  8
USP-GEO
100
AcDbLine
 10
0.9351350338395771
 20
0.0
 30
0.0
 11
0.5648649661604371
 21
0.0
 31
0.0
  0
LINE
  5
14
100
AcDbEntity
  8
USP-GEO
100
AcDbLine
 10
0.5625
 20
0.5915457717389092
 30
0.0
 11
0.9375
 21
0.591545771738911
 31
0.0
  0
LINE
  5
15
100
AcDbEntity
  8
USP-GEO
100
AcDbLine
 10
0.9416319143470275
 20
0.6433340908852206
 30
0.0
 11
0.5583680856529725
 21
0.6433340908852188
 31
0.0
  0
LINE
  5
16
100
AcDbEntity
  8
USP-GEO
100
AcDbLine
 10
0.0
 20
0.9163052981580737
 30
0.0
 11
0.0000000000000018
 21
0.4163052981580809
 31
0.0
  0
LINE
  5
17
100
AcDbEntity
  8
USP-GEO
100
AcDbLine
 10
0.1318319143470177
 20
0.9163052981580737
 30
0.0
 11
0.1318319143470195
 21
0.4163052981580809
 31
0.0
  0
LINE
  5
18
100
AcDbEntity
  8
USP-GEO
100
AcDbLine
 10
0.3175500975575431
 20
0.7762583542675668
 30
0.0
 11
0.3175500975575449
 21
0.2762583542675756
 31
0.0
  0
ELLIPSE
  5
19
100
AcDbEntity
  8
USP-GEO
100
AcDbEllipse
 10
0.5625
 20
0.805713854094801
 30
0.0
 11
0.2473000000000008
 21
0.0000000000000006
 31
0.0
210
0.0
220
0.0
230
1.0
 40
0.8660254037844431
 41
3.279564479530561
 42
4.712388980384687
  0
ELLIPSE
  5
1A
100
AcDbEntity
  8
USP-GEO
100
AcDbEllipse
 10
0.558368085652969
 20
0.805713854094801
 30
0.0
 11
-0.1875000000000003
 21
-0.0000000000000003
 31
0.0
210
0.0
220
0.0
230
1.0
 40
0.8660254037844429
 41
0.1379718259407724
 42
1.570796326794913
  0
LINE
  5
1B
100
AcDbEntity
  8
USP-GEO
100
AcDbLine
 10
0.1318319143470461
 20
0.373065414164552
 30
0.0
 11
0.0000000000000107
 21
0.373065414164552
 31
0.0
  0
LINE
  5
1C
100
AcDbEntity
  8
USP-GEO
100
AcDbLine
 10
0.0000000000000107
 20
0.4163052981580737
 30
0.0
 11
0.0000000000000107
 21
0.373065414164552
 31
0.0
  0
SPLINE
  5
1D
100
AcDbEntity
  8
USP-GEO
100
AcDbSpline
210
0.0
220
0.0
230
-1.0
 70
     8
 71
     3
 72
    14
 73
    10
 74
     0
 42
0.0000001
 43
0.0000001
 40
0.0
 40
0.0
 40
0.0
 40
0.0
 40
0.0725066242629006
 40
0.0725066242629006
 40
0.1448897843036879
 40
0.1448897843036879
 40
0.2077360530177129
 40
0.2077360530177129
 40
0.2708414978989974
 40
0.2708414978989974
 40
0.2708414978989974
 40
0.2708414978989974
 10
0.3199149037599867
 20
0.2127044050503333
 30
0.0
 10
0.3165764268020066
 20
0.2366415953301075
 30
0.0
 10
0.30859936203505
 20
0.2596938944697182
 30
0.0
 10
0.284254454471176
 20
0.3014073809869515
 30
0.0
 10
0.268148418251533
 20
0.319654536241277
 30
0.0
 10
0.232358391773209
 20
0.347074367195658
 30
0.0
 10
0.2137003189026725
 20
0.3569154489914386
 30
0.0
 10
0.1738287957708842
 20
0.3700980372259721
 30
0.0
 10
0.1528689433262667
 20
0.3733249549963666
 30
0.0
 10
0.1318319143470461
 20
0.3730654141645573
 30
0.0
  0
LINE
  5
1E
100
AcDbEntity
  8
USP-GEO
100
AcDbLine
 10
0.3199149037599831
 20
0.2640926958737015
 30
0.0
 11
0.3199149037599831
 21
0.2127044050503297
 31
0.0
  0
LINE
  5
1F
100
AcDbEntity
  8
USP-GEO
100
AcDbLine
 10
0.5625
 20
0.5915457717389092
 30
0.0
 11
0.5625000000000018
 21
0.0915457717389163
 31
0.0
  0
SPLINE
  5
20
100
AcDbEntity
  8
USP-GEO
100
AcDbSpline
210
0.0
220
0.0
230
1.0
 70
     8
 71
     3
 72
    14
 73
    10
 74
     0
 42
0.0000001
 43
0.0000001
 40
0.0
 40
0.0
 40
0.0
 40
0.0
 40
0.0967592100834575
 40
0.0967592100834575
 40
0.1934430402810429
 40
0.1934430402810429
 40
0.2742385463883218
 40
0.2742385463883218
 40
0.3548448910320058
 40
0.3548448910320058
 40
0.3548448910320058
 40
0.3548448910320058
 10
0.5648649661604388
 20
0.0000000000000036
 30
0.0
 10
0.5326118961326199
 20
0.0000000000000053
 30
0.0
 10
0.5006655117713699
 20
0.0062990357288246
 30
0.0
 10
0.4410133106092165
 20
0.0307800274577534
 30
0.0
 10
0.4138707418989807
 20
0.0487203223569832
 30
0.0
 10
0.3717709224849113
 20
0.0902789153160413
 30
0.0
 10
0.3558234814397174
 20
0.1122043003564404
 30
0.0
 10
0.3316802502911784
 20
0.1602772653299134
 30
0.0
 10
0.3236255747736401
 20
0.1860985487759059
 30
0.0
 10
0.3199149037599867
 20
0.2127044050503333
 30
0.0
  0
LINE
  5
21
100
AcDbEntity
  8
USP-GEO
100
AcDbLine
 10
0.5648649661604371
 20
0.0915457717389057
 30
0.0
 11
0.5648649661604353
 21
0.0
 31
0.0
  0
LINE
  5
22
100
AcDbEntity
  8
USP-GEO
100
AcDbLine
 10
0.5625
 20
0.0915457717389163
 30
0.0
 11
0.5648649661604353
 21
0.0915457717389163
 31
0.0
  0
LINE
  5
23
100
AcDbEntity
  8
USP
100
AcDbLine
 10
0.3199149037599831
 20
0.2640926958737015
 30
0.0
 11
0.3175500975575449
 21
0.2762583542675756
 31
0.0
  0
LINE
  5
24
100
AcDbEntity
  8
USP-GEO
100
AcDbLine
 10
0.1318319143470461
 20
0.4163052981580737
 30
0.0
 11
0.1318319143470461
 21
0.373065414164552
 31
0.0
  0
LINE
  5
25
100
AcDbEntity
  8
USP-GEO
100
AcDbLine
 10
0.0
 20
0.9163052981580737
 30
0.0
 11
0.1318319143470177
 21
0.9163052981580737
 31
0.0
  0
ELLIPSE
  5
26
100
AcDbEntity
  8
USP-GEO
100
AcDbEllipse
 10
0.1276999999999973
 20
0.7539255349484968
 30
0.0
 11
-0.2472999999999971
 21
-0.0000000000000005
 31
0.0
210
0.0
220
0.0
230
1.0
 40
0.8660254037844431
 41
3.279564479530547
 42
4.712388980384673
  0
LINE
  5
27
100
AcDbEntity
  8
USP-GEO
100
AcDbLine
 10
0.0
 20
0.968093617304385
 30
0.0
 11
0.0
 21
0.9163052981580737
 31
0.0
  0
LINE
  5
28
100
AcDbEntity
  8
USP-GEO
100
AcDbLine
 10
0.1277000000000008
 20
0.9680936173043868
 30
0.0
 11
0.0
 21
0.9680936173043868
 31
0.0
  0
ELLIPSE
  5
29
100
AcDbEntity
  8
USP-GEO
100
AcDbEllipse
 10
0.1318319143470177
 20
0.7539255349484897
 30
0.0
 11
0.1875000000000001
 21
0.0000000000000003
 31
0.0
210
0.0
220
0.0
230
1.0
 40
0.8660254037844429
 41
0.1379718259407832
 42
1.570796326794894
  0
LINE
  5
2A
100
AcDbEntity
  8
USP-GEO
100
AcDbLine
 10
1.18244990244246
 20
0.7762583542675685
 30
0.0
 11
1.182449902442462
 21
0.2762583542675774
 31
0.0
  0
ELLIPSE
  5
2B
100
AcDbEntity
  8
USP-GEO
100
AcDbEllipse
 10
0.9375
 20
0.8057138540948045
 30
0.0
 11
0.2473000000000008
 21
0.0000000000000008
 31
0.0
210
0.0
220
0.0
230
1.0
 40
0.8660254037844431
 41
4.712388980384687
 42
6.145213481238811
  0
LINE
  5
2C
100
AcDbEntity
  8
USP-GEO
100
AcDbLine
 10
1.368168085652978
 20
0.9163052981580772
 30
0.0
 11
1.36816808565298
 21
0.4163052981580862
 31
0.0
  0
LINE
  5
2D
100
AcDbEntity
  8
USP-GEO
100
AcDbLine
 10
1.5
 20
0.9163052981580754
 30
0.0
 11
1.500000000000001
 21
0.4163052981580826
 31
0.0
  0
ELLIPSE
  5
2E
100
AcDbEntity
  8
USP-GEO
100
AcDbEllipse
 10
0.9416319143470239
 20
0.8057138540948045
 30
0.0
 11
-0.1874999999999976
 21
-0.0000000000000004
 31
0.0
210
0.0
220
0.0
230
1.0
 40
0.8660254037844429
 41
1.570796326794913
 42
3.003620827649036
  0
SPLINE
  5
2F
100
AcDbEntity
  8
USP-GEO
100
AcDbSpline
210
0.0
220
0.0
230
1.0
 70
     8
 71
     3
 72
    14
 73
    10
 74
     0
 42
0.0000001
 43
0.0000001
 40
0.0
 40
0.0
 40
0.0
 40
0.0
 40
0.0960635266183358
 40
0.0960635266183358
 40
0.1925316652844714
 40
0.1925316652844714
 40
0.2736243575522812
 40
0.2736243575522812
 40
0.3547551772244248
 40
0.3547551772244248
 40
0.3547551772244248
 40
0.3547551772244248
 10
1.180085096240034
 20
0.2127044050503386
 30
0.0
 10
1.175661971134186
 20
0.1809901866739381
 30
0.0
 10
1.165073817947932
 20
0.1504392678723132
 30
0.0
 10
1.132753714133331
 20
0.0949829614765605
 30
0.0
 10
1.111280956896912
 20
0.0706256878498337
 30
0.0
 10
1.064291278367836
 20
0.0346166276048265
 30
0.0
 10
1.040278454641008
 20
0.0217990656361025
 30
0.0
 10
0.9890550895143448
 20
0.0044307761199001
 30
0.0
 10
0.9621854484985732
 20
0.0000000000000036
 30
0.0
 10
0.9351350338395789
 20
0.0000000000000036
 30
0.0
  0
LINE
  5
30
100
AcDbEntity
  8
USP-GEO
100
AcDbLine
 10
0.9375
 20
0.5915457717389092
 30
0.0
 11
0.9375000000000017
 21
0.0915457717389163
 31
0.0
  0
LINE
  5
31
100
AcDbEntity
  8
USP-GEO
100
AcDbLine
 10
0.9351350338395771
 20
0.091545771738911
 30
0.0
 11
0.9351350338395754
 21
0.0000000000000018
 31
0.0
  0
LINE
  5
32
100
AcDbEntity
  8
USP-GEO
100
AcDbLine
 10
0.9351350338395754
 20
0.0915457717389181
 30
0.0
 11
0.9375
 21
0.0915457717389181
 31
0.0
  0
SPLINE
  5
33
100
AcDbEntity
  8
USP-GEO
100
AcDbSpline
210
0.0
220
0.0
230
-1.0
 70
     8
 71
     3
 72
    14
 73
    10
 74
     0
 42
0.0000001
 43
0.0000001
 40
0.0
 40
0.0
 40
0.0
 40
0.0
 40
0.0743041013522571
 40
0.0743041013522571
 40
0.1477491572867224
 40
0.1477491572867224
 40
0.2092766424403138
 40
0.2092766424403138
 40
0.2708674324541431
 40
0.2708674324541431
 40
0.2708674324541431
 40
0.2708674324541431
 10
1.368168085652968
 20
0.3730654141645662
 30
0.0
 10
1.343401936622282
 20
0.3733709623922401
 30
0.0
 10
1.318774964521661
 20
0.3688440493131964
 30
0.0
 10
1.272999479522288
 20
0.3506556765058555
 30
0.0
 10
1.252238746914322
 20
0.3372701016709598
 30
0.0
 10
1.219935505716289
 20
0.3059532356909926
 30
0.0
 10
1.207684447047794
 20
0.2893445201020839
 30
0.0
 10
1.189106318644075
 20
0.252754870656636
 30
0.0
 10
1.182920701566665
 20
0.2330359589643969
 30
0.0
 10
1.180085096240031
 20
0.2127044050503386
 30
0.0
  0
LINE
  5
34
100
AcDbEntity
  8
USP-GEO
100
AcDbLine
 10
1.180085096240034
 20
0.2640926958737797
 30
0.0
 11
1.180085096240034
 21
0.2127044050503368
 31
0.0
  0
LINE
  5
35
100
AcDbEntity
  8
USP-GEO
100
AcDbLine
 10
1.5
 20
0.3730654141645644
 30
0.0
 11
1.368168085652968
 21
0.3730654141645644
 31
0.0
  0
LINE
  5
36
100
AcDbEntity
  8
USP
100
AcDbLine
 10
1.180085096240034
 20
0.2640926958737797
 30
0.0
 11
1.182449902442462
 21
0.2762583542675774
 31
0.0
  0
LINE
  5
37
100
AcDbEntity
  8
USP-GEO
100
AcDbLine
 10
1.368168085652968
 20
0.4163052981580862
 30
0.0
 11
1.368168085652968
 21
0.3730654141645662
 31
0.0
  0
LINE
  5
38
100
AcDbEntity
  8
USP-GEO
100
AcDbLine
 10
1.5
 20
0.4163052981580862
 30
0.0
 11
1.5
 21
0.3730654141645644
 31
0.0
  0
ELLIPSE
  5
39
100
AcDbEntity
  8
USP-GEO
100
AcDbEllipse
 10
1.372299999999999
 20
0.7539255349484951
 30
0.0
 11
-0.2472999999999997
 21
-0.0000000000000006
 31
0.0
210
0.0
220
0.0
230
1.0
 40
0.8660254037844433
 41
4.712388980384687
 42
6.145213481238802
  0
LINE
  5
3A
100
AcDbEntity
  8
USP-GEO
100
AcDbLine
 10
1.368168085652978
 20
0.9163052981580772
 30
0.0
 11
1.5
 21
0.9163052981580772
 31
0.0
  0
LINE
  5
3B
100
AcDbEntity
  8
USP-GEO
100
AcDbLine
 10
1.5
 20
0.9680936173043868
 30
0.0
 11
1.372299999999999
 21
0.9680936173043868
 31
0.0
  0
ELLIPSE
  5
3C
100
AcDbEntity
  8
USP-GEO
100
AcDbEllipse
 10
1.368168085652978
 20
0.7539255349484933
 30
0.0
 11
0.1875000000000012
 21
0.0000000000000003
 31
0.0
210
0.0
220
0.0
230
1.0
 40
0.8660254037844429
 41
1.570796326794895
 42
3.003620827649016
  0
LINE
  5
3D
100
AcDbEntity
  8
USP-GEO
100
AcDbLine
 10
1.5
 20
0.9163052981580754
 30
0.0
 11
1.5
 21
0.9680936173043885
 31
0.0
  0
LINE
  5
3E
100
AcDbEntity
  8
USP-GEO
100
AcDbLine
 10
1.499999999999989
 20
4.357180913830444
 30
0.0
 11
-0.0000000000000107
 21
4.357180913830441
 31
0.0
  0
LINE
  5
3F
100
AcDbEntity
  8
USP-GEO
100
AcDbLine
 10
-0.0000000000000142
 20
4.32056926147876
 30
0.0
 11
1.499999999999992
 21
4.320569261478763
 31
0.0
  0
ELLIPSE
  5
40
100
AcDbEntity
  8
USP-GEO
100
AcDbEllipse
 10
0.7499999999999929
 20
3.826850827940528
 30
0.0
 11
-0.6181680856529772
 21
-0.0000000000000017
 31
0.0
210
0.0
220
0.0
230
1.0
 40
0.7071067811865541
 41
4.715731050393687
 42
6.283185307179586
  0
SPLINE
  5
41
100
AcDbEntity
  8
USP-GEO
100
AcDbSpline
210
0.0
220
0.0
230
-1.0
 70
     8
 71
     3
 72
    20
 73
    16
 74
     0
 42
0.0000001
 43
0.0000001
 40
-0.9121578717445885
 40
-0.9121578717445885
 40
-0.9121578717445885
 40
-0.9121578717445885
 40
-0.8069276293432778
 40
-0.8069276293432778
 40
-0.7016973869419672
 40
-0.7016973869419672
 40
-0.5781141171849141
 40
-0.5781141171849141
 40
-0.4545308474278605
 40
-0.4545308474278605
 40
-0.3171747989062785
 40
-0.3171747989062785
 40
-0.1585477034844236
 40
-0.1585477034844236
 40
-0.0000345192192561
 40
-0.0000345192192561
 40
-0.0000345192192561
 40
-0.0000345192192561
 10
0.7479340428263442
 20
4.263959232081205
 30
0.0
 10
0.7128574912527342
 20
4.263876338853052
 30
0.0
 10
0.6745170465708484
 20
4.261534888449073
 30
0.0
 10
0.5992131365987419
 20
4.251621150803519
 30
0.0
 10
0.5622496713070717
 20
4.244048866694733
 30
0.0
 10
0.4909965781478008
 20
4.224807741874887
 30
0.0
 10
0.4505833207389287
 20
4.210572540191581
 30
0.0
 10
0.3753808871191069
 20
4.175986779619552
 30
0.0
 10
0.3405917108915091
 20
4.155636234037295
 30
0.0
 10
0.2792764151841212
 20
4.112009888157118
 30
0.0
 10
0.2454138790264011
 20
4.081413638434355
 30
0.0
 10
0.194198151346086
 20
4.021782354453797
 30
0.0
 10
0.1689455638040016
 20
3.980620325778374
 30
0.0
 10
0.1404596940716498
 20
3.908632439602127
 30
0.0
 10
0.1318356701667351
 20
3.864215815760739
 30
0.0
 10
0.1318319155734802
 20
3.826850827940455
 30
0.0
  0
ELLIPSE
  5
42
100
AcDbEntity
  8
USP-GEO
100
AcDbEllipse
 10
0.7458680856529654
 20
3.676033635851549
 30
0.0
 11
0.3732181832105184
 21
0.000000000000001
 31
0.0
210
0.0
220
0.0
230
1.0
 40
0.7071067811865542
 41
0.0000000000000029
 42
3.141592653589771
  0
ELLIPSE
  5
43
100
AcDbEntity
  8
USP-GEO
100
AcDbEllipse
 10
0.745868085652969
 20
3.561685784995571
 30
0.0
 11
0.1875
 21
0.0000000000000005
 31
0.0
210
0.0
220
0.0
230
1.0
 40
0.7071067811865542
 41
0.0000000000000297
 42
3.141592653589755
  0
LINE
  5
44
100
AcDbEntity
  8
USP-HID
100
AcDbLine
 10
1.499999999999989
 20
4.279075087654605
 30
0.0
 11
-0.0000000000000107
 21
4.279075087654602
 31
0.0
  0
LINE
  5
47
100
AcDbEntity
  8
USP-GEO
100
AcDbLine
 10
0.1318319143470141
 20
3.826850827940525
 30
0.0
 11
0.1276999999999901
 21
3.826850827940525
 31
0.0
  0
ELLIPSE
  5
48
100
AcDbEntity
  8
USP-GEO
100
AcDbEllipse
 10
0.1276999999999866
 20
3.651983320953096
 30
0.0
 11
0.2472999999999976
 21
0.0000000000000007
 31
0.0
210
0.0
220
0.0
230
1.0
 40
0.707106781186541
 41
1.55408744440139
 42
1.57079632679488
  0
ELLIPSE
  5
49
100
AcDbEntity
  8
USP-GEO
100
AcDbEllipse
 10
0.1276999999999937
 20
3.651983320953092
 30
0.0
 11
0.2472999999999993
 21
0.0000000000000007
 31
0.0
210
0.0
220
0.0
230
1.0
 40
0.707106781186541
 41
0.1379718259407823
 42
1.554087444401426
  0
ELLIPSE
  5
4A
100
AcDbEntity
  8
USP-GEO
100
AcDbEllipse
 10
0.558368085652969
 20
3.69426830646805
 30
0.0
 11
0.1875000000000002
 21
0.0000000000000005
 31
0.0
210
0.0
220
0.0
230
1.0
 40
0.7071067811865408
 41
3.279564479530569
 42
4.712388980384687
  0
LINE
  5
4B
100
AcDbEntity
  8
USP-GEO
100
AcDbLine
 10
0.1318319143470141
 20
3.826850827940525
 30
0.0
 11
0.1318319143470141
 21
3.826826418162887
 31
0.0
  0
LINE
  5
4C
100
AcDbEntity
  8
USP-GEO
100
AcDbLine
 10
-0.0000000000000142
 20
4.35718091383044
 30
0.0
 11
-0.0000000000000142
 21
4.320569261478757
 31
0.0
  0
ELLIPSE
  5
4D
100
AcDbEntity
  8
USP-GEO
100
AcDbEllipse
 10
0.745868085652969
 20
3.826850827940528
 30
0.0
 11
0.6181680856529761
 21
0.0000000000000016
 31
0.0
210
0.0
220
0.0
230
1.0
 40
0.7071067811865543
 41
-0.0000000000000058
 42
1.567454256786337
  0
ELLIPSE
  5
4E
100
AcDbEntity
  8
USP-GEO
100
AcDbEllipse
 10
1.372299999999988
 20
3.651983320953096
 30
0.0
 11
0.2472999999999998
 21
0.0000000000000007
 31
0.0
210
0.0
220
0.0
230
1.0
 40
0.7071067811865412
 41
1.570796326794894
 42
3.003620827649033
  0
ELLIPSE
  5
4F
100
AcDbEntity
  8
USP-GEO
100
AcDbEllipse
 10
1.364036171305944
 20
3.651983320953096
 30
0.0
 11
0.2472999999999993
 21
0.0000000000000008
 31
0.0
210
0.0
220
0.0
230
1.0
 40
0.7071067811865408
 41
1.570796326794908
 42
3.003620827649012
  0
ELLIPSE
  5
50
100
AcDbEntity
  8
USP-GEO
100
AcDbEllipse
 10
0.9416319143470133
 20
3.694268306468053
 30
0.0
 11
0.1874999999999977
 21
0.0000000000000006
 31
0.0
210
0.0
220
0.0
230
1.0
 40
0.707106781186541
 41
4.712388980384706
 42
6.145213481238799
  0
ELLIPSE
  5
51
100
AcDbEntity
  8
USP-GEO
100
AcDbEllipse
 10
0.9333680856529653
 20
3.69426830646805
 30
0.0
 11
0.1875000000000003
 21
0.0000000000000006
 31
0.0
210
0.0
220
0.0
230
1.0
 40
0.7071067811865408
 41
4.712388980384687
 42
6.145213481238828
  0
LINE
  5
52
100
AcDbEntity
  8
USP-GEO
100
AcDbLine
 10
0.9333680856529653
 20
3.561685784995574
 30
0.0
 11
0.9416319143470168
 21
3.561685784995574
 31
0.0
  0
LINE
  5
53
100
AcDbEntity
  8
USP-GEO
100
AcDbLine
 10
1.36403617130594
 20
3.826850827940525
 30
0.0
 11
1.372299999999988
 21
3.826850827940525
 31
0.0
  0
LINE
  5
54
100
AcDbEntity
  8
USP-GEO
100
AcDbLine
 10
1.499999999999992
 20
4.320569261478762
 30
0.0
 11
1.499999999999992
 21
4.357180913830443
 31
0.0
  0
ENDBLK
  5
57
100
AcDbEntity
  8
0
100
AcDbBlockEnd
  0
BLOCK
  5
B5
100
AcDbEntity
  8
0
100
AcDbBlockBegin
  2
FA3_T
 70
     0
 10
0.0
 20
0.0
 30
0.0
  3
FA3_T
  1

  0
TEXT
  5
5A
100
AcDbEntity
  8
USP-TXT
100
AcDbText
 10
-1.906599371156328
 20
-1.912299111179327
 30
0.0
 40
0.375
  1
FA3 - TOP VIEW
 72
     1
 11
0.7184006288436713
 21
-1.912299111179327
 31
0.0
100
AcDbText
  0
LINE
  5
5B
100
AcDbEntity
  8
USP-GEO
100
AcDbLine
 10
-0.0000000000000142
 20
8.71178939560704
 30
0.0
 11
-0.0000000000000142
 21
5.64928939560704
 31
0.0
  0
LINE
  5
5C
100
AcDbEntity
  8
USP-GEO
100
AcDbLine
 10
1.499999999999989
 20
5.649289395607042
 30
0.0
 11
1.499999999999989
 21
8.711789395607041
 31
0.0
  0
LINE
  5
5D
100
AcDbEntity
  8
USP-GEO
100
AcDbLine
 10
0.0
 20
1.260202099081064
 30
0.0
 11
-0.0000000000000107
 21
5.112677743255358
 31
0.0
  0
LINE
  5
5E
100
AcDbEntity
  8
USP-GEO
100
AcDbLine
 10
0.1277000000000008
 20
1.260202099081062
 30
0.0
 11
0.1276999999999919
 21
4.618959309717131
 31
0.0
  0
LINE
  5
5F
100
AcDbEntity
  8
USP-GEO
100
AcDbLine
 10
1.372299999999995
 20
1.260202099081062
 30
0.0
 11
1.372299999999986
 21
4.618959309717133
 31
0.0
  0
LINE
  5
60
100
AcDbEntity
  8
USP-GEO
100
AcDbLine
 10
1.499999999999989
 20
5.112677743255357
 30
0.0
 11
1.5
 21
1.260202099081064
 31
0.0
  0
LINE
  5
61
100
AcDbEntity
  8
USP-GEO
100
AcDbLine
 10
1.127350097557542
 20
1.411019291170042
 30
0.0
 11
1.127350097557533
 21
4.743146482779259
 31
0.0
  0
LINE
  5
62
100
AcDbEntity
  8
USP-GEO
100
AcDbLine
 10
0.9416319143470275
 20
1.52536714202602
 30
0.0
 11
0.9416319143470186
 21
4.883995519577887
 31
0.0
  0
LINE
  5
63
100
AcDbEntity
  8
USP-GEO
100
AcDbLine
 10
0.3726499024424541
 20
1.411019291170044
 30
0.0
 11
0.3726499024424452
 21
4.769776501806114
 31
0.0
  0
LINE
  5
64
100
AcDbEntity
  8
USP-GEO
100
AcDbLine
 10
0.5583680856529725
 20
1.525367142026018
 30
0.0
 11
0.5583680856529636
 21
4.88412435266209
 31
0.0
  0
LINE
  5
65
100
AcDbEntity
  8
USP-GEO
100
AcDbLine
 10
0.0
 20
0.217399999999996
 30
0.0
 11
0.0000000000000018
 21
1.083425403784439
 31
0.0
  0
LINE
  5
66
100
AcDbEntity
  8
USP-GEO
100
AcDbLine
 10
1.5
 20
0.217399999999996
 30
0.0
 11
1.500000000000001
 21
1.083425403784438
 31
0.0
  0
LINE
  5
67
100
AcDbEntity
  8
USP-GEO
100
AcDbLine
 10
1.372299999999999
 20
0.2173999999999943
 30
0.0
 11
1.3723
 21
1.083425403784439
 31
0.0
  0
LINE
  5
68
100
AcDbEntity
  8
USP-GEO
100
AcDbLine
 10
1.127350097557538
 20
0.1107561407543702
 30
0.0
 11
1.12735009755754
 21
0.9767815445388114
 31
0.0
  0
LINE
  5
69
100
AcDbEntity
  8
USP-GEO
100
AcDbLine
 10
0.9416319143470275
 20
0.0298999999999978
 30
0.0
 11
0.9416319143470293
 21
0.8959254037844422
 31
0.0
  0
LINE
  5
6A
100
AcDbEntity
  8
USP-GEO
100
AcDbLine
 10
0.5583680856529725
 20
0.0298999999999978
 30
0.0
 11
0.5583680856529743
 21
0.8959254037844422
 31
0.0
  0
LINE
  5
6B
100
AcDbEntity
  8
USP-GEO
100
AcDbLine
 10
0.3726499024424541
 20
0.1107561407543667
 30
0.0
 11
0.3726499024424559
 21
0.9767815445388103
 31
0.0
  0
LINE
  5
6C
100
AcDbEntity
  8
USP-GEO
100
AcDbLine
 10
0.1277000000000008
 20
0.2173999999999978
 30
0.0
 11
0.1277000000000026
 21
1.083425403784438
 31
0.0
  0
LINE
  5
6D
100
AcDbEntity
  8
USP-GEO
100
AcDbLine
 10
0.5625
 20
0.0
 30
0.0
 11
0.9375
 21
0.0
 31
0.0
  0
LINE
  5
6E
100
AcDbEntity
  8
USP-GEO
100
AcDbLine
 10
0.9416319143470275
 20
0.0298999999999978
 30
0.0
 11
0.5583680856529725
 21
0.0298999999999978
 31
0.0
  0
LINE
  5
6F
100
AcDbEntity
  8
USP-GEO
100
AcDbLine
 10
0.0
 20
0.1874999999999947
 30
0.0
 11
0.1318319143470177
 21
0.1874999999999947
 31
0.0
  0
ELLIPSE
  5
70
100
AcDbEntity
  8
USP-GEO
100
AcDbEllipse
 10
0.1276999999999973
 20
0.0937500000000018
 30
0.0
 11
-0.2472999999999971
 21
0.0000000000000003
 31
0.0
210
0.0
220
0.0
230
1.0
 40
0.499999999999992
 41
3.279564479530545
 42
4.712388980384675
  0
LINE
  5
71
100
AcDbEntity
  8
USP-GEO
100
AcDbLine
 10
0.0
 20
0.217399999999996
 30
0.0
 11
0.0
 21
0.1874999999999953
 31
0.0
  0
LINE
  5
72
100
AcDbEntity
  8
USP-GEO
100
AcDbLine
 10
0.1277000000000008
 20
0.2173999999999978
 30
0.0
 11
0.0
 21
0.2173999999999978
 31
0.0
  0
ELLIPSE
  5
73
100
AcDbEntity
  8
USP-GEO
100
AcDbEllipse
 10
0.1318319143470177
 20
0.0937499999999982
 30
0.0
 11
0.1875000000000001
 21
-0.0000000000000002
 31
0.0
210
0.0
220
0.0
230
1.0
 40
0.4999999999999922
 41
0.1379718259407903
 42
1.570796326794897
  0
ELLIPSE
  5
74
100
AcDbEntity
  8
USP-GEO
100
AcDbEllipse
 10
0.5625
 20
0.1236499999999978
 30
0.0
 11
0.2473000000000007
 21
-0.0000000000000003
 31
0.0
210
0.0
220
0.0
230
1.0
 40
0.499999999999992
 41
3.279564479530558
 42
4.71238898038469
  0
ELLIPSE
  5
75
100
AcDbEntity
  8
USP-GEO
100
AcDbEllipse
 10
0.558368085652969
 20
0.1236499999999978
 30
0.0
 11
-0.1875000000000003
 21
0.0000000000000003
 31
0.0
210
0.0
220
0.0
230
1.0
 40
0.499999999999992
 41
0.1379718259407732
 42
1.570796326794916
  0
ELLIPSE
  5
76
100
AcDbEntity
  8
USP-GEO
100
AcDbEllipse
 10
0.9375
 20
0.1236500000000014
 30
0.0
 11
0.2473000000000008
 21
-0.0000000000000003
 31
0.0
210
0.0
220
0.0
230
1.0
 40
0.499999999999992
 41
4.71238898038469
 42
6.145213481238811
  0
ELLIPSE
  5
77
100
AcDbEntity
  8
USP-GEO
100
AcDbEllipse
 10
1.372299999999999
 20
0.09375
 30
0.0
 11
-0.2472999999999998
 21
0.0000000000000003
 31
0.0
210
0.0
220
0.0
230
1.0
 40
0.499999999999992
 41
4.712388980384689
 42
6.145213481238807
  0
ELLIPSE
  5
78
100
AcDbEntity
  8
USP-GEO
100
AcDbEllipse
 10
0.9416319143470239
 20
0.1236499999999978
 30
0.0
 11
-0.1874999999999977
 21
0.0000000000000002
 31
0.0
210
0.0
220
0.0
230
1.0
 40
0.4999999999999919
 41
1.570796326794916
 42
3.003620827649031
  0
ELLIPSE
  5
79
100
AcDbEntity
  8
USP-GEO
100
AcDbEllipse
 10
1.368168085652978
 20
0.0937499999999982
 30
0.0
 11
0.1875000000000012
 21
-0.0000000000000002
 31
0.0
210
0.0
220
0.0
230
1.0
 40
0.499999999999992
 41
1.570796326794897
 42
3.003620827649007
  0
LINE
  5
7A
100
AcDbEntity
  8
USP-GEO
100
AcDbLine
 10
1.368168085652978
 20
0.1874999999999964
 30
0.0
 11
1.5
 21
0.1874999999999966
 31
0.0
  0
LINE
  5
7B
100
AcDbEntity
  8
USP-GEO
100
AcDbLine
 10
1.5
 20
0.217399999999996
 30
0.0
 11
1.372299999999999
 21
0.217399999999996
 31
0.0
  0
LINE
  5
7C
100
AcDbEntity
  8
USP-GEO
100
AcDbLine
 10
1.5
 20
0.1874999999999929
 30
0.0
 11
1.5
 21
0.217399999999994
 31
0.0
  0
LINE
  5
7D
100
AcDbEntity
  8
USP-GEO
100
AcDbLine
 10
0.558368206931279
 20
0.8978325066496489
 30
0.0
 11
0.5583682069312772
 21
1.525008162789605
 31
0.0
  0
LINE
  5
7E
100
AcDbEntity
  8
USP-GEO
100
AcDbLine
 10
0.1277000000000008
 20
1.083425403784426
 30
0.0
 11
0.1277000000000008
 21
1.260202099081062
 31
0.0
  0
LINE
  5
7F
100
AcDbEntity
  8
USP-GEO
100
AcDbLine
 10
0.0000000000000107
 20
1.083425403784431
 30
0.0
 11
0.0000000000000107
 21
1.26020209908107
 31
0.0
  0
LINE
  5
80
100
AcDbEntity
  8
USP-GEO
100
AcDbLine
 10
0.3726499024424541
 20
0.97868908412307
 30
0.0
 11
0.3726499024424541
 21
1.411019291170044
 31
0.0
  0
LINE
  5
81
100
AcDbEntity
  8
USP-GEO
100
AcDbLine
 10
0.941631793068721
 20
0.8978325066496504
 30
0.0
 11
0.9416317930687192
 21
1.525008162789601
 31
0.0
  0
LINE
  5
82
100
AcDbEntity
  8
USP-GEO
100
AcDbLine
 10
1.127350097557542
 20
0.9786890841230759
 30
0.0
 11
1.127350097557542
 21
1.411019291170042
 31
0.0
  0
LINE
  5
83
100
AcDbEntity
  8
USP-GEO
100
AcDbLine
 10
1.372299999999995
 20
1.083425403784438
 30
0.0
 11
1.372299999999995
 21
1.260202099081062
 31
0.0
  0
LINE
  5
84
100
AcDbEntity
  8
USP-GEO
100
AcDbLine
 10
1.5
 20
1.083425403784438
 30
0.0
 11
1.5
 21
1.260202099081063
 31
0.0
  0
SPLINE
  5
85
100
AcDbEntity
  8
USP-GEO
100
AcDbSpline
210
0.0
220
0.0
230
-1.0
 70
     8
 71
     3
 72
    24
 73
    20
 74
     0
 42
0.0000001
 43
0.0000001
 40
0.4853439119221698
 40
0.4853439119221698
 40
0.4853439119221698
 40
0.4853439119221698
 40
0.6032495710565144
 40
0.6032495710565144
 40
0.7118544123545141
 40
0.7118544123545141
 40
0.8283894040789807
 40
0.8283894040789807
 40
0.9483907109246164
 40
0.9483907109246164
 40
1.067575833554823
 40
1.067575833554823
 40
1.182556546644227
 40
1.182556546644227
 40
1.290889452218962
 40
1.290889452218962
 40
1.383574750265271
 40
1.383574750265271
 40
1.472087717536149
 40
1.472087717536149
 40
1.472087717536149
 40
1.472087717536149
 10
0.3762578344969114
 20
4.806430574835678
 30
0.0
 10
0.3783712231384122
 20
4.817498126114312
 30
0.0
 10
0.3834752455578947
 20
4.832145123578455
 30
0.0
 10
0.414117524631152
 20
4.871538015877922
 30
0.0
 10
0.4359170198492742
 20
4.891157074564522
 30
0.0
 10
0.4908995377491472
 20
4.926856941400106
 30
0.0
 10
0.5261818675838299
 20
4.943675632068487
 30
0.0
 10
0.6080727171833687
 20
4.969852268500834
 30
0.0
 10
0.6540144068223502
 20
4.978682510469925
 30
0.0
 10
0.7486769060606538
 20
4.985421373185093
 30
0.0
 10
0.7966242410699245
 20
4.983358530905177
 30
0.0
 10
0.8866412580170912
 20
4.969078670476577
 30
0.0
 10
0.9281336840430967
 20
4.957327212884056
 30
0.0
 10
0.9988918589920228
 20
4.927847362907093
 30
0.0
 10
1.027894272215227
 20
4.91084620225521
 30
0.0
 10
1.070111293959469
 20
4.878240318663492
 30
0.0
 10
1.086921020323588
 20
4.861113748199423
 30
0.0
 10
1.109187006050794
 20
4.828508466739807
 30
0.0
 10
1.113554166321806
 20
4.816441577657955
 30
0.0
 10
1.115478935004386
 20
4.80643222979203
 30
0.0
  0
LINE
  5
86
100
AcDbEntity
  8
USP-GEO
100
AcDbLine
 10
1.499999999999989
 20
5.201066090903673
 30
0.0
 11
-0.0000000000000107
 21
5.201066090903673
 31
0.0
  0
LINE
  5
87
100
AcDbEntity
  8
USP-GEO
100
AcDbLine
 10
-0.0000000000000142
 20
5.112677743255358
 30
0.0
 11
1.499999999999992
 21
5.112677743255358
 31
0.0
  0
ELLIPSE
  5
88
100
AcDbEntity
  8
USP-GEO
100
AcDbEllipse
 10
0.7499999999999929
 20
4.618959309717131
 30
0.0
 11
-0.6181680856529772
 21
-0.0000000000000002
 31
0.0
210
0.0
220
0.0
230
1.0
 40
0.7071067811865408
 41
4.715731050393689
 42
6.283185307179586
  0
LINE
  5
89
100
AcDbEntity
  8
USP-GEO
100
AcDbLine
 10
0.1318319143470141
 20
4.618959309717133
 30
0.0
 11
0.1276999999999901
 21
4.618959309717133
 31
0.0
  0
ELLIPSE
  5
8A
100
AcDbEntity
  8
USP-GEO
100
AcDbEllipse
 10
0.558368085652969
 20
4.751541831189611
 30
0.0
 11
0.1875000000000002
 21
0.0000000000000005
 31
0.0
210
0.0
220
0.0
230
1.0
 40
0.7071067811865542
 41
1.570796326794894
 42
3.003620827649015
  0
ELLIPSE
  5
8B
100
AcDbEntity
  8
USP-GEO
100
AcDbEllipse
 10
0.1276999999999937
 20
4.793826816704565
 30
0.0
 11
0.2472999999999992
 21
0.0000000000000006
 31
0.0
210
0.0
220
0.0
230
1.0
 40
0.7071067811865546
 41
4.729097862778155
 42
6.145213481238799
  0
ELLIPSE
  5
8C
100
AcDbEntity
  8
USP-GEO
100
AcDbEllipse
 10
0.7458680856529654
 20
4.76977650180611
 30
0.0
 11
0.3732181832105184
 21
0.0000000000000001
 31
0.0
210
0.0
220
0.0
230
1.0
 40
0.7071067811865409
 41
3.002288511185093
 42
3.141592653589773
  0
ELLIPSE
  5
8D
100
AcDbEntity
  8
USP-GEO
100
AcDbEllipse
 10
0.745868085652969
 20
4.884124352662086
 30
0.0
 11
0.1875
 21
0.0
 31
0.0
210
0.0
220
0.0
230
1.0
 40
0.7071067811865408
 41
2.480348310420938
 42
3.141592653589748
  0
ARC
  5
8E
100
AcDbEntity
  8
USP-GEO
100
AcDbCircle
 10
-0.0000000000000142
 20
5.524289395607039
 30
0.0
 40
0.1250000000000002
100
AcDbArc
 50
0.0
 51
90.0
  0
ARC
  5
8F
100
AcDbEntity
  8
USP-GEO
100
AcDbCircle
 10
-0.0000000000000142
 20
5.399289395607039
 30
0.0
 40
0.1250000000000001
100
AcDbArc
 50
270.0
 51
0.0000000000008269
  0
LINE
  5
90
100
AcDbEntity
  8
USP-GEO
100
AcDbLine
 10
0.1249999999999858
 20
5.524289395607039
 30
0.0
 11
0.1249999999999876
 21
5.39928939560704
 31
0.0
  0
LINE
  5
91
100
AcDbEntity
  8
USP-GEO
100
AcDbLine
 10
-0.0000000000000142
 20
5.274289395607042
 30
0.0
 11
-0.0000000000000142
 21
5.201066090903675
 31
0.0
  0
LINE
  5
92
100
AcDbEntity
  8
USP-GEO
100
AcDbLine
 10
-0.0000000000000142
 20
5.201066090903675
 30
0.0
 11
-0.0000000000000142
 21
5.112677743255355
 31
0.0
  0
ELLIPSE
  5
93
100
AcDbEntity
  8
USP-GEO
100
AcDbEllipse
 10
0.745868085652969
 20
4.618959309717133
 30
0.0
 11
0.6181680856529761
 21
0.0000000000000002
 31
0.0
210
0.0
220
0.0
230
1.0
 40
0.7071067811865409
 41
-0.0000000000000064
 42
1.567454256786338
  0
ELLIPSE
  5
94
100
AcDbEntity
  8
USP-GEO
100
AcDbEllipse
 10
1.364036171305944
 20
4.793826816704567
 30
0.0
 11
0.2472999999999993
 21
0.0000000000000007
 31
0.0
210
0.0
220
0.0
230
1.0
 40
0.7071067811865543
 41
3.27956447953057
 42
4.712388980384673
  0
ELLIPSE
  5
95
100
AcDbEntity
  8
USP-GEO
100
AcDbEllipse
 10
0.9333680856529653
 20
4.751541831189611
 30
0.0
 11
0.1875000000000003
 21
0.0000000000000005
 31
0.0
210
0.0
220
0.0
230
1.0
 40
0.7071067811865543
 41
0.1379718259407571
 42
1.570796326794894
  0
ELLIPSE
  5
96
100
AcDbEntity
  8
USP-GEO
100
AcDbEllipse
 10
0.7458680856529654
 20
4.76977650180611
 30
0.0
 11
0.3732181832105184
 21
0.0000000000000001
 31
0.0
210
0.0
220
0.0
230
1.0
 40
0.7071067811865409
 41
0.0000000000000048
 42
0.1393041421247422
  0
ELLIPSE
  5
97
100
AcDbEntity
  8
USP-GEO
100
AcDbEllipse
 10
0.745868085652969
 20
4.884124352662086
 30
0.0
 11
0.1875
 21
0.0
 31
0.0
210
0.0
220
0.0
230
1.0
 40
0.7071067811865408
 41
0.0000000000000231
 42
0.6612443431688521
  0
LINE
  5
98
100
AcDbEntity
  8
USP-GEO
100
AcDbLine
 10
1.36403617130594
 20
4.618959309717133
 30
0.0
 11
1.372299999999988
 21
4.618959309717133
 31
0.0
  0
LINE
  5
99
100
AcDbEntity
  8
USP-GEO
100
AcDbLine
 10
1.374999999999992
 20
5.39928939560704
 30
0.0
 11
1.374999999999994
 21
5.52428939560704
 31
0.0
  0
ARC
  5
9A
100
AcDbEntity
  8
USP-GEO
100
AcDbCircle
 10
1.499999999999992
 20
5.399289395607039
 30
0.0
 40
0.1249999999999997
100
AcDbArc
 50
179.9999999999991
 51
270.0
  0
LINE
  5
9B
100
AcDbEntity
  8
USP-GEO
100
AcDbLine
 10
1.499999999999989
 20
5.201066090903673
 30
0.0
 11
1.499999999999989
 21
5.27428939560704
 31
0.0
  0
LINE
  5
9C
100
AcDbEntity
  8
USP-GEO
100
AcDbLine
 10
1.499999999999992
 20
5.112677743255355
 30
0.0
 11
1.499999999999992
 21
5.201066090903673
 31
0.0
  0
ARC
  5
9D
100
AcDbEntity
  8
USP-GEO
100
AcDbCircle
 10
1.499999999999992
 20
5.524289395607039
 30
0.0
 40
0.1249999999999993
100
AcDbArc
 50
90.00000000000161
 51
179.9999999999991
  0
LINE
  5
9E
100
AcDbEntity
  8
USP-GEO
100
AcDbLine
 10
-0.0000000000000142
 20
9.89928939560704
 30
0.0
 11
-0.0000000000000142
 21
8.77428939560704
 31
0.0
  0
LINE
  5
9F
100
AcDbEntity
  8
USP-GEO
100
AcDbLine
 10
1.499999999999989
 20
8.77428939560704
 30
0.0
 11
1.499999999999989
 21
9.899289395607036
 31
0.0
  0
LINE
  5
A0
100
AcDbEntity
  8
USP-GEO
100
AcDbLine
 10
0.8437499999999857
 20
9.899289395607036
 30
0.0
 11
0.8437499999999857
 21
8.77428939560704
 31
0.0
  0
LINE
  5
A1
100
AcDbEntity
  8
USP-GEO
100
AcDbLine
 10
0.6562499999999894
 20
8.77428939560704
 30
0.0
 11
0.6562499999999894
 21
9.899289395607038
 31
0.0
  0
CIRCLE
  5
A2
100
AcDbEntity
  8
USP-GEO
100
AcDbCircle
 10
1.124999999999982
 20
7.649289395607037
 30
0.0
 40
0.082
  0
LINE
  5
A3
100
AcDbEntity
  8
USP-GEO
100
AcDbLine
 10
0.8437499999999857
 20
8.71178939560704
 30
0.0
 11
0.8437499999999875
 21
6.680539395607039
 31
0.0
  0
LINE
  5
A4
100
AcDbEntity
  8
USP-GEO
100
AcDbLine
 10
0.6562499999999894
 20
6.680539395607037
 30
0.0
 11
0.6562499999999894
 21
8.71178939560704
 31
0.0
  0
CIRCLE
  5
A5
100
AcDbEntity
  8
USP-GEO
100
AcDbCircle
 10
0.3749999999999787
 20
6.024289395607039
 30
0.0
 40
0.082
  0
CIRCLE
  5
A6
100
AcDbEntity
  8
USP-GEO
100
AcDbCircle
 10
0.3749999999999858
 20
7.399289395607039
 30
0.0
 40
0.082
  0
CIRCLE
  5
A7
100
AcDbEntity
  8
USP-GEO
100
AcDbCircle
 10
1.124999999999978
 20
6.274289395607039
 30
0.0
 40
0.082
  0
ARC
  5
A8
100
AcDbEntity
  8
USP-GEO
100
AcDbCircle
 10
0.7499999999999894
 20
6.680539395607039
 30
0.0
 40
0.0937500000000005
100
AcDbArc
 50
180.0000000000011
 51
0.0
  0
LINE
  5
A9
100
AcDbEntity
  8
USP-GEO
100
AcDbLine
 10
0.6562499999999894
 20
8.711789395607041
 30
0.0
 11
-0.0000000000000142
 21
8.711789395607041
 31
0.0
  0
LINE
  5
AA
100
AcDbEntity
  8
USP-GEO
100
AcDbLine
 10
-0.0000000000000142
 20
8.77428939560704
 30
0.0
 11
0.6562499999999858
 21
8.77428939560704
 31
0.0
  0
LINE
  5
AB
100
AcDbEntity
  8
USP-GEO
100
AcDbLine
 10
-0.0000000000000142
 20
8.711789395607041
 30
0.0
 11
-0.0000000000000142
 21
8.77428939560704
 31
0.0
  0
CIRCLE
  5
AC
100
AcDbEntity
  8
USP-GEO
100
AcDbCircle
 10
0.3749999999999858
 20
9.274289395607038
 30
0.0
 40
0.082
  0
LINE
  5
AD
100
AcDbEntity
  8
USP-GEO
100
AcDbLine
 10
1.499999999999992
 20
8.71178939560704
 30
0.0
 11
0.8437499999999893
 21
8.71178939560704
 31
0.0
  0
LINE
  5
AE
100
AcDbEntity
  8
USP-GEO
100
AcDbLine
 10
0.8437499999999857
 20
8.774289395607041
 30
0.0
 11
1.499999999999992
 21
8.774289395607041
 31
0.0
  0
LINE
  5
AF
100
AcDbEntity
  8
USP-GEO
100
AcDbLine
 10
0.6562499999999858
 20
8.77428939560704
 30
0.0
 11
0.6562499999999858
 21
8.711789395607041
 31
0.0
  0
LINE
  5
B0
100
AcDbEntity
  8
USP-GEO
100
AcDbLine
 10
0.8437499999999893
 20
8.71178939560704
 30
0.0
 11
0.8437499999999893
 21
8.774289395607041
 31
0.0
  0
LINE
  5
B1
100
AcDbEntity
  8
USP-GEO
100
AcDbLine
 10
1.499999999999992
 20
8.774289395607041
 30
0.0
 11
1.499999999999992
 21
8.71178939560704
 31
0.0
  0
LINE
  5
B2
100
AcDbEntity
  8
USP-GEO
100
AcDbLine
 10
0.6562499999999858
 20
9.899289395607038
 30
0.0
 11
-0.0000000000000142
 21
9.899289395607038
 31
0.0
  0
LINE
  5
B3
100
AcDbEntity
  8
USP-GEO
100
AcDbLine
 10
1.499999999999992
 20
9.899289395607036
 30
0.0
 11
0.8437499999999857
 21
9.899289395607036
 31
0.0
  0
CIRCLE
  5
B4
100
AcDbEntity
  8
USP-GEO
100
AcDbCircle
 10
1.124999999999985
 20
9.524289395607041
 30
0.0
 40
0.082
  0
ENDBLK
  5
B6
100
AcDbEntity
  8
0
100
AcDbBlockEnd
  0
BLOCK
  5
E6
100
AcDbEntity
  8
0
100
AcDbBlockBegin
  2
FA3_S
 70
     0
 10
0.0
 20
0.0
 30
0.0
  3
FA3_S
  1

  0
TEXT
  5
B9
100
AcDbEntity
  8
USP-TXT
100
AcDbText
 10
3.205070595876833
 20
-1.906516228719146
 30
0.0
 40
0.375
  1
FA3 - SIDE VIEW
 72
     1
 11
5.955070595876833
 21
-1.906516228719146
 31
0.0
100
AcDbText
  0
ARC
  5
BA
100
AcDbEntity
  8
USP-GEO
100
AcDbCircle
 10
5.233859366636956
 20
4.092015870885486
 30
0.0
 40
0.1874999999999993
100
AcDbArc
 50
135.0000000000005
 51
217.0947966818814
  0
LINE
  5
BB
100
AcDbEntity
  8
USP-GEO
100
AcDbLine
 10
1.302487084596023
 20
0.425808631789435
 30
0.0
 11
5.155753540461116
 21
4.279075087654598
 31
0.0
  0
LINE
  5
BC
100
AcDbEntity
  8
USP-GEO
100
AcDbLine
 10
5.112677743255364
 20
4.320569261478757
 30
0.0
 11
1.260202099081066
 21
0.4680936173043904
 31
0.0
  0
LINE
  5
BD
100
AcDbEntity
  8
USP-GEO
100
AcDbLine
 10
4.775592146088072
 20
3.670217991569593
 30
0.0
 11
5.084302109282653
 21
3.978927954764179
 31
0.0
  0
LINE
  5
BE
100
AcDbEntity
  8
USP-GEO
100
AcDbLine
 10
4.926409338177048
 20
3.519400799480616
 30
0.0
 11
5.061913564303587
 21
3.654905025607155
 31
0.0
  0
LINE
  5
BF
100
AcDbEntity
  8
USP-GEO
100
AcDbLine
 10
1.416834935452005
 20
0.3114607809334569
 30
0.0
 11
4.775592146088076
 21
3.67021799156959
 31
0.0
  0
LINE
  5
C0
100
AcDbEntity
  8
USP-GEO
100
AcDbLine
 10
1.567652127540981
 20
0.1606435888444846
 30
0.0
 11
4.926409338177048
 21
3.519400799480617
 31
0.0
  0
ARC
  5
C1
100
AcDbEntity
  8
USP-GEO
100
AcDbCircle
 10
1.171813751432758
 20
0.5564819649527007
 30
0.0
 40
0.5564819649527012
100
AcDbArc
 50
236.6670965347217
 51
315.0000000000004
  0
ARC
  5
C2
100
AcDbEntity
  8
USP-GEO
100
AcDbCircle
 10
1.171813751432754
 20
0.5564819649527007
 30
0.0
 40
0.3437775599023667
100
AcDbArc
 50
234.5999909066108
 51
315.0000000000005
  0
LINE
  5
C3
100
AcDbEntity
  8
USP-GEO
100
AcDbLine
 10
0.1874999999999964
 20
0.9163052981580719
 30
0.0
 11
1.053525403784441
 21
0.4163052981580791
 31
0.0
  0
LINE
  5
C4
100
AcDbEntity
  8
USP-GEO
100
AcDbLine
 10
0.2174000000000014
 20
0.9680936173043832
 30
0.0
 11
1.083425403784445
 21
0.4680936173043904
 31
0.0
  0
LINE
  5
C5
100
AcDbEntity
  8
USP-GEO
100
AcDbLine
 10
0.0
 20
0.5915457717389057
 30
0.0
 11
0.8660254037844481
 21
0.091545771738911
 31
0.0
  0
LINE
  5
C6
100
AcDbEntity
  8
USP-GEO
100
AcDbLine
 10
0.0000000000000053
 20
0.5915457717389075
 30
0.0
 11
0.1066438592456329
 21
0.776258354267565
 31
0.0
  0
LINE
  5
C7
100
AcDbEntity
  8
USP-GEO
100
AcDbLine
 10
0.1066438592456329
 20
0.776258354267565
 30
0.0
 11
0.9726692630300739
 21
0.2762583542675738
 31
0.0
  0
LINE
  5
C8
100
AcDbEntity
  8
USP-GEO
100
AcDbLine
 10
0.1066438592456329
 20
0.7762583542675632
 30
0.0
 11
0.1875000000000035
 21
0.9163052981580737
 31
0.0
  0
LINE
  5
C9
100
AcDbEntity
  8
USP-GEO
100
AcDbLine
 10
0.1874999999999964
 20
0.9163052981580719
 30
0.0
 11
0.2173999999999978
 21
0.968093617304385
 31
0.0
  0
ARC
  5
CA
100
AcDbEntity
  8
USP-GEO
100
AcDbCircle
 10
1.171813751432754
 20
0.5564819649527007
 30
0.0
 40
0.1834165507881383
100
AcDbArc
 50
229.8405898236559
 51
315.0000000000019
  0
SPLINE
  5
CB
100
AcDbEntity
  8
USP-GEO
100
AcDbSpline
210
0.0
220
0.0
230
1.0
 70
     8
 71
     3
 72
    16
 73
    12
 74
     0
 42
0.0000001
 43
0.0000001
 40
0.0
 40
0.0
 40
0.0
 40
0.0
 40
0.0488250020869882
 40
0.0488250020869882
 40
0.0976500041739766
 40
0.0976500041739766
 40
0.1464750062609624
 40
0.1464750062609624
 40
0.1717005077056018
 40
0.1717005077056018
 40
0.1968334206644759
 40
0.1968334206644759
 40
0.1968334206644759
 40
0.1968334206644759
 10
1.083432767439958
 20
0.4681063715298706
 30
0.0
 10
1.094940579824264
 20
0.456597857213442
 30
0.0
 10
1.108586240007237
 20
0.4474471022208544
 30
0.0
 10
1.138617109382114
 20
0.43489124800203
 30
0.0
 10
1.154715207094707
 20
0.4316061895855956
 30
0.0
 10
1.187264501272327
 20
0.4313916223142283
 30
0.0
 10
1.203404508744281
 20
0.4344641648393566
 30
0.0
 10
1.226301234722168
 20
0.4436845319610505
 30
0.0
 10
1.233764231872253
 20
0.4476045811761083
 30
0.0
 10
1.247763831637325
 20
0.4568666349380113
 30
0.0
 10
1.254268266153445
 20
0.462179902176807
 30
0.0
 10
1.260192040181671
 20
0.4681036762037998
 30
0.0
  0
SPLINE
  5
CC
100
AcDbEntity
  8
USP-GEO
100
AcDbSpline
210
-0.7071067811865476
220
-0.7071067811865476
230
0.0
 70
    24
 71
     3
 72
     8
 73
     4
 74
     0
 42
0.0000001
 43
0.0000001
 40
0.0
 40
0.0
 40
0.0
 40
0.0
 40
0.0026993605513812
 40
0.0026993605513812
 40
0.0026993605513812
 40
0.0026993605513812
 10
1.26020209908107
 20
0.4680936173043886
 30
0.0
 10
1.260195392279968
 20
0.4681003241054907
 30
0.0
 10
1.260192040188066
 20
0.4681036761973925
 30
0.0
 10
1.260192040572011
 20
0.4681036758134472
 30
0.0
  0
ARC
  5
CD
100
AcDbEntity
  8
USP-GEO
100
AcDbCircle
 10
1.171813751432754
 20
0.5564819649527007
 30
0.0
 40
0.1249999999999894
100
AcDbArc
 50
225.0000000000006
 51
315.0000000000011
  0
LINE
  5
CE
100
AcDbEntity
  8
USP-GEO
100
AcDbLine
 10
1.083425403784445
 20
0.4680936173043886
 30
0.0
 11
1.083432767439958
 21
0.4681063715298706
 31
0.0
  0
LINE
  5
CF
100
AcDbEntity
  8
USP-GEO
100
AcDbLine
 10
1.302487084596023
 20
0.4258086317894368
 30
0.0
 11
1.301508838276895
 21
0.4267868781085636
 31
0.0
  0
LINE
  5
D0
100
AcDbEntity
  8
USP-GEO
100
AcDbLine
 10
8.774289395607045
 20
4.357180913830476
 30
0.0
 11
9.899289395607038
 21
4.357180913830487
 31
0.0
  0
LINE
  5
D1
100
AcDbEntity
  8
USP-GEO
100
AcDbLine
 10
5.649289395607045
 20
4.297380913830445
 30
0.0
 11
9.899289395607038
 21
4.297380913830484
 31
0.0
  0
LINE
  5
D2
100
AcDbEntity
  8
USP-GEO
100
AcDbLine
 10
5.649289395607048
 20
4.357180913830447
 30
0.0
 11
8.711789395607045
 21
4.357180913830475
 31
0.0
  0
ARC
  5
D3
100
AcDbEntity
  8
USP-GEO
100
AcDbCircle
 10
4.887046057316151
 20
3.829772532594589
 30
0.0
 40
0.2473000000000002
100
AcDbArc
 50
315.0000000000007
 51
37.09479668188007
  0
LINE
  5
D4
100
AcDbEntity
  8
USP-GEO
100
AcDbLine
 10
5.524289395607045
 20
4.357180913830442
 30
0.0
 11
5.649289395607045
 21
4.357180913830444
 31
0.0
  0
LINE
  5
D5
100
AcDbEntity
  8
USP-GEO
100
AcDbLine
 10
5.524289395607045
 20
4.29738091383044
 30
0.0
 11
5.649289395607045
 21
4.297380913830441
 31
0.0
  0
LINE
  5
D6
100
AcDbEntity
  8
USP-GEO
100
AcDbLine
 10
5.274289395607045
 20
4.357180913830439
 30
0.0
 11
5.399289395607045
 21
4.357180913830439
 31
0.0
  0
LINE
  5
D7
100
AcDbEntity
  8
USP-GEO
100
AcDbLine
 10
5.274289395607045
 20
4.29738091383044
 30
0.0
 11
5.399289395607045
 21
4.29738091383044
 31
0.0
  0
LINE
  5
D8
100
AcDbEntity
  8
USP-GEO
100
AcDbLine
 10
5.20106609090368
 20
4.357180913830437
 30
0.0
 11
5.274289395607045
 21
4.357180913830437
 31
0.0
  0
ARC
  5
D9
100
AcDbEntity
  8
USP-GEO
100
AcDbCircle
 10
5.199947714285272
 20
4.234880913830441
 30
0.0
 40
0.0625
100
AcDbArc
 50
90.0
 51
134.9999999999999
  0
ARC
  5
DA
100
AcDbEntity
  8
USP-GEO
100
AcDbCircle
 10
5.20106609090368
 20
4.23218091383044
 30
0.0
 40
0.125
100
AcDbArc
 50
90.0
 51
134.9999999999999
  0
LINE
  5
DB
100
AcDbEntity
  8
USP-GEO
100
AcDbLine
 10
5.199947714285272
 20
4.297380913830441
 30
0.0
 11
5.274289395607045
 21
4.297380913830441
 31
0.0
  0
LINE
  5
DC
100
AcDbEntity
  8
USP-GEO
100
AcDbLine
 10
5.274289395607045
 20
4.357180913830443
 30
0.0
 11
5.274289395607045
 21
4.297380913830441
 31
0.0
  0
LINE
  5
DD
100
AcDbEntity
  8
USP-GEO
100
AcDbLine
 10
5.399289395607045
 20
4.357180913830443
 30
0.0
 11
5.524289395607045
 21
4.357180913830444
 31
0.0
  0
LINE
  5
DE
100
AcDbEntity
  8
USP-GEO
100
AcDbLine
 10
5.399289395607045
 20
4.297380913830444
 30
0.0
 11
5.524289395607045
 21
4.297380913830445
 31
0.0
  0
LINE
  5
DF
100
AcDbEntity
  8
USP-GEO
100
AcDbLine
 10
5.399289395607045
 20
4.357180913830443
 30
0.0
 11
5.399289395607045
 21
4.297380913830444
 31
0.0
  0
LINE
  5
E0
100
AcDbEntity
  8
USP-GEO
100
AcDbLine
 10
5.524289395607045
 20
4.357180913830443
 30
0.0
 11
5.524289395607045
 21
4.297380913830441
 31
0.0
  0
LINE
  5
E1
100
AcDbEntity
  8
USP-GEO
100
AcDbLine
 10
5.649289395607048
 20
4.357180913830447
 30
0.0
 11
5.649289395607048
 21
4.297380913830444
 31
0.0
  0
LINE
  5
E2
100
AcDbEntity
  8
USP-GEO
100
AcDbLine
 10
8.711789395607045
 20
4.337180913830472
 30
0.0
 11
8.711789395607045
 21
4.357180913830475
 31
0.0
  0
LINE
  5
E3
100
AcDbEntity
  8
USP-GEO
100
AcDbLine
 10
8.774289395607045
 20
4.357180913830475
 30
0.0
 11
8.774289395607045
 21
4.337180913830476
 31
0.0
  0
LINE
  5
E4
100
AcDbEntity
  8
USP-GEO
100
AcDbLine
 10
8.774289395607045
 20
4.337180913830474
 30
0.0
 11
8.711789395607045
 21
4.337180913830472
 31
0.0
  0
LINE
  5
E5
100
AcDbEntity
  8
USP-GEO
100
AcDbLine
 10
9.899289395607038
 20
4.357180913830486
 30
0.0
 11
9.899289395607038
 21
4.297380913830487
 31
0.0
  0
ENDBLK
  5
E7
100
AcDbEntity
  8
0
100
AcDbBlockEnd
  0
ENDSEC
  0
SECTION
  2
ENTITIES
  0
INSERT
  5
3
100
AcDbEntity
  8
USP
100
AcDbBlockReference
  2
FA3_F
 10
2.282729956052673
 20
1.907153506894756
 30
0.0
  0
INSERT
  5
58
100
AcDbEntity
  8
USP
100
AcDbBlockReference
  2
FA3_T
 10
2.282729956052662
 20
10.97705483827523
 30
0.0
  0
INSERT
  5
B7
100
AcDbEntity
  8
USP
100
AcDbBlockReference
  2
FA3_S
 10
8.464202195513795
 20
1.907153506894756
 30
0.0
  0
VIEWPORT
  5
ED
102
{ACAD_XDICTIONARY
360
EE
102
}
100
AcDbEntity
 67
     1
  8
0
100
AcDbViewport
 10
5.285416850893516
 20
3.968749891115924
 30
0.0
 40
13.50573247017707
 41
8.992999745766947
 68
    -1
 69
     1
1001
ACAD
1000
MVIEW
1002
{
1070
    16
1010
0.0
1020
0.0
1030
0.0
1010
0.0
1020
0.0
1030
0.0
1040
0.0
1040
-1.0
1040
0.0
1040
0.0
1040
0.0
1040
0.0
1040
0.0
1070
     0
1070
   100
1070
     1
1070
     0
1070
     0
1070
     0
1070
     0
1070
     0
1040
0.0
1040
0.0
1040
0.0
1040
0.0
1040
0.0
1040
0.0
1040
0.0
1070
     0
1002
{
1002
}
1002
}
  0
ENDSEC
  0
SECTION
  2
OBJECTS
  0
DICTIONARY
  5
104
102
{ACAD_XDICTIONARY
360
105
102
}
100
AcDbDictionary
  3
ACAD_GROUP
350
102
  3
ACAD_MLINESTYLE
350
103
  0
DICTIONARY
  5
E8
100
AcDbDictionary
280
     1
  3
ACAD_LAYOUTSELFREF
360
E9
  0
DICTIONARY
  5
F2
100
AcDbDictionary
280
     1
  3
ACAD_LAYOUTSELFREF
360
F3
  0
DICTIONARY
  5
EE
100
AcDbDictionary
280
     1
  3
ACAD_XREC_ROUNDTRIP
360
EF
  0
DICTIONARY
  5
105
100
AcDbDictionary
280
     1
  3
ACAD_XREC_ROUNDTRIP
360
106
  0
DICTIONARY
  5
102
102
{ACAD_REACTORS
330
104
102
}
100
AcDbDictionary
  0
DICTIONARY
  5
103
102
{ACAD_REACTORS
330
104
102
}
100
AcDbDictionary
  3
STANDARD
350
107
  0
XRECORD
  5
E9
102
{ACAD_REACTORS
330
E8
102
}
100
AcDbXrecord
340
18
  0
XRECORD
  5
F3
102
{ACAD_REACTORS
330
F2
102
}
100
AcDbXrecord
340
15
  0
XRECORD
  5
EF
102
{ACAD_REACTORS
330
EE
102
}
100
AcDbXrecord
102
UCS
 74
     0
 71
     1
 10
0.0
 20
0.0
 30
0.0
 10
1.0
 20
0.0
 30
0.0
 10
0.0
 20
1.0
 30
0.0
146
0.0
 79
     0
102
VIEW
281
     0
102
NEWVIEWCONTROL
280
     4
  0
XRECORD
  5
106
102
{ACAD_REACTORS
330
105
102
}
100
AcDbXrecord
102
EXTNAMES
  1
ACDBVARIABLEDICTIONARY
  2
AcDbVariableDictionary
  0
MLINESTYLE
  5
107
102
{ACAD_REACTORS
330
103
102
}
100
AcDbMlineStyle
  2
STANDARD
 70
     0
  3

 62
     0
 51
90.0
 52
90.0
 71
     2
 49
0.5
 62
   256
  6
BYLAYER
 49
-0.5
 62
   256
  6
BYLAYER
  0
ENDSEC
  0
EOF
