  0
SECTION
  2
HEADER
  9
$ACADVER
  1
AC1014
  9
$ACADMAINTVER
 70
     9
  9
$DWGCODEPAGE
  3
ANSI_1252
  9
$INSBASE
 10
0.0
 20
0.0
 30
0.0
  9
$EXTMIN
 10
0.0012678777232935
 20
0.0004444595252338
 30
0.0
  9
$EXTMAX
 10
18.54115094266969
 20
23.47794943689652
 30
0.0
  9
$LIMMIN
 10
0.0
 20
0.0
  9
$LIMMAX
 10
12.0
 20
9.0
  9
$ORTHOMODE
 70
     0
  9
$REGENMODE
 70
     1
  9
$FILLMODE
 70
     1
  9
$QTEXTMODE
 70
     0
  9
$MIRRTEXT
 70
     0
  9
$DRAGMODE
 70
     2
  9
$LTSCALE
 40
1.5
  9
$OSMODE
 70
    37
  9
$ATTMODE
 70
     1
  9
$TEXTSIZE
 40
0.25
  9
$TRACEWID
 40
0.05
  9
$TEXTSTYLE
  7
STANDARD
  9
$CLAYER
  8
0
  9
$CELTYPE
  6
BYLAYER
  9
$CECOLOR
 62
   256
  9
$CELTSCALE
 40
1.0
  9
$DELOBJ
 70
     1
  9
$DISPSILH
 70
     1
  9
$DIMSCALE
 40
6.0
  9
$DIMASZ
 40
0.125
  9
$DIMEXO
 40
0.0625
  9
$DIMDLI
 40
0.37890625
  9
$DIMRND
 40
0.0
  9
$DIMDLE
 40
0.0
  9
$DIMEXE
 40
0.09375
  9
$DIMTP
 40
0.0
  9
$DIMTM
 40
0.0
  9
$DIMTXT
 40
0.109375
  9
$DIMCEN
 40
0.0
  9
$DIMTSZ
 40
0.0
  9
$DIMTOL
 70
     0
  9
$DIMLIM
 70
     0
  9
$DIMTIH
 70
     1
  9
$DIMTOH
 70
     1
  9
$DIMSE1
 70
     0
  9
$DIMSE2
 70
     0
  9
$DIMTAD
 70
     0
  9
$DIMZIN
 70
     8
  9
$DIMBLK
  1

  9
$DIMASO
 70
     1
  9
$DIMSHO
 70
     1
  9
$DIMPOST
  1

  9
$DIMAPOST
  1

  9
$DIMALT
 70
     0
  9
$DIMALTD
 70
     2
  9
$DIMALTF
 40
25.4
  9
$DIMLFAC
 40
1.0
  9
$DIMTOFL
 70
     0
  9
$DIMTVP
 40
0.0
  9
$DIMTIX
 70
     0
  9
$DIMSOXD
 70
     0
  9
$DIMSAH
 70
     0
  9
$DIMBLK1
  1

  9
$DIMBLK2
  1

  9
$DIMSTYLE
  2
STANDARD
  9
$DIMCLRD
 70
     0
  9
$DIMCLRE
 70
     0
  9
$DIMCLRT
 70
   256
  9
$DIMTFAC
 40
1.0
  9
$DIMGAP
 40
0.08984375
  9
$DIMJUST
 70
     0
  9
$DIMSD1
 70
     0
  9
$DIMSD2
 70
     0
  9
$DIMTOLJ
 70
     1
  9
$DIMTZIN
 70
     0
  9
$DIMALTZ
 70
     0
  9
$DIMALTTZ
 70
     0
  9
$DIMFIT
 70
     3
  9
$DIMUPT
 70
     1
  9
$DIMUNIT
 70
     7
  9
$DIMDEC
 70
     4
  9
$DIMTDEC
 70
     4
  9
$DIMALTU
 70
     2
  9
$DIMALTTD
 70
     2
  9
$DIMTXSTY
  7
STANDARD
  9
$DIMAUNIT
 70
     0
  9
$LUNITS
 70
     5
  9
$LUPREC
 70
     6
  9
$SKETCHINC
 40
0.1
  9
$FILLETRAD
 40
0.0
  9
$AUNITS
 70
     0
  9
$AUPREC
 70
     1
  9
$MENU
  1
CUSTOM
  9
$ELEVATION
 40
0.0
  9
$PELEVATION
 40
0.0
  9
$THICKNESS
 40
0.0
  9
$LIMCHECK
 70
     0
  9
$BLIPMODE
 70
     0
  9
$CHAMFERA
 40
0.0
  9
$CHAMFERB
 40
0.0
  9
$CHAMFERC
 40
0.0
  9
$CHAMFERD
 40
0.0
  9
$SKPOLY
 70
     0
  9
$TDCREATE
 40
2451263.663231366
  9
$TDUPDATE
 40
2452759.744471932
  9
$TDINDWG
 40
0.1181130903
  9
$TDUSRTIMER
 40
0.1181130903
  9
$USRTIMER
 70
     1
  9
$ANGBASE
 50
0.0
  9
$ANGDIR
 70
     0
  9
$PDMODE
 70
     0
  9
$PDSIZE
 40
0.0
  9
$PLINEWID
 40
0.0
  9
$COORDS
 70
     1
  9
$SPLFRAME
 70
     0
  9
$SPLINETYPE
 70
     6
  9
$SPLINESEGS
 70
     8
  9
$ATTDIA
 70
     0
  9
$ATTREQ
 70
     1
  9
$HANDLING
 70
     1
  9
$HANDSEED
  5
A0
  9
$SURFTAB1
 70
     6
  9
$SURFTAB2
 70
     6
  9
$SURFTYPE
 70
     6
  9
$SURFU
 70
     6
  9
$SURFV
 70
     6
  9
$UCSNAME
  2

  9
$UCSORG
 10
0.0
 20
0.0
 30
0.0
  9
$UCSXDIR
 10
1.0
 20
0.0
 30
0.0
  9
$UCSYDIR
 10
0.0
 20
1.0
 30
0.0
  9
$PUCSNAME
  2

  9
$PUCSORG
 10
0.0
 20
0.0
 30
0.0
  9
$PUCSXDIR
 10
1.0
 20
0.0
 30
0.0
  9
$PUCSYDIR
 10
0.0
 20
1.0
 30
0.0
  9
$USERI1
 70
     0
  9
$USERI2
 70
     0
  9
$USERI3
 70
     0
  9
$USERI4
 70
     0
  9
$USERI5
 70
     0
  9
$USERR1
 40
0.0
  9
$USERR2
 40
0.0
  9
$USERR3
 40
0.0
  9
$USERR4
 40
0.0
  9
$USERR5
 40
0.0
  9
$WORLDVIEW
 70
     1
  9
$SHADEDGE
 70
     3
  9
$SHADEDIF
 70
    70
  9
$TILEMODE
 70
     1
  9
$MAXACTVP
 70
    16
  9
$PINSBASE
 10
0.0
 20
0.0
 30
0.0
  9
$PLIMCHECK
 70
     0
  9
$PEXTMIN
 10
1.000000000000000E+20
 20
1.000000000000000E+20
 30
1.000000000000000E+20
  9
$PEXTMAX
 10
-1.000000000000000E+20
 20
-1.000000000000000E+20
 30
-1.000000000000000E+20
  9
$PLIMMIN
 10
0.0
 20
0.0
  9
$PLIMMAX
 10
12.0
 20
9.0
  9
$UNITMODE
 70
     0
  9
$VISRETAIN
 70
     0
  9
$PLINEGEN
 70
     0
  9
$PSLTSCALE
 70
     0
  9
$TREEDEPTH
 70
  3020
  9
$PICKSTYLE
 70
     1
  9
$CMLSTYLE
  2
STANDARD
  9
$CMLJUST
 70
     0
  9
$CMLSCALE
 40
1.0
  9
$PROXYGRAPHICS
 70
     1
  9
$MEASUREMENT
 70
     0
  0
ENDSEC
  0
SECTION
  2
CLASSES
  0
CLASS
  1
ACDBDICTIONARYWDFLT
  2
AcDbDictionaryWithDefault
  3
AutoCAD 2000
 90
        0
280
     0
281
     0
  0
CLASS
  1
ACDBPLACEHOLDER
  2
AcDbPlaceHolder
  3
AutoCAD 2000
 90
        0
280
     0
281
     0
  0
CLASS
  1
LAYOUT
  2
AcDbLayout
  3
AutoCAD 2000
 90
        0
280
     0
281
     0
  0
CLASS
  1
DICTIONARYVAR
  2
AcDbDictionaryVar
  3
"AutoCAD"
 90
        0
280
     0
281
     0
  0
CLASS
  1
LONG_TRANSACTION
  2
AcDbLongTransaction
  3
AutoCAD 2000
 90
        0
280
     0
281
     0
  0
CLASS
  1
LWPOLYLINE
  2
AcDbPolyline
  3
"AutoCAD"
 90
        0
280
     0
281
     1
  0
CLASS
  1
HATCH
  2
AcDbHatch
  3
"ACAD_SEDONA"
 90
        0
280
     0
281
     1
  0
CLASS
  1
XRECORD
  2
AcDbXrecord
  3
"<Built In>"
 90
        0
280
     0
281
     0
  0
CLASS
  1
LONG_TRANSACTION
  2
AcDbLongTransaction
  3
AutoCAD 2000
 90
        0
280
     0
281
     0
  0
CLASS
  1
LWPOLYLINE
  2
AcDbPolyline
  3
"AutoCAD"
 90
        0
280
     0
281
     1
  0
CLASS
  1
HATCH
  2
AcDbHatch
  3
"ACAD_SEDONA"
 90
        0
280
     0
281
     1
  0
CLASS
  1
XRECORD
  2
AcDbXrecord
  3
"<Built In>"
 90
        0
280
     0
281
     0
  0
ENDSEC
  0
SECTION
  2
TABLES
  0
TABLE
  2
VPORT
  5
82
100
AcDbSymbolTable
 70
     1
  0
VPORT
  5
9C
100
AcDbSymbolTableRecord
100
AcDbViewportTableRecord
  2
*ACTIVE
 70
     0
 10
0.0
 20
0.0
 11
1.0
 21
1.0
 12
-13.82446495525009
 22
22.29912693059802
 13
0.0
 23
0.0
 14
1.0
 24
1.0
 15
0.0
 25
0.0
 16
0.0
 26
0.0
 36
1.0
 17
23.09603071721725
 27
-10.27010416511325
 37
-10.44050274849355
 40
24.22954647201043
 41
1.457627118644067
 42
50.0
 43
10.55307667737539
 44
10.55307667737539
 50
0.0
 51
0.0
 71
     0
 72
   100
 73
     1
 74
     1
 75
     0
 76
     0
 77
     0
 78
     0
  0
ENDTAB
  0
TABLE
  2
LTYPE
  5
7D
100
AcDbSymbolTable
 70
     2
  0
LTYPE
  5
7E
100
AcDbSymbolTableRecord
100
AcDbLinetypeTableRecord
  2
BYBLOCK
 70
     0
  3

 72
    65
 73
     0
 40
0.0
  0
LTYPE
  5
7F
100
AcDbSymbolTableRecord
100
AcDbLinetypeTableRecord
  2
BYLAYER
 70
     0
  3

 72
    65
 73
     0
 40
0.0
  0
LTYPE
  5
5
100
AcDbSymbolTableRecord
100
AcDbLinetypeTableRecord
  2
CONTINUOUS
 70
     0
  3
Solid line
 72
    65
 73
     0
 40
0.0
  0
LTYPE
  5
9
100
AcDbSymbolTableRecord
100
AcDbLinetypeTableRecord
  2
HIDDEN
 70
     0
  3
Hidden __ __ __ __ __ __ __ __ __ __ __ __ __ _
 72
    65
 73
     2
 40
0.375
 49
0.25
 74
     0
 49
-0.125
 74
     0
  0
ENDTAB
  0
TABLE
  2
LAYER
  5
7B
100
AcDbSymbolTable
 70
     5
  0
LAYER
  5
2A
100
AcDbSymbolTableRecord
100
AcDbLayerTableRecord
  2
0
 70
     0
 62
     7
  6
CONTINUOUS
  0
LAYER
  5
B
100
AcDbSymbolTableRecord
100
AcDbLayerTableRecord
  2
USP-GEO
 70
     0
 62
     7
  6
CONTINUOUS
  0
LAYER
  5
27
100
AcDbSymbolTableRecord
100
AcDbLayerTableRecord
  2
USP-TXT
 70
     0
 62
     7
  6
CONTINUOUS
  0
LAYER
  5
8
100
AcDbSymbolTableRecord
100
AcDbLayerTableRecord
  2
USP-HID
 70
     0
 62
     7
  6
HIDDEN
  0
LAYER
  5
4
100
AcDbSymbolTableRecord
100
AcDbLayerTableRecord
  2
USP
 70
     0
 62
     7
  6
CONTINUOUS
  0
ENDTAB
  0
TABLE
  2
STYLE
  5
7C
100
AcDbSymbolTable
 70
     1
  0
STYLE
  5
28
100
AcDbSymbolTableRecord
100
AcDbTextStyleTableRecord
  2
STANDARD
 70
     0
 40
0.0
 41
1.0
 50
0.0
 71
     0
 42
0.25
  3
txt
  4

  0
ENDTAB
  0
TABLE
  2
VIEW
  5
80
100
AcDbSymbolTable
 70
     0
  0
ENDTAB
  0
TABLE
  2
UCS
  5
81
100
AcDbSymbolTable
 70
     0
  0
ENDTAB
  0
TABLE
  2
APPID
  5
84
100
AcDbSymbolTable
 70
     1
  0
APPID
  5
85
100
AcDbSymbolTableRecord
100
AcDbRegAppTableRecord
  2
ACAD
 70
     0
  0
ENDTAB
  0
TABLE
  2
DIMSTYLE
  5
86
100
AcDbSymbolTable
 70
     1
  0
DIMSTYLE
105
8E
100
AcDbSymbolTableRecord
100
AcDbDimStyleTableRecord
  2
STANDARD
 70
     0
  3

  4

  5

  6

  7

 40
1.0
 41
0.18
 42
0.0625
 43
0.38
 44
0.18
 45
0.0
 46
0.0
 47
0.0
 48
0.0
140
0.18
141
0.09
142
0.0
143
25.4
144
1.0
145
0.0
146
1.0
147
0.09
 71
     0
 72
     0
 73
     1
 74
     1
 75
     0
 76
     0
 77
     0
 78
     0
170
     0
171
     2
172
     0
173
     0
174
     0
175
     0
176
     0
177
     0
178
     0
270
     2
271
     4
272
     4
273
     2
274
     2
340
28
275
     0
280
     0
281
     0
282
     0
283
     1
284
     0
285
     0
286
     0
287
     3
288
     0
  0
ENDTAB
  0
TABLE
  2
BLOCK_RECORD
  5
1
100
AcDbSymbolTable
 70
     3
  0
BLOCK_RECORD
  5
2
102
{ACAD_XDICTIONARY
360
72
102
}
100
AcDbSymbolTableRecord
100
AcDbBlockTableRecord
  2
*MODEL_SPACE
  0
BLOCK_RECORD
  5
76
102
{ACAD_XDICTIONARY
360
77
102
}
100
AcDbSymbolTableRecord
100
AcDbBlockTableRecord
  2
*PAPER_SPACE
  0
BLOCK_RECORD
  5
6
100
AcDbSymbolTableRecord
100
AcDbBlockTableRecord
  2
EPCM46_F
  0
BLOCK_RECORD
  5
2D
100
AcDbSymbolTableRecord
100
AcDbBlockTableRecord
  2
EPCM46_T
  0
BLOCK_RECORD
  5
56
100
AcDbSymbolTableRecord
100
AcDbBlockTableRecord
  2
EPCM46_S
  0
ENDTAB
  0
ENDSEC
  0
SECTION
  2
BLOCKS
  0
BLOCK
  5
74
100
AcDbEntity
  8
0
100
AcDbBlockBegin
  2
*MODEL_SPACE
 70
     0
 10
0.0
 20
0.0
 30
0.0
  3
*MODEL_SPACE
  1

  0
ENDBLK
  5
75
100
AcDbEntity
  8
0
100
AcDbBlockEnd
  0
BLOCK
  5
79
100
AcDbEntity
 67
     1
  8
0
100
AcDbBlockBegin
  2
*PAPER_SPACE
 70
     0
 10
0.0
 20
0.0
 30
0.0
  3
*PAPER_SPACE
  1

  0
ENDBLK
  5
7A
100
AcDbEntity
 67
     1
  8
0
100
AcDbBlockEnd
  0
BLOCK
  5
29
100
AcDbEntity
  8
0
100
AcDbBlockBegin
  2
EPCM46_F
 70
     0
 10
0.0
 20
0.0
 30
0.0
  3
EPCM46_F
  1

  0
LINE
  5
7
100
AcDbEntity
  8
USP-HID
100
AcDbLine
 10
3.062999999999995
 20
3.718749999999969
 30
0.0
 11
0.6255000000000006
 21
3.718750000000003
 31
0.0
  0
CIRCLE
  5
A
100
AcDbEntity
  8
USP-GEO
100
AcDbCircle
 10
1.844249999999959
 20
1.500000000000042
 30
0.0
 40
0.2655
  0
LINE
  5
C
100
AcDbEntity
  8
USP-GEO
100
AcDbLine
 10
3.062999999999997
 20
3.78174999999997
 30
0.0
 11
0.6254999999999953
 21
3.781750000000004
 31
0.0
  0
LINE
  5
D
100
AcDbEntity
  8
USP-GEO
100
AcDbLine
 10
0.8754999999999455
 20
0.0
 30
0.0
 11
2.812999999999952
 21
0.0000000000000018
 31
0.0
  0
CIRCLE
  5
E
100
AcDbEntity
  8
USP-GEO
100
AcDbCircle
 10
1.125499999999986
 20
2.375000000000024
 30
0.0
 40
0.086
  0
LINE
  5
F
100
AcDbEntity
  8
USP-GEO
100
AcDbLine
 10
0.6254999999999953
 20
3.781750000000002
 30
0.0
 11
0.6254999999999474
 21
0.2500000000000035
 31
0.0
  0
CIRCLE
  5
10
100
AcDbEntity
  8
USP-GEO
100
AcDbCircle
 10
1.250499999999956
 20
0.3750000000000249
 30
0.0
 40
0.086
  0
LINE
  5
11
100
AcDbEntity
  8
USP-GEO
100
AcDbLine
 10
0.6254999999999491
 20
0.2500000000000035
 30
0.0
 11
0.8754999999999455
 21
0.0
 31
0.0
  0
LINE
  5
12
100
AcDbEntity
  8
USP-GEO
100
AcDbLine
 10
0.0000000000000018
 20
3.718750000000017
 30
0.0
 11
0.0000000000000515
 21
7.31300000000002
 31
0.0
  0
LINE
  5
13
100
AcDbEntity
  8
USP-GEO
100
AcDbLine
 10
0.0630000000000521
 20
7.313000000000016
 30
0.0
 11
0.0630000000000024
 21
3.781750000000009
 31
0.0
  0
LINE
  5
14
100
AcDbEntity
  8
USP-GEO
100
AcDbLine
 10
0.4380000000000024
 20
3.718750000000003
 30
0.0
 11
0.0
 21
3.71875000000001
 31
0.0
  0
LINE
  5
15
100
AcDbEntity
  8
USP-GEO
100
AcDbLine
 10
0.0630000000000042
 20
3.781750000000013
 30
0.0
 11
0.4380000000000024
 21
3.781750000000007
 31
0.0
  0
LINE
  5
16
100
AcDbEntity
  8
USP-GEO
100
AcDbLine
 10
0.4379999999999989
 20
3.718750000000005
 30
0.0
 11
0.6254999999999918
 21
3.718750000000001
 31
0.0
  0
LINE
  5
17
100
AcDbEntity
  8
USP-GEO
100
AcDbLine
 10
0.6254999999999918
 20
3.781750000000007
 30
0.0
 11
0.4379999999999989
 21
3.781750000000011
 31
0.0
  0
LINE
  5
18
100
AcDbEntity
  8
USP-GEO
100
AcDbLine
 10
0.4380000000000042
 20
3.781750000000009
 30
0.0
 11
0.4380000000000042
 21
3.718750000000014
 31
0.0
  0
LINE
  5
19
100
AcDbEntity
  8
USP-GEO
100
AcDbLine
 10
0.0000000000000533
 20
7.313000000000016
 30
0.0
 11
0.0630000000000504
 21
7.313000000000016
 31
0.0
  0
LINE
  5
1A
100
AcDbEntity
  8
USP-GEO
100
AcDbLine
 10
3.062999999999997
 20
3.78174999999997
 30
0.0
 11
3.062999999999949
 21
0.2499999999999964
 31
0.0
  0
CIRCLE
  5
1B
100
AcDbEntity
  8
USP-GEO
100
AcDbCircle
 10
2.562999999999931
 20
0.5000000000000036
 30
0.0
 40
0.086
  0
LINE
  5
1C
100
AcDbEntity
  8
USP-GEO
100
AcDbLine
 10
2.812999999999952
 20
0.0000000000000036
 30
0.0
 11
3.062999999999954
 21
0.2499999999999982
 31
0.0
  0
LINE
  5
1D
100
AcDbEntity
  8
USP-GEO
100
AcDbLine
 10
3.625500000000002
 20
3.781749999999966
 30
0.0
 11
3.62550000000005
 21
7.312999999999959
 31
0.0
  0
LINE
  5
1E
100
AcDbEntity
  8
USP-GEO
100
AcDbLine
 10
3.688500000000043
 20
7.312999999999959
 30
0.0
 11
3.688499999999995
 21
3.718749999999971
 31
0.0
  0
LINE
  5
1F
100
AcDbEntity
  8
USP-GEO
100
AcDbLine
 10
3.250499999999988
 20
3.781749999999968
 30
0.0
 11
3.625500000000004
 21
3.781749999999963
 31
0.0
  0
LINE
  5
20
100
AcDbEntity
  8
USP-GEO
100
AcDbLine
 10
3.688499999999994
 20
3.718749999999964
 30
0.0
 11
3.250499999999984
 21
3.718749999999969
 31
0.0
  0
CIRCLE
  5
21
100
AcDbEntity
  8
USP-GEO
100
AcDbCircle
 10
2.687999999999959
 20
2.5
 30
0.0
 40
0.086
  0
LINE
  5
22
100
AcDbEntity
  8
USP-GEO
100
AcDbLine
 10
3.062999999999989
 20
3.718749999999973
 30
0.0
 11
3.250499999999982
 21
3.718749999999969
 31
0.0
  0
LINE
  5
23
100
AcDbEntity
  8
USP-GEO
100
AcDbLine
 10
3.250499999999984
 20
3.781749999999968
 30
0.0
 11
3.062999999999991
 21
3.781749999999972
 31
0.0
  0
LINE
  5
24
100
AcDbEntity
  8
USP-GEO
100
AcDbLine
 10
3.250499999999984
 20
3.718749999999978
 30
0.0
 11
3.250499999999984
 21
3.78174999999997
 31
0.0
  0
LINE
  5
25
100
AcDbEntity
  8
USP-GEO
100
AcDbLine
 10
3.625500000000053
 20
7.312999999999959
 30
0.0
 11
3.688500000000054
 21
7.312999999999959
 31
0.0
  0
TEXT
  5
26
100
AcDbEntity
  8
USP-TXT
100
AcDbText
 10
-1.726776105350815
 20
-1.880518168439825
 30
0.0
 40
0.375
  1
EPCM46 - FRONT VIEW
 72
     1
 11
1.835723894649184
 21
-1.880518168439825
 31
0.0
100
AcDbText
  0
ENDBLK
  5
2B
100
AcDbEntity
  8
0
100
AcDbBlockEnd
  0
BLOCK
  5
53
100
AcDbEntity
  8
0
100
AcDbBlockBegin
  2
EPCM46_T
 70
     0
 10
0.0
 20
0.0
 30
0.0
  3
EPCM46_T
  1

  0
LINE
  5
2E
100
AcDbEntity
  8
USP-HID
100
AcDbLine
 10
0.6254999999999456
 20
5.625499999999943
 30
0.0
 11
3.062999999999938
 21
5.625499999999943
 31
0.0
  0
LINE
  5
2F
100
AcDbEntity
  8
USP-HID
100
AcDbLine
 10
3.062999999999941
 20
0.0629999999999438
 30
0.0
 11
0.6254999999999474
 21
0.0629999999999438
 31
0.0
  0
LINE
  5
30
100
AcDbEntity
  8
USP-GEO
100
AcDbLine
 10
3.062999999999947
 20
5.688499999999995
 30
0.0
 11
0.6254999999999456
 21
5.688499999999939
 31
0.0
  0
LINE
  5
31
100
AcDbEntity
  8
USP-GEO
100
AcDbLine
 10
3.062999999999943
 20
-0.0000000000000586
 30
0.0
 11
0.625499999999942
 21
0.0
 31
0.0
  0
LINE
  5
32
100
AcDbEntity
  8
USP-GEO
100
AcDbLine
 10
0.0000000000000036
 20
9.094249999999886
 30
0.0
 11
0.0
 21
0.0629999999998834
 31
0.0
  0
LINE
  5
33
100
AcDbEntity
  8
USP-GEO
100
AcDbLine
 10
0.0629999999999988
 20
9.094249999999886
 30
0.0
 11
0.0629999999999953
 21
0.0629999999998869
 31
0.0
  0
LINE
  5
34
100
AcDbEntity
  8
USP-GEO
100
AcDbLine
 10
0.0629999999999509
 20
0.062999999999942
 30
0.0
 11
0.4379999999999491
 21
0.062999999999942
 31
0.0
  0
LINE
  5
35
100
AcDbEntity
  8
USP-GEO
100
AcDbLine
 10
0.0
 20
0.0629999999998852
 30
0.0
 11
0.0629999999999971
 21
0.0629999999998852
 31
0.0
  0
ARC
  5
36
100
AcDbEntity
  8
USP-GEO
100
AcDbCircle
 10
0.531749999999942
 20
0.1409999999999751
 30
0.0
 40
0.0937499999999965
100
AcDbArc
 50
359.9999999999988
 51
180.0
  0
LINE
  5
37
100
AcDbEntity
  8
USP-GEO
100
AcDbLine
 10
0.4379999999999509
 20
0.1409999999999751
 30
0.0
 11
0.4379999999999509
 21
0.0629999999999438
 31
0.0
  0
LINE
  5
38
100
AcDbEntity
  8
USP-GEO
100
AcDbLine
 10
0.625499999999942
 20
0.1409999999999734
 30
0.0
 11
0.6254999999999403
 21
0.0
 31
0.0
  0
LINE
  5
39
100
AcDbEntity
  8
USP-GEO
100
AcDbLine
 10
0.4379999999999527
 20
5.547499999999969
 30
0.0
 11
0.4379999999999758
 21
9.094250000000057
 31
0.0
  0
ARC
  5
3A
100
AcDbEntity
  8
USP-GEO
100
AcDbCircle
 10
0.5317499999999545
 20
5.547499999999969
 30
0.0
 40
0.0937499999999965
100
AcDbArc
 50
180.0
 51
359.9999999999985
  0
LINE
  5
3B
100
AcDbEntity
  8
USP-GEO
100
AcDbLine
 10
0.6254999999999456
 20
5.547499999999965
 30
0.0
 11
0.6254999999999474
 21
5.688499999999946
 31
0.0
  0
LINE
  5
3C
100
AcDbEntity
  8
USP-GEO
100
AcDbLine
 10
0.0629999999999527
 20
9.344250000000053
 30
0.0
 11
0.1879999999999757
 21
9.344250000000057
 31
0.0
  0
LINE
  5
3D
100
AcDbEntity
  8
USP-GEO
100
AcDbLine
 10
0.0629999999999988
 20
9.344249999999894
 30
0.0
 11
-0.0000000000000018
 21
9.344249999999894
 31
0.0
  0
LINE
  5
3E
100
AcDbEntity
  8
USP-GEO
100
AcDbLine
 10
0.0629999999999988
 20
9.094249999999886
 30
0.0
 11
0.0000000000000036
 21
9.094249999999886
 31
0.0
  0
LINE
  5
3F
100
AcDbEntity
  8
USP-GEO
100
AcDbLine
 10
0.0629999999999988
 20
9.094249999999886
 30
0.0
 11
0.0629999999999953
 21
9.34424999999989
 31
0.0
  0
LINE
  5
40
100
AcDbEntity
  8
USP-GEO
100
AcDbLine
 10
0.0
 20
9.34424999999989
 30
0.0
 11
0.0000000000000036
 21
9.094249999999886
 31
0.0
  0
LINE
  5
41
100
AcDbEntity
  8
USP-GEO
100
AcDbLine
 10
0.4379999999999758
 20
9.094250000000057
 30
0.0
 11
0.1879999999999757
 21
9.344250000000057
 31
0.0
  0
LINE
  5
42
100
AcDbEntity
  8
USP-GEO
100
AcDbLine
 10
3.688499999999999
 20
0.062999999999894
 30
0.0
 11
3.688500000000002
 21
9.094249999999936
 31
0.0
  0
LINE
  5
43
100
AcDbEntity
  8
USP-GEO
100
AcDbLine
 10
3.625500000000002
 20
9.094249999999936
 30
0.0
 11
3.625499999999998
 21
0.0629999999998958
 31
0.0
  0
LINE
  5
44
100
AcDbEntity
  8
USP-GEO
100
AcDbLine
 10
3.250499999999934
 20
0.0629999999999491
 30
0.0
 11
3.62549999999995
 21
0.0629999999999509
 31
0.0
  0
ARC
  5
45
100
AcDbEntity
  8
USP-GEO
100
AcDbCircle
 10
3.156749999999934
 20
0.1410000000000871
 30
0.0
 40
0.0937499999999965
100
AcDbArc
 50
0.0000000000011196
 51
180.0
  0
LINE
  5
46
100
AcDbEntity
  8
USP-GEO
100
AcDbLine
 10
3.062999999999941
 20
0.1410000000000871
 30
0.0
 11
3.062999999999941
 21
-0.0000000000000586
 31
0.0
  0
LINE
  5
47
100
AcDbEntity
  8
USP-GEO
100
AcDbLine
 10
3.250499999999934
 20
0.1410000000000888
 30
0.0
 11
3.250499999999934
 21
0.0629999999999509
 31
0.0
  0
LINE
  5
48
100
AcDbEntity
  8
USP-GEO
100
AcDbLine
 10
3.6255
 20
0.0629999999998905
 30
0.0
 11
3.688500000000001
 21
0.0629999999998905
 31
0.0
  0
LINE
  5
49
100
AcDbEntity
  8
USP-GEO
100
AcDbLine
 10
3.250499999999936
 20
5.547499999999851
 30
0.0
 11
3.250499999999952
 21
9.094249999999972
 31
0.0
  0
ARC
  5
4A
100
AcDbEntity
  8
USP-GEO
100
AcDbCircle
 10
3.156749999999945
 20
5.547499999999851
 30
0.0
 40
0.0937499999999965
100
AcDbArc
 50
180.0
 51
0.0000000000008142
  0
LINE
  5
4B
100
AcDbEntity
  8
USP-GEO
100
AcDbLine
 10
3.062999999999945
 20
5.547499999999851
 30
0.0
 11
3.062999999999949
 21
5.688499999999995
 31
0.0
  0
LINE
  5
4C
100
AcDbEntity
  8
USP-GEO
100
AcDbLine
 10
3.250499999999954
 20
9.094249999999972
 30
0.0
 11
3.500499999999954
 21
9.344249999999972
 31
0.0
  0
LINE
  5
4D
100
AcDbEntity
  8
USP-GEO
100
AcDbLine
 10
3.500499999999954
 20
9.344249999999972
 30
0.0
 11
3.62549999999995
 21
9.344249999999975
 31
0.0
  0
LINE
  5
4E
100
AcDbEntity
  8
USP-GEO
100
AcDbLine
 10
3.688500000000002
 20
9.09424999999994
 30
0.0
 11
3.688499999999999
 21
9.344249999999943
 31
0.0
  0
LINE
  5
4F
100
AcDbEntity
  8
USP-GEO
100
AcDbLine
 10
3.625499999999998
 20
9.344249999999943
 30
0.0
 11
3.625500000000002
 21
9.09424999999994
 31
0.0
  0
LINE
  5
50
100
AcDbEntity
  8
USP-GEO
100
AcDbLine
 10
3.625499999999998
 20
9.344249999999943
 30
0.0
 11
3.688499999999999
 21
9.344249999999943
 31
0.0
  0
LINE
  5
51
100
AcDbEntity
  8
USP-GEO
100
AcDbLine
 10
3.625500000000002
 20
9.094249999999936
 30
0.0
 11
3.688500000000002
 21
9.094249999999936
 31
0.0
  0
TEXT
  5
52
100
AcDbEntity
  8
USP-TXT
100
AcDbText
 10
-1.351776105350868
 20
-2.256777947380902
 30
0.0
 40
0.375
  1
EPCM46 - TOP VIEW
 72
     1
 11
1.835723894649131
 21
-2.256777947380902
 31
0.0
100
AcDbText
  0
ENDBLK
  5
54
100
AcDbEntity
  8
0
100
AcDbBlockEnd
  0
BLOCK
  5
70
100
AcDbEntity
  8
0
100
AcDbBlockBegin
  2
EPCM46_S
 70
     0
 10
0.0
 20
0.0
 30
0.0
  3
EPCM46_S
  1

  0
LINE
  5
57
100
AcDbEntity
  8
USP-HID
100
AcDbLine
 10
0.0629999999999491
 20
3.781749999999961
 30
0.0
 11
9.344249999999963
 21
3.78175000000011
 31
0.0
  0
LINE
  5
58
100
AcDbEntity
  8
USP-GEO
100
AcDbLine
 10
0.0629999999999456
 20
3.718749999999957
 30
0.0
 11
9.34424999999997
 21
3.718750000000106
 31
0.0
  0
LINE
  5
59
100
AcDbEntity
  8
USP-GEO
100
AcDbLine
 10
0.0629999999998923
 20
7.312999999999954
 30
0.0
 11
9.094249999999934
 21
7.31300000000008
 31
0.0
  0
TEXT
  5
5A
100
AcDbEntity
  8
USP-TXT
100
AcDbText
 10
1.268170882682827
 20
-1.880518168439829
 30
0.0
 40
0.375
  1
EPCM46 - SIDE VIEW
 72
     1
 11
4.580670882682827
 21
-1.880518168439829
 31
0.0
100
AcDbText
  0
LINE
  5
5B
100
AcDbEntity
  8
USP-GEO
100
AcDbLine
 10
-0.0000000000000604
 20
3.781749999999966
 30
0.0
 11
-0.0000000000000036
 21
0.2499999999999929
 31
0.0
  0
LINE
  5
5C
100
AcDbEntity
  8
USP-GEO
100
AcDbLine
 10
0.0629999999999988
 20
0.2499999999999964
 30
0.0
 11
0.062999999999942
 21
3.718749999999968
 31
0.0
  0
LINE
  5
5D
100
AcDbEntity
  8
USP-GEO
100
AcDbLine
 10
0.0
 20
0.0
 30
0.0
 11
-0.0000000000000036
 21
0.2499999999999947
 31
0.0
  0
LINE
  5
5E
100
AcDbEntity
  8
USP-GEO
100
AcDbLine
 10
0.0630000000000024
 20
0.0
 30
0.0
 11
0.0629999999999988
 21
0.2499999999999964
 31
0.0
  0
LINE
  5
5F
100
AcDbEntity
  8
USP-GEO
100
AcDbLine
 10
0.0
 20
0.0
 30
0.0
 11
0.0630000000000024
 21
0.0000000000000018
 31
0.0
  0
LINE
  5
60
100
AcDbEntity
  8
USP-GEO
100
AcDbLine
 10
-0.0000000000000036
 20
0.2499999999999929
 30
0.0
 11
0.0629999999999953
 21
0.2499999999999947
 31
0.0
  0
LINE
  5
61
100
AcDbEntity
  8
USP-GEO
100
AcDbLine
 10
0.0629999999998923
 20
7.312999999999956
 30
0.0
 11
0.0629999999999491
 21
3.718749999999968
 31
0.0
  0
LINE
  5
62
100
AcDbEntity
  8
USP-GEO
100
AcDbLine
 10
0.0629999999999491
 20
3.781749999999968
 30
0.0
 11
-0.0000000000000604
 21
3.781749999999968
 31
0.0
  0
CIRCLE
  5
63
100
AcDbEntity
  8
USP-GEO
100
AcDbCircle
 10
1.094249999999966
 20
5.594249999999952
 30
0.0
 40
0.086
  0
CIRCLE
  5
64
100
AcDbEntity
  8
USP-GEO
100
AcDbCircle
 10
4.594249999999927
 20
6.344250000000052
 30
0.0
 40
0.086
  0
LINE
  5
65
100
AcDbEntity
  8
USP-GEO
100
AcDbLine
 10
5.688499999999994
 20
3.718750000000051
 30
0.0
 11
5.68850000000005
 21
0.2499999999999716
 31
0.0
  0
LINE
  5
66
100
AcDbEntity
  8
USP-GEO
100
AcDbLine
 10
5.625499999999941
 20
3.718750000000056
 30
0.0
 11
5.625499999999998
 21
0.2499999999999716
 31
0.0
  0
LINE
  5
67
100
AcDbEntity
  8
USP-GEO
100
AcDbLine
 10
5.688499999999997
 20
-0.0000000000000249
 30
0.0
 11
5.688499999999994
 21
0.2499999999999733
 31
0.0
  0
LINE
  5
68
100
AcDbEntity
  8
USP-GEO
100
AcDbLine
 10
5.625499999999995
 20
0.2499999999999733
 30
0.0
 11
5.625499999999998
 21
-0.0000000000000249
 31
0.0
  0
LINE
  5
69
100
AcDbEntity
  8
USP-GEO
100
AcDbLine
 10
5.688499999999997
 20
-0.0000000000000249
 30
0.0
 11
5.625499999999998
 21
-0.0000000000000266
 31
0.0
  0
LINE
  5
6A
100
AcDbEntity
  8
USP-GEO
100
AcDbLine
 10
5.688499999999997
 20
0.2499999999999716
 30
0.0
 11
5.625499999999998
 21
0.2499999999999698
 31
0.0
  0
CIRCLE
  5
6B
100
AcDbEntity
  8
USP-GEO
100
AcDbCircle
 10
7.344249999999934
 20
5.844250000000098
 30
0.0
 40
0.2655
  0
CIRCLE
  5
6C
100
AcDbEntity
  8
USP-GEO
100
AcDbCircle
 10
6.094249999999949
 20
4.844250000000076
 30
0.0
 40
0.086
  0
CIRCLE
  5
6D
100
AcDbEntity
  8
USP-GEO
100
AcDbCircle
 10
8.59424999999992
 20
6.594250000000119
 30
0.0
 40
0.086
  0
LINE
  5
6E
100
AcDbEntity
  8
USP-GEO
100
AcDbLine
 10
9.344249999999945
 20
7.063000000000087
 30
0.0
 11
9.34424999999997
 21
3.718750000000106
 31
0.0
  0
LINE
  5
6F
100
AcDbEntity
  8
USP-GEO
100
AcDbLine
 10
9.094249999999938
 20
7.313000000000084
 30
0.0
 11
9.344249999999941
 21
7.063000000000087
 31
0.0
  0
ENDBLK
  5
71
100
AcDbEntity
  8
0
100
AcDbBlockEnd
  0
ENDSEC
  0
SECTION
  2
ENTITIES
  0
INSERT
  5
3
100
AcDbEntity
  8
USP
100
AcDbBlockReference
  2
EPCM46_F
 10
1.728043983074108
 20
1.880962627965061
 30
0.0
  0
INSERT
  5
2C
100
AcDbEntity
  8
USP
100
AcDbBlockReference
  2
EPCM46_T
 10
1.728043983074158
 20
14.13369943689646
 30
0.0
  0
INSERT
  5
55
100
AcDbEntity
  8
USP
100
AcDbBlockReference
  2
EPCM46_S
 10
9.196900942669728
 20
1.880962627965063
 30
0.0
  0
ENDSEC
  0
SECTION
  2
OBJECTS
  0
DICTIONARY
  5
8A
102
{ACAD_XDICTIONARY
360
8B
102
}
100
AcDbDictionary
  3
ACAD_GROUP
350
88
  3
ACAD_MLINESTYLE
350
89
  0
DICTIONARY
  5
72
100
AcDbDictionary
280
     1
  3
ACAD_LAYOUTSELFREF
360
73
  0
DICTIONARY
  5
77
100
AcDbDictionary
280
     1
  3
ACAD_LAYOUTSELFREF
360
78
  0
DICTIONARY
  5
8B
100
AcDbDictionary
280
     1
  3
ACAD_XREC_ROUNDTRIP
360
8C
  0
DICTIONARY
  5
88
102
{ACAD_REACTORS
330
8A
102
}
100
AcDbDictionary
  0
DICTIONARY
  5
89
102
{ACAD_REACTORS
330
8A
102
}
100
AcDbDictionary
  3
STANDARD
350
8D
  0
XRECORD
  5
73
102
{ACAD_REACTORS
330
72
102
}
100
AcDbXrecord
340
18
  0
XRECORD
  5
78
102
{ACAD_REACTORS
330
77
102
}
100
AcDbXrecord
340
15
  0
XRECORD
  5
8C
102
{ACAD_REACTORS
330
8B
102
}
100
AcDbXrecord
102
EXTNAMES
  1
ACDBVARIABLEDICTIONARY
  2
AcDbVariableDictionary
  0
MLINESTYLE
  5
8D
102
{ACAD_REACTORS
330
89
102
}
100
AcDbMlineStyle
  2
STANDARD
 70
     0
  3

 62
     0
 51
90.0
 52
90.0
 71
     2
 49
0.5
 62
   256
  6
BYLAYER
 49
-0.5
 62
   256
  6
BYLAYER
  0
ENDSEC
  0
EOF
