  0
SECTION
  2
HEADER
  9
$ACADVER
  1
AC1014
  9
$ACADMAINTVER
 70
     9
  9
$DWGCODEPAGE
  3
ANSI_1252
  9
$INSBASE
 10
0.0
 20
0.0
 30
0.0
  9
$EXTMIN
 10
0.0000570704781566
 20
0.0007025456018894
 30
0.0
  9
$EXTMAX
 10
11.65925022151647
 20
14.04283842521563
 30
0.0
  9
$LIMMIN
 10
0.0
 20
0.0
  9
$LIMMAX
 10
12.0
 20
9.0
  9
$ORTHOMODE
 70
     0
  9
$REGENMODE
 70
     1
  9
$FILLMODE
 70
     1
  9
$QTEXTMODE
 70
     0
  9
$MIRRTEXT
 70
     0
  9
$DRAGMODE
 70
     2
  9
$LTSCALE
 40
1.5
  9
$OSMODE
 70
    37
  9
$ATTMODE
 70
     1
  9
$TEXTSIZE
 40
0.375
  9
$TRACEWID
 40
0.05
  9
$TEXTSTYLE
  7
STANDARD
  9
$CLAYER
  8
0
  9
$CELTYPE
  6
BYLAYER
  9
$CECOLOR
 62
   256
  9
$CELTSCALE
 40
1.0
  9
$DELOBJ
 70
     1
  9
$DISPSILH
 70
     1
  9
$DIMSCALE
 40
6.0
  9
$DIMASZ
 40
0.125
  9
$DIMEXO
 40
0.0625
  9
$DIMDLI
 40
0.37890625
  9
$DIMRND
 40
0.0
  9
$DIMDLE
 40
0.0
  9
$DIMEXE
 40
0.09375
  9
$DIMTP
 40
0.0
  9
$DIMTM
 40
0.0
  9
$DIMTXT
 40
0.109375
  9
$DIMCEN
 40
0.0
  9
$DIMTSZ
 40
0.0
  9
$DIMTOL
 70
     0
  9
$DIMLIM
 70
     0
  9
$DIMTIH
 70
     1
  9
$DIMTOH
 70
     1
  9
$DIMSE1
 70
     0
  9
$DIMSE2
 70
     0
  9
$DIMTAD
 70
     0
  9
$DIMZIN
 70
     8
  9
$DIMBLK
  1

  9
$DIMASO
 70
     1
  9
$DIMSHO
 70
     1
  9
$DIMPOST
  1

  9
$DIMAPOST
  1

  9
$DIMALT
 70
     0
  9
$DIMALTD
 70
     2
  9
$DIMALTF
 40
25.4
  9
$DIMLFAC
 40
1.0
  9
$DIMTOFL
 70
     0
  9
$DIMTVP
 40
0.0
  9
$DIMTIX
 70
     0
  9
$DIMSOXD
 70
     0
  9
$DIMSAH
 70
     0
  9
$DIMBLK1
  1

  9
$DIMBLK2
  1

  9
$DIMSTYLE
  2
STANDARD
  9
$DIMCLRD
 70
     0
  9
$DIMCLRE
 70
     0
  9
$DIMCLRT
 70
   256
  9
$DIMTFAC
 40
1.0
  9
$DIMGAP
 40
0.08984375
  9
$DIMJUST
 70
     0
  9
$DIMSD1
 70
     0
  9
$DIMSD2
 70
     0
  9
$DIMTOLJ
 70
     1
  9
$DIMTZIN
 70
     0
  9
$DIMALTZ
 70
     0
  9
$DIMALTTZ
 70
     0
  9
$DIMFIT
 70
     3
  9
$DIMUPT
 70
     1
  9
$DIMUNIT
 70
     7
  9
$DIMDEC
 70
     4
  9
$DIMTDEC
 70
     4
  9
$DIMALTU
 70
     2
  9
$DIMALTTD
 70
     2
  9
$DIMTXSTY
  7
STANDARD
  9
$DIMAUNIT
 70
     0
  9
$LUNITS
 70
     5
  9
$LUPREC
 70
     6
  9
$SKETCHINC
 40
0.1
  9
$FILLETRAD
 40
0.0
  9
$AUNITS
 70
     0
  9
$AUPREC
 70
     1
  9
$MENU
  1
CUSTOM
  9
$ELEVATION
 40
0.0
  9
$PELEVATION
 40
0.0
  9
$THICKNESS
 40
0.0
  9
$LIMCHECK
 70
     0
  9
$BLIPMODE
 70
     0
  9
$CHAMFERA
 40
0.0
  9
$CHAMFERB
 40
0.0
  9
$CHAMFERC
 40
0.0
  9
$CHAMFERD
 40
0.0
  9
$SKPOLY
 70
     0
  9
$TDCREATE
 40
2451263.663231366
  9
$TDUPDATE
 40
2452759.744427083
  9
$TDINDWG
 40
0.1323856713
  9
$TDUSRTIMER
 40
0.1323856713
  9
$USRTIMER
 70
     1
  9
$ANGBASE
 50
0.0
  9
$ANGDIR
 70
     0
  9
$PDMODE
 70
     0
  9
$PDSIZE
 40
0.0
  9
$PLINEWID
 40
0.0
  9
$COORDS
 70
     1
  9
$SPLFRAME
 70
     0
  9
$SPLINETYPE
 70
     6
  9
$SPLINESEGS
 70
     8
  9
$ATTDIA
 70
     0
  9
$ATTREQ
 70
     1
  9
$HANDLING
 70
     1
  9
$HANDSEED
  5
B4
  9
$SURFTAB1
 70
     6
  9
$SURFTAB2
 70
     6
  9
$SURFTYPE
 70
     6
  9
$SURFU
 70
     6
  9
$SURFV
 70
     6
  9
$UCSNAME
  2

  9
$UCSORG
 10
0.0
 20
0.0
 30
0.0
  9
$UCSXDIR
 10
1.0
 20
0.0
 30
0.0
  9
$UCSYDIR
 10
0.0
 20
1.0
 30
0.0
  9
$PUCSNAME
  2

  9
$PUCSORG
 10
0.0
 20
0.0
 30
0.0
  9
$PUCSXDIR
 10
1.0
 20
0.0
 30
0.0
  9
$PUCSYDIR
 10
0.0
 20
1.0
 30
0.0
  9
$USERI1
 70
     0
  9
$USERI2
 70
     0
  9
$USERI3
 70
     0
  9
$USERI4
 70
     0
  9
$USERI5
 70
     0
  9
$USERR1
 40
0.0
  9
$USERR2
 40
0.0
  9
$USERR3
 40
0.0
  9
$USERR4
 40
0.0
  9
$USERR5
 40
0.0
  9
$WORLDVIEW
 70
     1
  9
$SHADEDGE
 70
     3
  9
$SHADEDIF
 70
    70
  9
$TILEMODE
 70
     1
  9
$MAXACTVP
 70
    16
  9
$PINSBASE
 10
0.0
 20
0.0
 30
0.0
  9
$PLIMCHECK
 70
     0
  9
$PEXTMIN
 10
1.052083323321005
 20
0.7937500251559762
 30
0.0
  9
$PEXTMAX
 10
9.468749909889039
 20
7.143750226403783
 30
0.0
  9
$PLIMMIN
 10
-0.2145830289585384
 20
-0.2812499887361301
  9
$PLIMMAX
 10
10.78541673074557
 20
8.218749770967978
  9
$UNITMODE
 70
     0
  9
$VISRETAIN
 70
     0
  9
$PLINEGEN
 70
     0
  9
$PSLTSCALE
 70
     0
  9
$TREEDEPTH
 70
  3020
  9
$PICKSTYLE
 70
     1
  9
$CMLSTYLE
  2
STANDARD
  9
$CMLJUST
 70
     0
  9
$CMLSCALE
 40
1.0
  9
$PROXYGRAPHICS
 70
     1
  9
$MEASUREMENT
 70
     0
  0
ENDSEC
  0
SECTION
  2
CLASSES
  0
CLASS
  1
ACDBDICTIONARYWDFLT
  2
AcDbDictionaryWithDefault
  3
AutoCAD 2000
 90
        0
280
     0
281
     0
  0
CLASS
  1
ACDBPLACEHOLDER
  2
AcDbPlaceHolder
  3
AutoCAD 2000
 90
        0
280
     0
281
     0
  0
CLASS
  1
LAYOUT
  2
AcDbLayout
  3
AutoCAD 2000
 90
        0
280
     0
281
     0
  0
CLASS
  1
DICTIONARYVAR
  2
AcDbDictionaryVar
  3
"AutoCAD"
 90
        0
280
     0
281
     0
  0
CLASS
  1
LONG_TRANSACTION
  2
AcDbLongTransaction
  3
AutoCAD 2000
 90
        0
280
     0
281
     0
  0
CLASS
  1
LWPOLYLINE
  2
AcDbPolyline
  3
"AutoCAD"
 90
        0
280
     0
281
     1
  0
CLASS
  1
HATCH
  2
AcDbHatch
  3
"ACAD_SEDONA"
 90
        0
280
     0
281
     1
  0
CLASS
  1
XRECORD
  2
AcDbXrecord
  3
"<Built In>"
 90
        0
280
     0
281
     0
  0
CLASS
  1
LONG_TRANSACTION
  2
AcDbLongTransaction
  3
AutoCAD 2000
 90
        0
280
     0
281
     0
  0
CLASS
  1
LWPOLYLINE
  2
AcDbPolyline
  3
"AutoCAD"
 90
        0
280
     0
281
     1
  0
CLASS
  1
HATCH
  2
AcDbHatch
  3
"ACAD_SEDONA"
 90
        0
280
     0
281
     1
  0
CLASS
  1
XRECORD
  2
AcDbXrecord
  3
"<Built In>"
 90
        0
280
     0
281
     0
  0
CLASS
  1
LONG_TRANSACTION
  2
AcDbLongTransaction
  3
AutoCAD 2000
 90
        0
280
     0
281
     0
  0
CLASS
  1
LWPOLYLINE
  2
AcDbPolyline
  3
"AutoCAD"
 90
        0
280
     0
281
     1
  0
CLASS
  1
HATCH
  2
AcDbHatch
  3
"ACAD_SEDONA"
 90
        0
280
     0
281
     1
  0
CLASS
  1
XRECORD
  2
AcDbXrecord
  3
"<Built In>"
 90
        0
280
     0
281
     0
  0
ENDSEC
  0
SECTION
  2
TABLES
  0
TABLE
  2
VPORT
  5
96
100
AcDbSymbolTable
 70
     1
  0
VPORT
  5
B0
100
AcDbSymbolTableRecord
100
AcDbViewportTableRecord
  2
*ACTIVE
 70
     0
 10
0.0
 20
0.0
 11
1.0
 21
1.0
 12
-17.26650706329508
 22
17.46521844342474
 13
0.0
 23
0.0
 14
1.0
 24
1.0
 15
0.0
 25
0.0
 16
0.0
 26
0.0
 36
1.0
 17
23.09603071721725
 27
-10.27010416511325
 37
-10.44050274849355
 40
14.49194806846706
 41
1.457627118644067
 42
50.0
 43
10.55307667737539
 44
10.55307667737539
 50
0.0
 51
0.0
 71
     0
 72
   100
 73
     1
 74
     1
 75
     0
 76
     0
 77
     0
 78
     0
  0
ENDTAB
  0
TABLE
  2
LTYPE
  5
91
100
AcDbSymbolTable
 70
     2
  0
LTYPE
  5
92
100
AcDbSymbolTableRecord
100
AcDbLinetypeTableRecord
  2
BYBLOCK
 70
     0
  3

 72
    65
 73
     0
 40
0.0
  0
LTYPE
  5
93
100
AcDbSymbolTableRecord
100
AcDbLinetypeTableRecord
  2
BYLAYER
 70
     0
  3

 72
    65
 73
     0
 40
0.0
  0
LTYPE
  5
5
100
AcDbSymbolTableRecord
100
AcDbLinetypeTableRecord
  2
CONTINUOUS
 70
     0
  3
Solid line
 72
    65
 73
     0
 40
0.0
  0
LTYPE
  5
C
100
AcDbSymbolTableRecord
100
AcDbLinetypeTableRecord
  2
HIDDEN
 70
     0
  3
Hidden __ __ __ __ __ __ __ __ __ __ __ __ __ _
 72
    65
 73
     2
 40
0.375
 49
0.25
 74
     0
 49
-0.125
 74
     0
  0
ENDTAB
  0
TABLE
  2
LAYER
  5
8F
100
AcDbSymbolTable
 70
     5
  0
LAYER
  5
30
100
AcDbSymbolTableRecord
100
AcDbLayerTableRecord
  2
0
 70
     0
 62
     7
  6
CONTINUOUS
  0
LAYER
  5
E
100
AcDbSymbolTableRecord
100
AcDbLayerTableRecord
  2
USP-GEO
 70
     0
 62
     7
  6
CONTINUOUS
  0
LAYER
  5
8
100
AcDbSymbolTableRecord
100
AcDbLayerTableRecord
  2
USP-TXT
 70
     0
 62
     7
  6
CONTINUOUS
  0
LAYER
  5
B
100
AcDbSymbolTableRecord
100
AcDbLayerTableRecord
  2
USP-HID
 70
     0
 62
     7
  6
HIDDEN
  0
LAYER
  5
4
100
AcDbSymbolTableRecord
100
AcDbLayerTableRecord
  2
USP
 70
     0
 62
     7
  6
CONTINUOUS
  0
ENDTAB
  0
TABLE
  2
STYLE
  5
90
100
AcDbSymbolTable
 70
     1
  0
STYLE
  5
9
100
AcDbSymbolTableRecord
100
AcDbTextStyleTableRecord
  2
STANDARD
 70
     0
 40
0.0
 41
1.0
 50
0.0
 71
     0
 42
0.375
  3
txt
  4

  0
ENDTAB
  0
TABLE
  2
VIEW
  5
94
100
AcDbSymbolTable
 70
     0
  0
ENDTAB
  0
TABLE
  2
UCS
  5
95
100
AcDbSymbolTable
 70
     0
  0
ENDTAB
  0
TABLE
  2
APPID
  5
98
100
AcDbSymbolTable
 70
     1
  0
APPID
  5
8A
100
AcDbSymbolTableRecord
100
AcDbRegAppTableRecord
  2
ACAD
 70
     0
  0
ENDTAB
  0
TABLE
  2
DIMSTYLE
  5
99
100
AcDbSymbolTable
 70
     1
  0
DIMSTYLE
105
A1
100
AcDbSymbolTableRecord
100
AcDbDimStyleTableRecord
  2
STANDARD
 70
     0
  3

  4

  5

  6

  7

 40
1.0
 41
0.18
 42
0.0625
 43
0.38
 44
0.18
 45
0.0
 46
0.0
 47
0.0
 48
0.0
140
0.18
141
0.09
142
0.0
143
25.4
144
1.0
145
0.0
146
1.0
147
0.09
 71
     0
 72
     0
 73
     1
 74
     1
 75
     0
 76
     0
 77
     0
 78
     0
170
     0
171
     2
172
     0
173
     0
174
     0
175
     0
176
     0
177
     0
178
     0
270
     2
271
     4
272
     4
273
     2
274
     2
340
9
275
     0
280
     0
281
     0
282
     0
283
     1
284
     0
285
     0
286
     0
287
     3
288
     0
  0
ENDTAB
  0
TABLE
  2
BLOCK_RECORD
  5
1
100
AcDbSymbolTable
 70
     3
  0
BLOCK_RECORD
  5
2
102
{ACAD_XDICTIONARY
360
81
102
}
100
AcDbSymbolTableRecord
100
AcDbBlockTableRecord
  2
*MODEL_SPACE
  0
BLOCK_RECORD
  5
85
102
{ACAD_XDICTIONARY
360
8B
102
}
100
AcDbSymbolTableRecord
100
AcDbBlockTableRecord
  2
*PAPER_SPACE
  0
BLOCK_RECORD
  5
6
100
AcDbSymbolTableRecord
100
AcDbBlockTableRecord
  2
C46_F
  0
BLOCK_RECORD
  5
33
100
AcDbSymbolTableRecord
100
AcDbBlockTableRecord
  2
C46_T
  0
BLOCK_RECORD
  5
5D
100
AcDbSymbolTableRecord
100
AcDbBlockTableRecord
  2
C46_S
  0
ENDTAB
  0
ENDSEC
  0
SECTION
  2
BLOCKS
  0
BLOCK
  5
83
100
AcDbEntity
  8
0
100
AcDbBlockBegin
  2
*MODEL_SPACE
 70
     0
 10
0.0
 20
0.0
 30
0.0
  3
*MODEL_SPACE
  1

  0
ENDBLK
  5
84
100
AcDbEntity
  8
0
100
AcDbBlockEnd
  0
BLOCK
  5
8D
100
AcDbEntity
 67
     1
  8
0
100
AcDbBlockBegin
  2
*PAPER_SPACE
 70
     0
 10
0.0
 20
0.0
 30
0.0
  3
*PAPER_SPACE
  1

  0
ENDBLK
  5
8E
100
AcDbEntity
 67
     1
  8
0
100
AcDbBlockEnd
  0
BLOCK
  5
2F
100
AcDbEntity
  8
0
100
AcDbBlockBegin
  2
C46_F
 70
     0
 10
0.0
 20
0.0
 30
0.0
  3
C46_F
  1

  0
TEXT
  5
7
100
AcDbEntity
  8
USP-TXT
100
AcDbText
 10
0.8367549302208487
 20
-1.362574469403677
 30
0.0
 40
0.28125
  1
C46 - TOP VIEW
 72
     1
 11
2.805504930220848
 21
-1.362574469403677
 31
0.0
100
AcDbText
  0
LINE
  5
A
100
AcDbEntity
  8
USP-HID
100
AcDbLine
 10
5.426999999999999
 20
2.614499999999978
 30
0.0
 11
0.1769999999999925
 21
2.614499999999995
 31
0.0
  0
LINE
  5
D
100
AcDbEntity
  8
USP-GEO
100
AcDbLine
 10
1.739499999999999
 20
5.208250000000013
 30
0.0
 11
3.864500000000006
 21
5.208250000000006
 31
0.0
  0
LINE
  5
F
100
AcDbEntity
  8
USP-GEO
100
AcDbLine
 10
5.426999999999992
 20
2.562499999999996
 30
0.0
 11
0.1769999999999889
 21
2.562499999999999
 31
0.0
  0
LINE
  5
10
100
AcDbEntity
  8
USP-GEO
100
AcDbLine
 10
0.0519999999999996
 20
1.499999999999992
 30
0.0
 11
0.052000000000003
 21
2.562499999999992
 31
0.0
  0
LINE
  5
11
100
AcDbEntity
  8
USP-GEO
100
AcDbLine
 10
-0.0000000000000036
 20
2.614499999999999
 30
0.0
 11
-0.0000000000000071
 21
1.499999999999996
 31
0.0
  0
LINE
  5
12
100
AcDbEntity
  8
USP-GEO
100
AcDbLine
 10
0.0519999999999925
 20
-0.0000000000000036
 30
0.0
 11
0.0519999999999974
 21
1.499999999999998
 31
0.0
  0
LINE
  5
13
100
AcDbEntity
  8
USP-GEO
100
AcDbLine
 10
0.0
 20
0.0
 30
0.0
 11
0.0000000000000049
 21
1.499999999999995
 31
0.0
  0
LINE
  5
14
100
AcDbEntity
  8
USP-GEO
100
AcDbLine
 10
0.0
 20
0.0
 30
0.0
 11
0.0519999999999925
 21
0.0
 31
0.0
  0
LINE
  5
15
100
AcDbEntity
  8
USP-GEO
100
AcDbLine
 10
-0.0000000000000071
 20
1.499999999999996
 30
0.0
 11
0.0519999999999996
 21
1.499999999999996
 31
0.0
  0
LINE
  5
16
100
AcDbEntity
  8
USP-GEO
100
AcDbLine
 10
0.1769999999999889
 20
3.70825000000002
 30
0.0
 11
1.739499999999999
 21
5.208250000000017
 31
0.0
  0
LINE
  5
17
100
AcDbEntity
  8
USP-GEO
100
AcDbLine
 10
0.1769999999999888
 20
2.562499999999996
 30
0.0
 11
0.1769999999999925
 21
3.708250000000017
 31
0.0
  0
LINE
  5
18
100
AcDbEntity
  8
USP-GEO
100
AcDbLine
 10
0.0969999999999978
 20
2.614499999999996
 30
0.0
 11
0.1769999999999907
 21
2.614499999999996
 31
0.0
  0
LINE
  5
19
100
AcDbEntity
  8
USP-GEO
100
AcDbLine
 10
0.0969999999999978
 20
2.562499999999996
 30
0.0
 11
0.1769999999999907
 21
2.562499999999996
 31
0.0
  0
LINE
  5
1A
100
AcDbEntity
  8
USP-GEO
100
AcDbLine
 10
0.0969999999999978
 20
2.614499999999996
 30
0.0
 11
-0.0000000000000036
 21
2.614499999999996
 31
0.0
  0
LINE
  5
1B
100
AcDbEntity
  8
USP-GEO
100
AcDbLine
 10
0.0519999999999996
 20
2.562499999999996
 30
0.0
 11
0.0969999999999978
 21
2.562499999999996
 31
0.0
  0
LINE
  5
1C
100
AcDbEntity
  8
USP-GEO
100
AcDbLine
 10
0.0969999999999978
 20
2.614499999999996
 30
0.0
 11
0.0969999999999976
 21
2.562499999999996
 31
0.0
  0
CIRCLE
  5
1D
100
AcDbEntity
  8
USP-GEO
100
AcDbCircle
 10
0.9269999999999924
 20
3.458250000000013
 30
0.0
 40
0.0855
  0
CIRCLE
  5
1E
100
AcDbEntity
  8
USP-GEO
100
AcDbCircle
 10
1.927000000000003
 20
4.89575000000001
 30
0.0
 40
0.0855
  0
LINE
  5
1F
100
AcDbEntity
  8
USP-GEO
100
AcDbLine
 10
5.604000000000006
 20
2.614499999999978
 30
0.0
 11
5.604000000000002
 21
1.499999999999978
 31
0.0
  0
LINE
  5
20
100
AcDbEntity
  8
USP-GEO
100
AcDbLine
 10
5.551999999999999
 20
2.562499999999991
 30
0.0
 11
5.551999999999996
 21
1.499999999999978
 31
0.0
  0
LINE
  5
21
100
AcDbEntity
  8
USP-GEO
100
AcDbLine
 10
5.551999999999997
 20
1.499999999999979
 30
0.0
 11
5.551999999999992
 21
-0.0000000000000071
 31
0.0
  0
LINE
  5
22
100
AcDbEntity
  8
USP-GEO
100
AcDbLine
 10
5.603999999999995
 20
-0.0000000000000071
 30
0.0
 11
5.604
 21
1.49999999999998
 31
0.0
  0
LINE
  5
23
100
AcDbEntity
  8
USP-GEO
100
AcDbLine
 10
5.603999999999995
 20
-0.0000000000000071
 30
0.0
 11
5.551999999999992
 21
-0.0000000000000071
 31
0.0
  0
LINE
  5
24
100
AcDbEntity
  8
USP-GEO
100
AcDbLine
 10
5.603999999999992
 20
1.499999999999978
 30
0.0
 11
5.551999999999992
 21
1.499999999999978
 31
0.0
  0
LINE
  5
25
100
AcDbEntity
  8
USP-GEO
100
AcDbLine
 10
3.864500000000006
 20
5.208250000000006
 30
0.0
 11
5.427000000000004
 21
3.708250000000003
 31
0.0
  0
CIRCLE
  5
26
100
AcDbEntity
  8
USP-GEO
100
AcDbCircle
 10
2.801999999999992
 20
3.395750000000008
 30
0.0
 40
0.0855
  0
CIRCLE
  5
27
100
AcDbEntity
  8
USP-GEO
100
AcDbCircle
 10
3.676999999999999
 20
4.895750000000006
 30
0.0
 40
0.0855
  0
LINE
  5
28
100
AcDbEntity
  8
USP-GEO
100
AcDbLine
 10
5.604000000000006
 20
2.614499999999978
 30
0.0
 11
5.506999999999997
 21
2.614499999999978
 31
0.0
  0
CIRCLE
  5
29
100
AcDbEntity
  8
USP-GEO
100
AcDbCircle
 10
4.676999999999988
 20
3.458250000000001
 30
0.0
 40
0.0855
  0
LINE
  5
2A
100
AcDbEntity
  8
USP-GEO
100
AcDbLine
 10
5.426999999999999
 20
3.708249999999999
 30
0.0
 11
5.426999999999992
 21
2.562499999999996
 31
0.0
  0
LINE
  5
2B
100
AcDbEntity
  8
USP-GEO
100
AcDbLine
 10
5.427000000000004
 20
2.614499999999976
 30
0.0
 11
5.506999999999997
 21
2.614499999999976
 31
0.0
  0
LINE
  5
2C
100
AcDbEntity
  8
USP-GEO
100
AcDbLine
 10
5.426999999999997
 20
2.562499999999976
 30
0.0
 11
5.50699999999999
 21
2.562499999999976
 31
0.0
  0
LINE
  5
2D
100
AcDbEntity
  8
USP-GEO
100
AcDbLine
 10
5.506999999999997
 20
2.61449999999998
 30
0.0
 11
5.506999999999997
 21
2.56249999999998
 31
0.0
  0
LINE
  5
2E
100
AcDbEntity
  8
USP-GEO
100
AcDbLine
 10
5.50699999999999
 20
2.562499999999978
 30
0.0
 11
5.552000000000003
 21
2.562499999999978
 31
0.0
  0
ENDBLK
  5
31
100
AcDbEntity
  8
0
100
AcDbBlockEnd
  0
BLOCK
  5
5A
100
AcDbEntity
  8
0
100
AcDbBlockBegin
  2
C46_T
 70
     0
 10
0.0
 20
0.0
 30
0.0
  3
C46_T
  1

  0
TEXT
  5
34
100
AcDbEntity
  8
USP-TXT
100
AcDbText
 10
0.8367549302208523
 20
-1.538002515794723
 30
0.0
 40
0.28125
  1
C46 - TOP VIEW
 72
     1
 11
2.805504930220852
 21
-1.538002515794723
 31
0.0
100
AcDbText
  0
LINE
  5
35
100
AcDbEntity
  8
USP-GEO
100
AcDbLine
 10
3.864499999999996
 20
3.614500000000003
 30
0.0
 11
1.739499999999999
 21
3.614500000000003
 31
0.0
  0
LINE
  5
36
100
AcDbEntity
  8
USP-GEO
100
AcDbLine
 10
3.864499999999996
 20
3.666500000000011
 30
0.0
 11
1.739499999999996
 21
3.666500000000011
 31
0.0
  0
LINE
  5
37
100
AcDbEntity
  8
USP-GEO
100
AcDbLine
 10
1.739500000000003
 20
-0.0000000000000098
 30
0.0
 11
3.86450000000001
 21
-0.0000000000000098
 31
0.0
  0
LINE
  5
38
100
AcDbEntity
  8
USP-GEO
100
AcDbLine
 10
3.86450000000001
 20
0.0519999999999987
 30
0.0
 11
1.739500000000003
 21
0.0519999999999987
 31
0.0
  0
LINE
  5
39
100
AcDbEntity
  8
USP-HID
100
AcDbLine
 10
0.0520000000000068
 20
0.1457500000000182
 30
0.0
 11
0.0520000000000067
 21
3.520750000000006
 31
0.0
  0
LINE
  5
3A
100
AcDbEntity
  8
USP-GEO
100
AcDbLine
 10
0.0
 20
0.145750000000004
 30
0.0
 11
0.0000000000000033
 21
3.52075000000001
 31
0.0
  0
LINE
  5
3B
100
AcDbEntity
  8
USP-GEO
100
AcDbLine
 10
0.1769999999999925
 20
-0.0000000000000009
 30
0.0
 11
1.739500000000003
 21
-0.0000000000000027
 31
0.0
  0
LINE
  5
3C
100
AcDbEntity
  8
USP-GEO
100
AcDbLine
 10
1.739500000000003
 20
0.0520000000000058
 30
0.0
 11
0.1769999999999945
 21
0.0520000000000076
 31
0.0
  0
ARC
  5
3D
100
AcDbEntity
  8
USP-GEO
100
AcDbCircle
 10
0.0969999999999942
 20
0.065750000000028
 30
0.0
 40
0.08
100
AcDbArc
 50
359.999999999998
 51
89.99999999999493
  0
LINE
  5
3E
100
AcDbEntity
  8
USP-GEO
100
AcDbLine
 10
0.0970000000000013
 20
0.1457500000000031
 30
0.0
 11
0.0
 21
0.1457499999999889
 31
0.0
  0
LINE
  5
3F
100
AcDbEntity
  8
USP-GEO
100
AcDbLine
 10
0.1769999999999925
 20
0.0520000000000138
 30
0.0
 11
0.1769999999999925
 21
0.0657500000000253
 31
0.0
  0
LINE
  5
40
100
AcDbEntity
  8
USP-GEO
100
AcDbLine
 10
0.1769999999999996
 20
0.052000000000012
 30
0.0
 11
0.1769999999999996
 21
0.0000000000000018
 31
0.0
  0
LINE
  5
41
100
AcDbEntity
  8
USP-GEO
100
AcDbLine
 10
1.739500000000003
 20
0.0520000000000058
 30
0.0
 11
1.739500000000003
 21
-0.0000000000000027
 31
0.0
  0
LINE
  5
42
100
AcDbEntity
  8
USP-GEO
100
AcDbLine
 10
1.739499999999999
 20
3.614500000000001
 30
0.0
 11
0.1769999999999945
 21
3.614500000000003
 31
0.0
  0
LINE
  5
43
100
AcDbEntity
  8
USP-GEO
100
AcDbLine
 10
1.739499999999996
 20
3.666500000000008
 30
0.0
 11
0.1769999999999892
 21
3.666500000000009
 31
0.0
  0
ARC
  5
44
100
AcDbEntity
  8
USP-GEO
100
AcDbCircle
 10
0.0970000000000013
 20
3.600750000000019
 30
0.0
 40
0.08
100
AcDbArc
 50
269.9999999999933
 51
0.0000000000038167
  0
LINE
  5
45
100
AcDbEntity
  8
USP-GEO
100
AcDbLine
 10
0.0969999999999942
 20
3.520750000000006
 30
0.0
 11
-0.0000000000000036
 21
3.520750000000006
 31
0.0
  0
LINE
  5
46
100
AcDbEntity
  8
USP-GEO
100
AcDbLine
 10
0.176999999999996
 20
3.600750000000024
 30
0.0
 11
0.1769999999999953
 21
3.614500000000012
 31
0.0
  0
LINE
  5
47
100
AcDbEntity
  8
USP-GEO
100
AcDbLine
 10
0.176999999999996
 20
3.614500000000006
 30
0.0
 11
0.176999999999996
 21
3.666500000000013
 31
0.0
  0
LINE
  5
48
100
AcDbEntity
  8
USP-GEO
100
AcDbLine
 10
1.739499999999999
 20
3.614500000000001
 30
0.0
 11
1.739499999999999
 21
3.666500000000008
 31
0.0
  0
LINE
  5
49
100
AcDbEntity
  8
USP-HID
100
AcDbLine
 10
5.552000000000003
 20
3.520750000000013
 30
0.0
 11
5.552000000000003
 21
0.1457500000000165
 31
0.0
  0
LINE
  5
4A
100
AcDbEntity
  8
USP-GEO
100
AcDbLine
 10
5.604000000000002
 20
0.1457499999999898
 30
0.0
 11
5.604000000000002
 21
3.52075000000001
 31
0.0
  0
LINE
  5
4B
100
AcDbEntity
  8
USP-GEO
100
AcDbLine
 10
3.86450000000001
 20
-0.0000000000000098
 30
0.0
 11
5.427000000000007
 21
-0.0000000000000071
 31
0.0
  0
LINE
  5
4C
100
AcDbEntity
  8
USP-GEO
100
AcDbLine
 10
3.86450000000001
 20
0.0519999999999987
 30
0.0
 11
5.427000000000008
 21
0.0520000000000014
 31
0.0
  0
LINE
  5
4D
100
AcDbEntity
  8
USP-GEO
100
AcDbLine
 10
3.86450000000001
 20
0.0519999999999987
 30
0.0
 11
3.86450000000001
 21
-0.0000000000000098
 31
0.0
  0
LINE
  5
4E
100
AcDbEntity
  8
USP-GEO
100
AcDbLine
 10
5.604000000000009
 20
0.1457499999999898
 30
0.0
 11
5.507000000000001
 21
0.145750000000004
 31
0.0
  0
ARC
  5
4F
100
AcDbEntity
  8
USP-GEO
100
AcDbCircle
 10
5.507000000000008
 20
0.0657500000000217
 30
0.0
 40
0.08
100
AcDbArc
 50
90.00000000000509
 51
179.9999999999961
  0
LINE
  5
50
100
AcDbEntity
  8
USP-GEO
100
AcDbLine
 10
5.426999999999998
 20
0.0520000000000058
 30
0.0
 11
5.426999999999999
 21
0.0657500000000271
 31
0.0
  0
LINE
  5
51
100
AcDbEntity
  8
USP-GEO
100
AcDbLine
 10
5.427000000000003
 20
0.0520000000000129
 30
0.0
 11
5.427000000000003
 21
0.0000000000000044
 31
0.0
  0
LINE
  5
52
100
AcDbEntity
  8
USP-GEO
100
AcDbLine
 10
3.864499999999996
 20
3.614500000000003
 30
0.0
 11
5.426999999999999
 21
3.614500000000006
 31
0.0
  0
LINE
  5
53
100
AcDbEntity
  8
USP-GEO
100
AcDbLine
 10
5.426999999999999
 20
3.666500000000015
 30
0.0
 11
3.864499999999996
 21
3.666500000000011
 31
0.0
  0
CIRCLE
  5
54
100
AcDbEntity
  8
USP-GEO
100
AcDbCircle
 10
2.801999999999988
 20
1.833250000000008
 30
0.0
 40
0.28125
  0
LINE
  5
55
100
AcDbEntity
  8
USP-GEO
100
AcDbLine
 10
3.864499999999996
 20
3.614500000000003
 30
0.0
 11
3.864499999999996
 21
3.666500000000011
 31
0.0
  0
LINE
  5
56
100
AcDbEntity
  8
USP-GEO
100
AcDbLine
 10
5.603999999999999
 20
3.52075000000001
 30
0.0
 11
5.506999999999997
 21
3.52075000000001
 31
0.0
  0
ARC
  5
57
100
AcDbEntity
  8
USP-GEO
100
AcDbCircle
 10
5.507000000000001
 20
3.600750000000022
 30
0.0
 40
0.08
100
AcDbArc
 50
180.000000000005
 51
269.9999999999966
  0
LINE
  5
58
100
AcDbEntity
  8
USP-GEO
100
AcDbLine
 10
5.42700000000001
 20
3.600750000000015
 30
0.0
 11
5.42700000000001
 21
3.614500000000003
 31
0.0
  0
LINE
  5
59
100
AcDbEntity
  8
USP-GEO
100
AcDbLine
 10
5.426999999999996
 20
3.61450000000001
 30
0.0
 11
5.426999999999996
 21
3.666500000000016
 31
0.0
  0
ENDBLK
  5
5B
100
AcDbEntity
  8
0
100
AcDbBlockEnd
  0
BLOCK
  5
7F
100
AcDbEntity
  8
0
100
AcDbBlockBegin
  2
C46_S
 70
     0
 10
0.0
 20
0.0
 30
0.0
  3
C46_S
  1

  0
TEXT
  5
5E
100
AcDbEntity
  8
USP-TXT
100
AcDbText
 10
-0.0160175553549689
 20
-1.36257446940367
 30
0.0
 40
0.28125
  1
C46 - TOP VIEW
 72
     1
 11
1.952732444645031
 21
-1.36257446940367
 31
0.0
100
AcDbText
  0
LINE
  5
5F
100
AcDbEntity
  8
USP-HID
100
AcDbLine
 10
3.52075000000001
 20
2.562500000000005
 30
0.0
 11
0.145750000000012
 21
2.5625
 31
0.0
  0
LINE
  5
60
100
AcDbEntity
  8
USP-GEO
100
AcDbLine
 10
1.739499999999999
 20
0.0
 30
0.0
 11
0.1457500000000014
 21
1.499999999999986
 31
0.0
  0
LINE
  5
61
100
AcDbEntity
  8
USP-GEO
100
AcDbLine
 10
0.1457499999999854
 20
2.614499999999987
 30
0.0
 11
3.520750000000004
 21
2.614499999999992
 31
0.0
  0
LINE
  5
62
100
AcDbEntity
  8
USP-GEO
100
AcDbLine
 10
0.1457499999999854
 20
2.614499999999985
 30
0.0
 11
0.1457499999999872
 21
1.499999999999985
 31
0.0
  0
CIRCLE
  5
63
100
AcDbEntity
  8
USP-GEO
100
AcDbCircle
 10
0.9582500000000013
 20
1.812499999999992
 30
0.0
 40
0.0855
  0
LINE
  5
64
100
AcDbEntity
  8
USP-GEO
100
AcDbLine
 10
-0.0000000000000142
 20
5.208250000000013
 30
0.0
 11
-0.0000000000000124
 21
3.70825000000001
 31
0.0
  0
LINE
  5
65
100
AcDbEntity
  8
USP-GEO
100
AcDbLine
 10
0.0519999999999943
 20
5.208250000000013
 30
0.0
 11
0.0519999999999961
 21
3.708250000000008
 31
0.0
  0
LINE
  5
66
100
AcDbEntity
  8
USP-GEO
100
AcDbLine
 10
0.0
 20
3.708250000000006
 30
0.0
 11
0.0000000000000018
 21
2.562500000000003
 31
0.0
  0
LINE
  5
67
100
AcDbEntity
  8
USP-GEO
100
AcDbLine
 10
0.0520000000000085
 20
3.708250000000003
 30
0.0
 11
0.0520000000000103
 21
2.614499999999985
 31
0.0
  0
LINE
  5
68
100
AcDbEntity
  8
USP-GEO
100
AcDbLine
 10
0.0657500000000209
 20
2.5625
 30
0.0
 11
-0.0000000000000018
 21
2.5625
 31
0.0
  0
LINE
  5
69
100
AcDbEntity
  8
USP-GEO
100
AcDbLine
 10
0.0520000000000014
 20
2.614499999999985
 30
0.0
 11
0.0657500000000226
 21
2.614499999999985
 31
0.0
  0
LINE
  5
6A
100
AcDbEntity
  8
USP-GEO
100
AcDbLine
 10
0.0657500000000226
 20
2.614499999999983
 30
0.0
 11
0.1457500000000174
 21
2.614499999999983
 31
0.0
  0
LINE
  5
6B
100
AcDbEntity
  8
USP-GEO
100
AcDbLine
 10
0.0657500000000209
 20
2.562499999999984
 30
0.0
 11
0.1457500000000174
 21
2.562499999999984
 31
0.0
  0
LINE
  5
6C
100
AcDbEntity
  8
USP-GEO
100
AcDbLine
 10
0.0657500000000226
 20
2.614499999999987
 30
0.0
 11
0.0657500000000226
 21
2.562499999999987
 31
0.0
  0
LINE
  5
6D
100
AcDbEntity
  8
USP-GEO
100
AcDbLine
 10
0.0520000000000085
 20
3.708250000000003
 30
0.0
 11
0.0
 21
3.708250000000003
 31
0.0
  0
LINE
  5
6E
100
AcDbEntity
  8
USP-GEO
100
AcDbLine
 10
0.0519999999999943
 20
5.208250000000013
 30
0.0
 11
-0.0000000000000142
 21
5.208250000000013
 31
0.0
  0
LINE
  5
6F
100
AcDbEntity
  8
USP-GEO
100
AcDbLine
 10
3.520750000000004
 20
2.614499999999988
 30
0.0
 11
3.520750000000006
 21
1.5
 31
0.0
  0
LINE
  5
70
100
AcDbEntity
  8
USP-GEO
100
AcDbLine
 10
1.927000000000001
 20
-0.0000000000000036
 30
0.0
 11
3.520750000000008
 21
1.5
 31
0.0
  0
CIRCLE
  5
71
100
AcDbEntity
  8
USP-GEO
100
AcDbCircle
 10
1.833250000000004
 20
0.3749999999999929
 30
0.0
 40
0.0855
  0
LINE
  5
72
100
AcDbEntity
  8
USP-GEO
100
AcDbLine
 10
1.739499999999999
 20
0.0
 30
0.0
 11
1.927000000000001
 21
0.0000000000000004
 31
0.0
  0
CIRCLE
  5
73
100
AcDbEntity
  8
USP-GEO
100
AcDbCircle
 10
2.708249999999997
 20
1.812499999999991
 30
0.0
 40
0.0855
  0
LINE
  5
74
100
AcDbEntity
  8
USP-GEO
100
AcDbLine
 10
3.614499999999999
 20
5.20825000000001
 30
0.0
 11
3.614500000000001
 21
3.708250000000003
 31
0.0
  0
LINE
  5
75
100
AcDbEntity
  8
USP-GEO
100
AcDbLine
 10
3.666500000000009
 20
3.70825
 30
0.0
 11
3.666500000000008
 21
5.208250000000006
 31
0.0
  0
LINE
  5
76
100
AcDbEntity
  8
USP-GEO
100
AcDbLine
 10
3.614500000000006
 20
2.614499999999994
 30
0.0
 11
3.614500000000004
 21
3.708249999999999
 31
0.0
  0
LINE
  5
77
100
AcDbEntity
  8
USP-GEO
100
AcDbLine
 10
3.666500000000013
 20
2.562499999999989
 30
0.0
 11
3.666500000000011
 21
3.708249999999996
 31
0.0
  0
LINE
  5
78
100
AcDbEntity
  8
USP-GEO
100
AcDbLine
 10
3.600750000000012
 20
2.562499999999992
 30
0.0
 11
3.666500000000013
 21
2.562499999999992
 31
0.0
  0
LINE
  5
79
100
AcDbEntity
  8
USP-GEO
100
AcDbLine
 10
3.520750000000019
 20
2.614499999999988
 30
0.0
 11
3.600750000000012
 21
2.614499999999988
 31
0.0
  0
LINE
  5
7A
100
AcDbEntity
  8
USP-GEO
100
AcDbLine
 10
3.600750000000012
 20
2.614499999999992
 30
0.0
 11
3.614499999999997
 21
2.614499999999992
 31
0.0
  0
LINE
  5
7B
100
AcDbEntity
  8
USP-GEO
100
AcDbLine
 10
3.520750000000017
 20
2.562499999999989
 30
0.0
 11
3.600750000000012
 21
2.562499999999989
 31
0.0
  0
LINE
  5
7C
100
AcDbEntity
  8
USP-GEO
100
AcDbLine
 10
3.600750000000012
 20
2.614499999999992
 30
0.0
 11
3.600750000000012
 21
2.562499999999992
 31
0.0
  0
LINE
  5
7D
100
AcDbEntity
  8
USP-GEO
100
AcDbLine
 10
3.614500000000004
 20
3.708249999999999
 30
0.0
 11
3.666500000000011
 21
3.708249999999999
 31
0.0
  0
LINE
  5
7E
100
AcDbEntity
  8
USP-GEO
100
AcDbLine
 10
3.614499999999999
 20
5.20825000000001
 30
0.0
 11
3.666500000000008
 21
5.20825000000001
 31
0.0
  0
ENDBLK
  5
80
100
AcDbEntity
  8
0
100
AcDbBlockEnd
  0
ENDSEC
  0
SECTION
  2
ENTITIES
  0
INSERT
  5
3
100
AcDbEntity
  8
USP
100
AcDbBlockReference
  2
C46_F
 10
0.0000570704781638
 20
1.363277015005566
 30
0.0
  0
INSERT
  5
32
100
AcDbEntity
  8
USP
100
AcDbBlockReference
  2
C46_T
 10
0.0000570704781602
 20
10.37633842521562
 30
0.0
  0
INSERT
  5
5C
100
AcDbEntity
  8
USP
100
AcDbBlockReference
  2
C46_S
 10
7.737767776871447
 20
1.363277015005559
 30
0.0
  0
VIEWPORT
  5
86
102
{ACAD_XDICTIONARY
360
87
102
}
100
AcDbEntity
 67
     1
  8
0
100
AcDbViewport
 10
5.285416850893516
 20
3.968749891115924
 30
0.0
 40
13.50573247017707
 41
8.992999745766947
 68
    -1
 69
     1
1001
ACAD
1000
MVIEW
1002
{
1070
    16
1010
0.0
1020
0.0
1030
0.0
1010
0.0
1020
0.0
1030
1.0
1040
0.0
1040
8.992999745766947
1040
5.285416850893516
1040
3.968749891115924
1040
50.0
1040
0.0
1040
0.0
1070
     0
1070
   100
1070
     1
1070
     1
1070
     0
1070
     0
1070
     0
1070
     0
1040
0.0
1040
0.0
1040
0.0
1040
0.5
1040
0.5
1040
0.5
1040
0.5
1070
     0
1002
{
1002
}
1002
}
  0
ENDSEC
  0
SECTION
  2
OBJECTS
  0
DICTIONARY
  5
9D
102
{ACAD_XDICTIONARY
360
9E
102
}
100
AcDbDictionary
  3
ACAD_GROUP
350
9B
  3
ACAD_MLINESTYLE
350
9C
  0
DICTIONARY
  5
81
100
AcDbDictionary
280
     1
  3
ACAD_LAYOUTSELFREF
360
82
  0
DICTIONARY
  5
8B
100
AcDbDictionary
280
     1
  3
ACAD_LAYOUTSELFREF
360
8C
  0
DICTIONARY
  5
87
100
AcDbDictionary
280
     1
  3
ACAD_XREC_ROUNDTRIP
360
88
  0
DICTIONARY
  5
9E
100
AcDbDictionary
280
     1
  3
ACAD_XREC_ROUNDTRIP
360
9F
  0
DICTIONARY
  5
9B
102
{ACAD_REACTORS
330
9D
102
}
100
AcDbDictionary
  0
DICTIONARY
  5
9C
102
{ACAD_REACTORS
330
9D
102
}
100
AcDbDictionary
  3
STANDARD
350
A0
  0
XRECORD
  5
82
102
{ACAD_REACTORS
330
81
102
}
100
AcDbXrecord
340
18
  0
XRECORD
  5
8C
102
{ACAD_REACTORS
330
8B
102
}
100
AcDbXrecord
340
15
  0
XRECORD
  5
88
102
{ACAD_REACTORS
330
87
102
}
100
AcDbXrecord
102
UCS
 74
     0
 71
     1
 10
0.0
 20
0.0
 30
0.0
 10
1.0
 20
0.0
 30
0.0
 10
0.0
 20
1.0
 30
0.0
146
0.0
 79
     0
102
VIEW
281
     0
102
NEWVIEWCONTROL
280
     4
  0
XRECORD
  5
9F
102
{ACAD_REACTORS
330
9E
102
}
100
AcDbXrecord
102
EXTNAMES
  1
ACDBVARIABLEDICTIONARY
  2
AcDbVariableDictionary
  0
MLINESTYLE
  5
A0
102
{ACAD_REACTORS
330
9C
102
}
100
AcDbMlineStyle
  2
STANDARD
 70
     0
  3

 62
     0
 51
90.0
 52
90.0
 71
     2
 49
0.5
 62
   256
  6
BYLAYER
 49
-0.5
 62
   256
  6
BYLAYER
  0
ENDSEC
  0
EOF
