  0
SECTION
  2
HEADER
  9
$ACADVER
  1
AC1014
  9
$ACADMAINTVER
 70
     9
  9
$DWGCODEPAGE
  3
ANSI_1252
  9
$INSBASE
 10
0.0
 20
0.0
 30
0.0
  9
$EXTMIN
 10
0.0003661829982491
 20
0.0004357198109055
 30
0.0
  9
$EXTMAX
 10
10.4388747641855
 20
14.24324003958308
 30
0.0
  9
$LIMMIN
 10
0.0
 20
0.0
  9
$LIMMAX
 10
12.0
 20
9.0
  9
$ORTHOMODE
 70
     0
  9
$REGENMODE
 70
     1
  9
$FILLMODE
 70
     1
  9
$QTEXTMODE
 70
     0
  9
$MIRRTEXT
 70
     0
  9
$DRAGMODE
 70
     2
  9
$LTSCALE
 40
1.5
  9
$OSMODE
 70
    37
  9
$ATTMODE
 70
     1
  9
$TEXTSIZE
 40
0.25
  9
$TRACEWID
 40
0.05
  9
$TEXTSTYLE
  7
STANDARD
  9
$CLAYER
  8
0
  9
$CELTYPE
  6
BYLAYER
  9
$CECOLOR
 62
   256
  9
$CELTSCALE
 40
1.0
  9
$DELOBJ
 70
     1
  9
$DISPSILH
 70
     1
  9
$DIMSCALE
 40
6.0
  9
$DIMASZ
 40
0.125
  9
$DIMEXO
 40
0.0625
  9
$DIMDLI
 40
0.37890625
  9
$DIMRND
 40
0.0
  9
$DIMDLE
 40
0.0
  9
$DIMEXE
 40
0.09375
  9
$DIMTP
 40
0.0
  9
$DIMTM
 40
0.0
  9
$DIMTXT
 40
0.109375
  9
$DIMCEN
 40
0.0
  9
$DIMTSZ
 40
0.0
  9
$DIMTOL
 70
     0
  9
$DIMLIM
 70
     0
  9
$DIMTIH
 70
     1
  9
$DIMTOH
 70
     1
  9
$DIMSE1
 70
     0
  9
$DIMSE2
 70
     0
  9
$DIMTAD
 70
     0
  9
$DIMZIN
 70
     8
  9
$DIMBLK
  1

  9
$DIMASO
 70
     1
  9
$DIMSHO
 70
     1
  9
$DIMPOST
  1

  9
$DIMAPOST
  1

  9
$DIMALT
 70
     0
  9
$DIMALTD
 70
     2
  9
$DIMALTF
 40
25.4
  9
$DIMLFAC
 40
1.0
  9
$DIMTOFL
 70
     0
  9
$DIMTVP
 40
0.0
  9
$DIMTIX
 70
     0
  9
$DIMSOXD
 70
     0
  9
$DIMSAH
 70
     0
  9
$DIMBLK1
  1

  9
$DIMBLK2
  1

  9
$DIMSTYLE
  2
STANDARD
  9
$DIMCLRD
 70
     0
  9
$DIMCLRE
 70
     0
  9
$DIMCLRT
 70
   256
  9
$DIMTFAC
 40
1.0
  9
$DIMGAP
 40
0.08984375
  9
$DIMJUST
 70
     0
  9
$DIMSD1
 70
     0
  9
$DIMSD2
 70
     0
  9
$DIMTOLJ
 70
     1
  9
$DIMTZIN
 70
     0
  9
$DIMALTZ
 70
     0
  9
$DIMALTTZ
 70
     0
  9
$DIMFIT
 70
     3
  9
$DIMUPT
 70
     1
  9
$DIMUNIT
 70
     7
  9
$DIMDEC
 70
     4
  9
$DIMTDEC
 70
     4
  9
$DIMALTU
 70
     2
  9
$DIMALTTD
 70
     2
  9
$DIMTXSTY
  7
STANDARD
  9
$DIMAUNIT
 70
     0
  9
$LUNITS
 70
     5
  9
$LUPREC
 70
     6
  9
$SKETCHINC
 40
0.1
  9
$FILLETRAD
 40
0.0
  9
$AUNITS
 70
     0
  9
$AUPREC
 70
     1
  9
$MENU
  1
CUSTOM
  9
$ELEVATION
 40
0.0
  9
$PELEVATION
 40
0.0
  9
$THICKNESS
 40
0.0
  9
$LIMCHECK
 70
     0
  9
$BLIPMODE
 70
     0
  9
$CHAMFERA
 40
0.0
  9
$CHAMFERB
 40
0.0
  9
$CHAMFERC
 40
0.0
  9
$CHAMFERD
 40
0.0
  9
$SKPOLY
 70
     0
  9
$TDCREATE
 40
2451263.663231366
  9
$TDUPDATE
 40
2452759.744416585
  9
$TDINDWG
 40
0.1231531019
  9
$TDUSRTIMER
 40
0.1231531019
  9
$USRTIMER
 70
     1
  9
$ANGBASE
 50
0.0
  9
$ANGDIR
 70
     0
  9
$PDMODE
 70
     0
  9
$PDSIZE
 40
0.0
  9
$PLINEWID
 40
0.0
  9
$COORDS
 70
     1
  9
$SPLFRAME
 70
     0
  9
$SPLINETYPE
 70
     6
  9
$SPLINESEGS
 70
     8
  9
$ATTDIA
 70
     0
  9
$ATTREQ
 70
     1
  9
$HANDLING
 70
     1
  9
$HANDSEED
  5
AD
  9
$SURFTAB1
 70
     6
  9
$SURFTAB2
 70
     6
  9
$SURFTYPE
 70
     6
  9
$SURFU
 70
     6
  9
$SURFV
 70
     6
  9
$UCSNAME
  2

  9
$UCSORG
 10
0.0
 20
0.0
 30
0.0
  9
$UCSXDIR
 10
1.0
 20
0.0
 30
0.0
  9
$UCSYDIR
 10
0.0
 20
1.0
 30
0.0
  9
$PUCSNAME
  2

  9
$PUCSORG
 10
0.0
 20
0.0
 30
0.0
  9
$PUCSXDIR
 10
1.0
 20
0.0
 30
0.0
  9
$PUCSYDIR
 10
0.0
 20
1.0
 30
0.0
  9
$USERI1
 70
     0
  9
$USERI2
 70
     0
  9
$USERI3
 70
     0
  9
$USERI4
 70
     0
  9
$USERI5
 70
     0
  9
$USERR1
 40
0.0
  9
$USERR2
 40
0.0
  9
$USERR3
 40
0.0
  9
$USERR4
 40
0.0
  9
$USERR5
 40
0.0
  9
$WORLDVIEW
 70
     1
  9
$SHADEDGE
 70
     3
  9
$SHADEDIF
 70
    70
  9
$TILEMODE
 70
     1
  9
$MAXACTVP
 70
    16
  9
$PINSBASE
 10
0.0
 20
0.0
 30
0.0
  9
$PLIMCHECK
 70
     0
  9
$PEXTMIN
 10
1.000000000000000E+20
 20
1.000000000000000E+20
 30
1.000000000000000E+20
  9
$PEXTMAX
 10
-1.000000000000000E+20
 20
-1.000000000000000E+20
 30
-1.000000000000000E+20
  9
$PLIMMIN
 10
0.0
 20
0.0
  9
$PLIMMAX
 10
12.0
 20
9.0
  9
$UNITMODE
 70
     0
  9
$VISRETAIN
 70
     0
  9
$PLINEGEN
 70
     0
  9
$PSLTSCALE
 70
     0
  9
$TREEDEPTH
 70
  3020
  9
$PICKSTYLE
 70
     1
  9
$CMLSTYLE
  2
STANDARD
  9
$CMLJUST
 70
     0
  9
$CMLSCALE
 40
1.0
  9
$PROXYGRAPHICS
 70
     1
  9
$MEASUREMENT
 70
     0
  0
ENDSEC
  0
SECTION
  2
CLASSES
  0
CLASS
  1
ACDBDICTIONARYWDFLT
  2
AcDbDictionaryWithDefault
  3
AutoCAD 2000
 90
        0
280
     0
281
     0
  0
CLASS
  1
ACDBPLACEHOLDER
  2
AcDbPlaceHolder
  3
AutoCAD 2000
 90
        0
280
     0
281
     0
  0
CLASS
  1
LAYOUT
  2
AcDbLayout
  3
AutoCAD 2000
 90
        0
280
     0
281
     0
  0
CLASS
  1
DICTIONARYVAR
  2
AcDbDictionaryVar
  3
"AutoCAD"
 90
        0
280
     0
281
     0
  0
CLASS
  1
LONG_TRANSACTION
  2
AcDbLongTransaction
  3
AutoCAD 2000
 90
        0
280
     0
281
     0
  0
CLASS
  1
LWPOLYLINE
  2
AcDbPolyline
  3
"AutoCAD"
 90
        0
280
     0
281
     1
  0
CLASS
  1
HATCH
  2
AcDbHatch
  3
"ACAD_SEDONA"
 90
        0
280
     0
281
     1
  0
CLASS
  1
XRECORD
  2
AcDbXrecord
  3
"<Built In>"
 90
        0
280
     0
281
     0
  0
CLASS
  1
LONG_TRANSACTION
  2
AcDbLongTransaction
  3
AutoCAD 2000
 90
        0
280
     0
281
     0
  0
CLASS
  1
LWPOLYLINE
  2
AcDbPolyline
  3
"AutoCAD"
 90
        0
280
     0
281
     1
  0
CLASS
  1
HATCH
  2
AcDbHatch
  3
"ACAD_SEDONA"
 90
        0
280
     0
281
     1
  0
CLASS
  1
XRECORD
  2
AcDbXrecord
  3
"<Built In>"
 90
        0
280
     0
281
     0
  0
CLASS
  1
LONG_TRANSACTION
  2
AcDbLongTransaction
  3
AutoCAD 2000
 90
        0
280
     0
281
     0
  0
CLASS
  1
LWPOLYLINE
  2
AcDbPolyline
  3
"AutoCAD"
 90
        0
280
     0
281
     1
  0
CLASS
  1
HATCH
  2
AcDbHatch
  3
"ACAD_SEDONA"
 90
        0
280
     0
281
     1
  0
CLASS
  1
XRECORD
  2
AcDbXrecord
  3
"<Built In>"
 90
        0
280
     0
281
     0
  0
ENDSEC
  0
SECTION
  2
TABLES
  0
TABLE
  2
VPORT
  5
8F
100
AcDbSymbolTable
 70
     1
  0
VPORT
  5
A9
100
AcDbSymbolTableRecord
100
AcDbViewportTableRecord
  2
*ACTIVE
 70
     0
 10
0.0
 20
0.0
 11
1.0
 21
1.0
 12
-17.87626688134783
 22
17.56768605789788
 13
0.0
 23
0.0
 14
1.0
 24
1.0
 15
0.0
 25
0.0
 16
0.0
 26
0.0
 36
1.0
 17
23.09603071721725
 27
-10.27010416511325
 37
-10.44050274849355
 40
14.69920732978188
 41
1.457627118644067
 42
50.0
 43
10.55307667737539
 44
10.55307667737539
 50
0.0
 51
0.0
 71
     0
 72
   100
 73
     1
 74
     1
 75
     0
 76
     0
 77
     0
 78
     0
  0
ENDTAB
  0
TABLE
  2
LTYPE
  5
8A
100
AcDbSymbolTable
 70
     2
  0
LTYPE
  5
8B
100
AcDbSymbolTableRecord
100
AcDbLinetypeTableRecord
  2
BYBLOCK
 70
     0
  3

 72
    65
 73
     0
 40
0.0
  0
LTYPE
  5
8C
100
AcDbSymbolTableRecord
100
AcDbLinetypeTableRecord
  2
BYLAYER
 70
     0
  3

 72
    65
 73
     0
 40
0.0
  0
LTYPE
  5
5
100
AcDbSymbolTableRecord
100
AcDbLinetypeTableRecord
  2
CONTINUOUS
 70
     0
  3
Solid line
 72
    65
 73
     0
 40
0.0
  0
LTYPE
  5
1C
100
AcDbSymbolTableRecord
100
AcDbLinetypeTableRecord
  2
HIDDEN
 70
     0
  3
Hidden __ __ __ __ __ __ __ __ __ __ __ __ __ _
 72
    65
 73
     2
 40
0.375
 49
0.25
 74
     0
 49
-0.125
 74
     0
  0
ENDTAB
  0
TABLE
  2
LAYER
  5
88
100
AcDbSymbolTable
 70
     5
  0
LAYER
  5
2E
100
AcDbSymbolTableRecord
100
AcDbLayerTableRecord
  2
0
 70
     0
 62
     7
  6
CONTINUOUS
  0
LAYER
  5
8
100
AcDbSymbolTableRecord
100
AcDbLayerTableRecord
  2
USP-GEO
 70
     0
 62
     7
  6
CONTINUOUS
  0
LAYER
  5
2B
100
AcDbSymbolTableRecord
100
AcDbLayerTableRecord
  2
USP-TXT
 70
     0
 62
     7
  6
CONTINUOUS
  0
LAYER
  5
1B
100
AcDbSymbolTableRecord
100
AcDbLayerTableRecord
  2
USP-HID
 70
     0
 62
     7
  6
HIDDEN
  0
LAYER
  5
4
100
AcDbSymbolTableRecord
100
AcDbLayerTableRecord
  2
USP
 70
     0
 62
     7
  6
CONTINUOUS
  0
ENDTAB
  0
TABLE
  2
STYLE
  5
89
100
AcDbSymbolTable
 70
     1
  0
STYLE
  5
2C
100
AcDbSymbolTableRecord
100
AcDbTextStyleTableRecord
  2
STANDARD
 70
     0
 40
0.0
 41
1.0
 50
0.0
 71
     0
 42
0.25
  3
txt
  4

  0
ENDTAB
  0
TABLE
  2
VIEW
  5
8D
100
AcDbSymbolTable
 70
     0
  0
ENDTAB
  0
TABLE
  2
UCS
  5
8E
100
AcDbSymbolTable
 70
     0
  0
ENDTAB
  0
TABLE
  2
APPID
  5
91
100
AcDbSymbolTable
 70
     1
  0
APPID
  5
92
100
AcDbSymbolTableRecord
100
AcDbRegAppTableRecord
  2
ACAD
 70
     0
  0
ENDTAB
  0
TABLE
  2
DIMSTYLE
  5
93
100
AcDbSymbolTable
 70
     1
  0
DIMSTYLE
105
9B
100
AcDbSymbolTableRecord
100
AcDbDimStyleTableRecord
  2
STANDARD
 70
     0
  3

  4

  5

  6

  7

 40
1.0
 41
0.18
 42
0.0625
 43
0.38
 44
0.18
 45
0.0
 46
0.0
 47
0.0
 48
0.0
140
0.18
141
0.09
142
0.0
143
25.4
144
1.0
145
0.0
146
1.0
147
0.09
 71
     0
 72
     0
 73
     1
 74
     1
 75
     0
 76
     0
 77
     0
 78
     0
170
     0
171
     2
172
     0
173
     0
174
     0
175
     0
176
     0
177
     0
178
     0
270
     2
271
     4
272
     4
273
     2
274
     2
340
2C
275
     0
280
     0
281
     0
282
     0
283
     1
284
     0
285
     0
286
     0
287
     3
288
     0
  0
ENDTAB
  0
TABLE
  2
BLOCK_RECORD
  5
1
100
AcDbSymbolTable
 70
     3
  0
BLOCK_RECORD
  5
2
102
{ACAD_XDICTIONARY
360
7F
102
}
100
AcDbSymbolTableRecord
100
AcDbBlockTableRecord
  2
*MODEL_SPACE
  0
BLOCK_RECORD
  5
83
102
{ACAD_XDICTIONARY
360
84
102
}
100
AcDbSymbolTableRecord
100
AcDbBlockTableRecord
  2
*PAPER_SPACE
  0
BLOCK_RECORD
  5
6
100
AcDbSymbolTableRecord
100
AcDbBlockTableRecord
  2
C44_F
  0
BLOCK_RECORD
  5
31
100
AcDbSymbolTableRecord
100
AcDbBlockTableRecord
  2
C44_T
  0
BLOCK_RECORD
  5
5B
100
AcDbSymbolTableRecord
100
AcDbBlockTableRecord
  2
C44_S
  0
ENDTAB
  0
ENDSEC
  0
SECTION
  2
BLOCKS
  0
BLOCK
  5
81
100
AcDbEntity
  8
0
100
AcDbBlockBegin
  2
*MODEL_SPACE
 70
     0
 10
0.0
 20
0.0
 30
0.0
  3
*MODEL_SPACE
  1

  0
ENDBLK
  5
82
100
AcDbEntity
  8
0
100
AcDbBlockEnd
  0
BLOCK
  5
86
100
AcDbEntity
 67
     1
  8
0
100
AcDbBlockBegin
  2
*PAPER_SPACE
 70
     0
 10
0.0
 20
0.0
 30
0.0
  3
*PAPER_SPACE
  1

  0
ENDBLK
  5
87
100
AcDbEntity
 67
     1
  8
0
100
AcDbBlockEnd
  0
BLOCK
  5
2D
100
AcDbEntity
  8
0
100
AcDbBlockBegin
  2
C44_F
 70
     0
 10
0.0
 20
0.0
 30
0.0
  3
C44_F
  1

  0
LINE
  5
7
100
AcDbEntity
  8
USP-GEO
100
AcDbLine
 10
3.66600000000001
 20
4.301999999999981
 30
0.0
 11
3.666000000000019
 21
5.801999999999992
 31
0.0
  0
LINE
  5
9
100
AcDbEntity
  8
USP-GEO
100
AcDbLine
 10
3.614000000000007
 20
4.301999999999983
 30
0.0
 11
3.614000000000016
 21
5.801999999999992
 31
0.0
  0
LINE
  5
A
100
AcDbEntity
  8
USP-GEO
100
AcDbLine
 10
0.0000000000000178
 20
5.802000000000036
 30
0.0
 11
0.0000000000000082
 21
4.302000000000042
 31
0.0
  0
LINE
  5
B
100
AcDbEntity
  8
USP-GEO
100
AcDbLine
 10
0.0520000000000078
 20
4.302000000000042
 30
0.0
 11
0.0520000000000174
 21
5.802000000000035
 31
0.0
  0
LINE
  5
C
100
AcDbEntity
  8
USP-GEO
100
AcDbLine
 10
0.207999999999982
 20
1.500000000000002
 30
0.0
 11
1.707999999999973
 21
0.0
 31
0.0
  0
LINE
  5
D
100
AcDbEntity
  8
USP-GEO
100
AcDbLine
 10
1.957999999999973
 20
-0.0000000000000013
 30
0.0
 11
3.457999999999983
 21
1.500000000000001
 31
0.0
  0
LINE
  5
E
100
AcDbEntity
  8
USP-GEO
100
AcDbLine
 10
1.957999999999973
 20
-0.0000000000000013
 30
0.0
 11
1.707999999999973
 21
0.0000000000000004
 31
0.0
  0
CIRCLE
  5
F
100
AcDbEntity
  8
USP-GEO
100
AcDbCircle
 10
1.832999999999974
 20
0.2810000000000001
 30
0.0
 40
0.086
  0
LINE
  5
10
100
AcDbEntity
  8
USP-GEO
100
AcDbLine
 10
3.666000000000001
 20
2.875
 30
0.0
 11
3.666000000000009
 21
4.301999999999981
 31
0.0
  0
LINE
  5
11
100
AcDbEntity
  8
USP-GEO
100
AcDbLine
 10
3.614
 20
2.927000000000001
 30
0.0
 11
3.614000000000008
 21
4.301999999999983
 31
0.0
  0
LINE
  5
12
100
AcDbEntity
  8
USP-GEO
100
AcDbLine
 10
0.0000000000000087
 20
4.302000000000042
 30
0.0
 11
0.0
 21
2.875000000000023
 31
0.0
  0
LINE
  5
13
100
AcDbEntity
  8
USP-GEO
100
AcDbLine
 10
0.0520000000000001
 20
2.927000000000023
 30
0.0
 11
0.0520000000000085
 21
4.302000000000042
 31
0.0
  0
LINE
  5
14
100
AcDbEntity
  8
USP-GEO
100
AcDbLine
 10
3.457999999999993
 20
2.927000000000001
 30
0.0
 11
3.457999999999984
 21
1.500000000000001
 31
0.0
  0
LINE
  5
15
100
AcDbEntity
  8
USP-GEO
100
AcDbLine
 10
0.2079999999999937
 20
2.927000000000001
 30
0.0
 11
0.2079999999999826
 21
1.500000000000002
 31
0.0
  0
CIRCLE
  5
16
100
AcDbEntity
  8
USP-GEO
100
AcDbCircle
 10
0.9579999999999841
 20
1.781250000000004
 30
0.0
 40
0.086
  0
CIRCLE
  5
17
100
AcDbEntity
  8
USP-GEO
100
AcDbCircle
 10
2.707999999999986
 20
1.968
 30
0.0
 40
0.086
  0
LINE
  5
18
100
AcDbEntity
  8
USP-GEO
100
AcDbLine
 10
3.582999999999989
 20
2.927000000000001
 30
0.0
 11
3.582999999999989
 21
2.875000000000002
 31
0.0
  0
LINE
  5
19
100
AcDbEntity
  8
USP-GEO
100
AcDbLine
 10
0.0829999999999927
 20
2.927000000000022
 30
0.0
 11
0.0829999999999922
 21
2.875000000000021
 31
0.0
  0
LINE
  5
1A
100
AcDbEntity
  8
USP-HID
100
AcDbLine
 10
0.2079999999999911
 20
2.875000000000021
 30
0.0
 11
3.457999999999991
 21
2.875000000000002
 31
0.0
  0
LINE
  5
1D
100
AcDbEntity
  8
USP-GEO
100
AcDbLine
 10
0.0
 20
2.875000000000022
 30
0.0
 11
0.0829999999999927
 21
2.875000000000021
 31
0.0
  0
LINE
  5
1E
100
AcDbEntity
  8
USP-GEO
100
AcDbLine
 10
0.0829999999999927
 20
2.875000000000021
 30
0.0
 11
0.2079999999999924
 21
2.875000000000021
 31
0.0
  0
LINE
  5
1F
100
AcDbEntity
  8
USP-GEO
100
AcDbLine
 10
3.58299999999999
 20
2.875000000000002
 30
0.0
 11
3.666000000000001
 21
2.875000000000001
 31
0.0
  0
LINE
  5
20
100
AcDbEntity
  8
USP-GEO
100
AcDbLine
 10
3.45799999999999
 20
2.875000000000002
 30
0.0
 11
3.58299999999999
 21
2.875000000000001
 31
0.0
  0
LINE
  5
21
100
AcDbEntity
  8
USP-GEO
100
AcDbLine
 10
3.457999999999993
 20
2.927000000000001
 30
0.0
 11
0.2079999999999935
 21
2.927000000000001
 31
0.0
  0
LINE
  5
22
100
AcDbEntity
  8
USP-GEO
100
AcDbLine
 10
0.0829999999999927
 20
2.927000000000022
 30
0.0
 11
0.0519999999999996
 21
2.927000000000023
 31
0.0
  0
LINE
  5
23
100
AcDbEntity
  8
USP-GEO
100
AcDbLine
 10
0.2079999999999924
 20
2.927000000000021
 30
0.0
 11
0.0829999999999927
 21
2.927000000000022
 31
0.0
  0
LINE
  5
24
100
AcDbEntity
  8
USP-GEO
100
AcDbLine
 10
3.582999999999989
 20
2.927000000000001
 30
0.0
 11
3.614
 21
2.927000000000001
 31
0.0
  0
LINE
  5
25
100
AcDbEntity
  8
USP-GEO
100
AcDbLine
 10
3.582999999999989
 20
2.927000000000001
 30
0.0
 11
3.457999999999989
 21
2.927000000000002
 31
0.0
  0
LINE
  5
26
100
AcDbEntity
  8
USP-GEO
100
AcDbLine
 10
0.0520000000000078
 20
4.302000000000042
 30
0.0
 11
0.0000000000000082
 21
4.302000000000042
 31
0.0
  0
LINE
  5
27
100
AcDbEntity
  8
USP-GEO
100
AcDbLine
 10
3.614000000000007
 20
4.301999999999983
 30
0.0
 11
3.66600000000001
 21
4.301999999999983
 31
0.0
  0
LINE
  5
28
100
AcDbEntity
  8
USP-GEO
100
AcDbLine
 10
0.0520000000000178
 20
5.802000000000035
 30
0.0
 11
0.0000000000000178
 21
5.802000000000035
 31
0.0
  0
LINE
  5
29
100
AcDbEntity
  8
USP-GEO
100
AcDbLine
 10
3.614000000000018
 20
5.801999999999992
 30
0.0
 11
3.666000000000019
 21
5.801999999999992
 31
0.0
  0
TEXT
  5
2A
100
AcDbEntity
  8
USP-TXT
100
AcDbText
 10
-0.1861259423963108
 20
-1.245894989679297
 30
0.0
 40
0.25
  1
C44 - FRONT VIEW
 72
     1
 11
1.813874057603689
 21
-1.245894989679297
 31
0.0
100
AcDbText
  0
ENDBLK
  5
2F
100
AcDbEntity
  8
0
100
AcDbBlockEnd
  0
BLOCK
  5
58
100
AcDbEntity
  8
0
100
AcDbBlockBegin
  2
C44_T
 70
     0
 10
0.0
 20
0.0
 30
0.0
  3
C44_T
  1

  0
LINE
  5
32
100
AcDbEntity
  8
USP-GEO
100
AcDbLine
 10
3.613999999999998
 20
0.2079999999999877
 30
0.0
 11
3.614000000000009
 21
1.707999999999998
 31
0.0
  0
LINE
  5
33
100
AcDbEntity
  8
USP-GEO
100
AcDbLine
 10
3.666000000000002
 20
0.2079999999999895
 30
0.0
 11
3.666000000000011
 21
1.707999999999998
 31
0.0
  0
LINE
  5
34
100
AcDbEntity
  8
USP-GEO
100
AcDbLine
 10
0.0519999999999997
 20
0.2079999999999931
 30
0.0
 11
0.0520000000000104
 21
1.707999999999987
 31
0.0
  0
LINE
  5
35
100
AcDbEntity
  8
USP-GEO
100
AcDbLine
 10
0.0000000000000108
 20
1.707999999999989
 30
0.0
 11
0.0000000000000001
 21
0.2079999999999931
 31
0.0
  0
ARC
  5
36
100
AcDbEntity
  8
USP-GEO
100
AcDbCircle
 10
3.58299999999998
 20
0.0829999999999895
 30
0.0
 40
0.125
100
AcDbArc
 50
90.0
 51
179.9999999999996
  0
ARC
  5
37
100
AcDbEntity
  8
USP-GEO
100
AcDbCircle
 10
0.0829999999999834
 20
0.0829999999999931
 30
0.0
 40
0.125
100
AcDbArc
 50
0.0
 51
89.99999999999994
  0
LINE
  5
38
100
AcDbEntity
  8
USP-HID
100
AcDbLine
 10
0.2079999999999825
 20
0.0520000000000014
 30
0.0
 11
3.457999999999983
 21
0.0519999999999978
 31
0.0
  0
LINE
  5
39
100
AcDbEntity
  8
USP-GEO
100
AcDbLine
 10
3.457999999999983
 20
-0.0000000000000018
 30
0.0
 11
0.2079999999999852
 21
0.0
 31
0.0
  0
LINE
  5
3A
100
AcDbEntity
  8
USP-GEO
100
AcDbLine
 10
0.2079999999999852
 20
0.0000000000000018
 30
0.0
 11
0.2079999999999852
 21
0.0829999999999931
 31
0.0
  0
LINE
  5
3B
100
AcDbEntity
  8
USP-GEO
100
AcDbLine
 10
3.457999999999983
 20
-0.0000000000000018
 30
0.0
 11
3.457999999999983
 21
0.0829999999999913
 31
0.0
  0
LINE
  5
3C
100
AcDbEntity
  8
USP-GEO
100
AcDbLine
 10
0.0829999999999843
 20
0.2079999999999931
 30
0.0
 11
0.0519999999999908
 21
0.2079999999999931
 31
0.0
  0
LINE
  5
3D
100
AcDbEntity
  8
USP-GEO
100
AcDbLine
 10
0.0519999999999997
 20
0.2079999999999931
 30
0.0
 11
0.0000000000000001
 21
0.2079999999999931
 31
0.0
  0
LINE
  5
3E
100
AcDbEntity
  8
USP-GEO
100
AcDbLine
 10
3.58299999999998
 20
0.2079999999999913
 30
0.0
 11
3.613999999999991
 21
0.2079999999999913
 31
0.0
  0
LINE
  5
3F
100
AcDbEntity
  8
USP-GEO
100
AcDbLine
 10
3.613999999999998
 20
0.2079999999999877
 30
0.0
 11
3.666000000000002
 21
0.2079999999999877
 31
0.0
  0
LINE
  5
40
100
AcDbEntity
  8
USP-GEO
100
AcDbLine
 10
3.614000000000009
 20
1.957999999999987
 30
0.0
 11
3.614
 21
3.457999999999987
 31
0.0
  0
LINE
  5
41
100
AcDbEntity
  8
USP-GEO
100
AcDbLine
 10
3.666000000000011
 20
1.957999999999985
 30
0.0
 11
3.666000000000003
 21
3.457999999999985
 31
0.0
  0
LINE
  5
42
100
AcDbEntity
  8
USP-GEO
100
AcDbLine
 10
0.0520000000000015
 20
3.457999999999993
 30
0.0
 11
0.0520000000000104
 21
1.957999999999993
 31
0.0
  0
LINE
  5
43
100
AcDbEntity
  8
USP-GEO
100
AcDbLine
 10
0.0000000000000019
 20
3.457999999999993
 30
0.0
 11
0.0000000000000108
 21
1.957999999999993
 31
0.0
  0
CIRCLE
  5
44
100
AcDbEntity
  8
USP-GEO
100
AcDbCircle
 10
1.832999999999981
 20
1.832999999999987
 30
0.0
 40
0.28125
  0
LINE
  5
45
100
AcDbEntity
  8
USP-GEO
100
AcDbLine
 10
3.614000000000009
 20
1.957999999999987
 30
0.0
 11
3.614000000000009
 21
1.707999999999998
 31
0.0
  0
LINE
  5
46
100
AcDbEntity
  8
USP-GEO
100
AcDbLine
 10
3.666000000000011
 20
1.707999999999996
 30
0.0
 11
3.666000000000011
 21
1.957999999999985
 31
0.0
  0
LINE
  5
47
100
AcDbEntity
  8
USP-GEO
100
AcDbLine
 10
0.0520000000000113
 20
1.707999999999989
 30
0.0
 11
0.0520000000000113
 21
1.957999999999993
 31
0.0
  0
LINE
  5
48
100
AcDbEntity
  8
USP-GEO
100
AcDbLine
 10
0.0000000000000108
 20
1.957999999999993
 30
0.0
 11
0.0000000000000099
 21
1.707999999999989
 31
0.0
  0
LINE
  5
49
100
AcDbEntity
  8
USP-GEO
100
AcDbLine
 10
0.0520000000000113
 20
1.707999999999989
 30
0.0
 11
0.0000000000000099
 21
1.707999999999989
 31
0.0
  0
LINE
  5
4A
100
AcDbEntity
  8
USP-GEO
100
AcDbLine
 10
3.61400000000001
 20
1.707999999999998
 30
0.0
 11
3.666000000000011
 21
1.707999999999998
 31
0.0
  0
LINE
  5
4B
100
AcDbEntity
  8
USP-GEO
100
AcDbLine
 10
0.0520000000000113
 20
1.957999999999993
 30
0.0
 11
0.0000000000000108
 21
1.957999999999993
 31
0.0
  0
LINE
  5
4C
100
AcDbEntity
  8
USP-GEO
100
AcDbLine
 10
3.614000000000009
 20
1.957999999999987
 30
0.0
 11
3.666000000000011
 21
1.957999999999987
 31
0.0
  0
ARC
  5
4D
100
AcDbEntity
  8
USP-GEO
100
AcDbCircle
 10
3.582999999999984
 20
3.582999999999989
 30
0.0
 40
0.125
100
AcDbArc
 50
180.0
 51
270.0
  0
ARC
  5
4E
100
AcDbEntity
  8
USP-GEO
100
AcDbCircle
 10
0.0829999999999834
 20
3.582999999999989
 30
0.0
 40
0.125
100
AcDbArc
 50
269.9999999999992
 51
0.0
  0
LINE
  5
4F
100
AcDbEntity
  8
USP-GEO
100
AcDbLine
 10
0.0829999999999817
 20
3.457999999999989
 30
0.0
 11
0.0519999999999935
 21
3.457999999999989
 31
0.0
  0
LINE
  5
50
100
AcDbEntity
  8
USP-GEO
100
AcDbLine
 10
0.0520000000000015
 20
3.457999999999993
 30
0.0
 11
0.0000000000000019
 21
3.457999999999993
 31
0.0
  0
LINE
  5
51
100
AcDbEntity
  8
USP-GEO
100
AcDbLine
 10
3.582999999999982
 20
3.457999999999993
 30
0.0
 11
3.613999999999992
 21
3.457999999999991
 31
0.0
  0
LINE
  5
52
100
AcDbEntity
  8
USP-GEO
100
AcDbLine
 10
3.614
 20
3.457999999999987
 30
0.0
 11
3.666000000000002
 21
3.457999999999987
 31
0.0
  0
LINE
  5
53
100
AcDbEntity
  8
USP-HID
100
AcDbLine
 10
3.457999999999981
 20
3.613999999999997
 30
0.0
 11
0.2079999999999834
 21
3.613999999999997
 31
0.0
  0
LINE
  5
54
100
AcDbEntity
  8
USP-GEO
100
AcDbLine
 10
0.2079999999999852
 20
3.665999999999998
 30
0.0
 11
3.457999999999984
 21
3.665999999999996
 31
0.0
  0
LINE
  5
55
100
AcDbEntity
  8
USP-GEO
100
AcDbLine
 10
0.2079999999999852
 20
3.665999999999998
 30
0.0
 11
0.2079999999999852
 21
3.582999999999989
 31
0.0
  0
LINE
  5
56
100
AcDbEntity
  8
USP-GEO
100
AcDbLine
 10
3.457999999999984
 20
3.665999999999995
 30
0.0
 11
3.457999999999984
 21
3.582999999999989
 31
0.0
  0
TEXT
  5
57
100
AcDbEntity
  8
USP-TXT
100
AcDbText
 10
0.0638740576036825
 20
-1.788008759311271
 30
0.0
 40
0.25
  1
C44 - TOP VIEW
 72
     1
 11
1.813874057603682
 21
-1.788008759311271
 31
0.0
100
AcDbText
  0
ENDBLK
  5
59
100
AcDbEntity
  8
0
100
AcDbBlockEnd
  0
BLOCK
  5
7D
100
AcDbEntity
  8
0
100
AcDbBlockBegin
  2
C44_S
 70
     0
 10
0.0
 20
0.0
 30
0.0
  3
C44_S
  1

  0
LINE
  5
5C
100
AcDbEntity
  8
USP-GEO
100
AcDbLine
 10
1.957999999999989
 20
5.801999999999996
 30
0.0
 11
3.457999999999987
 21
4.301999999999981
 31
0.0
  0
LINE
  5
5D
100
AcDbEntity
  8
USP-GEO
100
AcDbLine
 10
0.2079999999999895
 20
4.301999999999984
 30
0.0
 11
1.708
 21
5.801999999999994
 31
0.0
  0
LINE
  5
5E
100
AcDbEntity
  8
USP-GEO
100
AcDbLine
 10
3.613999999999997
 20
1.500000000000006
 30
0.0
 11
3.613999999999997
 21
0.0000000000000187
 31
0.0
  0
LINE
  5
5F
100
AcDbEntity
  8
USP-GEO
100
AcDbLine
 10
3.665999999999998
 20
1.500000000000006
 30
0.0
 11
3.665999999999998
 21
0.0000000000000187
 31
0.0
  0
LINE
  5
60
100
AcDbEntity
  8
USP-GEO
100
AcDbLine
 10
0.0519999999999996
 20
-0.0000000000000009
 30
0.0
 11
0.0519999999999996
 21
1.500000000000002
 31
0.0
  0
LINE
  5
61
100
AcDbEntity
  8
USP-GEO
100
AcDbLine
 10
0.0
 20
0.0
 30
0.0
 11
0.0
 21
1.500000000000002
 31
0.0
  0
TEXT
  5
62
100
AcDbEntity
  8
USP-TXT
100
AcDbText
 10
0.0416223984200337
 20
-1.245894989679293
 30
0.0
 40
0.25
  1
C44 - SIDE VIEW
 72
     1
 11
1.874955731753367
 21
-1.245894989679293
 31
0.0
100
AcDbText
  0
LINE
  5
63
100
AcDbEntity
  8
USP-GEO
100
AcDbLine
 10
0.0
 20
0.0
 30
0.0
 11
0.0519999999999996
 21
0.0
 31
0.0
  0
LINE
  5
64
100
AcDbEntity
  8
USP-GEO
100
AcDbLine
 10
3.665999999999996
 20
0.0000000000000187
 30
0.0
 11
3.613999999999997
 21
0.0000000000000187
 31
0.0
  0
LINE
  5
65
100
AcDbEntity
  8
USP-GEO
100
AcDbLine
 10
3.457999999999987
 20
4.301999999999983
 30
0.0
 11
3.457999999999991
 21
2.874999999999981
 31
0.0
  0
LINE
  5
66
100
AcDbEntity
  8
USP-GEO
100
AcDbLine
 10
0.2079999999999913
 20
2.875000000000002
 30
0.0
 11
0.2079999999999895
 21
4.301999999999984
 31
0.0
  0
LINE
  5
67
100
AcDbEntity
  8
USP-GEO
100
AcDbLine
 10
3.613999999999997
 20
2.875000000000002
 30
0.0
 11
3.613999999999997
 21
1.500000000000006
 31
0.0
  0
LINE
  5
68
100
AcDbEntity
  8
USP-GEO
100
AcDbLine
 10
3.665999999999996
 20
2.927000000000003
 30
0.0
 11
3.665999999999996
 21
1.500000000000006
 31
0.0
  0
LINE
  5
69
100
AcDbEntity
  8
USP-GEO
100
AcDbLine
 10
0.0519999999999996
 20
1.500000000000002
 30
0.0
 11
0.0519999999999996
 21
2.875000000000003
 31
0.0
  0
LINE
  5
6A
100
AcDbEntity
  8
USP-GEO
100
AcDbLine
 10
0.0
 20
2.927000000000003
 30
0.0
 11
0.0
 21
1.500000000000003
 31
0.0
  0
LINE
  5
6B
100
AcDbEntity
  8
USP-GEO
100
AcDbLine
 10
0.0
 20
1.500000000000003
 30
0.0
 11
0.0519999999999996
 21
1.500000000000003
 31
0.0
  0
LINE
  5
6C
100
AcDbEntity
  8
USP-GEO
100
AcDbLine
 10
3.665999999999998
 20
1.500000000000006
 30
0.0
 11
3.613999999999997
 21
1.500000000000006
 31
0.0
  0
LINE
  5
6D
100
AcDbEntity
  8
USP-GEO
100
AcDbLine
 10
3.582999999999991
 20
2.927000000000002
 30
0.0
 11
3.582999999999991
 21
2.875000000000001
 31
0.0
  0
LINE
  5
6E
100
AcDbEntity
  8
USP-GEO
100
AcDbLine
 10
0.0829999999999913
 20
2.927000000000004
 30
0.0
 11
0.0829999999999913
 21
2.875000000000003
 31
0.0
  0
LINE
  5
6F
100
AcDbEntity
  8
USP-GEO
100
AcDbLine
 10
3.457999999999991
 20
2.874999999999981
 30
0.0
 11
0.2079999999999913
 21
2.875000000000003
 31
0.0
  0
LINE
  5
70
100
AcDbEntity
  8
USP-GEO
100
AcDbLine
 10
0.0519999999999996
 20
2.875000000000003
 30
0.0
 11
0.0829999999999913
 21
2.875000000000003
 31
0.0
  0
LINE
  5
71
100
AcDbEntity
  8
USP-GEO
100
AcDbLine
 10
0.0829999999999913
 20
2.875000000000003
 30
0.0
 11
0.2079999999999913
 21
2.875000000000002
 31
0.0
  0
LINE
  5
72
100
AcDbEntity
  8
USP-GEO
100
AcDbLine
 10
3.457999999999991
 20
2.875000000000002
 30
0.0
 11
3.582999999999991
 21
2.875000000000003
 31
0.0
  0
LINE
  5
73
100
AcDbEntity
  8
USP-GEO
100
AcDbLine
 10
3.582999999999991
 20
2.875000000000001
 30
0.0
 11
3.613999999999997
 21
2.875000000000001
 31
0.0
  0
LINE
  5
74
100
AcDbEntity
  8
USP-HID
100
AcDbLine
 10
3.457999999999991
 20
2.927000000000002
 30
0.0
 11
0.2079999999999931
 21
2.927000000000003
 31
0.0
  0
LINE
  5
75
100
AcDbEntity
  8
USP-GEO
100
AcDbLine
 10
0.0
 20
2.927000000000003
 30
0.0
 11
0.0829999999999913
 21
2.927000000000003
 31
0.0
  0
LINE
  5
76
100
AcDbEntity
  8
USP-GEO
100
AcDbLine
 10
0.2079999999999913
 20
2.927000000000004
 30
0.0
 11
0.0829999999999913
 21
2.927000000000004
 31
0.0
  0
LINE
  5
77
100
AcDbEntity
  8
USP-GEO
100
AcDbLine
 10
3.582999999999991
 20
2.927000000000003
 30
0.0
 11
3.457999999999991
 21
2.927000000000002
 31
0.0
  0
LINE
  5
78
100
AcDbEntity
  8
USP-GEO
100
AcDbLine
 10
3.665999999999996
 20
2.927000000000003
 30
0.0
 11
3.582999999999991
 21
2.927000000000003
 31
0.0
  0
CIRCLE
  5
79
100
AcDbEntity
  8
USP-GEO
100
AcDbCircle
 10
0.9579999999999913
 20
4.020499999999993
 30
0.0
 40
0.086
  0
CIRCLE
  5
7A
100
AcDbEntity
  8
USP-GEO
100
AcDbCircle
 10
2.707999999999993
 20
3.833999999999988
 30
0.0
 40
0.086
  0
CIRCLE
  5
7B
100
AcDbEntity
  8
USP-GEO
100
AcDbCircle
 10
1.832999999999989
 20
5.520999999999993
 30
0.0
 40
0.086
  0
LINE
  5
7C
100
AcDbEntity
  8
USP-GEO
100
AcDbLine
 10
1.707999999999998
 20
5.801999999999992
 30
0.0
 11
1.957999999999989
 21
5.801999999999996
 31
0.0
  0
ENDBLK
  5
7E
100
AcDbEntity
  8
0
100
AcDbBlockEnd
  0
ENDSEC
  0
SECTION
  2
ENTITIES
  0
INSERT
  5
3
100
AcDbEntity
  8
USP
100
AcDbBlockReference
  2
C44_F
 10
0.1864921253945599
 20
1.246330709490203
 30
0.0
  0
INSERT
  5
30
100
AcDbEntity
  8
USP
100
AcDbBlockReference
  2
C44_T
 10
0.1864921253945777
 20
10.57724003958308
 30
0.0
  0
INSERT
  5
5A
100
AcDbEntity
  8
USP
100
AcDbBlockReference
  2
C44_S
 10
6.730585699098794
 20
1.246330709490202
 30
0.0
  0
ENDSEC
  0
SECTION
  2
OBJECTS
  0
DICTIONARY
  5
97
102
{ACAD_XDICTIONARY
360
98
102
}
100
AcDbDictionary
  3
ACAD_GROUP
350
95
  3
ACAD_MLINESTYLE
350
96
  0
DICTIONARY
  5
7F
100
AcDbDictionary
280
     1
  3
ACAD_LAYOUTSELFREF
360
80
  0
DICTIONARY
  5
84
100
AcDbDictionary
280
     1
  3
ACAD_LAYOUTSELFREF
360
85
  0
DICTIONARY
  5
98
100
AcDbDictionary
280
     1
  3
ACAD_XREC_ROUNDTRIP
360
99
  0
DICTIONARY
  5
95
102
{ACAD_REACTORS
330
97
102
}
100
AcDbDictionary
  0
DICTIONARY
  5
96
102
{ACAD_REACTORS
330
97
102
}
100
AcDbDictionary
  3
STANDARD
350
9A
  0
XRECORD
  5
80
102
{ACAD_REACTORS
330
7F
102
}
100
AcDbXrecord
340
18
  0
XRECORD
  5
85
102
{ACAD_REACTORS
330
84
102
}
100
AcDbXrecord
340
15
  0
XRECORD
  5
99
102
{ACAD_REACTORS
330
98
102
}
100
AcDbXrecord
102
EXTNAMES
  1
ACDBVARIABLEDICTIONARY
  2
AcDbVariableDictionary
  0
MLINESTYLE
  5
9A
102
{ACAD_REACTORS
330
96
102
}
100
AcDbMlineStyle
  2
STANDARD
 70
     0
  3

 62
     0
 51
90.0
 52
90.0
 71
     2
 49
0.5
 62
   256
  6
BYLAYER
 49
-0.5
 62
   256
  6
BYLAYER
  0
ENDSEC
  0
EOF
