  0
SECTION
  2
HEADER
  9
$ACADVER
  1
AC1014
  9
$ACADMAINTVER
 70
     9
  9
$DWGCODEPAGE
  3
ANSI_1252
  9
$INSBASE
 10
0.0
 20
0.0
 30
0.0
  9
$EXTMIN
 10
0.0003661829982491
 20
0.0002746372486868
 30
0.000000000000002
  9
$EXTMAX
 10
8.204379341605447
 20
7.458795132442703
 30
0.0000000000000029
  9
$LIMMIN
 10
0.0
 20
0.0
  9
$LIMMAX
 10
12.0
 20
9.0
  9
$ORTHOMODE
 70
     0
  9
$REGENMODE
 70
     1
  9
$FILLMODE
 70
     1
  9
$QTEXTMODE
 70
     0
  9
$MIRRTEXT
 70
     1
  9
$DRAGMODE
 70
     2
  9
$LTSCALE
 40
0.5
  9
$OSMODE
 70
    37
  9
$ATTMODE
 70
     1
  9
$TEXTSIZE
 40
0.25
  9
$TRACEWID
 40
0.05
  9
$TEXTSTYLE
  7
STANDARD
  9
$CLAYER
  8
0
  9
$CELTYPE
  6
BYLAYER
  9
$CECOLOR
 62
   256
  9
$CELTSCALE
 40
1.0
  9
$DELOBJ
 70
     1
  9
$DISPSILH
 70
     0
  9
$DIMSCALE
 40
1.0
  9
$DIMASZ
 40
0.18
  9
$DIMEXO
 40
0.0625
  9
$DIMDLI
 40
0.38
  9
$DIMRND
 40
0.0
  9
$DIMDLE
 40
0.0
  9
$DIMEXE
 40
0.18
  9
$DIMTP
 40
0.0
  9
$DIMTM
 40
0.0
  9
$DIMTXT
 40
0.18
  9
$DIMCEN
 40
0.09
  9
$DIMTSZ
 40
0.0
  9
$DIMTOL
 70
     0
  9
$DIMLIM
 70
     0
  9
$DIMTIH
 70
     1
  9
$DIMTOH
 70
     1
  9
$DIMSE1
 70
     0
  9
$DIMSE2
 70
     0
  9
$DIMTAD
 70
     0
  9
$DIMZIN
 70
     0
  9
$DIMBLK
  1

  9
$DIMASO
 70
     1
  9
$DIMSHO
 70
     1
  9
$DIMPOST
  1

  9
$DIMAPOST
  1

  9
$DIMALT
 70
     0
  9
$DIMALTD
 70
     2
  9
$DIMALTF
 40
25.4
  9
$DIMLFAC
 40
1.0
  9
$DIMTOFL
 70
     0
  9
$DIMTVP
 40
0.0
  9
$DIMTIX
 70
     0
  9
$DIMSOXD
 70
     0
  9
$DIMSAH
 70
     0
  9
$DIMBLK1
  1

  9
$DIMBLK2
  1

  9
$DIMSTYLE
  2
STANDARD
  9
$DIMCLRD
 70
     0
  9
$DIMCLRE
 70
     0
  9
$DIMCLRT
 70
     0
  9
$DIMTFAC
 40
1.0
  9
$DIMGAP
 40
0.09
  9
$DIMJUST
 70
     0
  9
$DIMSD1
 70
     0
  9
$DIMSD2
 70
     0
  9
$DIMTOLJ
 70
     1
  9
$DIMTZIN
 70
     0
  9
$DIMALTZ
 70
     0
  9
$DIMALTTZ
 70
     0
  9
$DIMFIT
 70
     3
  9
$DIMUPT
 70
     0
  9
$DIMUNIT
 70
     2
  9
$DIMDEC
 70
     4
  9
$DIMTDEC
 70
     4
  9
$DIMALTU
 70
     2
  9
$DIMALTTD
 70
     2
  9
$DIMTXSTY
  7
STANDARD
  9
$DIMAUNIT
 70
     0
  9
$LUNITS
 70
     2
  9
$LUPREC
 70
     4
  9
$SKETCHINC
 40
0.1
  9
$FILLETRAD
 40
0.5
  9
$AUNITS
 70
     0
  9
$AUPREC
 70
     0
  9
$MENU
  1
.
  9
$ELEVATION
 40
0.0
  9
$PELEVATION
 40
0.0
  9
$THICKNESS
 40
0.0
  9
$LIMCHECK
 70
     0
  9
$BLIPMODE
 70
     0
  9
$CHAMFERA
 40
0.5
  9
$CHAMFERB
 40
0.5
  9
$CHAMFERC
 40
1.0
  9
$CHAMFERD
 40
0.0
  9
$SKPOLY
 70
     0
  9
$TDCREATE
 40
2451675.885797453
  9
$TDUPDATE
 40
2452759.744364872
  9
$TDINDWG
 40
0.3877483449
  9
$TDUSRTIMER
 40
0.3877401273
  9
$USRTIMER
 70
     1
  9
$ANGBASE
 50
0.0
  9
$ANGDIR
 70
     0
  9
$PDMODE
 70
     0
  9
$PDSIZE
 40
0.0
  9
$PLINEWID
 40
0.0
  9
$COORDS
 70
     1
  9
$SPLFRAME
 70
     0
  9
$SPLINETYPE
 70
     6
  9
$SPLINESEGS
 70
     8
  9
$ATTDIA
 70
     0
  9
$ATTREQ
 70
     1
  9
$HANDLING
 70
     1
  9
$HANDSEED
  5
A6
  9
$SURFTAB1
 70
     6
  9
$SURFTAB2
 70
     6
  9
$SURFTYPE
 70
     6
  9
$SURFU
 70
     6
  9
$SURFV
 70
     6
  9
$UCSNAME
  2

  9
$UCSORG
 10
0.0
 20
0.0
 30
0.0
  9
$UCSXDIR
 10
1.0
 20
0.0
 30
0.0
  9
$UCSYDIR
 10
0.0
 20
1.0
 30
0.0
  9
$PUCSNAME
  2

  9
$PUCSORG
 10
0.0
 20
0.0
 30
0.0
  9
$PUCSXDIR
 10
1.0
 20
0.0
 30
0.0
  9
$PUCSYDIR
 10
0.0
 20
1.0
 30
0.0
  9
$USERI1
 70
     0
  9
$USERI2
 70
     0
  9
$USERI3
 70
     0
  9
$USERI4
 70
     0
  9
$USERI5
 70
     0
  9
$USERR1
 40
0.0
  9
$USERR2
 40
0.0
  9
$USERR3
 40
0.0
  9
$USERR4
 40
0.0
  9
$USERR5
 40
0.0
  9
$WORLDVIEW
 70
     1
  9
$SHADEDGE
 70
     3
  9
$SHADEDIF
 70
    70
  9
$TILEMODE
 70
     1
  9
$MAXACTVP
 70
    48
  9
$PINSBASE
 10
0.0
 20
0.0
 30
0.0
  9
$PLIMCHECK
 70
     0
  9
$PEXTMIN
 10
1.000000000000000E+20
 20
1.000000000000000E+20
 30
1.000000000000000E+20
  9
$PEXTMAX
 10
-1.000000000000000E+20
 20
-1.000000000000000E+20
 30
-1.000000000000000E+20
  9
$PLIMMIN
 10
0.0
 20
0.0
  9
$PLIMMAX
 10
12.0
 20
9.0
  9
$UNITMODE
 70
     0
  9
$VISRETAIN
 70
     1
  9
$PLINEGEN
 70
     0
  9
$PSLTSCALE
 70
     1
  9
$TREEDEPTH
 70
  3020
  9
$PICKSTYLE
 70
     1
  9
$CMLSTYLE
  2
STANDARD
  9
$CMLJUST
 70
     0
  9
$CMLSCALE
 40
1.0
  9
$PROXYGRAPHICS
 70
     1
  9
$MEASUREMENT
 70
     0
  0
ENDSEC
  0
SECTION
  2
CLASSES
  0
CLASS
  1
ACDBDICTIONARYWDFLT
  2
AcDbDictionaryWithDefault
  3
AutoCAD 2000
 90
        0
280
     1
281
     0
  0
CLASS
  1
ACDBPLACEHOLDER
  2
AcDbPlaceHolder
  3
AutoCAD 2000
 90
        0
280
     1
281
     0
  0
CLASS
  1
LAYOUT
  2
AcDbLayout
  3
AutoCAD 2000
 90
        0
280
     1
281
     0
  0
CLASS
  1
LONG_TRANSACTION
  2
AcDbLongTransaction
  3
AutoCAD 2000
 90
        0
280
     1
281
     0
  0
CLASS
  1
LWPOLYLINE
  2
AcDbPolyline
  3
"AutoCAD"
 90
        0
280
     1
281
     1
  0
CLASS
  1
HATCH
  2
AcDbHatch
  3
"ACAD_SEDONA"
 90
        0
280
     1
281
     1
  0
CLASS
  1
XRECORD
  2
AcDbXrecord
  3
"<Built In>"
 90
        0
280
     0
281
     0
  0
CLASS
  1
LONG_TRANSACTION
  2
AcDbLongTransaction
  3
AutoCAD 2000
 90
        0
280
     1
281
     0
  0
CLASS
  1
LWPOLYLINE
  2
AcDbPolyline
  3
"AutoCAD"
 90
        0
280
     1
281
     1
  0
CLASS
  1
HATCH
  2
AcDbHatch
  3
"ACAD_SEDONA"
 90
        0
280
     1
281
     1
  0
CLASS
  1
XRECORD
  2
AcDbXrecord
  3
"<Built In>"
 90
        0
280
     0
281
     0
  0
CLASS
  1
LONG_TRANSACTION
  2
AcDbLongTransaction
  3
AutoCAD 2000
 90
        0
280
     1
281
     0
  0
CLASS
  1
LWPOLYLINE
  2
AcDbPolyline
  3
"AutoCAD"
 90
        0
280
     1
281
     1
  0
CLASS
  1
HATCH
  2
AcDbHatch
  3
"ACAD_SEDONA"
 90
        0
280
     1
281
     1
  0
CLASS
  1
XRECORD
  2
AcDbXrecord
  3
"<Built In>"
 90
        0
280
     0
281
     0
  0
CLASS
  1
LONG_TRANSACTION
  2
AcDbLongTransaction
  3
AutoCAD 2000
 90
        0
280
     1
281
     0
  0
CLASS
  1
LWPOLYLINE
  2
AcDbPolyline
  3
"AutoCAD"
 90
        0
280
     1
281
     1
  0
CLASS
  1
HATCH
  2
AcDbHatch
  3
"ACAD_SEDONA"
 90
        0
280
     1
281
     1
  0
CLASS
  1
XRECORD
  2
AcDbXrecord
  3
"<Built In>"
 90
        0
280
     0
281
     0
  0
CLASS
  1
LONG_TRANSACTION
  2
AcDbLongTransaction
  3
AutoCAD 2000
 90
        0
280
     1
281
     0
  0
CLASS
  1
LWPOLYLINE
  2
AcDbPolyline
  3
"AutoCAD"
 90
        0
280
     1
281
     1
  0
CLASS
  1
HATCH
  2
AcDbHatch
  3
"ACAD_SEDONA"
 90
        0
280
     1
281
     1
  0
CLASS
  1
XRECORD
  2
AcDbXrecord
  3
"<Built In>"
 90
        0
280
     0
281
     0
  0
CLASS
  1
DICTIONARYVAR
  2
AcDbDictionaryVar
  3
"AutoCAD"
 90
        0
280
     0
281
     0
  0
CLASS
  1
LONG_TRANSACTION
  2
AcDbLongTransaction
  3
AutoCAD 2000
 90
        0
280
     0
281
     0
  0
CLASS
  1
LWPOLYLINE
  2
AcDbPolyline
  3
"AutoCAD"
 90
        0
280
     0
281
     1
  0
CLASS
  1
HATCH
  2
AcDbHatch
  3
"ACAD_SEDONA"
 90
        0
280
     0
281
     1
  0
CLASS
  1
XRECORD
  2
AcDbXrecord
  3
"<Built In>"
 90
        0
280
     0
281
     0
  0
CLASS
  1
LONG_TRANSACTION
  2
AcDbLongTransaction
  3
AutoCAD 2000
 90
        0
280
     0
281
     0
  0
CLASS
  1
LWPOLYLINE
  2
AcDbPolyline
  3
"AutoCAD"
 90
        0
280
     0
281
     1
  0
CLASS
  1
HATCH
  2
AcDbHatch
  3
"ACAD_SEDONA"
 90
        0
280
     0
281
     1
  0
CLASS
  1
XRECORD
  2
AcDbXrecord
  3
"<Built In>"
 90
        0
280
     0
281
     0
  0
CLASS
  1
LONG_TRANSACTION
  2
AcDbLongTransaction
  3
AutoCAD 2000
 90
        0
280
     0
281
     0
  0
CLASS
  1
LWPOLYLINE
  2
AcDbPolyline
  3
"AutoCAD"
 90
        0
280
     0
281
     1
  0
CLASS
  1
HATCH
  2
AcDbHatch
  3
"ACAD_SEDONA"
 90
        0
280
     0
281
     1
  0
CLASS
  1
XRECORD
  2
AcDbXrecord
  3
"<Built In>"
 90
        0
280
     0
281
     0
  0
ENDSEC
  0
SECTION
  2
TABLES
  0
TABLE
  2
VPORT
  5
86
100
AcDbSymbolTable
 70
     1
  0
VPORT
  5
A2
100
AcDbSymbolTableRecord
100
AcDbViewportTableRecord
  2
*ACTIVE
 70
     0
 10
0.0
 20
0.0
 11
1.0
 21
1.0
 12
4.102328613747219
 22
3.821629594342396
 13
0.0
 23
0.0
 14
0.5
 24
0.5
 15
0.5
 25
0.5
 16
0.0
 26
0.0
 36
1.0
 17
0.0
 27
0.0
 37
0.0
 40
7.697697803647383
 41
1.457627118644067
 42
50.0
 43
0.0
 44
0.0
 50
0.0
 51
0.0
 71
     0
 72
   100
 73
     1
 74
     3
 75
     0
 76
     0
 77
     0
 78
     0
  0
ENDTAB
  0
TABLE
  2
LTYPE
  5
7F
100
AcDbSymbolTable
 70
     1
  0
LTYPE
  5
80
102
{ACAD_XDICTIONARY
360
81
102
}
100
AcDbSymbolTableRecord
100
AcDbLinetypeTableRecord
  2
BYBLOCK
 70
     0
  3

 72
    65
 73
     0
 40
0.0
  0
LTYPE
  5
82
102
{ACAD_XDICTIONARY
360
83
102
}
100
AcDbSymbolTableRecord
100
AcDbLinetypeTableRecord
  2
BYLAYER
 70
     0
  3

 72
    65
 73
     0
 40
0.0
  0
LTYPE
  5
5
102
{ACAD_XDICTIONARY
360
6
102
}
100
AcDbSymbolTableRecord
100
AcDbLinetypeTableRecord
  2
CONTINUOUS
 70
     0
  3
Solid line
 72
    65
 73
     0
 40
0.0
  0
ENDTAB
  0
TABLE
  2
LAYER
  5
7D
100
AcDbSymbolTable
 70
     4
  0
LAYER
  5
40
100
AcDbSymbolTableRecord
100
AcDbLayerTableRecord
  2
0
 70
     0
 62
     7
  6
CONTINUOUS
  0
LAYER
  5
9
102
{ACAD_XDICTIONARY
360
A
102
}
100
AcDbSymbolTableRecord
100
AcDbLayerTableRecord
  2
USP-GEO
 70
     0
 62
     7
  6
CONTINUOUS
  0
LAYER
  5
E
102
{ACAD_XDICTIONARY
360
F
102
}
100
AcDbSymbolTableRecord
100
AcDbLayerTableRecord
  2
USP-TXT
 70
     0
 62
     7
  6
CONTINUOUS
  0
LAYER
  5
4
100
AcDbSymbolTableRecord
100
AcDbLayerTableRecord
  2
USP
 70
     0
 62
     7
  6
CONTINUOUS
  0
ENDTAB
  0
TABLE
  2
STYLE
  5
7E
100
AcDbSymbolTable
 70
     1
  0
STYLE
  5
10
102
{ACAD_XDICTIONARY
360
11
102
}
100
AcDbSymbolTableRecord
100
AcDbTextStyleTableRecord
  2
STANDARD
 70
     0
 40
0.0
 41
1.0
 50
0.0
 71
     0
 42
0.25
  3
txt
  4

  0
ENDTAB
  0
TABLE
  2
VIEW
  5
84
100
AcDbSymbolTable
 70
     0
  0
ENDTAB
  0
TABLE
  2
UCS
  5
85
100
AcDbSymbolTable
 70
     0
  0
ENDTAB
  0
TABLE
  2
APPID
  5
88
100
AcDbSymbolTable
 70
     1
  0
APPID
  5
89
100
AcDbSymbolTableRecord
100
AcDbRegAppTableRecord
  2
ACAD
 70
     0
  0
ENDTAB
  0
TABLE
  2
DIMSTYLE
  5
8A
100
AcDbSymbolTable
 70
     1
  0
DIMSTYLE
105
93
102
{ACAD_XDICTIONARY
360
94
102
}
100
AcDbSymbolTableRecord
100
AcDbDimStyleTableRecord
  2
STANDARD
 70
     0
  3

  4

  5

  6

  7

 40
1.0
 41
0.18
 42
0.0625
 43
0.38
 44
0.18
 45
0.0
 46
0.0
 47
0.0
 48
0.0
140
0.18
141
0.09
142
0.0
143
25.4
144
1.0
145
0.0
146
1.0
147
0.09
 71
     0
 72
     0
 73
     1
 74
     1
 75
     0
 76
     0
 77
     0
 78
     0
170
     0
171
     2
172
     0
173
     0
174
     0
175
     0
176
     0
177
     0
178
     0
270
     2
271
     4
272
     4
273
     2
274
     2
340
10
275
     0
280
     0
281
     0
282
     0
283
     1
284
     0
285
     0
286
     0
287
     3
288
     0
  0
ENDTAB
  0
TABLE
  2
BLOCK_RECORD
  5
1
100
AcDbSymbolTable
 70
     2
  0
BLOCK_RECORD
  5
2
102
{ACAD_XDICTIONARY
360
74
102
}
100
AcDbSymbolTableRecord
100
AcDbBlockTableRecord
  2
*MODEL_SPACE
  0
BLOCK_RECORD
  5
78
102
{ACAD_XDICTIONARY
360
79
102
}
100
AcDbSymbolTableRecord
100
AcDbBlockTableRecord
  2
*PAPER_SPACE
  0
BLOCK_RECORD
  5
7
100
AcDbSymbolTableRecord
100
AcDbBlockTableRecord
  2
AC7_F
  0
BLOCK_RECORD
  5
43
100
AcDbSymbolTableRecord
100
AcDbBlockTableRecord
  2
AC7_S
  0
ENDTAB
  0
ENDSEC
  0
SECTION
  2
BLOCKS
  0
BLOCK
  5
76
100
AcDbEntity
  8
0
100
AcDbBlockBegin
  2
*MODEL_SPACE
 70
     0
 10
0.0
 20
0.0
 30
0.0
  3
*MODEL_SPACE
  1

  0
ENDBLK
  5
77
100
AcDbEntity
  8
0
100
AcDbBlockEnd
  0
BLOCK
  5
7B
100
AcDbEntity
 67
     1
  8
0
100
AcDbBlockBegin
  2
*PAPER_SPACE
 70
     0
 10
0.0
 20
0.0
 30
0.0
  3
*PAPER_SPACE
  1

  0
ENDBLK
  5
7C
100
AcDbEntity
 67
     1
  8
0
100
AcDbBlockEnd
  0
BLOCK
  5
3F
100
AcDbEntity
  8
0
100
AcDbBlockBegin
  2
AC7_F
 70
     0
 10
0.0
 20
0.0
 30
0.0
  3
AC7_F
  1

  0
LINE
  5
8
100
AcDbEntity
  8
USP-GEO
100
AcDbLine
 10
0.0
 20
4.375
 30
-0.0000000000000005
 11
0.0
 21
3.0625
 31
-0.0000000000000004
210
1.0
220
-0.0000000000000002
230
0.0
  0
LINE
  5
B
100
AcDbEntity
  8
USP-GEO
100
AcDbLine
 10
0.0599999999999952
 20
4.375
 30
-0.0000000000000005
 11
0.0599999999999952
 21
3.0625
 31
-0.0000000000000004
210
1.0
220
-0.0000000000000002
230
0.0
  0
LINE
  5
C
100
AcDbEntity
  8
USP-GEO
100
AcDbLine
 10
1.813499999999997
 20
4.375
 30
-0.0000000000000005
 11
1.813499999999997
 21
3.062499999999999
 31
-0.0000000000000004
210
1.0
220
-0.0000000000000002
230
0.0
  0
TEXT
  5
D
100
AcDbEntity
  8
USP-TXT
100
AcDbText
 10
-0.7807500000000012
 20
-0.5210204931212381
 30
0.0
 40
0.25
  1
AC7 - FRONT VIEW
 72
     1
 11
1.219249999999998
 21
-0.5210204931212381
 31
0.0
100
AcDbText
  0
LINE
  5
12
100
AcDbEntity
  8
USP-GEO
100
AcDbLine
 10
1.813499999999997
 20
0.0
 30
0.0
 11
0.149999999999995
 21
0.0
 31
0.0
210
1.0
220
-0.0000000000000002
230
0.0
  0
CIRCLE
  5
13
100
AcDbEntity
  8
USP-GEO
100
AcDbCircle
 10
1.4695
 20
3.312499999999999
 30
-0.0000000000000004
 40
0.086
  0
LINE
  5
14
100
AcDbEntity
  8
USP-GEO
100
AcDbLine
 10
0.0599999999999952
 20
1.531750000000005
 30
-0.0000000000000002
 11
0.0599999999999952
 21
0.9995000000000118
 31
-0.0000000000000001
210
1.0
220
-0.0000000000000002
230
0.0
  0
LINE
  5
15
100
AcDbEntity
  8
USP-GEO
100
AcDbLine
 10
0.0
 20
1.531750000000005
 30
-0.0000000000000002
 11
0.0
 21
0.9995000000000118
 31
-0.0000000000000001
210
1.0
220
-0.0000000000000002
230
0.0
  0
LINE
  5
16
100
AcDbEntity
  8
USP-GEO
100
AcDbLine
 10
0.0599999999999952
 20
0.9995000000000118
 30
-0.0000000000000001
 11
0.0599999999999952
 21
0.0
 31
0.0
210
1.0
220
-0.0000000000000002
230
0.0
  0
LINE
  5
17
100
AcDbEntity
  8
USP-GEO
100
AcDbLine
 10
0.0
 20
0.9995000000000118
 30
-0.0000000000000001
 11
0.0
 21
0.0
 31
0.0
210
1.0
220
-0.0000000000000002
230
0.0
  0
LINE
  5
18
100
AcDbEntity
  8
USP-GEO
100
AcDbLine
 10
0.149999999999995
 20
0.0
 30
0.0
 11
0.0599999999999952
 21
0.0
 31
0.0
210
1.0
220
-0.0000000000000002
230
0.0
  0
LINE
  5
19
100
AcDbEntity
  8
USP-GEO
100
AcDbLine
 10
0.0599999999999952
 20
0.0
 30
0.0
 11
0.0
 21
0.0
 31
0.0
210
1.0
220
-0.0000000000000002
230
0.0
  0
LINE
  5
1A
100
AcDbEntity
  8
USP-GEO
100
AcDbLine
 10
0.0599999999999952
 20
0.9995000000000118
 30
-0.0000000000000001
 11
0.0
 21
0.9995000000000118
 31
-0.0000000000000001
210
1.0
220
-0.0000000000000002
230
0.0
  0
CIRCLE
  5
1B
100
AcDbEntity
  8
USP-GEO
100
AcDbCircle
 10
0.8769999999999953
 20
0.6875
 30
-0.0000000000000001
 40
0.1565
  0
LINE
  5
1C
100
AcDbEntity
  8
USP-GEO
100
AcDbLine
 10
0.0599999999999952
 20
2.531250000000007
 30
-0.0000000000000003
 11
0.0599999999999952
 21
3.0625
 31
-0.0000000000000004
210
1.0
220
-0.0000000000000002
230
0.0
  0
LINE
  5
1D
100
AcDbEntity
  8
USP-GEO
100
AcDbLine
 10
0.0
 20
3.0625
 30
-0.0000000000000004
 11
0.0
 21
2.531250000000007
 31
-0.0000000000000003
210
1.0
220
-0.0000000000000002
230
0.0
  0
LINE
  5
1E
100
AcDbEntity
  8
USP-GEO
100
AcDbLine
 10
0.0599999999999952
 20
2.531250000000007
 30
-0.0000000000000003
 11
0.0599999999999952
 21
1.531750000000005
 31
-0.0000000000000002
210
1.0
220
-0.0000000000000002
230
0.0
  0
LINE
  5
1F
100
AcDbEntity
  8
USP-GEO
100
AcDbLine
 10
0.0
 20
2.531250000000007
 30
-0.0000000000000003
 11
0.0
 21
1.531750000000005
 31
-0.0000000000000002
210
1.0
220
-0.0000000000000002
230
0.0
  0
LINE
  5
20
100
AcDbEntity
  8
USP-GEO
100
AcDbLine
 10
0.0599999999999952
 20
1.531750000000005
 30
-0.0000000000000002
 11
0.0
 21
1.531750000000005
 31
-0.0000000000000002
210
1.0
220
-0.0000000000000002
230
0.0
  0
LINE
  5
21
100
AcDbEntity
  8
USP-GEO
100
AcDbLine
 10
0.0599999999999952
 20
2.531250000000007
 30
-0.0000000000000003
 11
0.0
 21
2.531250000000007
 31
-0.0000000000000003
210
1.0
220
-0.0000000000000002
230
0.0
  0
LINE
  5
22
100
AcDbEntity
  8
USP-GEO
100
AcDbLine
 10
0.0599999999999952
 20
3.0625
 30
-0.0000000000000004
 11
0.0
 21
3.0625
 31
-0.0000000000000004
210
1.0
220
-0.0000000000000002
230
0.0
  0
CIRCLE
  5
23
100
AcDbEntity
  8
USP-GEO
100
AcDbCircle
 10
0.8769999999999962
 20
3.0625
 30
-0.0000000000000004
 40
0.1565
  0
LINE
  5
24
100
AcDbEntity
  8
USP-GEO
100
AcDbLine
 10
2.438499999999997
 20
1.531750000000005
 30
-0.0000000000000002
 11
1.813499999999997
 21
0.9995000000000118
 31
-0.0000000000000001
210
1.0
220
-0.0000000000000002
230
0.0
  0
LINE
  5
25
100
AcDbEntity
  8
USP-GEO
100
AcDbLine
 10
1.813499999999997
 20
0.0
 30
0.0
 11
1.813499999999997
 21
0.9995000000000118
 31
-0.0000000000000001
210
1.0
220
-0.0000000000000002
230
0.0
  0
LINE
  5
26
100
AcDbEntity
  8
USP-GEO
100
AcDbLine
 10
2.438499999999997
 20
2.531250000000006
 30
-0.0000000000000003
 11
1.813499999999997
 21
3.062499999999999
 31
-0.0000000000000004
210
1.0
220
-0.0000000000000002
230
0.0
  0
CIRCLE
  5
27
100
AcDbEntity
  8
USP-GEO
100
AcDbCircle
 10
2.125999999999997
 20
1.625250000000004
 30
-0.0000000000000002
 40
0.086
  0
LINE
  5
28
100
AcDbEntity
  8
USP-GEO
100
AcDbLine
 10
2.438499999999997
 20
2.531250000000006
 30
-0.0000000000000003
 11
2.438499999999997
 21
1.531750000000005
 31
-0.0000000000000002
210
1.0
220
-0.0000000000000002
230
0.0
  0
CIRCLE
  5
29
100
AcDbEntity
  8
USP-GEO
100
AcDbCircle
 10
1.4695
 20
6.65625
 30
-0.0000000000000008
 40
0.086
  0
LINE
  5
2A
100
AcDbEntity
  8
USP-GEO
100
AcDbLine
 10
1.813499999999999
 20
6.9375
 30
-0.0000000000000008
 11
0.1499999999999968
 21
6.9375
 31
-0.0000000000000008
210
1.0
220
-0.0000000000000002
230
0.0
  0
LINE
  5
2B
100
AcDbEntity
  8
USP-GEO
100
AcDbLine
 10
0.059999999999997
 20
6.9375
 30
-0.0000000000000008
 11
0.059999999999997
 21
5.937749999999997
 31
-0.0000000000000007
210
1.0
220
-0.0000000000000002
230
0.0
  0
LINE
  5
2C
100
AcDbEntity
  8
USP-GEO
100
AcDbLine
 10
0.0000000000000018
 20
6.9375
 30
-0.0000000000000008
 11
0.0000000000000018
 21
5.937749999999997
 31
-0.0000000000000007
210
1.0
220
-0.0000000000000002
230
0.0
  0
LINE
  5
2D
100
AcDbEntity
  8
USP-GEO
100
AcDbLine
 10
0.059999999999997
 20
5.406250000000007
 30
-0.0000000000000007
 11
0.059999999999997
 21
4.906250000000007
 31
-0.0000000000000006
210
1.0
220
-0.0000000000000002
230
0.0
  0
CIRCLE
  5
2E
100
AcDbEntity
  8
USP-GEO
100
AcDbCircle
 10
0.8770000000000033
 20
5.4375
 30
-0.0000000000000007
 40
0.1565
  0
LINE
  5
2F
100
AcDbEntity
  8
USP-GEO
100
AcDbLine
 10
0.0000000000000018
 20
5.406250000000007
 30
-0.0000000000000007
 11
0.0000000000000018
 21
4.906250000000007
 31
-0.0000000000000006
210
1.0
220
-0.0000000000000002
230
0.0
  0
LINE
  5
30
100
AcDbEntity
  8
USP-GEO
100
AcDbLine
 10
0.0599999999999952
 20
4.375
 30
-0.0000000000000005
 11
0.059999999999997
 21
4.906250000000007
 31
-0.0000000000000006
210
1.0
220
-0.0000000000000002
230
0.0
  0
LINE
  5
31
100
AcDbEntity
  8
USP-GEO
100
AcDbLine
 10
0.0000000000000018
 20
4.906250000000007
 30
-0.0000000000000006
 11
0.0
 21
4.375
 31
-0.0000000000000005
210
1.0
220
-0.0000000000000002
230
0.0
  0
LINE
  5
32
100
AcDbEntity
  8
USP-GEO
100
AcDbLine
 10
0.0599999999999952
 20
4.375
 30
-0.0000000000000005
 11
0.0
 21
4.375
 31
-0.0000000000000005
210
1.0
220
-0.0000000000000002
230
0.0
  0
LINE
  5
33
100
AcDbEntity
  8
USP-GEO
100
AcDbLine
 10
0.059999999999997
 20
4.906250000000007
 30
-0.0000000000000006
 11
0.0000000000000018
 21
4.906250000000007
 31
-0.0000000000000006
210
1.0
220
-0.0000000000000002
230
0.0
  0
LINE
  5
34
100
AcDbEntity
  8
USP-GEO
100
AcDbLine
 10
0.059999999999997
 20
5.406250000000007
 30
-0.0000000000000007
 11
0.059999999999997
 21
5.937749999999997
 31
-0.0000000000000007
210
1.0
220
-0.0000000000000002
230
0.0
  0
LINE
  5
35
100
AcDbEntity
  8
USP-GEO
100
AcDbLine
 10
0.0000000000000018
 20
5.937749999999997
 30
-0.0000000000000007
 11
0.0000000000000018
 21
5.406250000000007
 31
-0.0000000000000007
210
1.0
220
-0.0000000000000002
230
0.0
  0
LINE
  5
36
100
AcDbEntity
  8
USP-GEO
100
AcDbLine
 10
0.059999999999997
 20
5.406250000000007
 30
-0.0000000000000007
 11
0.0000000000000018
 21
5.406250000000007
 31
-0.0000000000000007
210
1.0
220
-0.0000000000000002
230
0.0
  0
LINE
  5
37
100
AcDbEntity
  8
USP-GEO
100
AcDbLine
 10
0.059999999999997
 20
5.937749999999997
 30
-0.0000000000000007
 11
0.0000000000000018
 21
5.937749999999997
 31
-0.0000000000000007
210
1.0
220
-0.0000000000000002
230
0.0
  0
LINE
  5
38
100
AcDbEntity
  8
USP-GEO
100
AcDbLine
 10
0.059999999999997
 20
6.9375
 30
-0.0000000000000008
 11
0.1499999999999968
 21
6.9375
 31
-0.0000000000000008
210
1.0
220
-0.0000000000000002
230
0.0
  0
LINE
  5
39
100
AcDbEntity
  8
USP-GEO
100
AcDbLine
 10
0.059999999999997
 20
6.9375
 30
-0.0000000000000008
 11
0.0000000000000018
 21
6.9375
 31
-0.0000000000000008
210
1.0
220
-0.0000000000000002
230
0.0
  0
LINE
  5
3A
100
AcDbEntity
  8
USP-GEO
100
AcDbLine
 10
1.813499999999999
 20
6.9375
 30
-0.0000000000000008
 11
1.813499999999999
 21
5.937749999999997
 31
-0.0000000000000007
210
1.0
220
-0.0000000000000002
230
0.0
  0
LINE
  5
3B
100
AcDbEntity
  8
USP-GEO
100
AcDbLine
 10
2.438499999999999
 20
5.406250000000006
 30
-0.0000000000000007
 11
2.438499999999999
 21
4.906250000000006
 31
-0.0000000000000006
210
1.0
220
-0.0000000000000002
230
0.0
  0
LINE
  5
3C
100
AcDbEntity
  8
USP-GEO
100
AcDbLine
 10
1.813499999999997
 20
4.375
 30
-0.0000000000000005
 11
2.438499999999999
 21
4.906250000000006
 31
-0.0000000000000006
210
1.0
220
-0.0000000000000002
230
0.0
  0
CIRCLE
  5
3D
100
AcDbEntity
  8
USP-GEO
100
AcDbCircle
 10
2.125999999999998
 20
5.125250000000004
 30
-0.0000000000000006
 40
0.086
  0
LINE
  5
3E
100
AcDbEntity
  8
USP-GEO
100
AcDbLine
 10
2.438499999999999
 20
5.406250000000006
 30
-0.0000000000000007
 11
1.813499999999999
 21
5.937749999999997
 31
-0.0000000000000007
210
1.0
220
-0.0000000000000002
230
0.0
  0
ENDBLK
  5
41
100
AcDbEntity
  8
0
100
AcDbBlockEnd
  0
BLOCK
  5
72
100
AcDbEntity
  8
0
100
AcDbBlockBegin
  2
AC7_S
 70
     0
 10
0.0
 20
0.0
 30
0.0
  3
AC7_S
  1

  0
TEXT
  5
44
100
AcDbEntity
  8
USP-TXT
100
AcDbText
 10
-1.220208333333333
 20
-0.5210204931212381
 30
0.0
 40
0.25
  1
AC7 - SIDE VIEW
 72
     1
 11
0.6131250000000002
 21
-0.5210204931212381
 31
0.0
100
AcDbText
  0
LINE
  5
45
100
AcDbEntity
  8
USP-GEO
100
AcDbLine
 10
0.6250000000000018
 20
5.406250000000007
 30
0.0
 11
0.0
 21
5.937749999999997
 31
0.0
  0
LINE
  5
46
100
AcDbEntity
  8
USP-GEO
100
AcDbLine
 10
0.0000000000000018
 20
6.9375
 30
0.0
 11
1.226250000000002
 21
6.9375
 31
0.0
  0
LINE
  5
47
100
AcDbEntity
  8
USP-GEO
100
AcDbLine
 10
0.0
 20
4.375
 30
0.0
 11
0.625
 21
4.906250000000007
 31
0.0
  0
CIRCLE
  5
48
100
AcDbEntity
  8
USP-GEO
100
AcDbCircle
 10
0.2500000000000018
 20
6.0625
 30
0.0
 40
0.086
  0
LINE
  5
49
100
AcDbEntity
  8
USP-GEO
100
AcDbLine
 10
0.0
 20
0.0
 30
0.0
 11
1.22625
 21
0.0
 31
0.0
  0
LINE
  5
4A
100
AcDbEntity
  8
USP-GEO
100
AcDbLine
 10
0.625
 20
1.531750000000005
 30
0.0
 11
0.0
 21
0.9995000000000118
 31
0.0
  0
LINE
  5
4B
100
AcDbEntity
  8
USP-GEO
100
AcDbLine
 10
0.625
 20
2.531250000000007
 30
0.0
 11
0.0
 21
3.0625
 31
0.0
  0
CIRCLE
  5
4C
100
AcDbEntity
  8
USP-GEO
100
AcDbCircle
 10
0.25
 20
3.1875
 30
0.0
 40
0.086
  0
CIRCLE
  5
4D
100
AcDbEntity
  8
USP-GEO
100
AcDbCircle
 10
0.25
 20
0.6254999999999953
 30
0.0
 40
0.086
  0
LINE
  5
4E
100
AcDbEntity
  8
USP-GEO
100
AcDbLine
 10
0.0
 20
4.375
 30
0.0
 11
0.0
 21
3.0625
 31
0.0
  0
LINE
  5
4F
100
AcDbEntity
  8
USP-GEO
100
AcDbLine
 10
0.0
 20
0.9995000000000118
 30
0.0
 11
0.0
 21
0.0
 31
0.0
  0
LINE
  5
50
100
AcDbEntity
  8
USP-GEO
100
AcDbLine
 10
0.0000000000000018
 20
6.9375
 30
0.0
 11
0.0
 21
5.937749999999997
 31
0.0
  0
LINE
  5
51
100
AcDbEntity
  8
USP-GEO
100
AcDbLine
 10
1.37625
 20
3.062499999999999
 30
0.0
 11
1.376250000000002
 21
4.374999999999999
 31
0.0
  0
LINE
  5
52
100
AcDbEntity
  8
USP-GEO
100
AcDbLine
 10
1.31625
 20
4.374999999999999
 30
0.0
 11
1.31625
 21
3.062499999999999
 31
0.0
  0
LINE
  5
53
100
AcDbEntity
  8
USP-GEO
100
AcDbLine
 10
1.37625
 20
0.9995000000000118
 30
0.0
 11
1.37625
 21
1.531750000000005
 31
0.0
  0
LINE
  5
54
100
AcDbEntity
  8
USP-GEO
100
AcDbLine
 10
1.31625
 20
1.531750000000005
 30
0.0
 11
1.31625
 21
0.9995000000000118
 31
0.0
  0
LINE
  5
55
100
AcDbEntity
  8
USP-GEO
100
AcDbLine
 10
1.37625
 20
0.0
 30
0.0
 11
1.37625
 21
0.9995000000000118
 31
0.0
  0
LINE
  5
56
100
AcDbEntity
  8
USP-GEO
100
AcDbLine
 10
1.31625
 20
0.0
 30
0.0
 11
1.31625
 21
0.9995000000000118
 31
0.0
  0
LINE
  5
57
100
AcDbEntity
  8
USP-GEO
100
AcDbLine
 10
1.31625
 20
0.0
 30
0.0
 11
1.22625
 21
0.0
 31
0.0
  0
LINE
  5
58
100
AcDbEntity
  8
USP-GEO
100
AcDbLine
 10
1.31625
 20
0.0
 30
0.0
 11
1.37625
 21
0.0
 31
0.0
  0
LINE
  5
59
100
AcDbEntity
  8
USP-GEO
100
AcDbLine
 10
1.31625
 20
0.9995000000000118
 30
0.0
 11
1.37625
 21
0.9995000000000118
 31
0.0
  0
LINE
  5
5A
100
AcDbEntity
  8
USP-GEO
100
AcDbLine
 10
1.37625
 20
2.531250000000007
 30
0.0
 11
1.37625
 21
3.062499999999999
 31
0.0
  0
LINE
  5
5B
100
AcDbEntity
  8
USP-GEO
100
AcDbLine
 10
1.31625
 20
2.531250000000007
 30
0.0
 11
1.31625
 21
3.062499999999999
 31
0.0
  0
LINE
  5
5C
100
AcDbEntity
  8
USP-GEO
100
AcDbLine
 10
0.625
 20
2.531250000000007
 30
0.0
 11
0.625
 21
1.531750000000005
 31
0.0
  0
LINE
  5
5D
100
AcDbEntity
  8
USP-GEO
100
AcDbLine
 10
1.37625
 20
1.531750000000005
 30
0.0
 11
1.37625
 21
2.531250000000007
 31
0.0
  0
LINE
  5
5E
100
AcDbEntity
  8
USP-GEO
100
AcDbLine
 10
1.31625
 20
2.531250000000007
 30
0.0
 11
1.31625
 21
1.531750000000005
 31
0.0
  0
LINE
  5
5F
100
AcDbEntity
  8
USP-GEO
100
AcDbLine
 10
1.31625
 20
1.531750000000005
 30
0.0
 11
1.37625
 21
1.531750000000005
 31
0.0
  0
LINE
  5
60
100
AcDbEntity
  8
USP-GEO
100
AcDbLine
 10
1.31625
 20
2.531250000000007
 30
0.0
 11
1.37625
 21
2.531250000000007
 31
0.0
  0
LINE
  5
61
100
AcDbEntity
  8
USP-GEO
100
AcDbLine
 10
1.31625
 20
3.062499999999999
 30
0.0
 11
1.37625
 21
3.062499999999999
 31
0.0
  0
LINE
  5
62
100
AcDbEntity
  8
USP-GEO
100
AcDbLine
 10
1.376250000000002
 20
5.937749999999997
 30
0.0
 11
1.376250000000002
 21
6.9375
 31
0.0
  0
LINE
  5
63
100
AcDbEntity
  8
USP-GEO
100
AcDbLine
 10
1.316250000000001
 20
6.9375
 30
0.0
 11
1.316250000000001
 21
5.937749999999997
 31
0.0
  0
LINE
  5
64
100
AcDbEntity
  8
USP-GEO
100
AcDbLine
 10
1.376250000000002
 20
4.906250000000007
 30
0.0
 11
1.376250000000002
 21
5.406250000000007
 31
0.0
  0
LINE
  5
65
100
AcDbEntity
  8
USP-GEO
100
AcDbLine
 10
1.31625
 20
5.406250000000007
 30
0.0
 11
1.31625
 21
4.906250000000007
 31
0.0
  0
LINE
  5
66
100
AcDbEntity
  8
USP-GEO
100
AcDbLine
 10
0.6250000000000018
 20
5.406250000000007
 30
0.0
 11
0.625
 21
4.906250000000007
 31
0.0
  0
CIRCLE
  5
67
100
AcDbEntity
  8
USP-GEO
100
AcDbCircle
 10
0.469450000000002
 20
4.4375
 30
0.0
 40
0.086
  0
LINE
  5
68
100
AcDbEntity
  8
USP-GEO
100
AcDbLine
 10
1.376250000000002
 20
4.374999999999999
 30
0.0
 11
1.376250000000002
 21
4.906250000000007
 31
0.0
  0
LINE
  5
69
100
AcDbEntity
  8
USP-GEO
100
AcDbLine
 10
1.31625
 20
4.374999999999999
 30
0.0
 11
1.31625
 21
4.906250000000007
 31
0.0
  0
LINE
  5
6A
100
AcDbEntity
  8
USP-GEO
100
AcDbLine
 10
1.31625
 20
4.374999999999999
 30
0.0
 11
1.376250000000002
 21
4.374999999999999
 31
0.0
  0
LINE
  5
6B
100
AcDbEntity
  8
USP-GEO
100
AcDbLine
 10
1.31625
 20
4.906250000000007
 30
0.0
 11
1.376250000000002
 21
4.906250000000007
 31
0.0
  0
LINE
  5
6C
100
AcDbEntity
  8
USP-GEO
100
AcDbLine
 10
1.376250000000002
 20
5.406250000000007
 30
0.0
 11
1.376250000000002
 21
5.937749999999997
 31
0.0
  0
LINE
  5
6D
100
AcDbEntity
  8
USP-GEO
100
AcDbLine
 10
1.31625
 20
5.406250000000007
 30
0.0
 11
1.316250000000001
 21
5.937749999999997
 31
0.0
  0
LINE
  5
6E
100
AcDbEntity
  8
USP-GEO
100
AcDbLine
 10
1.31625
 20
5.406250000000007
 30
0.0
 11
1.376250000000002
 21
5.406250000000007
 31
0.0
  0
LINE
  5
6F
100
AcDbEntity
  8
USP-GEO
100
AcDbLine
 10
1.316250000000001
 20
5.937749999999997
 30
0.0
 11
1.376250000000002
 21
5.937749999999997
 31
0.0
  0
LINE
  5
70
100
AcDbEntity
  8
USP-GEO
100
AcDbLine
 10
1.226250000000002
 20
6.9375
 30
0.0
 11
1.316250000000001
 21
6.9375
 31
0.0
  0
LINE
  5
71
100
AcDbEntity
  8
USP-GEO
100
AcDbLine
 10
1.316250000000001
 20
6.9375
 30
0.0
 11
1.376250000000002
 21
6.9375
 31
0.0
  0
ENDBLK
  5
73
100
AcDbEntity
  8
0
100
AcDbBlockEnd
  0
ENDSEC
  0
SECTION
  2
ENTITIES
  0
INSERT
  5
3
100
AcDbEntity
  8
USP
100
AcDbBlockReference
  2
AC7_F
 10
0.7811161829982503
 20
0.521295130369925
 30
0.0000000000000029
  0
INSERT
  5
42
100
AcDbEntity
  8
USP
100
AcDbBlockReference
  2
AC7_S
 10
5.757921008272118
 20
0.5212951324427034
 30
0.000000000000002
  0
ENDSEC
  0
SECTION
  2
OBJECTS
  0
DICTIONARY
  5
8F
102
{ACAD_XDICTIONARY
360
90
102
}
100
AcDbDictionary
  3
ACAD_GROUP
350
8C
  3
ACAD_MLINESTYLE
350
8D
  0
DICTIONARY
  5
81
100
AcDbDictionary
280
     1
  0
DICTIONARY
  5
83
100
AcDbDictionary
280
     1
  0
DICTIONARY
  5
6
100
AcDbDictionary
280
     1
  0
DICTIONARY
  5
A
100
AcDbDictionary
280
     1
  0
DICTIONARY
  5
F
100
AcDbDictionary
280
     1
  0
DICTIONARY
  5
11
100
AcDbDictionary
280
     1
  0
DICTIONARY
  5
94
100
AcDbDictionary
280
     1
  0
DICTIONARY
  5
74
100
AcDbDictionary
280
     1
  3
ACAD_LAYOUTSELFREF
360
75
  0
DICTIONARY
  5
79
100
AcDbDictionary
280
     1
  3
ACAD_LAYOUTSELFREF
360
7A
  0
DICTIONARY
  5
90
100
AcDbDictionary
280
     1
  3
ACAD_XREC_ROUNDTRIP
360
91
  0
DICTIONARY
  5
8C
102
{ACAD_REACTORS
330
8F
102
}
100
AcDbDictionary
  0
DICTIONARY
  5
8D
102
{ACAD_XDICTIONARY
360
8E
102
}
102
{ACAD_REACTORS
330
8F
102
}
100
AcDbDictionary
  3
STANDARD
350
92
  0
XRECORD
  5
75
102
{ACAD_REACTORS
330
74
102
}
100
AcDbXrecord
340
2
  0
XRECORD
  5
7A
102
{ACAD_REACTORS
330
79
102
}
100
AcDbXrecord
340
7A
  0
XRECORD
  5
91
102
{ACAD_REACTORS
330
90
102
}
100
AcDbXrecord
102
EXTNAMES
  1
ACDBVARIABLEDICTIONARY
  2
AcDbVariableDictionary
  0
DICTIONARY
  5
8E
100
AcDbDictionary
280
     1
  0
MLINESTYLE
  5
92
102
{ACAD_REACTORS
330
8D
102
}
100
AcDbMlineStyle
  2
STANDARD
 70
     0
  3

 62
   256
 51
90.0
 52
90.0
 71
     2
 49
0.5
 62
   256
  6
BYLAYER
 49
-0.5
 62
   256
  6
BYLAYER
  0
ENDSEC
  0
EOF
