  0
SECTION
  2
HEADER
  9
$ACADVER
  1
AC1018
  9
$ACADMAINTVER
 70
     0
  9
$DWGCODEPAGE
  3
ANSI_1252
  9
$INSBASE
 10
0.0
 20
0.0
 30
0.0
  9
$EXTMIN
 10
-10.85851060393654
 20
-11.3287267084432
 30
0.0
  9
$EXTMAX
 10
21.8570513819974
 20
28.89517555934383
 30
0.0
  9
$LIMMIN
 10
-100.0
 20
-100.0
  9
$LIMMAX
 10
100.0
 20
100.0
  9
$ORTHOMODE
 70
     0
  9
$REGENMODE
 70
     1
  9
$FILLMODE
 70
     1
  9
$QTEXTMODE
 70
     0
  9
$MIRRTEXT
 70
     1
  9
$LTSCALE
 40
1.0
  9
$ATTMODE
 70
     1
  9
$TEXTSIZE
 40
0.1377952755905512
  9
$TRACEWID
 40
0.05
  9
$TEXTSTYLE
  7
Standard
  9
$CLAYER
  8
0
  9
$CELTYPE
  6
ByLayer
  9
$CECOLOR
 62
   256
  9
$CELTSCALE
 40
1.0
  9
$DISPSILH
 70
     0
  9
$DIMSCALE
 40
1.0
  9
$DIMASZ
 40
0.13
  9
$DIMEXO
 40
0.0393700787401575
  9
$DIMDLI
 40
0.38
  9
$DIMRND
 40
0.0
  9
$DIMDLE
 40
0.0
  9
$DIMEXE
 40
0.0393700787401575
  9
$DIMTP
 40
0.0
  9
$DIMTM
 40
0.0
  9
$DIMTXT
 40
0.1377952755905512
  9
$DIMCEN
 40
0.09
  9
$DIMTSZ
 40
0.0
  9
$DIMTOL
 70
     0
  9
$DIMLIM
 70
     0
  9
$DIMTIH
 70
     1
  9
$DIMTOH
 70
     1
  9
$DIMSE1
 70
     0
  9
$DIMSE2
 70
     0
  9
$DIMTAD
 70
     1
  9
$DIMZIN
 70
     0
  9
$DIMBLK
  1

  9
$DIMASO
 70
     1
  9
$DIMSHO
 70
     1
  9
$DIMPOST
  1

  9
$DIMAPOST
  1

  9
$DIMALT
 70
     0
  9
$DIMALTD
 70
     2
  9
$DIMALTF
 40
25.4
  9
$DIMLFAC
 40
1.0
  9
$DIMTOFL
 70
     0
  9
$DIMTVP
 40
0.0
  9
$DIMTIX
 70
     0
  9
$DIMSOXD
 70
     0
  9
$DIMSAH
 70
     0
  9
$DIMBLK1
  1

  9
$DIMBLK2
  1

  9
$DIMSTYLE
  2
Standard
  9
$DIMCLRD
 70
     0
  9
$DIMCLRE
 70
     0
  9
$DIMCLRT
 70
     0
  9
$DIMTFAC
 40
1.0
  9
$DIMGAP
 40
0.06
  9
$DIMJUST
 70
     0
  9
$DIMSD1
 70
     0
  9
$DIMSD2
 70
     0
  9
$DIMTOLJ
 70
     1
  9
$DIMTZIN
 70
     0
  9
$DIMALTZ
 70
     0
  9
$DIMALTTZ
 70
     0
  9
$DIMUPT
 70
     0
  9
$DIMDEC
 70
     2
  9
$DIMTDEC
 70
     2
  9
$DIMALTU
 70
     2
  9
$DIMALTTD
 70
     2
  9
$DIMTXSTY
  7
Standard
  9
$DIMAUNIT
 70
     0
  9
$DIMADEC
 70
     2
  9
$DIMALTRND
 40
0.0
  9
$DIMAZIN
 70
     0
  9
$DIMDSEP
 70
    46
  9
$DIMATFIT
 70
     3
  9
$DIMFRAC
 70
     0
  9
$DIMLDRBLK
  1

  9
$DIMLUNIT
 70
     2
  9
$DIMLWD
 70
    -2
  9
$DIMLWE
 70
    -2
  9
$DIMTMOVE
 70
     0
  9
$LUNITS
 70
     2
  9
$LUPREC
 70
     2
  9
$SKETCHINC
 40
0.1
  9
$FILLETRAD
 40
0.5
  9
$AUNITS
 70
     0
  9
$AUPREC
 70
     2
  9
$MENU
  1
.
  9
$ELEVATION
 40
0.0
  9
$PELEVATION
 40
0.0
  9
$THICKNESS
 40
0.0
  9
$LIMCHECK
 70
     0
  9
$CHAMFERA
 40
0.0
  9
$CHAMFERB
 40
0.0
  9
$CHAMFERC
 40
0.0
  9
$CHAMFERD
 40
0.0
  9
$SKPOLY
 70
     0
  9
$TDCREATE
 40
2457060.553445104
  9
$TDUCREATE
 40
2457060.803445104
  9
$TDUPDATE
 40
2457064.334685764
  9
$TDUUPDATE
 40
2457064.584685764
  9
$TDINDWG
 40
0.0003525926
  9
$TDUSRTIMER
 40
0.0003525926
  9
$USRTIMER
 70
     1
  9
$ANGBASE
 50
0.0
  9
$ANGDIR
 70
     0
  9
$PDMODE
 70
     0
  9
$PDSIZE
 40
-1.0
  9
$PLINEWID
 40
0.0
  9
$SPLFRAME
 70
     0
  9
$SPLINETYPE
 70
     6
  9
$SPLINESEGS
 70
     8
  9
$HANDSEED
  5
160
  9
$SURFTAB1
 70
     6
  9
$SURFTAB2
 70
     6
  9
$SURFTYPE
 70
     6
  9
$SURFU
 70
     6
  9
$SURFV
 70
     6
  9
$UCSBASE
  2

  9
$UCSNAME
  2

  9
$UCSORG
 10
0.0
 20
0.0
 30
0.0
  9
$UCSXDIR
 10
1.0
 20
0.0
 30
0.0
  9
$UCSYDIR
 10
0.0
 20
1.0
 30
0.0
  9
$UCSORTHOREF
  2

  9
$UCSORTHOVIEW
 70
     0
  9
$UCSORGTOP
 10
0.0
 20
0.0
 30
0.0
  9
$UCSORGBOTTOM
 10
0.0
 20
0.0
 30
0.0
  9
$UCSORGLEFT
 10
0.0
 20
0.0
 30
0.0
  9
$UCSORGRIGHT
 10
0.0
 20
0.0
 30
0.0
  9
$UCSORGFRONT
 10
0.0
 20
0.0
 30
0.0
  9
$UCSORGBACK
 10
0.0
 20
0.0
 30
0.0
  9
$PUCSBASE
  2

  9
$PUCSNAME
  2

  9
$PUCSORG
 10
0.0
 20
0.0
 30
0.0
  9
$PUCSXDIR
 10
1.0
 20
0.0
 30
0.0
  9
$PUCSYDIR
 10
0.0
 20
1.0
 30
0.0
  9
$PUCSORTHOREF
  2

  9
$PUCSORTHOVIEW
 70
     0
  9
$PUCSORGTOP
 10
0.0
 20
0.0
 30
0.0
  9
$PUCSORGBOTTOM
 10
0.0
 20
0.0
 30
0.0
  9
$PUCSORGLEFT
 10
0.0
 20
0.0
 30
0.0
  9
$PUCSORGRIGHT
 10
0.0
 20
0.0
 30
0.0
  9
$PUCSORGFRONT
 10
0.0
 20
0.0
 30
0.0
  9
$PUCSORGBACK
 10
0.0
 20
0.0
 30
0.0
  9
$USERI1
 70
     0
  9
$USERI2
 70
     0
  9
$USERI3
 70
     0
  9
$USERI4
 70
     0
  9
$USERI5
 70
     0
  9
$USERR1
 40
0.0
  9
$USERR2
 40
0.0
  9
$USERR3
 40
0.0
  9
$USERR4
 40
0.0
  9
$USERR5
 40
0.0
  9
$WORLDVIEW
 70
     1
  9
$SHADEDGE
 70
     3
  9
$SHADEDIF
 70
    70
  9
$TILEMODE
 70
     1
  9
$MAXACTVP
 70
    64
  9
$PINSBASE
 10
0.0
 20
0.0
 30
0.0
  9
$PLIMCHECK
 70
     0
  9
$PEXTMIN
 10
1.000000000000000E+20
 20
1.000000000000000E+20
 30
1.000000000000000E+20
  9
$PEXTMAX
 10
-1.000000000000000E+20
 20
-1.000000000000000E+20
 30
-1.000000000000000E+20
  9
$PLIMMIN
 10
0.0
 20
0.0
  9
$PLIMMAX
 10
12.0
 20
9.0
  9
$UNITMODE
 70
     0
  9
$VISRETAIN
 70
     1
  9
$PLINEGEN
 70
     0
  9
$PSLTSCALE
 70
     1
  9
$TREEDEPTH
 70
  3020
  9
$CMLSTYLE
  2
Standard
  9
$CMLJUST
 70
     0
  9
$CMLSCALE
 40
1.0
  9
$PROXYGRAPHICS
 70
     1
  9
$MEASUREMENT
 70
     0
  9
$CELWEIGHT
370
    -1
  9
$ENDCAPS
280
     0
  9
$JOINSTYLE
280
     0
  9
$LWDISPLAY
290
     1
  9
$INSUNITS
 70
     1
  9
$HYPERLINKBASE
  1

  9
$STYLESHEET
  1

  9
$XEDIT
290
     1
  9
$CEPSNTYPE
380
     0
  9
$PSTYLEMODE
290
     1
  9
$FINGERPRINTGUID
  2
{D00407E3-E89E-4B68-95E5-A48876360C21}
  9
$VERSIONGUID
  2
{B5A6AE65-DB84-4518-B73D-82C1418FF545}
  9
$EXTNAMES
290
     1
  9
$PSVPSCALE
 40
0.0
  9
$OLESTARTUP
290
     0
  9
$SORTENTS
280
   127
  9
$INDEXCTL
280
     0
  9
$HIDETEXT
280
     0
  9
$XCLIPFRAME
290
     0
  9
$HALOGAP
280
     0
  9
$OBSCOLOR
 70
   257
  9
$OBSLTYPE
280
     0
  9
$INTERSECTIONDISPLAY
280
     0
  9
$INTERSECTIONCOLOR
 70
   257
  9
$DIMASSOC
280
     1
  9
$PROJECTNAME
  1

  0
ENDSEC
  0
SECTION
  2
CLASSES
  0
CLASS
  1
ACDBDICTIONARYWDFLT
  2
AcDbDictionaryWithDefault
  3
ObjectDBX Classes
 90
        0
 91
        1
280
     0
281
     0
  0
CLASS
  1
VISUALSTYLE
  2
AcDbVisualStyle
  3
ObjectDBX Classes
 90
     4095
 91
        0
280
     0
281
     0
  0
CLASS
  1
MATERIAL
  2
AcDbMaterial
  3
ObjectDBX Classes
 90
        0
 91
        0
280
     0
281
     0
  0
CLASS
  1
SCALE
  2
AcDbScale
  3
ObjectDBX Classes
 90
     1153
 91
       33
280
     0
281
     0
  0
CLASS
  1
SUN
  2
AcDbSun
  3
SCENEOE
 90
     1153
 91
        1
280
     0
281
     0
  0
CLASS
  1
ACDBPLACEHOLDER
  2
AcDbPlaceHolder
  3
ObjectDBX Classes
 90
        0
 91
        1
280
     0
281
     0
  0
CLASS
  1
LAYOUT
  2
AcDbLayout
  3
ObjectDBX Classes
 90
        0
 91
        3
280
     0
281
     0
  0
ENDSEC
  0
SECTION
  2
TABLES
  0
TABLE
  2
VPORT
  5
8
330
0
100
AcDbSymbolTable
 70
     3
  0
VPORT
  5
15F
330
8
100
AcDbSymbolTableRecord
100
AcDbViewportTableRecord
  2
*Active
 70
     0
 10
0.0
 20
0.0
 11
1.0
 21
1.0
 12
4.670663383620365
 22
10.30669469181742
 13
0.0
 23
0.0
 14
0.5
 24
0.5
 15
0.5
 25
0.5
 16
0.0
 26
0.0
 36
1.0
 17
0.0
 27
0.0
 37
0.0
 40
55.58367232595309
 41
2.240490797546012
 42
50.0
 43
0.0
 44
0.0
 50
0.0
 51
0.0
 71
     0
 72
  2000
 73
     1
 74
     3
 75
     0
 76
     0
 77
     0
 78
     0
281
     0
 65
     1
110
0.0
120
0.0
130
0.0
111
1.0
121
0.0
131
0.0
112
0.0
122
1.0
132
0.0
 79
     0
146
0.0
  0
ENDTAB
  0
TABLE
  2
LTYPE
  5
5
330
0
100
AcDbSymbolTable
 70
     6
  0
LTYPE
  5
14
330
5
100
AcDbSymbolTableRecord
100
AcDbLinetypeTableRecord
  2
ByBlock
 70
     0
  3

 72
    65
 73
     0
 40
0.0
  0
LTYPE
  5
15
330
5
100
AcDbSymbolTableRecord
100
AcDbLinetypeTableRecord
  2
ByLayer
 70
     0
  3

 72
    65
 73
     0
 40
0.0
  0
LTYPE
  5
16
330
5
100
AcDbSymbolTableRecord
100
AcDbLinetypeTableRecord
  2
Continuous
 70
     0
  3
Solid line
 72
    65
 73
     0
 40
0.0
  0
LTYPE
  5
6A
330
5
100
AcDbSymbolTableRecord
100
AcDbLinetypeTableRecord
  2
HIDDEN
 70
     0
  3
Hidden __ __ __ __ __ __ __ __ __ __ __ __ __ __
 72
    65
 73
     2
 40
0.075
 49
0.05
 74
     0
 49
-0.025
 74
     0
  0
LTYPE
  5
6B
330
5
100
AcDbSymbolTableRecord
100
AcDbLinetypeTableRecord
  2
PHANTOM
 70
     0
  3
Phantom ______  __  __  ______  __  __  ______
 72
    65
 73
     6
 40
0.5
 49
0.25
 74
     0
 49
-0.05
 74
     0
 49
0.05
 74
     0
 49
-0.05
 74
     0
 49
0.05
 74
     0
 49
-0.05
 74
     0
  0
LTYPE
  5
6C
330
5
100
AcDbSymbolTableRecord
100
AcDbLinetypeTableRecord
  2
CENTER
 70
     0
  3
Center ____ _ ____ _ ____ _ ____ _ ____ _ ____
 72
    65
 73
     4
 40
0.4
 49
0.25
 74
     0
 49
-0.05
 74
     0
 49
0.05
 74
     0
 49
-0.05
 74
     0
  0
LTYPE
  5
6D
330
5
100
AcDbSymbolTableRecord
100
AcDbLinetypeTableRecord
  2
CENTERX2
 70
     0
  3
Center (2x) ________  __  ________  __  _____
 72
    65
 73
     4
 40
0.8
 49
0.5
 74
     0
 49
-0.1
 74
     0
 49
0.1
 74
     0
 49
-0.1
 74
     0
  0
LTYPE
  5
6E
330
5
100
AcDbSymbolTableRecord
100
AcDbLinetypeTableRecord
  2
DOT2
 70
     0
  3
Dot (.5x) ........................................
 72
    65
 73
     2
 40
0.025
 49
0.0
 74
     0
 49
-0.025
 74
     0
  0
ENDTAB
  0
TABLE
  2
LAYER
  5
2
330
0
100
AcDbSymbolTable
 70
     1
  0
LAYER
  5
10
330
2
100
AcDbSymbolTableRecord
100
AcDbLayerTableRecord
  2
0
 70
     0
 62
     7
  6
Continuous
370
    -3
390
F
  0
ENDTAB
  0
TABLE
  2
STYLE
  5
3
330
0
100
AcDbSymbolTable
 70
     1
  0
STYLE
  5
11
330
3
100
AcDbSymbolTableRecord
100
AcDbTextStyleTableRecord
  2
Standard
 70
     0
 40
0.0
 41
1.0
 50
0.0
 71
     0
 42
0.1377952755905512
  3
txt
  4

  0
ENDTAB
  0
TABLE
  2
VIEW
  5
6
330
0
100
AcDbSymbolTable
 70
     0
  0
ENDTAB
  0
TABLE
  2
UCS
  5
7
330
0
100
AcDbSymbolTable
 70
     0
  0
ENDTAB
  0
TABLE
  2
APPID
  5
9
330
0
100
AcDbSymbolTable
 70
     1
  0
APPID
  5
12
330
9
100
AcDbSymbolTableRecord
100
AcDbRegAppTableRecord
  2
ACAD
 70
     0
  0
ENDTAB
  0
TABLE
  2
DIMSTYLE
  5
A
330
0
100
AcDbSymbolTable
 70
     1
100
AcDbDimStyleTable
 71
     0
  0
DIMSTYLE
105
27
330
A
100
AcDbSymbolTableRecord
100
AcDbDimStyleTableRecord
  2
Standard
 70
     0
340
11
  0
ENDTAB
  0
TABLE
  2
BLOCK_RECORD
  5
1
330
0
100
AcDbSymbolTable
 70
     1
  0
BLOCK_RECORD
  5
1F
330
1
100
AcDbSymbolTableRecord
100
AcDbBlockTableRecord
  2
*Model_Space
340
22
  0
BLOCK_RECORD
  5
1B
330
1
100
AcDbSymbolTableRecord
100
AcDbBlockTableRecord
  2
*Paper_Space
340
1E
  0
BLOCK_RECORD
  5
23
330
1
100
AcDbSymbolTableRecord
100
AcDbBlockTableRecord
  2
*Paper_Space0
340
26
  0
ENDTAB
  0
ENDSEC
  0
SECTION
  2
BLOCKS
  0
BLOCK
  5
20
330
1F
100
AcDbEntity
  8
0
100
AcDbBlockBegin
  2
*Model_Space
 70
     0
 10
0.0
 20
0.0
 30
0.0
  3
*Model_Space
  1

  0
ENDBLK
  5
21
330
1F
100
AcDbEntity
  8
0
100
AcDbBlockEnd
  0
BLOCK
  5
1C
330
1B
100
AcDbEntity
 67
     1
  8
0
100
AcDbBlockBegin
  2
*Paper_Space
 70
     0
 10
0.0
 20
0.0
 30
0.0
  3
*Paper_Space
  1

  0
ENDBLK
  5
1D
330
1B
100
AcDbEntity
 67
     1
  8
0
100
AcDbBlockEnd
  0
BLOCK
  5
24
330
23
100
AcDbEntity
  8
0
100
AcDbBlockBegin
  2
*Paper_Space0
 70
     0
 10
0.0
 20
0.0
 30
0.0
  3
*Paper_Space0
  1

  0
ENDBLK
  5
25
330
23
100
AcDbEntity
  8
0
100
AcDbBlockEnd
  0
ENDSEC
  0
SECTION
  2
ENTITIES
  0
LINE
  5
6F
330
1F
100
AcDbEntity
  8
0
  6
Continuous
 62
     7
370
     5
100
AcDbLine
 10
5.00909246974745
 20
-10.95890259938056
 30
0.0
 11
6.335719798372483
 21
-11.31945148111572
 31
0.0
  0
LINE
  5
70
330
1F
100
AcDbEntity
  8
0
  6
Continuous
 62
     7
370
     5
100
AcDbLine
 10
12.16711284010718
 20
28.45691821648744
 30
0.0
 11
10.61938164851482
 21
28.87755839049441
 31
0.0
  0
LINE
  5
71
330
1F
100
AcDbEntity
  8
0
  6
Continuous
 62
     7
370
     5
100
AcDbLine
 10
-10.85851060393654
 20
12.02802812497314
 30
0.0
 11
-10.85851060393654
 21
10.74227715802938
 31
0.0
  0
LINE
  5
72
330
1F
100
AcDbEntity
  8
0
  6
Continuous
 62
     7
370
     5
100
AcDbLine
 10
-10.85851060393654
 20
13.31377909191689
 30
0.0
 11
-10.85851060393654
 21
12.02802812497314
 31
0.0
  0
LINE
  5
73
330
1F
100
AcDbEntity
  8
0
  6
Continuous
 62
     7
370
     5
100
AcDbLine
 10
-10.85851060393654
 20
13.51568545867016
 30
0.0
 11
-10.85851060393654
 21
13.31377909191689
 31
0.0
  0
LINE
  5
74
330
1F
100
AcDbEntity
  8
0
  6
Continuous
 62
     7
370
     5
100
AcDbLine
 10
6.016600847897464
 20
11.90257324450077
 30
0.0
 11
6.016600847897464
 21
8.794553300058481
 31
0.0
  0
LINE
  5
75
330
1F
100
AcDbEntity
  8
0
  6
Continuous
 62
     7
370
     5
100
AcDbLine
 10
8.227838651883022
 20
4.797357949603903
 30
0.0
 11
8.257240569759726
 21
4.826055122809024
 31
0.0
  0
SPLINE
  5
76
330
1F
100
AcDbEntity
  8
0
  6
Continuous
 62
     7
370
     5
100
AcDbSpline
210
0.0
220
0.0
230
1.0
 70
     8
 71
     3
 72
     9
 73
     5
 74
     0
 42
0.0000000001
 43
0.0000000001
 40
0.0
 40
0.0
 40
0.0
 40
0.0
 40
0.4732944649823782
 40
0.9999999999999998
 40
0.9999999999999998
 40
0.9999999999999998
 40
0.9999999999999998
 10
6.103143705051906
 20
5.248413266341131
 30
0.0
 10
6.094360215458696
 20
5.241068235381092
 30
0.0
 10
6.075802023375145
 20
5.225549289981409
 30
0.0
 10
6.054294477696541
 20
5.215870265709518
 30
0.0
 10
6.042966334342982
 20
5.210772270051941
 30
0.0
  0
LINE
  5
77
330
1F
100
AcDbEntity
  8
0
  6
Continuous
 62
     7
370
     5
100
AcDbLine
 10
6.016600847897464
 20
5.196041068741116
 30
0.0
 11
6.016600847897464
 21
2.088020935724193
 31
0.0
  0
LINE
  5
78
330
1F
100
AcDbEntity
  8
0
  6
Continuous
 62
     7
370
     5
100
AcDbLine
 10
6.624833051106749
 20
2.500010958360146
 30
0.0
 11
6.654234968983454
 21
2.528708131565267
 31
0.0
  0
LINE
  5
79
330
1F
100
AcDbEntity
  8
0
  6
Continuous
 62
     7
370
     5
100
AcDbLine
 10
6.019759094918217
 20
2.085270265647524
 30
0.0
 11
6.041098051522717
 21
2.080042712244239
 31
0.0
  0
LINE
  5
7A
330
1F
100
AcDbEntity
  8
0
  6
Continuous
 62
     7
370
     5
100
AcDbLine
 10
8.571395836618579
 20
4.96008480920247
 30
0.0
 11
8.571395836618579
 21
-8.954973750035335
 31
0.0
  0
SPLINE
  5
7B
330
1F
100
AcDbEntity
  8
0
  6
Continuous
 62
     7
370
     5
100
AcDbSpline
210
0.0
220
0.0
230
1.0
 70
     8
 71
     3
 72
    31
 73
    27
 74
     0
 42
0.0000000001
 43
0.0000000001
 40
0.0
 40
0.0
 40
0.0
 40
0.0
 40
0.0534153407932279
 40
0.1010251435603127
 40
0.1437195124256308
 40
0.1824431020246553
 40
0.2181711007918606
 40
0.2518610782014701
 40
0.2843886690238201
 40
0.3264972359239194
 40
0.3690164218395975
 40
0.4125643466089001
 40
0.4573062964473397
 40
0.503083796281199
 40
0.5495326327429612
 40
0.5961780918130783
 40
0.6425150669180581
 40
0.6880826661714663
 40
0.7325471921342752
 40
0.7758008527609516
 40
0.8180847633686134
 40
0.8516923139951236
 40
0.8857579829154206
 40
0.9211326831137432
 40
0.9588409205901832
 40
1.0
 40
1.0
 40
1.0
 40
1.0
 10
6.004571279859709
 20
-10.97654660069481
 30
0.0
 10
6.03302488717515
 20
-11.02676977436719
 30
0.0
 10
6.086839572641223
 20
-11.12175752985013
 30
0.0
 10
6.176133983377462
 20
-11.22727605687746
 30
0.0
 10
6.265770429481061
 20
-11.29622636091737
 30
0.0
 10
6.356444845002854
 20
-11.32964210316336
 30
0.0
 10
6.447900519982675
 20
-11.33045259738949
 30
0.0
 10
6.539998548933783
 20
-11.30128685920488
 30
0.0
 10
6.641895641963034
 20
-11.23944964768402
 30
0.0
 10
6.754394983209194
 20
-11.13788182930874
 30
0.0
 10
6.876559169054025
 20
-10.99330257643487
 30
0.0
 10
6.998544972807749
 20
-10.82157351685794
 30
0.0
 10
7.120458136197889
 20
-10.62905378835435
 30
0.0
 10
7.242377496762964
 20
-10.42189821671707
 30
0.0
 10
7.364313419825186
 20
-10.20619867822938
 30
0.0
 10
7.486239008905143
 20
-9.98805537452678
 30
0.0
 10
7.608114039936603
 20
-9.773567002330313
 30
0.0
 10
7.729916987211284
 20
-9.568835440793447
 30
0.0
 10
7.851672112925849
 20
-9.379946712530887
 30
0.0
 10
7.97345606243829
 20
-9.213086935970521
 30
0.0
 10
8.087378207017527
 20
-9.083808567631743
 30
0.0
 10
8.1926747678941
 20
-8.991958357354025
 30
0.0
 10
8.289644238785472
 20
-8.933432811964236
 30
0.0
 10
8.385988356503924
 20
-8.905362856136962
 30
0.0
 10
8.482174791382796
 20
-8.908861015259221
 30
0.0
 10
8.540800432614048
 20
-8.939160914100709
 30
0.0
 10
8.571395836618579
 20
-8.954973750035335
 30
0.0
  0
LINE
  5
7C
330
1F
100
AcDbEntity
  8
0
  6
Continuous
 62
     7
370
     5
100
AcDbLine
 10
6.004571279859709
 20
5.657692969222307
 30
0.0
 11
6.004571279859709
 21
-10.97654660069481
 31
0.0
  0
LINE
  5
7D
330
1F
100
AcDbEntity
  8
0
  6
Continuous
 62
     7
370
     5
100
AcDbLine
 10
4.677943951234675
 20
6.018241850957458
 30
0.0
 11
6.004571279859709
 21
5.657692969222307
 31
0.0
  0
LINE
  5
7E
330
1F
100
AcDbEntity
  8
0
  6
Continuous
 62
     7
370
     5
100
AcDbLine
 10
4.677943951234675
 20
-10.61599771895966
 30
0.0
 11
6.004571279859709
 21
-10.97654660069481
 31
0.0
  0
LINE
  5
7F
330
1F
100
AcDbEntity
  8
0
  6
Continuous
 62
     7
370
     5
100
AcDbLine
 10
4.677943951234675
 20
6.018241850957458
 30
0.0
 11
4.677943951234675
 21
-10.61599771895966
 31
0.0
  0
LINE
  5
80
330
1F
100
AcDbEntity
  8
0
  6
Continuous
 62
     7
370
     5
100
AcDbLine
 10
8.41465875645567
 20
-8.912375970116436
 30
0.0
 11
8.571395836618579
 21
-8.954973750035335
 31
0.0
  0
SPLINE
  5
81
330
1F
100
AcDbEntity
  8
0
  6
Continuous
 62
     7
370
     5
100
AcDbSpline
210
0.0
220
0.0
230
1.0
 70
     8
 71
     3
 72
    11
 73
     7
 74
     0
 42
0.0000000001
 43
0.0000000001
 40
0.0
 40
0.0
 40
0.0
 40
0.0
 40
0.1657005902826701
 40
0.4135436711657948
 40
0.6899211071516797
 40
1.0
 40
1.0
 40
1.0
 40
1.0
 10
5.009947109806414
 20
-10.95590612208492
 30
0.0
 10
4.98747486662455
 20
-10.94926875382256
 30
0.0
 10
4.931390250818983
 20
-10.93270368526479
 30
0.0
 10
4.849743882875362
 20
-10.86586837170948
 30
0.0
 10
4.760141418733793
 20
-10.76146504687117
 30
0.0
 10
4.706373062663477
 20
-10.66630957162703
 30
0.0
 10
4.677943951234675
 20
-10.61599771895966
 30
0.0
  0
LINE
  5
82
330
1F
100
AcDbEntity
  8
0
  6
Continuous
 62
     7
370
     5
100
AcDbLine
 10
-3.774097427469151
 20
7.821259678434887
 30
0.0
 11
-2.226366235876793
 21
7.400619504427915
 31
0.0
  0
SPLINE
  5
83
330
1F
100
AcDbEntity
  8
0
  6
Continuous
 62
     7
370
     5
100
AcDbSpline
210
0.0
220
0.0
230
1.0
 70
     8
 71
     3
 72
    14
 73
    10
 74
     0
 42
0.0000000001
 43
0.0000000001
 40
0.0
 40
0.0
 40
0.0
 40
0.0
 40
0.1674645637010036
 40
0.3226263702235355
 40
0.4680772632818532
 40
0.6063433393528795
 40
0.7397732058133819
 40
0.8704283407337433
 40
1.0
 40
1.0
 40
1.0
 40
1.0
 10
-2.226366235876793
 20
7.400619504427915
 30
0.0
 10
-2.259411349087284
 20
7.273887064733923
 30
0.0
 10
-2.323073921592856
 20
7.029732563599903
 30
0.0
 10
-2.396508392996335
 20
6.673991065375738
 30
0.0
 10
-2.449694767950255
 20
6.344181930434304
 30
0.0
 10
-2.483183919649393
 20
6.038142306890522
 30
0.0
 10
-2.498491141418872
 20
5.75462413504013
 30
0.0
 10
-2.498397011742994
 20
5.490243644621631
 30
0.0
 10
-2.486239635529949
 20
5.329054226640573
 30
0.0
 10
-2.480186256541159
 20
5.248795080347625
 30
0.0
  0
LINE
  5
84
330
1F
100
AcDbEntity
  8
0
  6
Continuous
 62
     7
370
     5
100
AcDbLine
 10
-2.480186256541159
 20
5.248795080347625
 30
0.0
 11
-2.977672542480823
 21
5.384001193024368
 31
0.0
  0
SPLINE
  5
85
330
1F
100
AcDbEntity
  8
0
  6
Continuous
 62
     7
370
     5
100
AcDbSpline
210
0.0
220
0.0
230
1.0
 70
     8
 71
     3
 72
    28
 73
    24
 74
     0
 42
0.0000000001
 43
0.0000000001
 40
0.0
 40
0.0
 40
0.0
 40
0.0
 40
0.0398388292123979
 40
0.0801163107780675
 40
0.121014293644272
 40
0.1736141474732051
 40
0.227058836407388
 40
0.2809813887500112
 40
0.3349310467955015
 40
0.3884577942638195
 40
0.4411979589287593
 40
0.4929676316769749
 40
0.5375495510489771
 40
0.5817897422444541
 40
0.6262855587428657
 40
0.671570327151806
 40
0.7177730339470307
 40
0.7647266352239531
 40
0.8120802324018626
 40
0.8593940347921233
 40
0.9072174314688183
 40
0.9541502530595375
 40
0.9999999999999998
 40
0.9999999999999998
 40
0.9999999999999998
 40
0.9999999999999998
 10
-2.977672542480823
 20
5.384001193024368
 30
0.0
 10
-2.967121834708792
 20
5.291855161914193
 30
0.0
 10
-2.945904248763044
 20
5.106548509802776
 30
0.0
 10
-2.893381934808619
 20
4.855749987540939
 30
0.0
 10
-2.823482911356668
 20
4.598445762572074
 30
0.0
 10
-2.733904058290149
 20
4.338325146761858
 30
0.0
 10
-2.627243943388886
 20
4.072787310904392
 30
0.0
 10
-2.515186099609409
 20
3.813938839531112
 30
0.0
 10
-2.403142664167054
 20
3.554826340249436
 30
0.0
 10
-2.296458297157428
 20
3.288561660902223
 30
0.0
 10
-2.200520816534975
 20
3.008157150031321
 30
0.0
 10
-2.123998297498755
 20
2.718662546863753
 30
0.0
 10
-2.069691224115607
 20
2.417246220094955
 30
0.0
 10
-2.038340262579471
 20
2.103094938181783
 30
0.0
 10
-2.032177085806373
 20
1.757895104630173
 30
0.0
 10
-2.047225079027318
 20
1.388202157459055
 30
0.0
 10
-2.077711746547692
 20
1.000556675041442
 30
0.0
 10
-2.118579328355685
 20
0.6009152160407455
 30
0.0
 10
-2.164672528357865
 20
0.1954143902351505
 30
0.0
 10
-2.211421011860823
 20
-0.2128185514466141
 30
0.0
 10
-2.253090472705648
 20
-0.6169789645400103
 30
0.0
 10
-2.286247629022257
 20
-1.012475971677062
 30
0.0
 10
-2.293841962017407
 20
-1.262269925112674
 30
0.0
 10
-2.297594803219384
 20
-1.385708947480666
 30
0.0
  0
LINE
  5
86
330
1F
100
AcDbEntity
  8
0
  6
Continuous
 62
     7
370
     5
100
AcDbLine
 10
-2.297594803219384
 20
-1.385708947480666
 30
0.0
 11
-1.800108517279719
 21
-1.52091506015741
 31
0.0
  0
SPLINE
  5
87
330
1F
100
AcDbEntity
  8
0
  6
Continuous
 62
     7
370
     5
100
AcDbSpline
210
0.0
220
0.0
230
1.0
 70
     8
 71
     3
 72
    14
 73
    10
 74
     0
 42
0.0000000001
 43
0.0000000001
 40
0.0
 40
0.0
 40
0.0
 40
0.0
 40
0.1374855956558978
 40
0.2736607464299363
 40
0.409809150043248
 40
0.5478184498315346
 40
0.6901620150306137
 40
0.8397977826297482
 40
1.0
 40
1.0
 40
1.0
 40
1.0
 10
-1.800108517279719
 20
-1.52091506015741
 30
0.0
 10
-1.800243741032566
 20
-1.602368457023847
 30
0.0
 10
-1.800512899652154
 20
-1.764498877155373
 30
0.0
 10
-1.786004265609181
 20
-1.991677235798426
 30
0.0
 10
-1.758070431770064
 20
-2.201946472204979
 30
0.0
 10
-1.713936577234255
 20
-2.392114452176561
 30
0.0
 10
-1.651717610953602
 20
-2.55908718530548
 30
0.0
 10
-1.570554100807633
 20
-2.703034447570765
 30
0.0
 10
-1.502765845769777
 20
-2.77152492932495
 30
0.0
 10
-1.467715821900709
 20
-2.806938040622007
 30
0.0
  0
LINE
  5
88
330
1F
100
AcDbEntity
  8
0
  6
Continuous
 62
     7
370
     5
100
AcDbLine
 10
-3.015447013493067
 20
-2.386297866615034
 30
0.0
 11
-1.467715821900709
 21
-2.806938040622003
 31
0.0
  0
SPLINE
  5
89
330
1F
100
AcDbEntity
  8
0
  6
Continuous
 62
     7
370
     5
100
AcDbSpline
210
0.0
220
0.0
230
1.0
 70
     8
 71
     3
 72
    14
 73
    10
 74
     0
 42
0.0000000001
 43
0.0000000001
 40
0.0
 40
0.0
 40
0.0
 40
0.0
 40
0.1374855956558978
 40
0.2736607464299363
 40
0.409809150043248
 40
0.5478184498315346
 40
0.6901620150306137
 40
0.8397977826297482
 40
1.0
 40
1.0
 40
1.0
 40
1.0
 10
-3.347839708872078
 20
-1.100274886150437
 30
0.0
 10
-3.347974932624925
 20
-1.181728283016878
 30
0.0
 10
-3.348244091244512
 20
-1.3438587031484
 30
0.0
 10
-3.333735457201535
 20
-1.571037061791458
 30
0.0
 10
-3.305801623362431
 20
-1.781306298198007
 30
0.0
 10
-3.26166776882661
 20
-1.971474278169593
 30
0.0
 10
-3.199448802545965
 20
-2.138447011298508
 30
0.0
 10
-3.118285292399991
 20
-2.282394273563796
 30
0.0
 10
-3.050497037362136
 20
-2.350884755317977
 30
0.0
 10
-3.015447013493067
 20
-2.386297866615034
 30
0.0
  0
LINE
  5
8A
330
1F
100
AcDbEntity
  8
0
  6
Continuous
 62
     7
370
     5
100
AcDbLine
 10
-3.347839708872078
 20
-1.100274886150437
 30
0.0
 11
-2.850355498342966
 21
-1.235480434775059
 31
0.0
  0
SPLINE
  5
8B
330
1F
100
AcDbEntity
  8
0
  6
Continuous
 62
     7
370
     5
100
AcDbSpline
210
0.0
220
0.0
230
1.0
 70
     8
 71
     3
 72
    28
 73
    24
 74
     0
 42
0.0000000001
 43
0.0000000001
 40
0.0
 40
0.0
 40
0.0
 40
0.0
 40
0.0458491095520604
 40
0.092781278697823
 40
0.1406040105490735
 40
0.1936064122079942
 40
0.2465904329709521
 40
0.2989546800847481
 40
0.350272015899638
 40
0.3897996660961453
 40
0.4288240973221122
 40
0.4677772133997023
 40
0.5070392214001295
 40
0.558808174463043
 40
0.6115476059512148
 40
0.6650736093079442
 40
0.7190225173626791
 40
0.772944320091362
 40
0.8263882660547075
 40
0.8789873886574286
 40
0.9198848029730589
 40
0.9601617246141636
 40
1.0
 40
1.0
 40
1.0
 40
1.0
 10
-2.850355498342966
 20
-1.235480434775059
 30
0.0
 10
-2.846602560646777
 20
-1.1120413155657
 30
0.0
 10
-2.839008032383792
 20
-0.8622471661597414
 30
0.0
 10
-2.805852376616439
 20
-0.466751664970497
 30
0.0
 10
-2.76250817432707
 20
-0.0464001758686283
 30
0.0
 10
-2.711750828219419
 20
0.3944261944305349
 30
0.0
 10
-2.660649405623955
 20
0.8476074691823242
 30
0.0
 10
-2.617582837093503
 20
1.291760648870846
 30
0.0
 10
-2.591744701217637
 20
1.688909998154376
 30
0.0
 10
-2.585207236945627
 20
2.03518507123839
 30
0.0
 10
-2.597417319861524
 20
2.330402160725098
 30
0.0
 10
-2.628372886760266
 20
2.602015918451045
 30
0.0
 10
-2.679487287971909
 20
2.879211238356176
 30
0.0
 10
-2.753282093413328
 20
3.158388264218592
 30
0.0
 10
-2.849218832610728
 20
3.438789459596915
 30
0.0
 10
-2.955903402722045
 20
3.705055047170939
 30
0.0
 10
-3.067946783059014
 20
3.964167300033196
 30
0.0
 10
-3.180004641612517
 20
4.22301583747276
 30
0.0
 10
-3.286664752593902
 20
4.488553655801352
 30
0.0
 10
-3.376243606645132
 20
4.748674276015053
 30
0.0
 10
-3.446142629893628
 20
5.005978500074044
 30
0.0
 10
-3.498664943896085
 20
5.256777022550692
 30
0.0
 10
-3.519882529835522
 20
5.442083674633854
 30
0.0
 10
-3.530433237604405
 20
5.534229705729973
 30
0.0
  0
LINE
  5
8C
330
1F
100
AcDbEntity
  8
0
  6
Continuous
 62
     7
370
     5
100
AcDbLine
 10
-3.530433237604405
 20
5.534229705729973
 30
0.0
 11
-4.027917448133517
 21
5.669435254354597
 31
0.0
  0
SPLINE
  5
8D
330
1F
100
AcDbEntity
  8
0
  6
Continuous
 62
     7
370
     5
100
AcDbSpline
210
0.0
220
0.0
230
1.0
 70
     8
 71
     3
 72
    14
 73
    10
 74
     0
 42
0.0000000001
 43
0.0000000001
 40
0.0
 40
0.0
 40
0.0
 40
0.0
 40
0.1674645637010036
 40
0.3226263702235355
 40
0.4680772632818532
 40
0.6063433393528795
 40
0.7397732058133819
 40
0.8704283407337433
 40
1.0
 40
1.0
 40
1.0
 40
1.0
 10
-3.774097427469151
 20
7.821259678434887
 30
0.0
 10
-3.807142540679642
 20
7.694527238740896
 30
0.0
 10
-3.870805113185214
 20
7.450372737606874
 30
0.0
 10
-3.944239584588689
 20
7.094631239382709
 30
0.0
 10
-3.997425959542627
 20
6.764822104441276
 30
0.0
 10
-4.030915111241738
 20
6.458782480897489
 30
0.0
 10
-4.046222333011249
 20
6.175264309047103
 30
0.0
 10
-4.046128203335348
 20
5.910883818628601
 30
0.0
 10
-4.033970827122303
 20
5.749694400647543
 30
0.0
 10
-4.027917448133517
 20
5.669435254354597
 30
0.0
  0
SPLINE
  5
8E
330
1F
100
AcDbEntity
  8
0
  6
Continuous
 62
     7
370
     5
100
AcDbSpline
210
0.0
220
0.0
230
1.0
 70
     8
 71
     3
 72
    15
 73
    11
 74
     0
 42
0.0000000001
 43
0.0000000001
 40
0.0
 40
0.0
 40
0.0
 40
0.0
 40
0.1247703663784631
 40
0.248526558780654
 40
0.3620718282091508
 40
0.4776251357005798
 40
0.5970511111000058
 40
0.7224401919525017
 40
0.8560097321469521
 40
1.0
 40
1.0
 40
1.0
 40
1.0
 10
12.64326631534234
 20
27.58525284774989
 30
0.0
 10
12.63400239861729
 20
27.65387392684461
 30
0.0
 10
12.61554986528478
 20
27.79055831066292
 30
0.0
 10
12.57302308994469
 20
27.96665996622198
 30
0.0
 10
12.51958869191211
 20
28.11703409979812
 30
0.0
 10
12.45436957943266
 20
28.24081325813049
 30
0.0
 10
12.37489162398198
 20
28.34099697657333
 30
0.0
 10
12.27987493444012
 20
28.41502410896822
 30
0.0
 10
12.16879615764214
 20
28.46335000802438
 30
0.0
 10
12.08547495343662
 20
28.47071475863712
 30
0.0
 10
12.04225024235259
 20
28.47453538533686
 30
0.0
  0
LINE
  5
8F
330
1F
100
AcDbEntity
  8
0
  6
Continuous
 62
     7
370
     5
100
AcDbLine
 10
12.64326631534234
 20
27.58525284774989
 30
0.0
 11
-2.480186256541159
 21
5.248795080347625
 31
0.0
  0
LINE
  5
90
330
1F
100
AcDbEntity
  8
0
  6
Continuous
 62
     7
370
     5
100
AcDbLine
 10
-2.226366235876793
 20
7.400619504427915
 30
0.0
 11
12.04225024235259
 21
28.47453538533686
 31
0.0
  0
LINE
  5
91
330
1F
100
AcDbEntity
  8
0
  6
Continuous
 62
     7
370
     5
100
AcDbLine
 10
10.49451905076023
 20
28.89517555934383
 30
0.0
 11
12.04225024235259
 21
28.47453538533686
 31
0.0
  0
LINE
  5
92
330
1F
100
AcDbEntity
  8
0
  6
Continuous
 62
     7
370
     5
100
AcDbLine
 10
-3.774097427469151
 20
7.821259678434887
 30
0.0
 11
10.49451905076023
 21
28.89517555934383
 31
0.0
  0
SPLINE
  5
93
330
1F
100
AcDbEntity
  8
0
  6
Continuous
 62
     7
370
     5
100
AcDbSpline
210
0.0
220
0.0
230
1.0
 70
     8
 71
     3
 72
    27
 73
    23
 74
     0
 42
0.0000000001
 43
0.0000000001
 40
0.0
 40
0.0
 40
0.0
 40
0.0
 40
0.0527759733357887
 40
0.1058993646372914
 40
0.1593686395269874
 40
0.2114053474676094
 40
0.2635182305764237
 40
0.3155432388250002
 40
0.367337775064065
 40
0.4188178131744119
 40
0.4699972806873082
 40
0.5210284565414224
 40
0.5722409589642891
 40
0.6241163215760058
 40
0.6768967288410936
 40
0.7305103476324097
 40
0.7846934836584274
 40
0.8390607392519626
 40
0.8931654032481436
 40
0.9465542519641456
 40
0.9988232196253838
 40
1.0
 40
1.0
 40
1.0
 40
1.0
 10
12.90001747254089
 20
21.06027890887365
 30
0.0
 10
12.87797929211467
 20
21.1525281900454
 30
0.0
 10
12.83375785653737
 20
21.33763401845294
 30
0.0
 10
12.75319645748101
 20
21.59241254729612
 30
0.0
 10
12.6670648708931
 20
21.83484857163423
 30
0.0
 10
12.57740268881057
 20
22.06804614072636
 30
0.0
 10
12.48756994821659
 20
22.29716182613032
 30
0.0
 10
12.39940237749761
 20
22.52887945279177
 30
0.0
 10
12.31579716849396
 20
22.76762672265759
 30
0.0
 10
12.23963319124886
 20
23.01781204672634
 30
0.0
 10
12.17382236381545
 20
23.28391476344817
 30
0.0
 10
12.12132719678049
 20
23.57045311886988
 30
0.0
 10
12.08513313720383
 20
23.88189174930328
 30
0.0
 10
12.06850769533179
 20
24.22140245840403
 30
0.0
 10
12.06765604673041
 20
24.58282838814465
 30
0.0
 10
12.07857052560364
 20
24.96033947520541
 30
0.0
 10
12.09745589513151
 20
25.34809018825609
 30
0.0
 10
12.12038011608677
 20
25.74008025553015
 30
0.0
 10
12.14400204677228
 20
26.13083299528174
 30
0.0
 10
12.16289480387307
 20
26.51290460638144
 30
0.0
 10
12.17404317919697
 20
26.76761793272723
 30
0.0
 10
12.17463662994027
 20
26.89043127569612
 30
0.0
 10
12.17464969667082
 20
26.89313540721374
 30
0.0
  0
LINE
  5
94
330
1F
100
AcDbEntity
  8
0
  6
Continuous
 62
     7
370
     5
100
AcDbLine
 10
12.90001747254089
 20
21.06027890887365
 30
0.0
 11
8.158508649336495
 21
14.05734688682022
 31
0.0
  0
LINE
  5
95
330
1F
100
AcDbEntity
  8
0
  6
Continuous
 62
     7
370
     5
100
AcDbLine
 10
5.304881235461772
 20
9.842705267571766
 30
0.0
 11
-2.297594803219384
 21
-1.385708947480666
 31
0.0
  0
SPLINE
  5
96
330
1F
100
AcDbEntity
  8
0
  6
Continuous
 62
     7
370
     5
100
AcDbSpline
210
0.0
220
0.0
230
1.0
 70
     8
 71
     3
 72
    13
 73
     9
 74
     0
 42
0.0000000001
 43
0.0000000001
 40
0.0
 40
0.0
 40
0.0
 40
0.0
 40
0.176384043622066
 40
0.3464462680687781
 40
0.5122852457521553
 40
0.6756465531190751
 40
0.8378915743008494
 40
0.9999999999999998
 40
0.9999999999999998
 40
0.9999999999999998
 40
0.9999999999999998
 10
13.47685838162013
 20
19.26532784684164
 30
0.0
 10
13.48579880073462
 20
19.37645866103083
 30
0.0
 10
13.50335920344216
 20
19.59473722553514
 30
0.0
 10
13.50904857604015
 20
19.90178896780777
 30
0.0
 10
13.50056318313238
 20
20.18674253686464
 30
0.0
 10
13.47796674574871
 20
20.4507480057259
 30
0.0
 10
13.44405787525518
 20
20.69769552881181
 30
0.0
 10
13.41301744003617
 20
20.84930165577828
 30
0.0
 10
13.39750375848056
 20
20.92507279619691
 30
0.0
  0
LINE
  5
97
330
1F
100
AcDbEntity
  8
0
  6
Continuous
 62
     7
370
     5
100
AcDbLine
 10
13.47685838162013
 20
19.26532784684164
 30
0.0
 11
6.930049336196437
 21
9.596072105427191
 31
0.0
  0
LINE
  5
98
330
1F
100
AcDbEntity
  8
0
  6
Continuous
 62
     7
370
     5
100
AcDbLine
 10
6.196466721201198
 20
8.512613329540455
 30
0.0
 11
-1.467715821900709
 21
-2.806938040622003
 31
0.0
  0
LINE
  5
99
330
1F
100
AcDbEntity
  8
0
  6
Continuous
 62
     7
370
     5
100
AcDbLine
 10
13.39750375848056
 20
20.92507279619691
 30
0.0
 11
6.760332680517773
 21
11.12235781296294
 31
0.0
  0
LINE
  5
9A
330
1F
100
AcDbEntity
  8
0
  6
Continuous
 62
     7
370
     5
100
AcDbLine
 10
6.01660085547103
 20
10.02390936853963
 30
0.0
 11
-1.800108517279719
 21
-1.52091506015741
 31
0.0
  0
LINE
  5
9B
330
1F
100
AcDbEntity
  8
0
  6
Continuous
 62
     7
370
     5
100
AcDbLine
 10
13.39750375848056
 20
20.92507279619691
 30
0.0
 11
12.90001747254089
 21
21.06027890887365
 31
0.0
  0
LINE
  5
9C
330
1F
100
AcDbEntity
  8
0
  6
Continuous
 62
     7
370
     5
100
AcDbLine
 10
-2.784304044734465
 20
-0.2679655445182738
 30
0.0
 11
-3.347839708872078
 21
-1.100274886150437
 31
0.0
  0
LINE
  5
9D
330
1F
100
AcDbEntity
  8
0
  6
Continuous
 62
     7
370
     5
100
AcDbLine
 10
10.61928691666782
 20
28.87718130733616
 30
0.0
 11
10.49451905076023
 21
28.89517555934383
 31
0.0
  0
SPLINE
  5
9E
330
1F
100
AcDbEntity
  8
0
  6
Continuous
 62
     7
370
     5
100
AcDbSpline
210
0.0
220
0.0
230
1.0
 70
     8
 71
     3
 72
    31
 73
    27
 74
     0
 42
0.0000000001
 43
0.0000000001
 40
0.0
 40
0.0
 40
0.0
 40
0.0
 40
0.042989543607412
 40
0.0819250449350472
 40
0.1177889279133781
 40
0.1515499745071706
 40
0.1840975165796572
 40
0.2161776169519333
 40
0.2483511360596292
 40
0.2942018612436352
 40
0.3413876803546596
 40
0.3898616164755101
 40
0.4392563200988415
 40
0.4890290397470378
 40
0.5385789613631672
 40
0.5873566577061017
 40
0.6349787212862456
 40
0.6813680561529685
 40
0.7269225088360242
 40
0.7595196635571658
 40
0.7928138719968187
 40
0.8275815948194289
 40
0.8647233741990925
 40
0.9052027700768466
 40
0.9499856843558644
 40
1.0
 40
1.0
 40
1.0
 40
1.0
 10
21.8570513819974
 20
5.837986893136072
 30
0.0
 10
21.77277856672517
 20
5.825544667208172
 30
0.0
 10
21.61218011420313
 20
5.801833554395626
 30
0.0
 10
21.39350603346421
 20
5.749813216097783
 30
0.0
 10
21.20624149454189
 20
5.688614928163038
 30
0.0
 10
21.04844320889775
 20
5.61810909766494
 30
0.0
 10
20.9174348573072
 20
5.539548410018094
 30
0.0
 10
20.81044699794184
 20
5.453906514381352
 30
0.0
 10
20.71275557411622
 20
5.349675476744352
 30
0.0
 10
20.63095630655454
 20
5.224873342713457
 30
0.0
 10
20.5681791054353
 20
5.07980863475166
 30
0.0
 10
20.52463321844333
 20
4.929226346220654
 30
0.0
 10
20.49261382180004
 20
4.775212400351352
 30
0.0
 10
20.46454796385622
 20
4.61987838479056
 30
0.0
 10
20.43288253349889
 20
4.465362073991579
 30
0.0
 10
20.39005876623289
 20
4.313784685082741
 30
0.0
 10
20.32834648619833
 20
4.167222936457352
 30
0.0
 10
20.23975591450668
 20
4.027748755881445
 30
0.0
 10
20.12747073522408
 20
3.909946339663336
 30
0.0
 10
19.9976765037802
 20
3.813632207282065
 30
0.0
 10
19.85815068413022
 20
3.735766615960969
 30
0.0
 10
19.69093595930682
 20
3.666140996751509
 30
0.0
 10
19.49353514526688
 20
3.605664649765206
 30
0.0
 10
19.26343282553939
 20
3.555443961408249
 30
0.0
 10
18.99835485808946
 20
3.515292021679064
 30
0.0
 10
18.80755007114068
 20
3.499538998843826
 30
0.0
 10
18.70688288024696
 20
3.491227820794963
 30
0.0
  0
LINE
  5
9F
330
1F
100
AcDbEntity
  8
0
  6
Continuous
 62
     7
370
     5
100
AcDbLine
 10
-10.460421252975
 20
11.41827610447659
 30
0.0
 11
-2.756315692147949
 21
9.324465292057501
 31
0.0
  0
LINE
  5
A0
330
1F
100
AcDbEntity
  8
0
  6
Continuous
 62
     7
370
     5
100
AcDbLine
 10
5.269317659645035
 20
7.143270115561053
 30
0.0
 11
6.284384356471559
 21
6.867396737611941
 31
0.0
  0
LINE
  5
A1
330
1F
100
AcDbEntity
  8
0
  6
Continuous
 62
     7
370
     5
100
AcDbLine
 10
8.303725615263477
 20
6.318583052721492
 30
0.0
 11
18.70688288024696
 21
3.491227820794963
 31
0.0
  0
LINE
  5
A2
330
1F
100
AcDbEntity
  8
0
  6
Continuous
 62
     7
370
     5
100
AcDbLine
 10
21.8570513819974
 20
5.837986893136072
 30
0.0
 11
21.8570513819974
 21
4.552235926192314
 31
0.0
  0
SPLINE
  5
A3
330
1F
100
AcDbEntity
  8
0
  6
Continuous
 62
     7
370
     5
100
AcDbSpline
210
0.0
220
0.0
230
1.0
 70
     8
 71
     3
 72
    31
 73
    27
 74
     0
 42
0.0000000001
 43
0.0000000001
 40
0.0
 40
0.0
 40
0.0
 40
0.0
 40
0.0500143156441356
 40
0.0947972299231535
 40
0.1352766258009074
 40
0.1724184051805709
 40
0.207186128003181
 40
0.240480336442834
 40
0.2730774911639757
 40
0.3186319438470314
 40
0.3650212787137543
 40
0.4126433422938982
 40
0.4614210386368328
 40
0.5109709602529622
 40
0.5607436799011585
 40
0.61013838352449
 40
0.6586123196453404
 40
0.7057981387563648
 40
0.7516488639403708
 40
0.7838223830480667
 40
0.8159024834203428
 40
0.8484500254928292
 40
0.8822110720866218
 40
0.9180749550649526
 40
0.9570104563925879
 40
1.0
 40
1.0
 40
1.0
 40
1.0
 10
18.70688288024697
 20
2.205476853851203
 30
0.0
 10
18.80755007114067
 20
2.213788031900072
 30
0.0
 10
18.99835485808946
 20
2.229541054735306
 30
0.0
 10
19.26343282553939
 20
2.269692994464493
 30
0.0
 10
19.49353514526687
 20
2.319913682821454
 30
0.0
 10
19.6909359593068
 20
2.380390029807757
 30
0.0
 10
19.85815068413023
 20
2.450015649017209
 30
0.0
 10
19.9976765037802
 20
2.527881240338307
 30
0.0
 10
20.12747073522408
 20
2.62419537271958
 30
0.0
 10
20.23975591450667
 20
2.741997788937689
 30
0.0
 10
20.3283464861983
 20
2.881471969513602
 30
0.0
 10
20.3900587662329
 20
3.028033718138981
 30
0.0
 10
20.43288253349889
 20
3.179611107047822
 30
0.0
 10
20.46454796385621
 20
3.33412741784681
 30
0.0
 10
20.49261382180004
 20
3.489461433407592
 30
0.0
 10
20.52463321844334
 20
3.643475379276892
 30
0.0
 10
20.56817910543529
 20
3.79405766780791
 30
0.0
 10
20.63095630655455
 20
3.939122375769694
 30
0.0
 10
20.71275557411622
 20
4.063924509800596
 30
0.0
 10
20.81044699794181
 20
4.168155547437603
 30
0.0
 10
20.91743485730721
 20
4.253797443074337
 30
0.0
 10
21.04844320889775
 20
4.33235813072118
 30
0.0
 10
21.20624149454188
 20
4.402863961219285
 30
0.0
 10
21.39350603346422
 20
4.464062249154023
 30
0.0
 10
21.61218011420311
 20
4.516082587451872
 30
0.0
 10
21.77277856672517
 20
4.539793700264414
 30
0.0
 10
21.8570513819974
 20
4.552235926192314
 30
0.0
  0
LINE
  5
A4
330
1F
100
AcDbEntity
  8
0
  6
Continuous
 62
     7
370
     5
100
AcDbLine
 10
18.70688288024696
 20
3.491227820794963
 30
0.0
 11
18.70688288024696
 21
2.205476853851207
 31
0.0
  0
LINE
  5
A5
330
1F
100
AcDbEntity
  8
0
  6
Continuous
 62
     7
370
     5
100
AcDbLine
 10
-10.460421252975
 20
10.13252513753283
 30
0.0
 11
-3.49156723695207
 21
8.238539940456618
 31
0.0
  0
LINE
  5
A6
330
1F
100
AcDbEntity
  8
0
  6
Continuous
 62
     7
370
     5
100
AcDbLine
 10
4.534066114840908
 20
6.057344763960171
 30
0.0
 11
6.284384356471559
 21
5.581645770668185
 31
0.0
  0
LINE
  5
A7
330
1F
100
AcDbEntity
  8
0
  6
Continuous
 62
     7
370
     5
100
AcDbLine
 10
8.303725615263477
 20
5.032832085777734
 30
0.0
 11
18.70688288024696
 21
2.205476853851207
 31
0.0
  0
LINE
  5
A8
330
1F
100
AcDbEntity
  8
0
  6
Continuous
 62
     7
370
     5
100
AcDbLine
 10
-10.460421252975
 20
11.41827610447659
 30
0.0
 11
-10.460421252975
 21
10.13252513753283
 31
0.0
  0
SPLINE
  5
A9
330
1F
100
AcDbEntity
  8
0
  6
Continuous
 62
     7
370
     5
100
AcDbSpline
210
0.0
220
0.0
230
1.0
 70
     8
 71
     3
 72
    12
 73
     8
 74
     0
 42
0.0000000001
 43
0.0000000001
 40
0.0
 40
0.0
 40
0.0
 40
0.0
 40
0.1511042457276933
 40
0.330448086456607
 40
0.5291132339032609
 40
0.7510637011878857
 40
1.0
 40
1.0
 40
1.0
 40
1.0
 10
-10.85742990449004
 20
10.74231031068453
 30
0.0
 10
-10.85533273644712
 20
10.70949974697883
 30
0.0
 10
-10.85074646447689
 20
10.6377467135687
 30
0.0
 10
-10.80466691206791
 20
10.52488498062693
 30
0.0
 10
-10.72634485188717
 20
10.4010095102156
 30
0.0
 10
-10.61187172558047
 20
10.26789289780245
 30
0.0
 10
-10.51279734640919
 20
10.17933934905615
 30
0.0
 10
-10.460421252975
 20
10.13252513753283
 30
0.0
  0
LINE
  5
AA
330
1F
100
AcDbEntity
  8
0
  6
Continuous
 62
     7
370
     5
100
AcDbLine
 10
21.8570513819974
 20
7.123737860079828
 30
0.0
 11
21.8570513819974
 21
5.837986893136072
 31
0.0
  0
SPLINE
  5
AB
330
1F
100
AcDbEntity
  8
0
  6
Continuous
 62
     7
370
     5
100
AcDbSpline
210
0.0
220
0.0
230
1.0
 70
     8
 71
     3
 72
    31
 73
    27
 74
     0
 42
0.0000000001
 43
0.0000000001
 40
0.0
 40
0.0
 40
0.0
 40
0.0
 40
0.042989543607412
 40
0.0819250449350472
 40
0.1177889279133781
 40
0.1515499745071706
 40
0.1840975165796572
 40
0.2161776169519333
 40
0.2483511360596292
 40
0.2942018612436352
 40
0.3413876803546596
 40
0.3898616164755101
 40
0.4392563200988415
 40
0.4890290397470378
 40
0.5385789613631672
 40
0.5873566577061017
 40
0.6349787212862456
 40
0.6813680561529685
 40
0.7269225088360242
 40
0.7595196635571658
 40
0.7928138719968187
 40
0.8275815948194289
 40
0.8647233741990925
 40
0.9052027700768466
 40
0.9499856843558644
 40
1.0
 40
1.0
 40
1.0
 40
1.0
 10
21.8570513819974
 20
5.837986893136072
 30
0.0
 10
21.77277856672517
 20
5.825544667208172
 30
0.0
 10
21.61218011420313
 20
5.801833554395626
 30
0.0
 10
21.39350603346421
 20
5.749813216097783
 30
0.0
 10
21.20624149454189
 20
5.688614928163038
 30
0.0
 10
21.04844320889775
 20
5.61810909766494
 30
0.0
 10
20.9174348573072
 20
5.539548410018094
 30
0.0
 10
20.81044699794184
 20
5.453906514381352
 30
0.0
 10
20.71275557411622
 20
5.349675476744352
 30
0.0
 10
20.63095630655454
 20
5.224873342713457
 30
0.0
 10
20.5681791054353
 20
5.07980863475166
 30
0.0
 10
20.52463321844333
 20
4.929226346220654
 30
0.0
 10
20.49261382180004
 20
4.775212400351352
 30
0.0
 10
20.46454796385622
 20
4.61987838479056
 30
0.0
 10
20.43288253349889
 20
4.465362073991579
 30
0.0
 10
20.39005876623289
 20
4.313784685082741
 30
0.0
 10
20.32834648619833
 20
4.167222936457352
 30
0.0
 10
20.23975591450668
 20
4.027748755881445
 30
0.0
 10
20.12747073522408
 20
3.909946339663336
 30
0.0
 10
19.9976765037802
 20
3.813632207282065
 30
0.0
 10
19.85815068413022
 20
3.735766615960969
 30
0.0
 10
19.69093595930682
 20
3.666140996751509
 30
0.0
 10
19.49353514526688
 20
3.605664649765206
 30
0.0
 10
19.26343282553939
 20
3.555443961408249
 30
0.0
 10
18.99835485808946
 20
3.515292021679064
 30
0.0
 10
18.80755007114068
 20
3.499538998843826
 30
0.0
 10
18.70688288024696
 20
3.491227820794963
 30
0.0
  0
LINE
  5
AC
330
1F
100
AcDbEntity
  8
0
  6
Continuous
 62
     7
370
     5
100
AcDbLine
 10
18.70688288024696
 20
4.776978787738719
 30
0.0
 11
18.70688288024696
 21
3.491227820794963
 31
0.0
  0
SPLINE
  5
AD
330
1F
100
AcDbEntity
  8
0
  6
Continuous
 62
     7
370
     5
100
AcDbSpline
210
0.0
220
0.0
230
1.0
 70
     8
 71
     3
 72
    31
 73
    27
 74
     0
 42
0.0000000001
 43
0.0000000001
 40
0.0
 40
0.0
 40
0.0
 40
0.0
 40
0.042989543607412
 40
0.0819250449350472
 40
0.1177889279133781
 40
0.1515499745071706
 40
0.1840975165796572
 40
0.2161776169519333
 40
0.2483511360596292
 40
0.2942018612436352
 40
0.3413876803546596
 40
0.3898616164755101
 40
0.4392563200988415
 40
0.4890290397470378
 40
0.5385789613631672
 40
0.5873566577061017
 40
0.6349787212862456
 40
0.6813680561529685
 40
0.7269225088360242
 40
0.7595196635571658
 40
0.7928138719968187
 40
0.8275815948194289
 40
0.8647233741990925
 40
0.9052027700768466
 40
0.9499856843558644
 40
1.0
 40
1.0
 40
1.0
 40
1.0
 10
21.8570513819974
 20
7.123737860079828
 30
0.0
 10
21.77277856672517
 20
7.111295634151928
 30
0.0
 10
21.61218011420313
 20
7.087584521339381
 30
0.0
 10
21.39350603346421
 20
7.03556418304154
 30
0.0
 10
21.20624149454189
 20
6.974365895106796
 30
0.0
 10
21.04844320889775
 20
6.903860064608696
 30
0.0
 10
20.9174348573072
 20
6.825299376961851
 30
0.0
 10
20.81044699794184
 20
6.739657481325108
 30
0.0
 10
20.71275557411622
 20
6.635426443688108
 30
0.0
 10
20.63095630655454
 20
6.510624309657212
 30
0.0
 10
20.5681791054353
 20
6.365559601695416
 30
0.0
 10
20.52463321844333
 20
6.214977313164411
 30
0.0
 10
20.49261382180004
 20
6.060963367295108
 30
0.0
 10
20.46454796385622
 20
5.905629351734315
 30
0.0
 10
20.43288253349889
 20
5.751113040935336
 30
0.0
 10
20.39005876623289
 20
5.599535652026497
 30
0.0
 10
20.32834648619833
 20
5.452973903401107
 30
0.0
 10
20.23975591450668
 20
5.3134997228252
 30
0.0
 10
20.12747073522408
 20
5.195697306607092
 30
0.0
 10
19.9976765037802
 20
5.099383174225821
 30
0.0
 10
19.85815068413022
 20
5.021517582904725
 30
0.0
 10
19.69093595930682
 20
4.951891963695264
 30
0.0
 10
19.49353514526688
 20
4.891415616708961
 30
0.0
 10
19.26343282553939
 20
4.841194928352005
 30
0.0
 10
18.99835485808946
 20
4.801042988622818
 30
0.0
 10
18.80755007114068
 20
4.785289965787582
 30
0.0
 10
18.70688288024696
 20
4.776978787738719
 30
0.0
  0
LINE
  5
AE
330
1F
100
AcDbEntity
  8
0
  6
Continuous
 62
     7
370
     5
100
AcDbLine
 10
-10.460421252975
 20
12.70402707142035
 30
0.0
 11
-2.021064147343822
 21
10.41039064365838
 31
0.0
  0
LINE
  5
AF
330
1F
100
AcDbEntity
  8
0
  6
Continuous
 62
     7
370
     5
100
AcDbLine
 10
6.004571279859709
 20
8.229194903109821
 30
0.0
 11
6.284384356471559
 21
8.153147704555697
 31
0.0
  0
LINE
  5
B0
330
1F
100
AcDbEntity
  8
0
  6
Continuous
 62
     7
370
     5
100
AcDbLine
 10
8.303725615263477
 20
7.604334019665247
 30
0.0
 11
18.70688288024696
 21
4.776978787738719
 31
0.0
  0
SPLINE
  5
B1
330
1F
100
AcDbEntity
  8
0
  6
Continuous
 62
     7
370
     5
100
AcDbSpline
210
0.0
220
0.0
230
1.0
 70
     8
 71
     3
 72
    12
 73
     8
 74
     0
 42
0.0000000001
 43
0.0000000001
 40
0.0
 40
0.0
 40
0.0
 40
0.0
 40
0.2489362988121144
 40
0.4708867660967393
 40
0.6695519135433931
 40
0.8488957542723067
 40
1.0
 40
1.0
 40
1.0
 40
1.0
 10
-10.460421252975
 20
12.70402707142035
 30
0.0
 10
-10.51279734640919
 20
12.75084128294366
 30
0.0
 10
-10.61187172558046
 20
12.83939483168996
 30
0.0
 10
-10.72634485188717
 20
12.97251144410311
 30
0.0
 10
-10.80466691206791
 20
13.09638691451444
 30
0.0
 10
-10.8507464644769
 20
13.20924864745622
 30
0.0
 10
-10.85533273644712
 20
13.28100168086634
 30
0.0
 10
-10.85742990449004
 20
13.31381224457204
 30
0.0
  0
LINE
  5
B2
330
1F
100
AcDbEntity
  8
0
  6
Continuous
 62
     7
370
     5
100
AcDbLine
 10
-10.460421252975
 20
12.70402707142035
 30
0.0
 11
-10.460421252975
 21
11.41827610447659
 31
0.0
  0
SPLINE
  5
B3
330
1F
100
AcDbEntity
  8
0
  6
Continuous
 62
     7
370
     5
100
AcDbSpline
210
0.0
220
0.0
230
1.0
 70
     8
 71
     3
 72
    12
 73
     8
 74
     0
 42
0.0000000001
 43
0.0000000001
 40
0.0
 40
0.0
 40
0.0
 40
0.0
 40
0.2489362988121144
 40
0.4708867660967393
 40
0.6695519135433931
 40
0.8488957542723067
 40
1.0
 40
1.0
 40
1.0
 40
1.0
 10
-10.460421252975
 20
11.41827610447659
 30
0.0
 10
-10.51279734640919
 20
11.46509031599991
 30
0.0
 10
-10.61187172558046
 20
11.55364386474621
 30
0.0
 10
-10.72634485188717
 20
11.68676047715935
 30
0.0
 10
-10.80466691206791
 20
11.81063594757068
 30
0.0
 10
-10.8507464644769
 20
11.92349768051246
 30
0.0
 10
-10.85533273644712
 20
11.99525071392258
 30
0.0
 10
-10.85742990449004
 20
12.02806127762828
 30
0.0
  0
SPLINE
  5
B4
330
1F
100
AcDbEntity
  8
0
  6
Continuous
 62
     7
370
     5
100
AcDbSpline
210
0.0
220
0.0
230
1.0
 70
     8
 71
     3
 72
    31
 73
    27
 74
     0
 42
0.0000000001
 43
0.0000000001
 40
0.0
 40
0.0
 40
0.0
 40
0.0
 40
0.042989543607412
 40
0.0819250449350472
 40
0.1177889279133781
 40
0.1515499745071706
 40
0.1840975165796572
 40
0.2161776169519333
 40
0.2483511360596292
 40
0.2942018612436352
 40
0.3413876803546596
 40
0.3898616164755101
 40
0.4392563200988415
 40
0.4890290397470378
 40
0.5385789613631672
 40
0.5873566577061017
 40
0.6349787212862456
 40
0.6813680561529685
 40
0.7269225088360242
 40
0.7595196635571658
 40
0.7928138719968187
 40
0.8275815948194289
 40
0.8647233741990925
 40
0.9052027700768466
 40
0.9499856843558644
 40
1.0
 40
1.0
 40
1.0
 40
1.0
 10
21.8570513819974
 20
7.123737860079828
 30
0.0
 10
21.77277856672517
 20
7.111295634151928
 30
0.0
 10
21.61218011420313
 20
7.087584521339381
 30
0.0
 10
21.39350603346421
 20
7.03556418304154
 30
0.0
 10
21.20624149454189
 20
6.974365895106796
 30
0.0
 10
21.04844320889775
 20
6.903860064608696
 30
0.0
 10
20.9174348573072
 20
6.825299376961851
 30
0.0
 10
20.81044699794184
 20
6.739657481325108
 30
0.0
 10
20.71275557411622
 20
6.635426443688108
 30
0.0
 10
20.63095630655454
 20
6.510624309657212
 30
0.0
 10
20.5681791054353
 20
6.365559601695416
 30
0.0
 10
20.52463321844333
 20
6.214977313164411
 30
0.0
 10
20.49261382180004
 20
6.060963367295108
 30
0.0
 10
20.46454796385622
 20
5.905629351734315
 30
0.0
 10
20.43288253349889
 20
5.751113040935336
 30
0.0
 10
20.39005876623289
 20
5.599535652026497
 30
0.0
 10
20.32834648619833
 20
5.452973903401107
 30
0.0
 10
20.23975591450668
 20
5.3134997228252
 30
0.0
 10
20.12747073522408
 20
5.195697306607092
 30
0.0
 10
19.9976765037802
 20
5.099383174225821
 30
0.0
 10
19.85815068413022
 20
5.021517582904725
 30
0.0
 10
19.69093595930682
 20
4.951891963695264
 30
0.0
 10
19.49353514526688
 20
4.891415616708961
 30
0.0
 10
19.26343282553939
 20
4.841194928352005
 30
0.0
 10
18.99835485808946
 20
4.80104298862282
 30
0.0
 10
18.80755007114068
 20
4.785289965787582
 30
0.0
 10
18.70688288024696
 20
4.776978787738719
 30
0.0
  0
SPLINE
  5
B5
330
1F
100
AcDbEntity
  8
0
  6
Continuous
 62
     7
370
     5
100
AcDbSpline
210
0.0
220
0.0
230
1.0
 70
     8
 71
     3
 72
    31
 73
    27
 74
     0
 42
0.0000000001
 43
0.0000000001
 40
0.0
 40
0.0
 40
0.0
 40
0.0
 40
0.0527557530610043
 40
0.1054395582019267
 40
0.1411147214638067
 40
0.1769114287608139
 40
0.2125114683866391
 40
0.2429625548901105
 40
0.2735370132466076
 40
0.3040295336506648
 40
0.3507271740166329
 40
0.3976265819568729
 40
0.4444976677964731
 40
0.527218470584979
 40
0.6099512821728648
 40
0.6518458564032721
 40
0.6938855100511374
 40
0.7357381852414586
 40
0.777376870399198
 40
0.8075886733883926
 40
0.8378990412521378
 40
0.868079613596452
 40
0.8982352774285214
 40
0.928512168985531
 40
0.9587150730516249
 40
1.0
 40
1.0
 40
1.0
 40
1.0
 10
18.70688288024697
 20
4.776978787738717
 30
0.0
 10
18.81478309075705
 20
4.801390391817201
 30
0.0
 10
19.03043635823901
 20
4.850180307602489
 30
0.0
 10
19.30895647978107
 20
4.94384343059271
 30
0.0
 10
19.54010197281008
 20
5.046864881729461
 30
0.0
 10
19.72541459216877
 20
5.151649161608247
 30
0.0
 10
19.88399876155519
 20
5.26602795414491
 30
0.0
 10
20.013203797366
 20
5.386961654840386
 30
0.0
 10
20.1173489304766
 20
5.509312636075152
 30
0.0
 10
20.21855747554067
 20
5.660145675739983
 30
0.0
 10
20.30562490023106
 20
5.840413884138839
 30
0.0
 10
20.37350000056086
 20
6.047805868201728
 30
0.0
 10
20.43152970856404
 20
6.309648276128984
 30
0.0
 10
20.47433462140558
 20
6.62461538004423
 30
0.0
 10
20.5136321004388
 20
6.932100805052298
 30
0.0
 10
20.56241067278171
 20
7.179408620120002
 30
0.0
 10
20.61401049045771
 20
7.36566435859158
 30
0.0
 10
20.68724465484546
 20
7.54980927192421
 30
0.0
 10
20.77906535377874
 20
7.712761276560798
 30
0.0
 10
20.88628225816933
 20
7.852484806962892
 30
0.0
 10
21.00010275387371
 20
7.969478773031445
 30
0.0
 10
21.13179844537282
 20
8.077215783623444
 30
0.0
 10
21.28048316903956
 20
8.173063130038419
 30
0.0
 10
21.44177056767943
 20
8.256986145789491
 30
0.0
 10
21.63316466789389
 20
8.339008965920632
 30
0.0
 10
21.77508879809465
 20
8.383686887179869
 30
0.0
 10
21.8570513819974
 20
8.409488827023585
 30
0.0
  0
LINE
  5
B6
330
1F
100
AcDbEntity
  8
0
  6
Continuous
 62
     7
370
     5
100
AcDbLine
 10
21.8570513819974
 20
8.409488827023585
 30
0.0
 11
21.8570513819974
 21
7.123737860079828
 31
0.0
  0
SPLINE
  5
B7
330
1F
100
AcDbEntity
  8
0
  6
Continuous
 62
     7
370
     5
100
AcDbSpline
210
0.0
220
0.0
230
1.0
 70
     8
 71
     3
 72
    74
 73
    70
 74
     0
 42
0.0000000001
 43
0.0000000001
 40
0.0
 40
0.0
 40
0.0
 40
0.0
 40
0.0312500000000006
 40
0.0312500000000006
 40
0.0625000000000011
 40
0.0625000000000011
 40
0.0937500000000016
 40
0.0937500000000016
 40
0.125000000000002
 40
0.125000000000002
 40
0.1562500000000024
 40
0.1562500000000024
 40
0.1718750000000025
 40
0.1718750000000025
 40
0.1875000000000025
 40
0.1875000000000025
 40
0.2187500000000029
 40
0.2187500000000029
 40
0.2265625000000029
 40
0.2265625000000029
 40
0.2343750000000029
 40
0.2343750000000029
 40
0.2500000000000031
 40
0.2500000000000031
 40
0.2812500000000034
 40
0.2812500000000034
 40
0.3125000000000038
 40
0.3125000000000038
 40
0.3437500000000042
 40
0.3437500000000042
 40
0.3750000000000046
 40
0.3750000000000046
 40
0.4375000000000051
 40
0.4375000000000051
 40
0.5000000000000055
 40
0.5000000000000055
 40
0.5625000000000061
 40
0.5625000000000061
 40
0.6250000000000064
 40
0.6250000000000064
 40
0.6562500000000068
 40
0.6562500000000068
 40
0.6718750000000068
 40
0.6718750000000068
 40
0.687500000000007
 40
0.687500000000007
 40
0.718750000000007
 40
0.718750000000007
 40
0.7343750000000068
 40
0.7343750000000068
 40
0.742187500000007
 40
0.742187500000007
 40
0.750000000000007
 40
0.750000000000007
 40
0.8125000000000055
 40
0.8125000000000055
 40
0.8281250000000051
 40
0.8281250000000051
 40
0.8437500000000049
 40
0.8437500000000049
 40
0.8750000000000039
 40
0.8750000000000039
 40
0.906250000000003
 40
0.906250000000003
 40
0.9218750000000021
 40
0.9218750000000021
 40
0.9375000000000014
 40
0.9375000000000014
 40
1.0
 40
1.0
 40
1.0
 40
1.0
 10
-8.710281278757245
 20
16.71703472866704
 30
0.0
 10
-8.674039076449624
 20
16.67848971671455
 30
0.0
 10
-8.639767459409515
 20
16.63912774760965
 30
0.0
 10
-8.576069630839967
 20
16.55839502107002
 30
0.0
 10
-8.546637788498333
 20
16.51702659803429
 30
0.0
 10
-8.493880126874753
 20
16.43175834198345
 30
0.0
 10
-8.470533360278869
 20
16.38783799364586
 30
0.0
 10
-8.431841195295792
 20
16.29679825226994
 30
0.0
 10
-8.416851222115276
 20
16.2504744261218
 30
0.0
 10
-8.397303021916142
 20
16.15590151008964
 30
0.0
 10
-8.392741888374727
 20
16.10765295662809
 30
0.0
 10
-8.395345016479424
 20
16.0335370064096
 30
0.0
 10
-8.397790725744998
 20
16.00882003450282
 30
0.0
 10
-8.405810679538502
 20
15.95973097468012
 30
0.0
 10
-8.411386700700976
 20
15.93530009486334
 30
0.0
 10
-8.432761362627285
 20
15.86234466577394
 30
0.0
 10
-8.453217490363639
 20
15.81415811705884
 30
0.0
 10
-8.486222538150737
 20
15.75446449173558
 30
0.0
 10
-8.493208810251489
 20
15.7425319169563
 30
0.0
 10
-8.50776467026249
 20
15.71894778899319
 30
0.0
 10
-8.515346800206417
 20
15.70727098655478
 30
0.0
 10
-8.538950868881792
 20
15.67256555427908
 30
0.0
 10
-8.555829519570858
 20
15.64986153312769
 30
0.0
 10
-8.609492138202421
 20
15.58289627548999
 30
0.0
 10
-8.649291450178163
 20
15.53977755470618
 30
0.0
 10
-8.735126550342467
 20
15.45590311779836
 30
0.0
 10
-8.781342492389073
 20
15.41502009356287
 30
0.0
 10
-8.876987444086545
 20
15.3362559538011
 30
0.0
 10
-8.926556443411865
 20
15.29821643396453
 30
0.0
 10
-9.028119936234499
 20
15.22400186811714
 30
0.0
 10
-9.080118869876161
 20
15.18783023523877
 30
0.0
 10
-9.238545439894947
 20
15.08118309655557
 30
0.0
 10
-9.347368556695178
 20
15.01254899305156
 30
0.0
 10
-9.566472287093867
 20
14.87640116170253
 30
0.0
 10
-9.676794993908245
 20
14.80891979085108
 30
0.0
 10
-9.894726118589838
 20
14.6718705792008
 30
0.0
 10
-10.00237222921939
 20
14.60233171277329
 30
0.0
 10
-10.21032306285095
 20
14.45761066597666
 30
0.0
 10
-10.31018931907431
 20
14.38277668826366
 30
0.0
 10
-10.44864808726232
 20
14.26380204445209
 30
0.0
 10
-10.49289808171768
 20
14.22301195708317
 30
0.0
 10
-10.55555040161925
 20
14.15961255928087
 30
0.0
 10
-10.5757320686316
 20
14.13818553133563
 30
0.0
 10
-10.61435294662852
 20
14.09490061993215
 30
0.0
 10
-10.63282260162056
 20
14.07301218577862
 30
0.0
 10
-10.68549270863827
 20
14.00654560732423
 30
0.0
 10
-10.71695686315924
 20
13.96116693611192
 30
0.0
 10
-10.75777192365716
 20
13.8912320638191
 30
0.0
 10
-10.77031280659712
 20
13.86760911740166
 30
0.0
 10
-10.7874083697486
 20
13.83167273734953
 30
0.0
 10
-10.7928275348697
 20
13.81959140169325
 30
0.0
 10
-10.80298671279794
 20
13.79547337636296
 30
0.0
 10
-10.80773867692966
 20
13.78341371224323
 30
0.0
 10
-10.84758144642542
 20
13.67487091923129
 30
0.0
 10
-10.86212318127634
 20
13.57834693023052
 30
0.0
 10
-10.85666205586659
 20
13.45764494120846
 30
0.0
 10
-10.85437755237682
 20
13.43347275126212
 30
0.0
 10
-10.84766785538109
 20
13.38586657546071
 30
0.0
 10
-10.8432426842679
 20
13.36233582828628
 30
0.0
 10
-10.82705770314382
 20
13.2924838930577
 30
0.0
 10
-10.81239903626926
 20
13.24690031137785
 30
0.0
 10
-10.77665091137341
 20
13.15736944562259
 30
0.0
 10
-10.75555809676512
 20
13.11342301562176
 30
0.0
 10
-10.71984431280291
 20
13.0485401320343
 30
0.0
 10
-10.70724368876794
 20
13.02706459118331
 30
0.0
 10
-10.6809382364258
 20
12.98467034636497
 30
0.0
 10
-10.66721967248334
 20
12.9637239032566
 30
0.0
 10
-10.59606899324668
 20
12.86012487901007
 30
0.0
 10
-10.53107360113074
 20
12.78082300551512
 30
0.0
 10
-10.4604216379148
 20
12.70402712465615
 30
0.0
  0
LINE
  5
B8
330
1F
100
AcDbEntity
  8
0
  6
Continuous
 62
     7
370
     5
100
AcDbLine
 10
21.8570513819974
 20
8.409488827023585
 30
0.0
 11
8.571395836618579
 21
12.02024532709464
 31
0.0
  0
LINE
  5
B9
330
1F
100
AcDbEntity
  8
0
  6
Continuous
 62
     7
370
     5
100
AcDbLine
 10
0.5457604094150474
 20
14.2014410676432
 30
0.0
 11
-8.710281124779106
 21
16.71703482365806
 31
0.0
  0
LINE
  5
BA
330
1F
100
AcDbEntity
  8
0
  6
Continuous
 62
     7
370
     5
100
AcDbLine
 10
-8.710281124779106
 20
16.71703482365806
 30
0.0
 11
-8.710281124779106
 21
15.48462062263953
 31
0.0
  0
SPLINE
  5
BB
330
1F
100
AcDbEntity
  8
0
  6
Continuous
 62
     7
370
     5
100
AcDbSpline
210
0.0
220
0.0
230
1.0
 70
     8
 71
     3
 72
    12
 73
     8
 74
     0
 42
0.0000000001
 43
0.0000000001
 40
0.0
 40
0.0
 40
0.0
 40
0.0
 40
0.2489362988121144
 40
0.4708867660967393
 40
0.6695519135433931
 40
0.8488957542723067
 40
1.0
 40
1.0
 40
1.0
 40
1.0
 10
-10.460421252975
 20
12.70402707142035
 30
0.0
 10
-10.51279734640919
 20
12.75084128294366
 30
0.0
 10
-10.61187172558046
 20
12.83939483168996
 30
0.0
 10
-10.72634485188717
 20
12.97251144410311
 30
0.0
 10
-10.80466691206791
 20
13.09638691451444
 30
0.0
 10
-10.8507464644769
 20
13.20924864745622
 30
0.0
 10
-10.85533273644712
 20
13.28100168086634
 30
0.0
 10
-10.85742990449004
 20
13.31381224457204
 30
0.0
  0
LINE
  5
BC
330
1F
100
AcDbEntity
  8
0
  6
Continuous
 62
     7
370
     5
100
AcDbLine
 10
5.802367521401436
 20
9.707499154895025
 30
0.0
 11
4.727905223185513
 21
15.89472608970762
 31
0.0
  0
LINE
  5
BD
330
1F
100
AcDbEntity
  8
0
  6
Continuous
 62
     7
370
     5
100
AcDbLine
 10
5.802367521401436
 20
9.707499154895025
 30
0.0
 11
5.304881235461772
 21
9.842705267571766
 31
0.0
  0
LINE
  5
BE
330
1F
100
AcDbEntity
  8
0
  6
Continuous
 62
     7
370
     5
100
AcDbLine
 10
5.304881235461772
 20
9.842705267571766
 30
0.0
 11
4.350656101985496
 21
15.33755293841962
 31
0.0
  0
LINE
  5
BF
330
1F
100
AcDbEntity
  8
0
  6
Continuous
 62
     7
370
     5
100
AcDbLine
 10
8.278746984135423
 20
13.36496734007827
 30
0.0
 11
7.204284805703268
 21
19.55219439180349
 31
0.0
  0
LINE
  5
C0
330
1F
100
AcDbEntity
  8
0
  6
Continuous
 62
     7
370
     5
100
AcDbLine
 10
8.278746984135423
 20
13.36496734007827
 30
0.0
 11
6.760332680517773
 21
11.12235781296294
 31
0.0
  0
LINE
  5
C1
330
1F
100
AcDbEntity
  8
0
  6
Continuous
 62
     7
370
     5
100
AcDbLine
 10
6.01660085547103
 20
10.02390936853963
 30
0.0
 11
5.802367521401436
 21
9.707499154895025
 31
0.0
  0
LINE
  5
C2
330
1F
100
AcDbEntity
  8
0
  6
Continuous
 62
     7
370
     5
100
AcDbLine
 10
7.204284805703268
 20
19.55219439180349
 30
0.0
 11
4.727905223185513
 21
15.89472608970762
 31
0.0
  0
LWPOLYLINE
  5
C3
330
1F
100
AcDbEntity
  8
0
  6
Continuous
 62
     7
370
     5
100
AcDbPolyline
 90
       17
 70
   128
 43
0.0
 10
6.322805943639044
 20
14.9841943560427
 10
6.338879624536597
 20
15.00575522670034
 10
6.352506225765071
 20
15.0357780052287
 10
6.361611297839687
 20
15.06969296215965
 10
6.364808497675844
 20
15.10233526233392
 10
6.361611297839687
 20
15.12873693526431
 10
6.352506225765071
 20
15.14487773038216
 10
6.338879624536597
 20
15.14830054782698
 10
6.322805943639044
 20
15.13848460784968
 10
6.306732262741497
 20
15.11692373719204
 10
6.293105661513022
 20
15.08690095866368
 10
6.284000589438407
 20
15.0529865045984
 10
6.280803389602249
 20
15.02034370155846
 10
6.284000589438407
 20
14.99394253149375
 10
6.293105661513022
 20
14.97780123351022
 10
6.306732262741497
 20
14.97437841606539
 10
6.322805943639044
 20
14.9841943560427
  0
LWPOLYLINE
  5
C4
330
1F
100
AcDbEntity
  8
0
  6
Continuous
 62
     7
370
     5
100
AcDbPolyline
 90
       17
 70
   128
 43
0.0
 10
6.322805943639044
 20
14.18060042599576
 10
6.338879624536597
 20
14.20216079378773
 10
6.352506225765071
 20
14.23218407518176
 10
6.361611297839687
 20
14.26609852924704
 10
6.364808497675844
 20
14.29874082942131
 10
6.361611297839687
 20
14.32514250235169
 10
6.352506225765071
 20
14.34128329746955
 10
6.338879624536597
 20
14.34470661778005
 10
6.322805943639044
 20
14.33489017493707
 10
6.306732262741497
 20
14.3133298071451
 10
6.293105661513022
 20
14.28330652575107
 10
6.284000589438407
 20
14.24939207168579
 10
6.280803389602249
 20
14.21674926864585
 10
6.284000589438407
 20
14.19034809858113
 10
6.293105661513022
 20
14.17420730346328
 10
6.306732262741497
 20
14.17078398315278
 10
6.322805943639044
 20
14.18060042599576
  0
LWPOLYLINE
  5
C5
330
1F
100
AcDbEntity
  8
0
  6
Continuous
 62
     7
370
     5
100
AcDbPolyline
 90
       17
 70
   128
 43
0.0
 10
6.439479780905551
 20
13.16944546189205
 10
6.455553461803103
 20
13.19100633254969
 10
6.469180131479444
 20
13.22102917788526
 10
6.478285135106193
 20
13.25494356514332
 10
6.481482403390214
 20
13.28758643499049
 10
6.478285135106193
 20
13.31398804111365
 10
6.469180131479444
 20
13.33012890303872
 10
6.455553461803103
 20
13.33355165367633
 10
6.439479780905551
 20
13.32373571369903
 10
6.423406100008003
 20
13.30217484304138
 10
6.409779498779529
 20
13.27215206451303
 10
6.400674426704913
 20
13.23823761044775
 10
6.397477226868756
 20
13.2055948074078
 10
6.400674426704913
 20
13.17919313447742
 10
6.409779498779529
 20
13.16305233935957
 10
6.423406100008003
 20
13.15962952191474
 10
6.439479780905551
 20
13.16944546189205
  0
LWPOLYLINE
  5
C6
330
1F
100
AcDbEntity
  8
0
  6
Continuous
 62
     7
370
     5
100
AcDbPolyline
 90
        9
 70
   128
 43
0.0
 10
6.324143620290683
 20
11.52737469694162
 10
6.332442787187161
 20
11.55898114275039
 10
6.335640055471182
 20
11.59162401259755
 10
6.332442787187161
 20
11.61802536728788
 10
6.323337783560412
 20
11.63416648064579
 10
6.309711182331934
 20
11.63758929809062
 10
6.293637501434386
 20
11.62777335811331
 10
6.277563820536838
 20
11.60621248745567
 10
6.270943679801376
 20
11.59339405073105
  0
LWPOLYLINE
  5
C7
330
1F
100
AcDbEntity
  8
0
  6
Continuous
 62
     7
370
     5
100
AcDbPolyline
 90
       17
 70
   128
 43
0.0
 10
6.935343640624106
 20
12.74268351689668
 10
6.951417321521653
 20
12.76424413612149
 10
6.965043956974064
 20
12.79426719948629
 10
6.974148960600812
 20
12.82818158674435
 10
6.977346228884833
 20
12.86082445659151
 10
6.974148960600812
 20
12.88722581128185
 10
6.965043956974064
 20
12.90336667320692
 10
6.951417321521653
 20
12.90678970868097
 10
6.935343640624106
 20
12.89697351727083
 10
6.919269959726554
 20
12.87541289804602
 10
6.905643324274148
 20
12.84538983468122
 10
6.896538320647399
 20
12.81147544742316
 10
6.893341052363374
 20
12.77883282900883
 10
6.896538320647399
 20
12.75243122288566
 10
6.905643324274148
 20
12.7362903609606
 10
6.919269959726554
 20
12.73286732548654
 10
6.935343640624106
 20
12.74268351689668
  0
LWPOLYLINE
  5
C8
330
1F
100
AcDbEntity
  8
0
  6
Continuous
 62
     7
370
     5
100
AcDbPolyline
 90
       17
 70
   128
 43
0.0
 10
7.081185954319202
 20
14.22435372186553
 10
7.097259635216754
 20
14.24591459252318
 10
7.110886253557197
 20
14.27593738775333
 10
7.119991274295908
 20
14.30985229457887
 10
7.123188525467965
 20
14.34249464485855
 10
7.119991274295908
 20
14.36889626768353
 10
7.110886253557197
 20
14.38503711290679
 10
7.097259635216754
 20
14.38845991364981
 10
7.081185954319202
 20
14.37864397367251
 10
7.065112256309686
 20
14.35708308631306
 10
7.051485637969244
 20
14.32706029108291
 10
7.042380634342496
 20
14.29314590382484
 10
7.039183366058475
 20
14.26050303397768
 10
7.042380634342496
 20
14.23410193072019
 10
7.051485637969244
 20
14.21796056592944
 10
7.065112256309686
 20
14.21453776518642
 10
7.081185954319202
 20
14.22435372186553
  0
LWPOLYLINE
  5
C9
330
1F
100
AcDbEntity
  8
0
  6
Continuous
 62
     7
370
     5
100
AcDbPolyline
 90
       17
 70
   128
 43
0.0
 10
7.081185954319202
 20
15.24224033879862
 10
7.097259635216754
 20
15.26380070659059
 10
7.110886253557197
 20
15.29382400468642
 10
7.119991274295908
 20
15.32773840864629
 10
7.123188525467965
 20
15.36038075892597
 10
7.119991274295908
 20
15.38678238175094
 10
7.110886253557197
 20
15.4029232269742
 10
7.097259635216754
 20
15.40634653058291
 10
7.081185954319202
 20
15.39653008773993
 10
7.065112256309686
 20
15.37496970324615
 10
7.051485637969244
 20
15.34494640515032
 10
7.042380634342496
 20
15.31103201789226
 10
7.039183366058475
 20
15.27838914804509
 10
7.042380634342496
 20
15.2519880447876
 10
7.051485637969244
 20
15.23584718286253
 10
7.065112256309686
 20
15.23242387925383
 10
7.081185954319202
 20
15.24224033879862
  0
LWPOLYLINE
  5
CA
330
1F
100
AcDbEntity
  8
0
  6
Continuous
 62
     7
370
     5
100
AcDbPolyline
 90
       17
 70
   128
 43
0.0
 10
7.081185954319202
 20
15.93868867970099
 10
7.097259635216754
 20
15.96024904749296
 10
7.110886253557197
 20
15.99027234558879
 10
7.119991274295908
 20
16.02418674954866
 10
7.123188525467965
 20
16.05682960269401
 10
7.119991274295908
 20
16.08323072265331
 10
7.110886253557197
 20
16.09937156787658
 10
7.097259635216754
 20
16.10279487148527
 10
7.081185954319202
 20
16.09297842864229
 10
7.065112256309686
 20
16.07141804414852
 10
7.051485637969244
 20
16.04139474605269
 10
7.042380634342496
 20
16.00748035879463
 10
7.039183366058475
 20
15.97483799181314
 10
7.042380634342496
 20
15.94843638568997
 10
7.051485637969244
 20
15.9322955237649
 10
7.065112256309686
 20
15.9288722201562
 10
7.081185954319202
 20
15.93868867970099
  0
LINE
  5
CB
330
1F
100
AcDbEntity
  8
0
  6
Continuous
 62
     7
370
     5
100
AcDbLine
 10
6.085958050565648
 20
11.94918384744539
 30
0.0
 11
6.14279058776882
 21
12.10903699116964
 31
0.0
  0
ARC
  5
CC
330
1F
100
AcDbEntity
  8
0
  6
Continuous
 62
     7
370
     5
100
AcDbCircle
 10
5.606508341023213
 20
12.30376097701184
 30
0.0
 40
0.5705401640873239
100
AcDbArc
 50
340.0440497056948
 51
359.0114975116492
  0
LINE
  5
CD
330
1F
100
AcDbEntity
  8
0
  6
Continuous
 62
     7
370
     5
100
AcDbLine
 10
6.176963595720012
 20
12.29391815091356
 30
0.0
 11
6.176963595720012
 21
16.15117117746125
 31
0.0
  0
LINE
  5
CE
330
1F
100
AcDbEntity
  8
0
  6
Continuous
 62
     7
370
     5
100
AcDbLine
 10
7.227028259458321
 20
17.17606648049021
 30
0.0
 11
6.176963595720012
 21
16.15117117746125
 31
0.0
  0
LINE
  5
CF
330
1F
100
AcDbEntity
  8
0
  6
Continuous
 62
     7
370
     5
100
AcDbLine
 10
7.227028259458321
 20
13.31881345394253
 30
0.0
 11
7.227028259458321
 21
17.17606648049021
 31
0.0
  0
ARC
  5
D0
330
1F
100
AcDbEntity
  8
0
  6
Continuous
 62
     7
370
     5
100
AcDbCircle
 10
6.656568728022996
 20
13.32865702247464
 30
0.0
 40
0.5705444529980609
100
AcDbArc
 50
340.0441294510684
 51
359.0114303746589
  0
LINE
  5
D1
330
1F
100
AcDbEntity
  8
0
  6
Continuous
 62
     7
370
     5
100
AcDbLine
 10
6.794505858451607
 20
12.01349319957851
 30
0.0
 11
7.192855277175074
 21
13.13393231925132
 31
0.0
  0
ARC
  5
D2
330
1F
100
AcDbEntity
  8
0
  6
Continuous
 62
     7
370
     5
100
AcDbCircle
 10
7.330793831858691
 20
11.81876815523337
 30
0.0
 40
0.5705459081584005
100
AcDbArc
 50
160.0441460663628
 51
179.0114011509765
  0
LINE
  5
D3
330
1F
100
AcDbEntity
  8
0
  6
Continuous
 62
     7
370
     5
100
AcDbLine
 10
6.760332850500411
 20
10.82674358036249
 30
0.0
 11
6.760332850500411
 21
11.82861203983459
 31
0.0
  0
ARC
  5
D4
330
1F
100
AcDbEntity
  8
0
  6
Continuous
 62
     7
370
     5
100
AcDbCircle
 10
6.189876543965689
 20
10.83658660510733
 30
0.0
 40
0.5705412191957427
100
AcDbArc
 50
340.0440875247629
 51
359.0114793881165
  0
LINE
  5
D5
330
1F
100
AcDbEntity
  8
0
  6
Continuous
 62
     7
370
     5
100
AcDbLine
 10
6.700720029414879
 20
10.57030773899767
 30
0.0
 11
6.726159910997086
 21
10.64186261314221
 31
0.0
  0
LINE
  5
D6
330
1F
100
AcDbEntity
  8
0
  6
Continuous
 62
     7
370
     5
100
AcDbLine
 10
7.227028259458321
 20
17.17606648049021
 30
0.0
 11
7.171309712416656
 21
17.19120958767209
 31
0.0
  0
LINE
  5
D7
330
1F
100
AcDbEntity
  8
0
  6
Continuous
 62
     7
370
     5
100
AcDbLine
 10
6.121245048678347
 20
16.16631428464313
 30
0.0
 11
6.176963595720012
 21
16.15117117746125
 31
0.0
  0
LINE
  5
D8
330
1F
100
AcDbEntity
  8
0
  6
Continuous
 62
     7
370
     5
100
AcDbLine
 10
7.171309712416656
 20
17.19120958767209
 30
0.0
 11
6.121245048678347
 21
16.16631428464313
 31
0.0
  0
LINE
  5
D9
330
1F
100
AcDbEntity
  8
0
  6
Continuous
 62
     7
370
     5
100
AcDbLine
 10
6.121245048678347
 20
12.30906125809544
 30
0.0
 11
6.176963595720012
 21
12.29391815091356
 31
0.0
  0
LINE
  5
DA
330
1F
100
AcDbEntity
  8
0
  6
Continuous
 62
     7
370
     5
100
AcDbLine
 10
6.121245048678347
 20
12.30906125809544
 30
0.0
 11
6.121245048678347
 21
16.16631428464313
 31
0.0
  0
ARC
  5
DB
330
1F
100
AcDbEntity
  8
0
  6
Continuous
 62
     7
370
     5
100
AcDbCircle
 10
6.11367463008962
 20
15.11817714867119
 30
0.0
 40
0.1953930125429637
100
AcDbArc
 50
328.8205318020875
 51
0.7704598261910336
  0
LWPOLYLINE
  5
DC
330
1F
100
AcDbEntity
  8
0
  6
Continuous
 62
     7
370
     5
100
AcDbPolyline
 90
       17
 70
   128
 43
0.0
 10
6.837145474983351
 20
6.183199151888227
 10
6.809393085105856
 20
6.19609202184936
 10
6.78586415569805
 20
6.217723133469294
 10
6.770144996190712
 20
6.244798336769057
 10
6.764624404127134
 20
6.273196623149295
 10
6.770144996190712
 20
6.298594152267728
 10
6.78586415569805
 20
6.317124968384572
 10
6.809393085105856
 20
6.32596676230637
 10
6.837145474983351
 20
6.32377462245366
 10
6.864899940271397
 20
6.310881188440412
 10
6.888426794268652
 20
6.289250640872593
 10
6.904148029186542
 20
6.262174999237131
 10
6.90966862125012
 20
6.233776712856895
 10
6.904148029186542
 20
6.208379183738462
 10
6.888426794268652
 20
6.189848805957315
 10
6.864899940271397
 20
6.181006447983403
 10
6.837145474983351
 20
6.183199151888227
  0
LWPOLYLINE
  5
DD
330
1F
100
AcDbEntity
  8
0
  6
Continuous
 62
     7
370
     5
100
AcDbPolyline
 90
       17
 70
   128
 43
0.0
 10
7.721563002263191
 20
5.621395771300207
 10
7.693810612385696
 20
5.634288515544922
 10
7.670283758388442
 20
5.655919188829157
 10
7.654560448059999
 20
5.682995394516733
 10
7.649044006817526
 20
5.711392552792739
 10
7.654560448059999
 20
5.736791210015407
 10
7.670283758388442
 20
5.755321023744436
 10
7.693810612385696
 20
5.764163381718348
 10
7.721563002263191
 20
5.76197111614922
 10
7.749315392140689
 20
5.749078371904508
 10
7.772846396959044
 20
5.727446696232457
 10
7.788565556466382
 20
5.700371492932694
 10
7.794086148529959
 20
5.671973206552458
 10
7.788565556466382
 20
5.646575677434022
 10
7.772846396959044
 20
5.628044861317178
 10
7.749315392140689
 20
5.61920350573108
 10
7.721563002263191
 20
5.621395771300207
  0
LWPOLYLINE
  5
DE
330
1F
100
AcDbEntity
  8
0
  6
Continuous
 62
     7
370
     5
100
AcDbPolyline
 90
       17
 70
   128
 43
0.0
 10
7.721563002263191
 20
6.907146675385753
 10
7.693810612385696
 20
6.920039545346886
 10
7.670283758388442
 20
6.941670092914703
 10
7.654560448059999
 20
6.968746298602282
 10
7.649044006817526
 20
6.997143519736495
 10
7.654560448059999
 20
7.022542239817372
 10
7.670283758388442
 20
7.041071927829982
 10
7.693810612385696
 20
7.049914285803896
 10
7.721563002263191
 20
7.047722145951186
 10
7.749315392140689
 20
7.034829275990055
 10
7.772846396959044
 20
7.013197600318003
 10
7.788565556466382
 20
6.986122522734659
 10
7.794086148529959
 20
6.957724173496214
 10
7.788565556466382
 20
6.932326581519569
 10
7.772846396959044
 20
6.913795765402725
 10
7.749315392140689
 20
6.904954535533045
 10
7.721563002263191
 20
6.907146675385753
  0
LWPOLYLINE
  5
DF
330
1F
100
AcDbEntity
  8
0
  6
Continuous
 62
     7
370
     5
100
AcDbPolyline
 90
       17
 70
   128
 43
0.0
 10
6.837145474983351
 20
7.468950150261088
 10
6.809393085105856
 20
7.481842988793117
 10
6.78586415569805
 20
7.503474131842154
 10
6.770144996190712
 20
7.530549240854603
 10
6.764624404127134
 20
7.558947558663946
 10
6.770144996190712
 20
7.584345119211484
 10
6.78586415569805
 20
7.602875966757433
 10
6.809393085105856
 20
7.611717760679231
 10
6.837145474983351
 20
7.609525589397415
 10
6.864899940271397
 20
7.596632186813272
 10
6.888426794268652
 20
7.575001639245454
 10
6.904148029186542
 20
7.547925966180886
 10
6.90966862125012
 20
7.519527648371546
 10
6.904148029186542
 20
7.494130087824008
 10
6.888426794268652
 20
7.475599804330175
 10
6.864899940271397
 20
7.466757414927158
 10
6.837145474983351
 20
7.468950150261088
  0
LINE
  5
E0
330
1F
100
AcDbEntity
  8
0
  6
Continuous
 62
     7
370
     5
100
AcDbLine
 10
6.219625744461363
 20
5.323070023579093
 30
0.0
 11
6.079531381500645
 21
5.225366914685862
 31
0.0
  0
ARC
  5
E1
330
1F
100
AcDbEntity
  8
0
  6
Continuous
 62
     7
370
     5
100
AcDbCircle
 10
6.125772894544065
 20
5.451071904051418
 30
0.0
 40
0.1587225215338077
100
AcDbArc
 50
306.2494143010924
 51
2.139401244102407
  0
LINE
  5
E2
330
1F
100
AcDbEntity
  8
0
  6
Continuous
 62
     7
370
     5
100
AcDbLine
 10
6.284384779859768
 20
6.189423655863537
 30
0.0
 11
6.284384779859768
 21
5.456997161737652
 31
0.0
  0
LWPOLYLINE
  5
E3
330
1F
100
AcDbEntity
  8
0
  6
Continuous
 62
     7
370
     5
100
AcDbPolyline
 90
       10
 70
   128
 43
0.0
 10
6.284384779859768
 20
6.403715462734759
 10
6.322196684674165
 20
6.386977299023723
 10
6.355446837099187
 20
6.359334967272979
 10
6.380125543951812
 20
6.324122254242265
 10
6.39325666650303
 20
6.285586228996268
 10
6.39325666650303
 20
6.248374797707438
 10
6.380125543951812
 20
6.216976287948442
 10
6.355446837099187
 20
6.19517786236137
 10
6.322196684674165
 20
6.185608888539699
 10
6.284384779859768
 20
6.189423655863537
  0
LINE
  5
E4
330
1F
100
AcDbEntity
  8
0
  6
Continuous
 62
     7
370
     5
100
AcDbLine
 10
6.284384779859768
 20
6.403715462734759
 30
0.0
 11
6.284384779859768
 21
7.368028656513472
 31
0.0
  0
LWPOLYLINE
  5
E5
330
1F
100
AcDbEntity
  8
0
  6
Continuous
 62
     7
370
     5
100
AcDbPolyline
 90
       10
 70
   128
 43
0.0
 10
6.284384779859768
 20
7.368028656513472
 10
6.322196684674165
 20
7.364213889189635
 10
6.355446837099187
 20
7.373782863011305
 10
6.380125543951812
 20
7.395581351456588
 10
6.39325666650303
 20
7.426979798357372
 10
6.39325666650303
 20
7.464191229646204
 10
6.380125543951812
 20
7.502727254892199
 10
6.355446837099187
 20
7.537939967922915
 10
6.322196684674165
 20
7.565582299673657
 10
6.284384779859768
 20
7.582320463384696
  0
LINE
  5
E6
330
1F
100
AcDbEntity
  8
0
  6
Continuous
 62
     7
370
     5
100
AcDbLine
 10
6.284384779859768
 20
7.582320463384696
 30
0.0
 11
6.284384779859768
 21
8.314747051797894
 31
0.0
  0
ARC
  5
E7
330
1F
100
AcDbEntity
  8
0
  6
Continuous
 62
     7
370
     5
100
AcDbCircle
 10
6.008749112207142
 20
8.306167657798413
 30
0.0
 40
0.2757691557874224
100
AcDbArc
 50
1.782804156760819
 51
40.12099289629655
  0
LINE
  5
E8
330
1F
100
AcDbEntity
  8
0
  6
Continuous
 62
     7
370
     5
100
AcDbLine
 10
6.219625744461363
 20
8.483874363504261
 30
0.0
 11
6.079531381500645
 21
8.657726732955667
 31
0.0
  0
LINE
  5
E9
330
1F
100
AcDbEntity
  8
0
  6
Continuous
 62
     7
370
     5
100
AcDbLine
 10
6.079531381500645
 20
8.657726732955667
 30
0.0
 11
6.079531381500645
 21
11.76574674025617
 31
0.0
  0
LINE
  5
EA
330
1F
100
AcDbEntity
  8
0
  6
Continuous
 62
     7
370
     5
100
AcDbLine
 10
6.606556985801538
 20
11.11172415117568
 30
0.0
 11
6.079531381500645
 21
11.76574674025617
 31
0.0
  0
ARC
  5
EB
330
1F
100
AcDbEntity
  8
0
  6
Continuous
 62
     7
370
     5
100
AcDbCircle
 10
6.395683161831861
 20
10.93401517019001
 30
0.0
 40
0.2757684745553063
100
AcDbArc
 50
1.783151206070218
 51
40.1217303765522
  0
LINE
  5
EC
330
1F
100
AcDbEntity
  8
0
  6
Continuous
 62
     7
370
     5
100
AcDbLine
 10
6.671318096610496
 20
9.940727753086891
 30
0.0
 11
6.671318096610496
 21
10.94259621255899
 31
0.0
  0
ARC
  5
ED
330
1F
100
AcDbEntity
  8
0
  6
Continuous
 62
     7
370
     5
100
AcDbCircle
 10
6.946943302262233
 20
9.949303207219996
 30
0.0
 40
0.2757585763020835
100
AcDbArc
 50
181.7820535735563
 51
220.1217577018348
  0
LINE
  5
EE
330
1F
100
AcDbEntity
  8
0
  6
Continuous
 62
     7
370
     5
100
AcDbLine
 10
8.209566737398915
 20
7.943051040901533
 30
0.0
 11
6.736077132008906
 21
9.771600504238733
 31
0.0
  0
ARC
  5
EF
330
1F
100
AcDbEntity
  8
0
  6
Continuous
 62
     7
370
     5
100
AcDbCircle
 10
7.998708682886385
 20
7.765354802219579
 30
0.0
 40
0.2757482046986399
100
AcDbArc
 50
1.780880991929578
 51
40.12181729359487
  0
LINE
  5
F0
330
1F
100
AcDbEntity
  8
0
  6
Continuous
 62
     7
370
     5
100
AcDbLine
 10
8.274323697386773
 20
7.773924293247286
 30
0.0
 11
8.274323697386773
 21
7.041497704834086
 31
0.0
  0
LWPOLYLINE
  5
F1
330
1F
100
AcDbEntity
  8
0
  6
Continuous
 62
     7
370
     5
100
AcDbPolyline
 90
       10
 70
   128
 43
0.0
 10
8.274323697386773
 20
7.041497704834086
 10
8.236513867982928
 20
7.045311908105807
 10
8.20326579096846
 20
7.035742370232021
 10
8.178585008705281
 20
7.013944508697063
 10
8.165451810743512
 20
6.982546562990187
 10
8.165451810743512
 20
6.945335131701354
 10
8.178585008705281
 20
6.906798605261451
 10
8.20326579096846
 20
6.871585265320411
 10
8.236513867982928
 20
6.843943497621785
 10
8.274323697386773
 20
6.827205897962863
  0
LINE
  5
F2
330
1F
100
AcDbEntity
  8
0
  6
Continuous
 62
     7
370
     5
100
AcDbLine
 10
8.274323697386773
 20
6.827205897962863
 30
0.0
 11
8.274323697386773
 21
5.86289270418415
 31
0.0
  0
LWPOLYLINE
  5
F3
330
1F
100
AcDbEntity
  8
0
  6
Continuous
 62
     7
370
     5
100
AcDbPolyline
 90
       10
 70
   128
 43
0.0
 10
8.274323697386773
 20
5.648600897312928
 10
8.236513867982928
 20
5.665338496971849
 10
8.20326579096846
 20
5.692980264670475
 10
8.178585008705281
 20
5.728193541753308
 10
8.165451810743512
 20
5.766730131051418
 10
8.165451810743512
 20
5.80394156234025
 10
8.178585008705281
 20
5.835339508047128
 10
8.20326579096846
 20
5.857137369582085
 10
8.236513867982928
 20
5.866706907455871
 10
8.274323697386773
 20
5.86289270418415
  0
LINE
  5
F4
330
1F
100
AcDbEntity
  8
0
  6
Continuous
 62
     7
370
     5
100
AcDbLine
 10
8.274323697386773
 20
5.648600897312928
 30
0.0
 11
8.274323697386773
 21
4.916174403187042
 31
0.0
  0
ARC
  5
F5
330
1F
100
AcDbEntity
  8
0
  6
Continuous
 62
     7
370
     5
100
AcDbCircle
 10
8.115721384145627
 20
4.910242523691628
 30
0.0
 40
0.1587132034828565
100
AcDbArc
 50
306.2485248899577
 51
2.141919062413795
  0
LINE
  5
F6
330
1F
100
AcDbEntity
  8
0
  6
Continuous
 62
     7
370
     5
100
AcDbLine
 10
8.209566737398915
 20
4.782246700976368
 30
0.0
 11
6.736077132008906
 21
3.754623135290354
 31
0.0
  0
ARC
  5
F7
330
1F
100
AcDbEntity
  8
0
  6
Continuous
 62
     7
370
     5
100
AcDbCircle
 10
6.829925028073876
 20
3.626623639071636
 30
0.0
 40
0.1587176695521552
100
AcDbArc
 50
126.2484810560579
 51
182.1404188010147
  0
LINE
  5
F8
330
1F
100
AcDbEntity
  8
0
  6
Continuous
 62
     7
370
     5
100
AcDbLine
 10
6.671318096610496
 20
3.620695745698961
 30
0.0
 11
6.671318096610496
 21
2.618827411943286
 31
0.0
  0
ARC
  5
F9
330
1F
100
AcDbEntity
  8
0
  6
Continuous
 62
     7
370
     5
100
AcDbCircle
 10
6.51270859651824
 20
2.612903234661512
 30
0.0
 40
0.1587200976435608
100
AcDbArc
 50
306.2480591843772
 51
2.139043647909028
  0
LINE
  5
FA
330
1F
100
AcDbEntity
  8
0
  6
Continuous
 62
     7
370
     5
100
AcDbLine
 10
6.606556985801538
 20
2.484901089269679
 30
0.0
 11
6.079531381500645
 21
2.117347033101777
 31
0.0
  0
LINE
  5
FB
330
1F
100
AcDbEntity
  8
0
  6
Continuous
 62
     7
370
     5
100
AcDbLine
 10
6.079531381500645
 20
2.117347033101777
 30
0.0
 11
6.079531381500645
 21
5.225366914685862
 31
0.0
  0
ARC
  5
FC
330
1F
100
AcDbEntity
  8
0
  6
Continuous
 62
     7
370
     5
100
AcDbCircle
 10
6.113674630089581
 20
14.31458271575859
 30
0.0
 40
0.1953930125430034
100
AcDbArc
 50
328.820531802091
 51
0.770459826187751
  0
ARC
  5
FD
330
1F
100
AcDbEntity
  8
0
  6
Continuous
 62
     7
370
     5
100
AcDbCircle
 10
6.87205241206648
 20
16.07267161788217
 30
0.0
 40
0.1953952669967748
100
AcDbArc
 50
328.8207210492806
 51
0.7702705789983292
  0
LINE
  5
FE
330
1F
100
AcDbEntity
  8
0
  6
Continuous
 62
     7
370
     5
100
AcDbLine
 10
6.606556985801538
 20
11.11172415117568
 30
0.0
 11
6.635958903678242
 21
11.1404213243808
 31
0.0
  0
LINE
  5
FF
330
1F
100
AcDbEntity
  8
0
  6
Continuous
 62
     7
370
     5
100
AcDbLine
 10
6.108933299377349
 20
11.79444391346129
 30
0.0
 11
6.079531381500645
 21
11.76574674025617
 31
0.0
  0
LINE
  5
100
330
1F
100
AcDbEntity
  8
0
  6
Continuous
 62
     7
370
     5
100
AcDbLine
 10
6.635958903678242
 20
11.1404213243808
 30
0.0
 11
6.108933299377349
 21
11.79444391346129
 31
0.0
  0
ARC
  5
101
330
1F
100
AcDbEntity
  8
0
  6
Continuous
 62
     7
370
     5
100
AcDbCircle
 10
6.230334022644715
 20
13.30343176282535
 30
0.0
 40
0.1954074713954465
100
AcDbArc
 50
328.8217454527411
 51
0.769246175538802
  0
LINE
  5
102
330
1F
100
AcDbEntity
  8
0
  6
Continuous
 62
     7
370
     5
100
AcDbLine
 10
6.085958050565648
 20
11.94918384744539
 30
0.0
 11
6.030239503523982
 21
11.96432695462727
 31
0.0
  0
SPLINE
  5
103
330
1F
100
AcDbEntity
  8
0
  6
Continuous
 62
     7
370
     5
100
AcDbSpline
210
0.0
220
0.0
230
1.0
 70
     8
 71
     3
 72
    10
 73
     6
 74
     0
 42
0.0000000001
 43
0.0000000001
 40
0.0
 40
0.0
 40
0.0
 40
0.0
 40
0.2429500278236988
 40
0.5080603809754435
 40
1.0
 40
1.0
 40
1.0
 40
1.0
 10
6.085958050565648
 20
11.94918384744539
 30
0.0
 10
6.083320319246337
 20
11.93644755517698
 30
0.0
 10
6.077804259869846
 20
11.90981324868988
 30
0.0
 10
6.081799894271793
 20
11.85550678834669
 30
0.0
 10
6.098246263180659
 20
11.8184947523308
 30
0.0
 10
6.108933299377349
 20
11.79444391346129
 30
0.0
  0
SPLINE
  5
104
330
1F
100
AcDbEntity
  8
0
  6
Continuous
 62
     7
370
     5
100
AcDbSpline
210
0.0
220
0.0
230
1.0
 70
     8
 71
     3
 72
    11
 73
     7
 74
     0
 42
0.0000000001
 43
0.0000000001
 40
0.0
 40
0.0
 40
0.0
 40
0.0
 40
0.250856910019125
 40
0.512491983088566
 40
0.7691944411885173
 40
1.0
 40
1.0
 40
1.0
 40
1.0
 10
6.030239503523982
 20
11.96432695462727
 30
0.0
 10
6.02446964112607
 20
11.94752769805727
 30
0.0
 10
6.012682011986312
 20
11.91320739843581
 30
0.0
 10
6.02027059736832
 20
11.85777791743884
 30
0.0
 10
6.042328144088363
 20
11.80629861591089
 30
0.0
 10
6.067577390526862
 20
11.77877670187414
 30
0.0
 10
6.079531381500645
 20
11.76574674025617
 30
0.0
  0
SPLINE
  5
105
330
1F
100
AcDbEntity
  8
0
  6
Continuous
 62
     7
370
     5
100
AcDbSpline
210
0.0
220
0.0
230
1.0
 70
     8
 71
     3
 72
    10
 73
     6
 74
     0
 42
0.0000000001
 43
0.0000000001
 40
0.0
 40
0.0
 40
0.0
 40
0.0
 40
0.3302118035563786
 40
0.6974732411302293
 40
1.0
 40
1.0
 40
1.0
 40
1.0
 10
6.079531381500645
 20
8.657726732955667
 30
0.0
 10
6.067688074163607
 20
8.670746209316554
 30
0.0
 10
6.042672645081126
 20
8.698245942146954
 30
0.0
 10
6.020303817402104
 20
8.746446777313099
 30
0.0
 10
6.018788513589117
 20
8.779652393460184
 30
0.0
 10
6.018104088342915
 20
8.794650548821223
 30
0.0
  0
LINE
  5
106
330
1F
100
AcDbEntity
  8
0
  6
Continuous
 62
     7
370
     5
100
AcDbLine
 10
6.087072040727155
 20
12.12418009835152
 30
0.0
 11
6.14279058776882
 21
12.10903699116964
 31
0.0
  0
LINE
  5
107
330
1F
100
AcDbEntity
  8
0
  6
Continuous
 62
     7
370
     5
100
AcDbLine
 10
6.030239503523982
 20
11.96432695462727
 30
0.0
 11
6.087072040727155
 21
12.12418009835152
 31
0.0
  0
ARC
  5
108
330
1F
100
AcDbEntity
  8
0
  6
Continuous
 62
     7
370
     5
100
AcDbCircle
 10
5.550789793981652
 20
12.31890408419371
 30
0.0
 40
0.5705401640872198
100
AcDbArc
 50
340.0440497056928
 51
359.01149751165
  0
LINE
  5
109
330
1F
100
AcDbEntity
  8
0
  6
Continuous
 62
     7
370
     5
100
AcDbLine
 10
6.671318096610496
 20
10.94259621255899
 30
0.0
 11
6.700720014487201
 21
10.97129338576411
 31
0.0
  0
ARC
  5
10A
330
1F
100
AcDbEntity
  8
0
  6
Continuous
 62
     7
370
     5
100
AcDbCircle
 10
6.425085079708573
 20
10.96271234339513
 30
0.0
 40
0.2757684745552991
100
AcDbArc
 50
1.783151206069527
 51
40.12173037655287
  0
ARC
  5
10B
330
1F
100
AcDbEntity
  8
0
  6
Continuous
 62
     7
370
     5
100
AcDbCircle
 10
6.872052300913403
 20
15.3762233071888
 30
0.0
 40
0.1953953777336991
100
AcDbArc
 50
328.8207303448307
 51
0.7702612834491223
  0
LINE
  5
10C
330
1F
100
AcDbEntity
  8
0
  6
Continuous
 62
     7
370
     5
100
AcDbLine
 10
8.209566737398915
 20
7.943051040901533
 30
0.0
 11
8.23896865527562
 21
7.971748214106656
 31
0.0
  0
LINE
  5
10D
330
1F
100
AcDbEntity
  8
0
  6
Continuous
 62
     7
370
     5
100
AcDbLine
 10
6.736077132008906
 20
9.771600504238733
 30
0.0
 11
6.765479049885611
 21
9.800297677443856
 31
0.0
  0
LINE
  5
10E
330
1F
100
AcDbEntity
  8
0
  6
Continuous
 62
     7
370
     5
100
AcDbLine
 10
8.23896865527562
 20
7.971748214106656
 30
0.0
 11
6.765479049885611
 21
9.800297677443856
 31
0.0
  0
LINE
  5
10F
330
1F
100
AcDbEntity
  8
0
  6
Continuous
 62
     7
370
     5
100
AcDbLine
 10
6.671318096610496
 20
9.940727753086891
 30
0.0
 11
6.700720014487201
 21
9.969424926292013
 31
0.0
  0
LINE
  5
110
330
1F
100
AcDbEntity
  8
0
  6
Continuous
 62
     7
370
     5
100
AcDbLine
 10
6.700720014487201
 20
9.969424926292013
 30
0.0
 11
6.700720014487201
 21
10.97129338576411
 31
0.0
  0
LWPOLYLINE
  5
111
330
1F
100
AcDbEntity
  8
0
  6
Continuous
 62
     7
370
     5
100
AcDbPolyline
 90
        3
 70
   128
 43
0.0
 10
6.278335571366707
 20
11.58422053177496
 10
6.279921508429517
 20
11.60676711977943
 10
6.279881534875583
 20
11.61009277858962
  0
ARC
  5
112
330
1F
100
AcDbEntity
  8
0
  6
Continuous
 62
     7
370
     5
100
AcDbCircle
 10
6.976345220138935
 20
9.978000380425115
 30
0.0
 40
0.2757585763020796
100
AcDbArc
 50
181.7820535735556
 51
220.1217577018346
  0
ARC
  5
113
330
1F
100
AcDbEntity
  8
0
  6
Continuous
 62
     7
370
     5
100
AcDbCircle
 10
6.872052300913404
 20
14.35833719312138
 30
0.0
 40
0.1953953777336982
100
AcDbArc
 50
328.8207303448311
 51
0.7702612834496466
  0
LINE
  5
114
330
1F
100
AcDbEntity
  8
0
  6
Continuous
 62
     7
370
     5
100
AcDbLine
 10
8.274323697386773
 20
7.773924293247286
 30
0.0
 11
8.303725615263477
 21
7.802621466452406
 31
0.0
  0
ARC
  5
115
330
1F
100
AcDbEntity
  8
0
  6
Continuous
 62
     7
370
     5
100
AcDbCircle
 10
8.028110600763087
 20
7.794051975424703
 30
0.0
 40
0.2757482046986422
100
AcDbArc
 50
1.780880991929007
 51
40.12181729359451
  0
LINE
  5
116
330
1F
100
AcDbEntity
  8
0
  6
Continuous
 62
     7
370
     5
100
AcDbLine
 10
8.274323697386773
 20
7.041497704834086
 30
0.0
 11
8.303725615263477
 21
7.070194878039207
 31
0.0
  0
LINE
  5
117
330
1F
100
AcDbEntity
  8
0
  6
Continuous
 62
     7
370
     5
100
AcDbLine
 10
8.303725615263477
 20
7.802621466452406
 30
0.0
 11
8.303725615263477
 21
7.070194878039207
 31
0.0
  0
ARC
  5
118
330
1F
100
AcDbEntity
  8
0
  6
Continuous
 62
     7
370
     5
100
AcDbCircle
 10
6.72620487426808
 20
12.87666787487633
 30
0.0
 40
0.1954004715468263
100
AcDbArc
 50
328.8211579211021
 51
0.7698337071740749
  0
LINE
  5
119
330
1F
100
AcDbEntity
  8
0
  6
Continuous
 62
     7
370
     5
100
AcDbLine
 10
8.274323697386773
 20
6.827205897962863
 30
0.0
 11
8.303725615263477
 21
6.855903071167984
 31
0.0
  0
ARC
  5
11A
330
1F
100
AcDbEntity
  8
0
  6
Continuous
 62
     7
370
     5
100
AcDbCircle
 10
8.331741636684105
 20
6.98922824145833
 30
0.0
 40
0.1362369204334519
100
AcDbArc
 50
159.9094624903941
 51
258.1329211941507
  0
LINE
  5
11B
330
1F
100
AcDbEntity
  8
0
  6
Continuous
 62
     7
370
     5
100
AcDbLine
 10
8.274323697386773
 20
5.86289270418415
 30
0.0
 11
8.303725615263477
 21
5.891589877389271
 31
0.0
  0
LINE
  5
11C
330
1F
100
AcDbEntity
  8
0
  6
Continuous
 62
     7
370
     5
100
AcDbLine
 10
8.303725615263477
 20
6.855903071167984
 30
0.0
 11
8.303725615263477
 21
5.891589877389271
 31
0.0
  0
ARC
  5
11D
330
1F
100
AcDbEntity
  8
0
  6
Continuous
 62
     7
370
     5
100
AcDbCircle
 10
7.771373192416231
 20
7.025344905078481
 30
0.0
 40
0.0917983479682668
100
AcDbArc
 50
166.247443841185
 51
257.1548809835711
  0
LWPOLYLINE
  5
11E
330
1F
100
AcDbEntity
  8
0
  6
Continuous
 62
     7
370
     5
100
AcDbPolyline
 90
        3
 70
   128
 43
0.0
 10
7.790323005814204
 20
6.936397589394601
 10
7.778717310017394
 20
6.933651708738167
 10
7.750964920139895
 20
6.935843848590874
  0
ARC
  5
11F
330
1F
100
AcDbEntity
  8
0
  6
Continuous
 62
     7
370
     5
100
AcDbCircle
 10
6.886953968876745
 20
7.587147338436386
 30
0.0
 40
0.0917969554200305
100
AcDbArc
 50
166.2465416603658
 51
257.1557687004643
  0
LWPOLYLINE
  5
120
330
1F
100
AcDbEntity
  8
0
  6
Continuous
 62
     7
370
     5
100
AcDbPolyline
 90
        3
 70
   128
 43
0.0
 10
6.905905478534363
 20
7.498201064269935
 10
6.894301858148102
 20
7.49545458813228
 10
6.866547392860056
 20
7.497647323466209
  0
LINE
  5
121
330
1F
100
AcDbEntity
  8
0
  6
Continuous
 62
     7
370
     5
100
AcDbLine
 10
8.274323697386773
 20
5.648600897312928
 30
0.0
 11
8.303725615263477
 21
5.677298070518048
 31
0.0
  0
ARC
  5
122
330
1F
100
AcDbEntity
  8
0
  6
Continuous
 62
     7
370
     5
100
AcDbCircle
 10
8.331741614075264
 20
5.810623228265174
 30
0.0
 40
0.1362369035089917
100
AcDbArc
 50
159.9094542700373
 51
258.1329294145061
  0
LINE
  5
123
330
1F
100
AcDbEntity
  8
0
  6
Continuous
 62
     7
370
     5
100
AcDbLine
 10
8.274323697386773
 20
4.916174403187042
 30
0.0
 11
8.303725615263477
 21
4.944871576392163
 31
0.0
  0
LINE
  5
124
330
1F
100
AcDbEntity
  8
0
  6
Continuous
 62
     7
370
     5
100
AcDbLine
 10
8.303725615263477
 20
5.677298070518048
 30
0.0
 11
8.303725615263477
 21
4.944871576392163
 31
0.0
  0
LINE
  5
125
330
1F
100
AcDbEntity
  8
0
  6
Continuous
 62
     7
370
     5
100
AcDbLine
 10
6.284384779859768
 20
7.368028656513472
 30
0.0
 11
6.313786697736473
 21
7.396725829718594
 31
0.0
  0
LWPOLYLINE
  5
126
330
1F
100
AcDbEntity
  8
0
  6
Continuous
 62
     7
370
     5
100
AcDbPolyline
 90
        3
 70
   128
 43
0.0
 10
6.313786697736473
 20
7.396725829718594
 10
6.351598602550869
 20
7.392911062394756
 10
6.384319525285587
 20
7.402196433683391
  0
ARC
  5
127
330
1F
100
AcDbEntity
  8
0
  6
Continuous
 62
     7
370
     5
100
AcDbCircle
 10
7.771373027629848
 20
5.739593899214172
 30
0.0
 40
0.0917982121019586
100
AcDbArc
 50
166.2473576864687
 51
257.1549671382877
  0
LWPOLYLINE
  5
128
330
1F
100
AcDbEntity
  8
0
  6
Continuous
 62
     7
370
     5
100
AcDbPolyline
 90
        3
 70
   128
 43
0.0
 10
7.790323005814204
 20
5.650646622450845
 10
7.778717310017394
 20
5.647900678936201
 10
7.750964920139895
 20
5.650092944505328
  0
ARC
  5
129
330
1F
100
AcDbEntity
  8
0
  6
Continuous
 62
     7
370
     5
100
AcDbCircle
 10
8.142427943749794
 20
4.939475228247764
 30
0.0
 40
0.1613879159324873
100
AcDbArc
 50
315.3495754578922
 51
1.916163393255409
  0
ARC
  5
12A
330
1F
100
AcDbEntity
  8
0
  6
Continuous
 62
     7
370
     5
100
AcDbCircle
 10
6.886954091301284
 20
6.301396434162103
 30
0.0
 40
0.0917970743792541
100
AcDbArc
 50
166.2465597125072
 51
257.1557072565802
  0
LWPOLYLINE
  5
12B
330
1F
100
AcDbEntity
  8
0
  6
Continuous
 62
     7
370
     5
100
AcDbPolyline
 90
        3
 70
   128
 43
0.0
 10
6.905905478534363
 20
6.212450128755284
 10
6.894301858148102
 20
6.209703621188523
 10
6.866547392860056
 20
6.211896325093348
  0
LINE
  5
12C
330
1F
100
AcDbEntity
  8
0
  6
Continuous
 62
     7
370
     5
100
AcDbLine
 10
6.284384779859768
 20
6.189423655863537
 30
0.0
 11
6.313786697736473
 21
6.218120829068658
 31
0.0
  0
LWPOLYLINE
  5
12D
330
1F
100
AcDbEntity
  8
0
  6
Continuous
 62
     7
370
     5
100
AcDbPolyline
 90
        3
 70
   128
 43
0.0
 10
6.384319525285587
 20
6.223591433033455
 10
6.351598602550869
 20
6.21430606174482
 10
6.313786697736473
 20
6.218120829068658
  0
LINE
  5
12E
330
1F
100
AcDbEntity
  8
0
  6
Continuous
 62
     7
370
     5
100
AcDbLine
 10
6.219625744461363
 20
5.323070023579093
 30
0.0
 11
6.249027662338067
 21
5.351767196784215
 31
0.0
  0
LINE
  5
12F
330
1F
100
AcDbEntity
  8
0
  6
Continuous
 62
     7
370
     5
100
AcDbLine
 10
6.108933299377349
 20
5.254064087890983
 30
0.0
 11
6.079531381500645
 21
5.225366914685862
 31
0.0
  0
LINE
  5
130
330
1F
100
AcDbEntity
  8
0
  6
Continuous
 62
     7
370
     5
100
AcDbLine
 10
6.249027662338067
 20
5.351767196784215
 30
0.0
 11
6.108933299377349
 21
5.254064087890983
 31
0.0
  0
SPLINE
  5
131
330
1F
100
AcDbEntity
  8
0
  6
Continuous
 62
     7
370
     5
100
AcDbSpline
210
0.0
220
0.0
230
1.0
 70
     8
 71
     3
 72
    10
 73
     6
 74
     0
 42
0.0000000001
 43
0.0000000001
 40
0.0
 40
0.0
 40
0.0
 40
0.0
 40
0.302526283277857
 40
0.6697883822213706
 40
1.0
 40
1.0
 40
1.0
 40
1.0
 10
6.018104088342915
 20
5.196138317503856
 30
0.0
 10
6.018788521317917
 20
5.19775849118635
 30
0.0
 10
6.020303845044835
 20
5.201345529965118
 30
0.0
 10
6.042672600936771
 20
5.21074637854844
 30
0.0
 10
6.067688069982275
 20
5.220669104248513
 30
0.0
 10
6.079531381500649
 20
5.225366914685859
 30
0.0
  0
SPLINE
  5
132
330
1F
100
AcDbEntity
  8
0
  6
Continuous
 62
     7
370
     5
100
AcDbSpline
210
0.0
220
0.0
230
1.0
 70
     8
 71
     3
 72
    11
 73
     7
 74
     0
 42
0.0000000001
 43
0.0000000001
 40
0.0
 40
0.0
 40
0.0
 40
0.0
 40
0.2660719175640895
 40
0.5619958123535672
 40
0.8636077963289219
 40
1.0
 40
1.0
 40
1.0
 40
1.0
 10
6.079531381500645
 20
2.117347033101777
 30
0.0
 10
6.067546269015829
 20
2.112629560675513
 30
0.0
 10
6.042231372619716
 20
2.102665338322678
 30
0.0
 10
6.020712886084916
 20
2.092928429529539
 30
0.0
 10
6.012692727580803
 20
2.087353733389819
 30
0.0
 10
6.020725027359354
 20
2.085576123980994
 30
0.0
 10
6.023226243325422
 20
2.085022585746946
 30
0.0
  0
SPLINE
  5
133
330
1F
100
AcDbEntity
  8
0
  6
Continuous
 62
     7
370
     5
100
AcDbSpline
210
0.0
220
0.0
230
1.0
 70
     8
 71
     3
 72
    10
 73
     6
 74
     0
 42
0.0000000001
 43
0.0000000001
 40
0.0
 40
0.0
 40
0.0
 40
0.0
 40
0.3875388704603519
 40
0.7071282915283314
 40
1.0
 40
1.0
 40
1.0
 40
1.0
 10
6.099786991244626
 20
2.131474517005909
 30
0.0
 10
6.092982017250225
 20
2.122022011047436
 30
0.0
 10
6.080565225022814
 20
2.104774362105447
 30
0.0
 10
6.077918964691047
 20
2.084519926982015
 30
0.0
 10
6.083357437050045
 20
2.073243148548868
 30
0.0
 10
6.085958050565648
 20
2.067850725737875
 30
0.0
  0
LWPOLYLINE
  5
134
330
1F
100
AcDbEntity
  8
0
  6
Continuous
 62
     7
370
     5
100
AcDbPolyline
 90
       17
 70
   128
 43
0.0
 10
6.322805943639044
 20
-0.5048186766301982
 10
6.306732262741497
 20
-0.5263795472878461
 10
6.293105661513022
 20
-0.5564018229505227
 10
6.284000589438407
 20
-0.5903162770157998
 10
6.280803389602249
 20
-0.6229590800557477
 10
6.284000589438407
 20
-0.6493607529861306
 10
6.293105661513022
 20
-0.6655015481039862
 10
6.306732262741497
 20
-0.6689248684144854
 10
6.322805943639044
 20
-0.6591089284371821
 10
6.338879624536597
 20
-0.637548057779534
 10
6.352506225765071
 20
-0.6075247763855085
 10
6.361611297839687
 20
-0.5736103223202314
 10
6.364808497675844
 20
-0.5409675192802858
 10
6.361611297839687
 20
-0.5145658463499006
 10
6.352506225765071
 20
-0.498425051232045
 10
6.338879624536597
 20
-0.4950027366528948
 10
6.322805943639044
 20
-0.5048186766301982
  0
LWPOLYLINE
  5
135
330
1F
100
AcDbEntity
  8
0
  6
Continuous
 62
     7
370
     5
100
AcDbPolyline
 90
       17
 70
   128
 43
0.0
 10
6.322805943639044
 20
0.2987757562824116
 10
6.306732262741497
 20
0.2772148856247658
 10
6.293105661513022
 20
0.2471921070964115
 10
6.284000589438407
 20
0.2132776530311343
 10
6.280803389602249
 20
0.1806348499911865
 10
6.284000589438407
 20
0.1542331770608036
 10
6.293105661513022
 20
0.1380923819429479
 10
6.306732262741497
 20
0.1346695644981243
 10
6.322805943639044
 20
0.1444855044754299
 10
6.338879624536597
 20
0.1660463751330757
 10
6.352506225765071
 20
0.1960691536614256
 10
6.361611297839687
 20
0.2299836077267028
 10
6.364808497675844
 20
0.2626264107666506
 10
6.361611297839687
 20
0.2890280836970336
 10
6.352506225765071
 20
0.3051688788148892
 10
6.338879624536597
 20
0.3085916962597172
 10
6.322805943639044
 20
0.2987757562824116
  0
LWPOLYLINE
  5
136
330
1F
100
AcDbEntity
  8
0
  6
Continuous
 62
     7
370
     5
100
AcDbPolyline
 90
       17
 70
   128
 43
0.0
 10
6.439479780905551
 20
1.537685204334001
 10
6.423406100008003
 20
1.516124333676355
 10
6.409779498779529
 20
1.486101555148001
 10
6.400674426704913
 20
1.452187101082723
 10
6.397477226868756
 20
1.41954429804278
 10
6.400674426704913
 20
1.393142625112395
 10
6.409779498779529
 20
1.377001829994539
 10
6.423406100008003
 20
1.373579012549713
 10
6.439479780905551
 20
1.383394952527019
 10
6.455553461803103
 20
1.404955823184665
 10
6.469180131479444
 20
1.434978668520233
 10
6.478285135106193
 20
1.468893055778294
 10
6.481482403390214
 20
1.501535925625458
 10
6.478285135106193
 20
1.527937531748623
 10
6.469180131479444
 20
1.544078393673694
 10
6.455553461803103
 20
1.547501144311306
 10
6.439479780905551
 20
1.537685204334001
  0
LWPOLYLINE
  5
137
330
1F
100
AcDbEntity
  8
0
  6
Continuous
 62
     7
370
     5
100
AcDbPolyline
 90
       17
 70
   128
 43
0.0
 10
6.935343640624106
 20
2.932403554885823
 10
6.919269959726554
 20
2.910843187093848
 10
6.905643324274148
 20
2.880819872296214
 10
6.896538320647399
 20
2.846905485038153
 10
6.893341052363374
 20
2.814262615190992
 10
6.896538320647399
 20
2.787861511933498
 10
6.905643324274148
 20
2.771720650008427
 10
6.919269959726554
 20
2.768297363101535
 10
6.935343640624106
 20
2.778113805944512
 10
6.951417321521653
 20
2.799674173736487
 10
6.965043956974064
 20
2.82969748853412
 10
6.974148960600812
 20
2.863611875792182
 10
6.977346228884833
 20
2.89625424277367
 10
6.974148960600812
 20
2.922655848896837
 10
6.965043956974064
 20
2.938796710821908
 10
6.951417321521653
 20
2.9422199977288
 10
6.935343640624106
 20
2.932403554885823
  0
LWPOLYLINE
  5
138
330
1F
100
AcDbEntity
  8
0
  6
Continuous
 62
     7
370
     5
100
AcDbPolyline
 90
       17
 70
   128
 43
0.0
 10
7.081185954319202
 20
1.73542623682259
 10
7.065112256309686
 20
1.713865852328815
 10
7.051485637969244
 20
1.683842554232986
 10
7.042380634342496
 20
1.649928166974923
 10
7.039183366058475
 20
1.617285297127761
 10
7.042380634342496
 20
1.590884193870265
 10
7.051485637969244
 20
1.574743331945196
 10
7.065112256309686
 20
1.571320028336501
 10
7.081185954319202
 20
1.581136487881281
 10
7.097259635216754
 20
1.602696855673254
 10
7.110886253557197
 20
1.632720153769083
 10
7.119991274295908
 20
1.666634557728951
 10
7.123188525467965
 20
1.699276908008635
 10
7.119991274295908
 20
1.725678530833608
 10
7.110886253557197
 20
1.741819376056873
 10
7.097259635216754
 20
1.745242679665569
 10
7.081185954319202
 20
1.73542623682259
  0
LWPOLYLINE
  5
139
330
1F
100
AcDbEntity
  8
0
  6
Continuous
 62
     7
370
     5
100
AcDbPolyline
 90
       17
 70
   128
 43
0.0
 10
7.081185954319202
 20
0.7175401227551764
 10
7.065112256309686
 20
0.6959792353957289
 10
7.051485637969244
 20
0.6659569430312463
 10
7.042380634342496
 20
0.6320425557731828
 10
7.039183366058475
 20
0.5993996859260213
 10
7.042380634342496
 20
0.572998079802852
 10
7.051485637969244
 20
0.5568572178777826
 10
7.065112256309686
 20
0.5534339142690874
 10
7.081185954319202
 20
0.5632498709481948
 10
7.097259635216754
 20
0.5848107416058407
 10
7.110886253557197
 20
0.6148340397016701
 10
7.119991274295908
 20
0.6487484436615376
 10
7.123188525467965
 20
0.6813912968068951
 10
7.119991274295908
 20
0.7077929196318682
 10
7.110886253557197
 20
0.7239337648551336
 10
7.097259635216754
 20
0.7273560627324822
 10
7.081185954319202
 20
0.7175401227551764
  0
LWPOLYLINE
  5
13A
330
1F
100
AcDbEntity
  8
0
  6
Continuous
 62
     7
370
     5
100
AcDbPolyline
 90
       17
 70
   128
 43
0.0
 10
7.081185954319202
 20
0.0210912789871319
 10
7.065112256309686
 20
-0.0004686026409688
 10
7.051485637969244
 20
-0.0304919007367983
 10
7.042380634342496
 20
-0.0644062879948618
 10
7.039183366058475
 20
-0.0970491578420234
 10
7.042380634342496
 20
-0.1234507639651925
 10
7.051485637969244
 20
-0.1395916258902619
 10
7.065112256309686
 20
-0.1430149294989571
 10
7.081185954319202
 20
-0.1331979670885029
 10
7.097259635216754
 20
-0.111638102162204
 10
7.110886253557197
 20
-0.0816148040663745
 10
7.119991274295908
 20
-0.047700400106507
 10
7.123188525467965
 20
-0.0150575469611495
 10
7.119991274295908
 20
0.0113440758638237
 10
7.110886253557197
 20
0.0274849210870891
 10
7.097259635216754
 20
0.0309082246957844
 10
7.081185954319202
 20
0.0210912789871319
  0
LINE
  5
13B
330
1F
100
AcDbEntity
  8
0
  6
Continuous
 62
     7
370
     5
100
AcDbLine
 10
6.760332850500411
 20
3.771538049388412
 30
0.0
 11
6.760332850500411
 21
3.504843239218888
 31
0.0
  0
ARC
  5
13C
330
1F
100
AcDbEntity
  8
0
  6
Continuous
 62
     7
370
     5
100
AcDbCircle
 10
6.920734741168501
 20
3.487200280810492
 30
0.0
 40
0.1613692675551891
100
AcDbArc
 50
173.7231425209505
 51
218.5342217443526
  0
LINE
  5
13D
330
1F
100
AcDbEntity
  8
0
  6
Continuous
 62
     7
370
     5
100
AcDbLine
 10
6.794505858451607
 20
3.386670137672512
 30
0.0
 11
7.192855277175074
 21
3.043833507279835
 31
0.0
  0
ARC
  5
13E
330
1F
100
AcDbEntity
  8
0
  6
Continuous
 62
     7
370
     5
100
AcDbCircle
 10
7.066625058985573
 20
2.943302933977561
 30
0.0
 40
0.1613705801955648
100
AcDbArc
 50
353.7231588665675
 51
38.53404581876203
  0
LINE
  5
13F
330
1F
100
AcDbEntity
  8
0
  6
Continuous
 62
     7
370
     5
100
AcDbLine
 10
7.227028259458321
 20
-0.931592394434099
 30
0.0
 11
7.227028259458321
 21
2.925659877815078
 31
0.0
  0
LINE
  5
140
330
1F
100
AcDbEntity
  8
0
  6
Continuous
 62
     7
370
     5
100
AcDbLine
 10
6.176963595720012
 20
-1.956487697463066
 30
0.0
 11
7.227028259458321
 21
-0.931592394434099
 31
0.0
  0
LINE
  5
141
330
1F
100
AcDbEntity
  8
0
  6
Continuous
 62
     7
370
     5
100
AcDbLine
 10
6.176963595720012
 20
1.90076457478611
 30
0.0
 11
6.176963595720012
 21
-1.956487697463066
 31
0.0
  0
ARC
  5
142
330
1F
100
AcDbEntity
  8
0
  6
Continuous
 62
     7
370
     5
100
AcDbCircle
 10
6.016561722388658
 20
1.918407965996176
 30
0.0
 40
0.1613692976423929
100
AcDbArc
 50
353.7229890986169
 51
38.53424503879649
  0
LINE
  5
143
330
1F
100
AcDbEntity
  8
0
  6
Continuous
 62
     7
370
     5
100
AcDbLine
 10
6.085958050565648
 20
2.067850725737875
 30
0.0
 11
6.14279058776882
 21
2.018938179198158
 31
0.0
  0
LINE
  5
144
330
1F
100
AcDbEntity
  8
0
  6
Continuous
 62
     7
370
     5
100
AcDbLine
 10
6.671318096610496
 20
3.620695745698961
 30
0.0
 11
6.700720014487201
 21
3.649392918904082
 31
0.0
  0
ARC
  5
145
330
1F
100
AcDbEntity
  8
0
  6
Continuous
 62
     7
370
     5
100
AcDbCircle
 10
6.868357316554171
 20
3.653115738276113
 30
0.0
 40
0.1676786343824684
100
AcDbArc
 50
143.520364004964
 51
181.2721916928983
  0
LINE
  5
146
330
1F
100
AcDbEntity
  8
0
  6
Continuous
 62
     7
370
     5
100
AcDbLine
 10
6.671318096610496
 20
2.618827411943286
 30
0.0
 11
6.700720014487201
 21
2.647524585148406
 31
0.0
  0
LINE
  5
147
330
1F
100
AcDbEntity
  8
0
  6
Continuous
 62
     7
370
     5
100
AcDbLine
 10
6.700720014487201
 20
3.649392918904082
 30
0.0
 11
6.700720014487201
 21
2.647524585148406
 31
0.0
  0
ARC
  5
148
330
1F
100
AcDbEntity
  8
0
  6
Continuous
 62
     7
370
     5
100
AcDbCircle
 10
6.539374057629181
 20
2.64214712787611
 30
0.0
 40
0.1614355439212366
100
AcDbArc
 50
315.3568493663887
 51
1.908889484761749
  0
LINE
  5
149
330
1F
100
AcDbEntity
  8
0
  6
Continuous
 62
     7
370
     5
100
AcDbLine
 10
6.041098051522717
 20
2.080042712244239
 30
0.0
 11
6.085958050565648
 21
2.067850725737875
 31
0.0
  0
LINE
  5
14A
330
1F
100
AcDbEntity
  8
0
  6
Continuous
 62
     7
370
     5
100
AcDbLine
 10
6.087072040727155
 20
2.034081286380036
 30
0.0
 11
6.14279058776882
 21
2.018938179198158
 31
0.0
  0
LINE
  5
14B
330
1F
100
AcDbEntity
  8
0
  6
Continuous
 62
     7
370
     5
100
AcDbLine
 10
6.030239503523982
 20
2.082993832919757
 30
0.0
 11
6.087072040727155
 21
2.034081286380036
 31
0.0
  0
LINE
  5
14C
330
1F
100
AcDbEntity
  8
0
  6
Continuous
 62
     7
370
     5
100
AcDbLine
 10
6.121245048678347
 20
1.915907681967988
 30
0.0
 11
6.176963595720012
 21
1.90076457478611
 31
0.0
  0
ARC
  5
14D
330
1F
100
AcDbEntity
  8
0
  6
Continuous
 62
     7
370
     5
100
AcDbCircle
 10
5.960843175347005
 20
1.933551073178056
 30
0.0
 40
0.1613692976423818
100
AcDbArc
 50
353.7229890986154
 51
38.5342450387985
  0
LINE
  5
14E
330
1F
100
AcDbEntity
  8
0
  6
Continuous
 62
     7
370
     5
100
AcDbLine
 10
6.121245048678347
 20
-1.941344590281189
 30
0.0
 11
6.176963595720012
 21
-1.956487697463066
 31
0.0
  0
LINE
  5
14F
330
1F
100
AcDbEntity
  8
0
  6
Continuous
 62
     7
370
     5
100
AcDbLine
 10
6.121245048678347
 20
1.915907681967988
 30
0.0
 11
6.121245048678347
 21
-1.941344590281189
 31
0.0
  0
ARC
  5
150
330
1F
100
AcDbEntity
  8
0
  6
Continuous
 62
     7
370
     5
100
AcDbCircle
 10
6.230334022644782
 20
1.517381253460308
 30
0.0
 40
0.1954074713953792
100
AcDbArc
 50
328.8217454527355
 51
0.7692461755447315
  0
ARC
  5
151
330
1F
100
AcDbEntity
  8
0
  6
Continuous
 62
     7
370
     5
100
AcDbCircle
 10
6.726211142290767
 20
2.912096460410955
 30
0.0
 40
0.1953942269860305
100
AcDbArc
 50
328.820633747494
 51
0.7703578807818531
  0
ARC
  5
152
330
1F
100
AcDbEntity
  8
0
  6
Continuous
 62
     7
370
     5
100
AcDbCircle
 10
6.113676237492927
 20
0.2784678475152578
 30
0.0
 40
0.1953914045685877
100
AcDbArc
 50
328.8204005672609
 51
0.7704505429296274
  0
ARC
  5
153
330
1F
100
AcDbEntity
  8
0
  6
Continuous
 62
     7
370
     5
100
AcDbCircle
 10
6.113661187486042
 20
-0.5251229852650118
 30
0.0
 40
0.1954064048426642
100
AcDbArc
 50
328.8216559345626
 51
0.7693356937174463
  0
ARC
  5
154
330
1F
100
AcDbEntity
  8
0
  6
Continuous
 62
     7
370
     5
100
AcDbCircle
 10
6.872052300913455
 20
1.715119456271452
 30
0.0
 40
0.1953953777336478
100
AcDbArc
 50
328.8207303448266
 51
0.7702612834537525
  0
ARC
  5
155
330
1F
100
AcDbEntity
  8
0
  6
Continuous
 62
     7
370
     5
100
AcDbCircle
 10
6.872038857623792
 20
0.6972364929341799
 30
0.0
 40
0.1954087707301515
100
AcDbArc
 50
328.8218545074561
 51
0.7691371208242478
  0
ARC
  5
156
330
1F
100
AcDbEntity
  8
0
  6
Continuous
 62
     7
370
     5
100
AcDbCircle
 10
6.872065963912415
 20
0.0007812879936106
 30
0.0
 40
0.1953817659268919
100
AcDbArc
 50
328.8195876516214
 51
0.7714039766594276
  0
LINE
  5
157
330
1F
100
AcDbEntity
  8
0
  6
Continuous
 62
     8
370
     5
100
AcDbLine
 10
6.085958050565648
 20
11.85875854195904
 30
0.0
 11
6.085958050565648
 21
11.94918384744539
 31
0.0
  0
LINE
  5
158
330
1F
100
AcDbEntity
  8
0
  6
Continuous
 62
     8
370
     5
100
AcDbLine
 10
6.085958050565648
 20
2.067850725737875
 30
0.0
 11
6.085958050565648
 21
2.109441739897396
 31
0.0
  0
ENDSEC
  0
SECTION
  2
OBJECTS
  0
DICTIONARY
  5
C
330
0
100
AcDbDictionary
281
     1
  3
ACAD_COLOR
350
15B
  3
ACAD_GROUP
350
D
  3
ACAD_LAYOUT
350
1A
  3
ACAD_MATERIAL
350
15A
  3
ACAD_MLINESTYLE
350
17
  3
ACAD_PLOTSETTINGS
350
19
  3
ACAD_PLOTSTYLENAME
350
E
  3
ACAD_SCALELIST
350
47
  0
DICTIONARY
  5
15B
102
{ACAD_REACTORS
330
C
102
}
330
C
100
AcDbDictionary
281
     1
  0
DICTIONARY
  5
D
102
{ACAD_REACTORS
330
C
102
}
330
C
100
AcDbDictionary
281
     1
  0
DICTIONARY
  5
1A
102
{ACAD_REACTORS
330
C
102
}
330
C
100
AcDbDictionary
281
     1
  3
Layout1
350
1E
  3
Layout2
350
26
  3
Model
350
22
  0
DICTIONARY
  5
15A
102
{ACAD_REACTORS
330
C
102
}
330
C
100
AcDbDictionary
281
     1
  0
DICTIONARY
  5
17
102
{ACAD_REACTORS
330
C
102
}
330
C
100
AcDbDictionary
281
     1
  3
Standard
350
18
  0
DICTIONARY
  5
19
102
{ACAD_REACTORS
330
C
102
}
330
C
100
AcDbDictionary
281
     1
  0
ACDBDICTIONARYWDFLT
  5
E
102
{ACAD_REACTORS
330
C
102
}
330
C
100
AcDbDictionary
281
     1
  3
Normal
350
F
100
AcDbDictionaryWithDefault
340
F
  0
DICTIONARY
  5
47
102
{ACAD_REACTORS
330
C
102
}
330
C
100
AcDbDictionary
281
     1
  3
A0
350
48
  3
A1
350
49
  3
A2
350
4A
  3
A3
350
4B
  3
A4
350
4C
  3
A5
350
4D
  3
A6
350
4E
  3
A7
350
4F
  3
A8
350
50
  3
A9
350
51
  3
B0
350
52
  3
B1
350
53
  3
B2
350
54
  3
B3
350
55
  3
B4
350
56
  3
B5
350
57
  3
B6
350
58
  3
B7
350
59
  3
B8
350
5A
  3
B9
350
5B
  3
C0
350
5C
  3
C1
350
5D
  3
C2
350
5E
  3
C3
350
5F
  3
C4
350
60
  3
C5
350
61
  3
C6
350
62
  3
C7
350
63
  3
C8
350
64
  3
C9
350
65
  3
D0
350
66
  3
D1
350
67
  3
D2
350
68
  0
LAYOUT
  5
1E
102
{ACAD_REACTORS
330
1A
102
}
330
1A
100
AcDbPlotSettings
  1

  2
none_device
  4

  6

 40
0.0
 41
0.0
 42
0.0
 43
0.0
 44
0.0
 45
0.0
 46
0.0
 47
0.0
 48
0.0
 49
0.0
140
0.0
141
0.0
142
1.0
143
1.0
 70
   688
 72
     0
 73
     0
 74
     5
  7

 75
    16
147
1.0
 76
     0
 77
     2
 78
   300
148
0.0
149
0.0
100
AcDbLayout
  1
Layout1
 70
     1
 71
     1
 10
0.0
 20
0.0
 11
12.0
 21
9.0
 12
0.0
 22
0.0
 32
0.0
 14
1.000000000000000E+20
 24
1.000000000000000E+20
 34
1.000000000000000E+20
 15
-1.000000000000000E+20
 25
-1.000000000000000E+20
 35
-1.000000000000000E+20
146
0.0
 13
0.0
 23
0.0
 33
0.0
 16
1.0
 26
0.0
 36
0.0
 17
0.0
 27
1.0
 37
0.0
 76
     0
330
1B
  0
LAYOUT
  5
26
102
{ACAD_REACTORS
330
1A
102
}
330
1A
100
AcDbPlotSettings
  1

  2
none_device
  4

  6

 40
0.0
 41
0.0
 42
0.0
 43
0.0
 44
0.0
 45
0.0
 46
0.0
 47
0.0
 48
0.0
 49
0.0
140
0.0
141
0.0
142
1.0
143
1.0
 70
   688
 72
     0
 73
     0
 74
     5
  7

 75
    16
147
1.0
 76
     0
 77
     2
 78
   300
148
0.0
149
0.0
100
AcDbLayout
  1
Layout2
 70
     1
 71
     2
 10
0.0
 20
0.0
 11
0.0
 21
0.0
 12
0.0
 22
0.0
 32
0.0
 14
0.0
 24
0.0
 34
0.0
 15
0.0
 25
0.0
 35
0.0
146
0.0
 13
0.0
 23
0.0
 33
0.0
 16
1.0
 26
0.0
 36
0.0
 17
0.0
 27
1.0
 37
0.0
 76
     0
330
23
  0
LAYOUT
  5
22
102
{ACAD_REACTORS
330
1A
102
}
330
1A
100
AcDbPlotSettings
  1

  2
none_device
  4
Letter_(8.50_x_11.00_Inches)
  6

 40
6.349999999999999
 41
6.349999999999999
 42
6.350005079999999
 43
6.350005079999999
 44
215.9
 45
279.4
 46
0.0
 47
0.0
 48
0.0
 49
0.0
140
0.0
141
0.0
142
1.0
143
1.0
 70
  1712
 72
     0
 73
     0
 74
     0
  7

 75
     0
147
1.0
 76
     0
 77
     2
 78
   300
148
0.0
149
0.0
100
AcDbLayout
  1
Model
 70
     1
 71
     0
 10
0.0
 20
0.0
 11
11.0
 21
8.5
 12
0.0
 22
0.0
 32
0.0
 14
0.0
 24
0.0
 34
0.0
 15
11.0
 25
8.5
 35
0.0
146
0.0
 13
0.0
 23
0.0
 33
0.0
 16
1.0
 26
0.0
 36
0.0
 17
0.0
 27
1.0
 37
0.0
 76
     0
330
1F
  0
MLINESTYLE
  5
18
102
{ACAD_REACTORS
330
17
102
}
330
17
100
AcDbMlineStyle
  2
STANDARD
 70
     0
  3

 62
   256
 51
90.0
 52
90.0
 71
     2
 49
0.5
 62
   256
  6
BYLAYER
 49
-0.5
 62
   256
  6
BYLAYER
  0
ACDBPLACEHOLDER
  5
F
102
{ACAD_REACTORS
330
E
102
}
330
E
  0
ACAD_PROXY_OBJECT
  5
48
102
{ACAD_REACTORS
330
47
102
}
330
47
100
AcDbProxyObject
 90
      499
 91
      503
 95
   393239
 70
     0
 93
       41
310
903313A31580
 94
        0
  0
ACAD_PROXY_OBJECT
  5
49
102
{ACAD_REACTORS
330
47
102
}
330
47
100
AcDbProxyObject
 90
      499
 91
      503
 95
   393239
 70
     0
 93
      105
310
903313A324000000000000004000
 94
        0
  0
ACAD_PROXY_OBJECT
  5
4A
102
{ACAD_REACTORS
330
47
102
}
330
47
100
AcDbProxyObject
 90
      499
 91
      503
 95
   393239
 70
     0
 93
      105
310
903313A344000000000000104000
 94
        0
  0
ACAD_PROXY_OBJECT
  5
4B
102
{ACAD_REACTORS
330
47
102
}
330
47
100
AcDbProxyObject
 90
      499
 91
      503
 95
   393239
 70
     0
 93
      105
310
903313A354000000000000144000
 94
        0
  0
ACAD_PROXY_OBJECT
  5
4C
102
{ACAD_REACTORS
330
47
102
}
330
47
100
AcDbProxyObject
 90
      499
 91
      503
 95
   393239
 70
     0
 93
      105
310
903313A384000000000000204000
 94
        0
  0
ACAD_PROXY_OBJECT
  5
4D
102
{ACAD_REACTORS
330
47
102
}
330
47
100
AcDbProxyObject
 90
      499
 91
      503
 95
   393239
 70
     0
 93
      113
310
904313A31304000000000000244000
 94
        0
  0
ACAD_PROXY_OBJECT
  5
4E
102
{ACAD_REACTORS
330
47
102
}
330
47
100
AcDbProxyObject
 90
      499
 91
      503
 95
   393239
 70
     0
 93
      113
310
904313A31364000000000000304000
 94
        0
  0
ACAD_PROXY_OBJECT
  5
4F
102
{ACAD_REACTORS
330
47
102
}
330
47
100
AcDbProxyObject
 90
      499
 91
      503
 95
   393239
 70
     0
 93
      113
310
904313A32304000000000000344000
 94
        0
  0
ACAD_PROXY_OBJECT
  5
50
102
{ACAD_REACTORS
330
47
102
}
330
47
100
AcDbProxyObject
 90
      499
 91
      503
 95
   393239
 70
     0
 93
      113
310
904313A333040000000000003E4000
 94
        0
  0
ACAD_PROXY_OBJECT
  5
51
102
{ACAD_REACTORS
330
47
102
}
330
47
100
AcDbProxyObject
 90
      499
 91
      503
 95
   393239
 70
     0
 93
      113
310
904313A34304000000000000444000
 94
        0
  0
ACAD_PROXY_OBJECT
  5
52
102
{ACAD_REACTORS
330
47
102
}
330
47
100
AcDbProxyObject
 90
      499
 91
      503
 95
   393239
 70
     0
 93
      113
310
904313A35304000000000000494000
 94
        0
  0
ACAD_PROXY_OBJECT
  5
53
102
{ACAD_REACTORS
330
47
102
}
330
47
100
AcDbProxyObject
 90
      499
 91
      503
 95
   393239
 70
     0
 93
      121
310
905313A3130304000000000000594000
 94
        0
  0
ACAD_PROXY_OBJECT
  5
54
102
{ACAD_REACTORS
330
47
102
}
330
47
100
AcDbProxyObject
 90
      499
 91
      503
 95
   393239
 70
     0
 93
      105
310
903323A310000000000000010140
 94
        0
  0
ACAD_PROXY_OBJECT
  5
55
102
{ACAD_REACTORS
330
47
102
}
330
47
100
AcDbProxyObject
 90
      499
 91
      503
 95
   393239
 70
     0
 93
      105
310
903343A310000000000000410159
 94
        0
  0
ACAD_PROXY_OBJECT
  5
56
102
{ACAD_REACTORS
330
47
102
}
330
47
100
AcDbProxyObject
 90
      499
 91
      503
 95
   393239
 70
     0
 93
      105
310
903383A310000000000000810140
 94
        0
  0
ACAD_PROXY_OBJECT
  5
57
102
{ACAD_REACTORS
330
47
102
}
330
47
100
AcDbProxyObject
 90
      499
 91
      503
 95
   393239
 70
     0
 93
      113
310
90431303A310000000000000910140
 94
        0
  0
ACAD_PROXY_OBJECT
  5
58
102
{ACAD_REACTORS
330
47
102
}
330
47
100
AcDbProxyObject
 90
      499
 91
      503
 95
   393239
 70
     0
 93
      121
310
9053130303A310000000000001650100
 94
        0
  0
ACAD_PROXY_OBJECT
  5
59
102
{ACAD_REACTORS
330
47
102
}
330
47
100
AcDbProxyObject
 90
      499
 91
      503
 95
   393239
 70
     0
 93
      257
310
90E312F31323822203D2031272D3022000000000000200FC000000000000284000
 94
        0
  0
ACAD_PROXY_OBJECT
  5
5A
102
{ACAD_REACTORS
330
47
102
}
330
47
100
AcDbProxyObject
 90
      499
 91
      503
 95
   393239
 70
     0
 93
      249
310
90D312F363422203D2031272D3022000000000000240FC000000000000284000
 94
        0
  0
ACAD_PROXY_OBJECT
  5
5B
102
{ACAD_REACTORS
330
47
102
}
330
47
100
AcDbProxyObject
 90
      499
 91
      503
 95
   393239
 70
     0
 93
      249
310
90D312F333222203D2031272D3022000000000000280FC000000000000284040
 94
        0
  0
ACAD_PROXY_OBJECT
  5
5C
102
{ACAD_REACTORS
330
47
102
}
330
47
100
AcDbProxyObject
 90
      499
 91
      503
 95
   393239
 70
     0
 93
      249
310
90D312F313622203D2031272D30220000000000002C0FC000000000000284000
 94
        0
  0
ACAD_PROXY_OBJECT
  5
5D
102
{ACAD_REACTORS
330
47
102
}
330
47
100
AcDbProxyObject
 90
      499
 91
      503
 95
   393239
 70
     0
 93
      249
310
90D332F333222203D2031272D30220000000000002E0FC000000000000284040
 94
        0
  0
ACAD_PROXY_OBJECT
  5
5E
102
{ACAD_REACTORS
330
47
102
}
330
47
100
AcDbProxyObject
 90
      499
 91
      503
 95
   393239
 70
     0
 93
      241
310
90C312F3822203D2031272D3022000000000000300FC000000000000284040
 94
        0
  0
ACAD_PROXY_OBJECT
  5
5F
102
{ACAD_REACTORS
330
47
102
}
330
47
100
AcDbProxyObject
 90
      499
 91
      503
 95
   393239
 70
     0
 93
      249
310
90D332F313622203D2031272D3022000000000000320FC000000000000284040
 94
        0
  0
ACAD_PROXY_OBJECT
  5
60
102
{ACAD_REACTORS
330
47
102
}
330
47
100
AcDbProxyObject
 90
      499
 91
      503
 95
   393239
 70
     0
 93
      241
310
90C312F3422203D2031272D3022000000000000340FC000000000000284040
 94
        0
  0
ACAD_PROXY_OBJECT
  5
61
102
{ACAD_REACTORS
330
47
102
}
330
47
100
AcDbProxyObject
 90
      499
 91
      503
 95
   393239
 70
     0
 93
      241
310
90C332F3822203D2031272D3022000000000000360FC000000000000284040
 94
        0
  0
ACAD_PROXY_OBJECT
  5
62
102
{ACAD_REACTORS
330
47
102
}
330
47
100
AcDbProxyObject
 90
      499
 91
      503
 95
   393239
 70
     0
 93
      241
310
90C312F3222203D2031272D3022000000000000380FC000000000000284040
 94
        0
  0
ACAD_PROXY_OBJECT
  5
63
102
{ACAD_REACTORS
330
47
102
}
330
47
100
AcDbProxyObject
 90
      499
 91
      503
 95
   393239
 70
     0
 93
      241
310
90C332F3422203D2031272D30220000000000003A0FC000000000000284040
 94
        0
  0
ACAD_PROXY_OBJECT
  5
64
102
{ACAD_REACTORS
330
47
102
}
330
47
100
AcDbProxyObject
 90
      499
 91
      503
 95
   393239
 70
     0
 93
      161
310
90A3122203D2031272D30224000000000000284000
 94
        0
  0
ACAD_PROXY_OBJECT
  5
65
102
{ACAD_REACTORS
330
47
102
}
330
47
100
AcDbProxyObject
 90
      499
 91
      503
 95
   393239
 70
     0
 93
      257
310
90E312D312F3222203D2031272D30220000000000003E0FC000000000000284000
 94
        0
  0
ACAD_PROXY_OBJECT
  5
66
102
{ACAD_REACTORS
330
47
102
}
330
47
100
AcDbProxyObject
 90
      499
 91
      503
 95
   393239
 70
     0
 93
      225
310
90A3322203D2031272D302200000000000002100000000000000284028
 94
        0
  0
ACAD_PROXY_OBJECT
  5
67
102
{ACAD_REACTORS
330
47
102
}
330
47
100
AcDbProxyObject
 90
      499
 91
      503
 95
   393239
 70
     0
 93
      225
310
90A3622203D2031272D302200000000000006100000000000000284000
 94
        0
  0
ACAD_PROXY_OBJECT
  5
68
102
{ACAD_REACTORS
330
47
102
}
330
47
100
AcDbProxyObject
 90
      499
 91
      503
 95
   393239
 70
     0
 93
      249
310
90D31272D3022203D2031272D30220000000000000A100000000000000284000
 94
        0
  0
ENDSEC
  0
EOF
