  0
SECTION
  2
HEADER
  9
$ACADVER
  1
AC1018
  9
$ACADMAINTVER
 70
     0
  9
$DWGCODEPAGE
  3
ANSI_1252
  9
$INSBASE
 10
0.0
 20
0.0
 30
0.0
  9
$EXTMIN
 10
-9.58948332622235
 20
-11.03745846927693
 30
0.0
  9
$EXTMAX
 10
23.12607865971158
 20
29.1864437985101
 30
0.0
  9
$LIMMIN
 10
-100.0
 20
-100.0
  9
$LIMMAX
 10
100.0
 20
100.0
  9
$ORTHOMODE
 70
     0
  9
$REGENMODE
 70
     1
  9
$FILLMODE
 70
     1
  9
$QTEXTMODE
 70
     0
  9
$MIRRTEXT
 70
     1
  9
$LTSCALE
 40
1.0
  9
$ATTMODE
 70
     1
  9
$TEXTSIZE
 40
0.1377952755905512
  9
$TRACEWID
 40
0.05
  9
$TEXTSTYLE
  7
Standard
  9
$CLAYER
  8
0
  9
$CELTYPE
  6
ByLayer
  9
$CECOLOR
 62
   256
  9
$CELTSCALE
 40
1.0
  9
$DISPSILH
 70
     0
  9
$DIMSCALE
 40
1.0
  9
$DIMASZ
 40
0.13
  9
$DIMEXO
 40
0.0393700787401575
  9
$DIMDLI
 40
0.38
  9
$DIMRND
 40
0.0
  9
$DIMDLE
 40
0.0
  9
$DIMEXE
 40
0.0393700787401575
  9
$DIMTP
 40
0.0
  9
$DIMTM
 40
0.0
  9
$DIMTXT
 40
0.1377952755905512
  9
$DIMCEN
 40
0.09
  9
$DIMTSZ
 40
0.0
  9
$DIMTOL
 70
     0
  9
$DIMLIM
 70
     0
  9
$DIMTIH
 70
     1
  9
$DIMTOH
 70
     1
  9
$DIMSE1
 70
     0
  9
$DIMSE2
 70
     0
  9
$DIMTAD
 70
     1
  9
$DIMZIN
 70
     0
  9
$DIMBLK
  1

  9
$DIMASO
 70
     1
  9
$DIMSHO
 70
     1
  9
$DIMPOST
  1

  9
$DIMAPOST
  1

  9
$DIMALT
 70
     0
  9
$DIMALTD
 70
     2
  9
$DIMALTF
 40
25.4
  9
$DIMLFAC
 40
1.0
  9
$DIMTOFL
 70
     0
  9
$DIMTVP
 40
0.0
  9
$DIMTIX
 70
     0
  9
$DIMSOXD
 70
     0
  9
$DIMSAH
 70
     0
  9
$DIMBLK1
  1

  9
$DIMBLK2
  1

  9
$DIMSTYLE
  2
Standard
  9
$DIMCLRD
 70
     0
  9
$DIMCLRE
 70
     0
  9
$DIMCLRT
 70
     0
  9
$DIMTFAC
 40
1.0
  9
$DIMGAP
 40
0.06
  9
$DIMJUST
 70
     0
  9
$DIMSD1
 70
     0
  9
$DIMSD2
 70
     0
  9
$DIMTOLJ
 70
     1
  9
$DIMTZIN
 70
     0
  9
$DIMALTZ
 70
     0
  9
$DIMALTTZ
 70
     0
  9
$DIMUPT
 70
     0
  9
$DIMDEC
 70
     2
  9
$DIMTDEC
 70
     2
  9
$DIMALTU
 70
     2
  9
$DIMALTTD
 70
     2
  9
$DIMTXSTY
  7
Standard
  9
$DIMAUNIT
 70
     0
  9
$DIMADEC
 70
     2
  9
$DIMALTRND
 40
0.0
  9
$DIMAZIN
 70
     0
  9
$DIMDSEP
 70
    46
  9
$DIMATFIT
 70
     3
  9
$DIMFRAC
 70
     0
  9
$DIMLDRBLK
  1

  9
$DIMLUNIT
 70
     2
  9
$DIMLWD
 70
    -2
  9
$DIMLWE
 70
    -2
  9
$DIMTMOVE
 70
     0
  9
$LUNITS
 70
     2
  9
$LUPREC
 70
     2
  9
$SKETCHINC
 40
0.1
  9
$FILLETRAD
 40
0.5
  9
$AUNITS
 70
     0
  9
$AUPREC
 70
     2
  9
$MENU
  1
.
  9
$ELEVATION
 40
0.0
  9
$PELEVATION
 40
0.0
  9
$THICKNESS
 40
0.0
  9
$LIMCHECK
 70
     0
  9
$CHAMFERA
 40
0.0
  9
$CHAMFERB
 40
0.0
  9
$CHAMFERC
 40
0.0
  9
$CHAMFERD
 40
0.0
  9
$SKPOLY
 70
     0
  9
$TDCREATE
 40
2457060.553937477
  9
$TDUCREATE
 40
2457060.803937477
  9
$TDUPDATE
 40
2457064.335205220
  9
$TDUUPDATE
 40
2457064.585205220
  9
$TDINDWG
 40
0.0003748495
  9
$TDUSRTIMER
 40
0.0003748495
  9
$USRTIMER
 70
     1
  9
$ANGBASE
 50
0.0
  9
$ANGDIR
 70
     0
  9
$PDMODE
 70
     0
  9
$PDSIZE
 40
-1.0
  9
$PLINEWID
 40
0.0
  9
$SPLFRAME
 70
     0
  9
$SPLINETYPE
 70
     6
  9
$SPLINESEGS
 70
     8
  9
$HANDSEED
  5
242
  9
$SURFTAB1
 70
     6
  9
$SURFTAB2
 70
     6
  9
$SURFTYPE
 70
     6
  9
$SURFU
 70
     6
  9
$SURFV
 70
     6
  9
$UCSBASE
  2

  9
$UCSNAME
  2

  9
$UCSORG
 10
0.0
 20
0.0
 30
0.0
  9
$UCSXDIR
 10
1.0
 20
0.0
 30
0.0
  9
$UCSYDIR
 10
0.0
 20
1.0
 30
0.0
  9
$UCSORTHOREF
  2

  9
$UCSORTHOVIEW
 70
     0
  9
$UCSORGTOP
 10
0.0
 20
0.0
 30
0.0
  9
$UCSORGBOTTOM
 10
0.0
 20
0.0
 30
0.0
  9
$UCSORGLEFT
 10
0.0
 20
0.0
 30
0.0
  9
$UCSORGRIGHT
 10
0.0
 20
0.0
 30
0.0
  9
$UCSORGFRONT
 10
0.0
 20
0.0
 30
0.0
  9
$UCSORGBACK
 10
0.0
 20
0.0
 30
0.0
  9
$PUCSBASE
  2

  9
$PUCSNAME
  2

  9
$PUCSORG
 10
0.0
 20
0.0
 30
0.0
  9
$PUCSXDIR
 10
1.0
 20
0.0
 30
0.0
  9
$PUCSYDIR
 10
0.0
 20
1.0
 30
0.0
  9
$PUCSORTHOREF
  2

  9
$PUCSORTHOVIEW
 70
     0
  9
$PUCSORGTOP
 10
0.0
 20
0.0
 30
0.0
  9
$PUCSORGBOTTOM
 10
0.0
 20
0.0
 30
0.0
  9
$PUCSORGLEFT
 10
0.0
 20
0.0
 30
0.0
  9
$PUCSORGRIGHT
 10
0.0
 20
0.0
 30
0.0
  9
$PUCSORGFRONT
 10
0.0
 20
0.0
 30
0.0
  9
$PUCSORGBACK
 10
0.0
 20
0.0
 30
0.0
  9
$USERI1
 70
     0
  9
$USERI2
 70
     0
  9
$USERI3
 70
     0
  9
$USERI4
 70
     0
  9
$USERI5
 70
     0
  9
$USERR1
 40
0.0
  9
$USERR2
 40
0.0
  9
$USERR3
 40
0.0
  9
$USERR4
 40
0.0
  9
$USERR5
 40
0.0
  9
$WORLDVIEW
 70
     1
  9
$SHADEDGE
 70
     3
  9
$SHADEDIF
 70
    70
  9
$TILEMODE
 70
     1
  9
$MAXACTVP
 70
    64
  9
$PINSBASE
 10
0.0
 20
0.0
 30
0.0
  9
$PLIMCHECK
 70
     0
  9
$PEXTMIN
 10
1.000000000000000E+20
 20
1.000000000000000E+20
 30
1.000000000000000E+20
  9
$PEXTMAX
 10
-1.000000000000000E+20
 20
-1.000000000000000E+20
 30
-1.000000000000000E+20
  9
$PLIMMIN
 10
0.0
 20
0.0
  9
$PLIMMAX
 10
12.0
 20
9.0
  9
$UNITMODE
 70
     0
  9
$VISRETAIN
 70
     1
  9
$PLINEGEN
 70
     0
  9
$PSLTSCALE
 70
     1
  9
$TREEDEPTH
 70
  3020
  9
$CMLSTYLE
  2
Standard
  9
$CMLJUST
 70
     0
  9
$CMLSCALE
 40
1.0
  9
$PROXYGRAPHICS
 70
     1
  9
$MEASUREMENT
 70
     0
  9
$CELWEIGHT
370
    -1
  9
$ENDCAPS
280
     0
  9
$JOINSTYLE
280
     0
  9
$LWDISPLAY
290
     1
  9
$INSUNITS
 70
     1
  9
$HYPERLINKBASE
  1

  9
$STYLESHEET
  1

  9
$XEDIT
290
     1
  9
$CEPSNTYPE
380
     0
  9
$PSTYLEMODE
290
     1
  9
$FINGERPRINTGUID
  2
{AF6628F6-2D07-4D05-860B-5CBC67C63E53}
  9
$VERSIONGUID
  2
{DFC58744-AD72-4EA8-9CA1-2A5986159564}
  9
$EXTNAMES
290
     1
  9
$PSVPSCALE
 40
0.0
  9
$OLESTARTUP
290
     0
  9
$SORTENTS
280
   127
  9
$INDEXCTL
280
     0
  9
$HIDETEXT
280
     0
  9
$XCLIPFRAME
290
     0
  9
$HALOGAP
280
     0
  9
$OBSCOLOR
 70
   257
  9
$OBSLTYPE
280
     0
  9
$INTERSECTIONDISPLAY
280
     0
  9
$INTERSECTIONCOLOR
 70
   257
  9
$DIMASSOC
280
     1
  9
$PROJECTNAME
  1

  0
ENDSEC
  0
SECTION
  2
CLASSES
  0
CLASS
  1
ACDBDICTIONARYWDFLT
  2
AcDbDictionaryWithDefault
  3
ObjectDBX Classes
 90
        0
 91
        1
280
     0
281
     0
  0
CLASS
  1
VISUALSTYLE
  2
AcDbVisualStyle
  3
ObjectDBX Classes
 90
     4095
 91
        0
280
     0
281
     0
  0
CLASS
  1
MATERIAL
  2
AcDbMaterial
  3
ObjectDBX Classes
 90
        0
 91
        0
280
     0
281
     0
  0
CLASS
  1
SCALE
  2
AcDbScale
  3
ObjectDBX Classes
 90
     1153
 91
       33
280
     0
281
     0
  0
CLASS
  1
SUN
  2
AcDbSun
  3
SCENEOE
 90
     1153
 91
        1
280
     0
281
     0
  0
CLASS
  1
ACDBPLACEHOLDER
  2
AcDbPlaceHolder
  3
ObjectDBX Classes
 90
        0
 91
        1
280
     0
281
     0
  0
CLASS
  1
LAYOUT
  2
AcDbLayout
  3
ObjectDBX Classes
 90
        0
 91
        3
280
     0
281
     0
  0
ENDSEC
  0
SECTION
  2
TABLES
  0
TABLE
  2
VPORT
  5
8
330
0
100
AcDbSymbolTable
 70
     5
  0
VPORT
  5
241
330
8
100
AcDbSymbolTableRecord
100
AcDbViewportTableRecord
  2
*Active
 70
     0
 10
0.0
 20
0.0
 11
1.0
 21
1.0
 12
4.994875570422877
 22
11.22347620630441
 13
0.0
 23
0.0
 14
0.5
 24
0.5
 15
0.5
 25
0.5
 16
0.0
 26
0.0
 36
1.0
 17
0.0
 27
0.0
 37
0.0
 40
62.30724001033028
 41
2.240490797546011
 42
50.0
 43
0.0
 44
0.0
 50
0.0
 51
0.0
 71
     0
 72
  2000
 73
     1
 74
     3
 75
     0
 76
     0
 77
     0
 78
     0
281
     0
 65
     1
110
0.0
120
0.0
130
0.0
111
1.0
121
0.0
131
0.0
112
0.0
122
1.0
132
0.0
 79
     0
146
0.0
  0
ENDTAB
  0
TABLE
  2
LTYPE
  5
5
330
0
100
AcDbSymbolTable
 70
     6
  0
LTYPE
  5
14
330
5
100
AcDbSymbolTableRecord
100
AcDbLinetypeTableRecord
  2
ByBlock
 70
     0
  3

 72
    65
 73
     0
 40
0.0
  0
LTYPE
  5
15
330
5
100
AcDbSymbolTableRecord
100
AcDbLinetypeTableRecord
  2
ByLayer
 70
     0
  3

 72
    65
 73
     0
 40
0.0
  0
LTYPE
  5
16
330
5
100
AcDbSymbolTableRecord
100
AcDbLinetypeTableRecord
  2
Continuous
 70
     0
  3
Solid line
 72
    65
 73
     0
 40
0.0
  0
LTYPE
  5
6A
330
5
100
AcDbSymbolTableRecord
100
AcDbLinetypeTableRecord
  2
HIDDEN
 70
     0
  3
Hidden __ __ __ __ __ __ __ __ __ __ __ __ __ __
 72
    65
 73
     2
 40
0.075
 49
0.05
 74
     0
 49
-0.025
 74
     0
  0
LTYPE
  5
6B
330
5
100
AcDbSymbolTableRecord
100
AcDbLinetypeTableRecord
  2
PHANTOM
 70
     0
  3
Phantom ______  __  __  ______  __  __  ______
 72
    65
 73
     6
 40
0.5
 49
0.25
 74
     0
 49
-0.05
 74
     0
 49
0.05
 74
     0
 49
-0.05
 74
     0
 49
0.05
 74
     0
 49
-0.05
 74
     0
  0
LTYPE
  5
6C
330
5
100
AcDbSymbolTableRecord
100
AcDbLinetypeTableRecord
  2
CENTER
 70
     0
  3
Center ____ _ ____ _ ____ _ ____ _ ____ _ ____
 72
    65
 73
     4
 40
0.4
 49
0.25
 74
     0
 49
-0.05
 74
     0
 49
0.05
 74
     0
 49
-0.05
 74
     0
  0
LTYPE
  5
6D
330
5
100
AcDbSymbolTableRecord
100
AcDbLinetypeTableRecord
  2
CENTERX2
 70
     0
  3
Center (2x) ________  __  ________  __  _____
 72
    65
 73
     4
 40
0.8
 49
0.5
 74
     0
 49
-0.1
 74
     0
 49
0.1
 74
     0
 49
-0.1
 74
     0
  0
LTYPE
  5
6E
330
5
100
AcDbSymbolTableRecord
100
AcDbLinetypeTableRecord
  2
DOT2
 70
     0
  3
Dot (.5x) ........................................
 72
    65
 73
     2
 40
0.025
 49
0.0
 74
     0
 49
-0.025
 74
     0
  0
ENDTAB
  0
TABLE
  2
LAYER
  5
2
330
0
100
AcDbSymbolTable
 70
     1
  0
LAYER
  5
10
330
2
100
AcDbSymbolTableRecord
100
AcDbLayerTableRecord
  2
0
 70
     0
 62
     7
  6
Continuous
370
    -3
390
F
  0
ENDTAB
  0
TABLE
  2
STYLE
  5
3
330
0
100
AcDbSymbolTable
 70
     1
  0
STYLE
  5
11
330
3
100
AcDbSymbolTableRecord
100
AcDbTextStyleTableRecord
  2
Standard
 70
     0
 40
0.0
 41
1.0
 50
0.0
 71
     0
 42
0.1377952755905512
  3
txt
  4

  0
ENDTAB
  0
TABLE
  2
VIEW
  5
6
330
0
100
AcDbSymbolTable
 70
     0
  0
ENDTAB
  0
TABLE
  2
UCS
  5
7
330
0
100
AcDbSymbolTable
 70
     0
  0
ENDTAB
  0
TABLE
  2
APPID
  5
9
330
0
100
AcDbSymbolTable
 70
     1
  0
APPID
  5
12
330
9
100
AcDbSymbolTableRecord
100
AcDbRegAppTableRecord
  2
ACAD
 70
     0
  0
ENDTAB
  0
TABLE
  2
DIMSTYLE
  5
A
330
0
100
AcDbSymbolTable
 70
     1
100
AcDbDimStyleTable
 71
     0
  0
DIMSTYLE
105
27
330
A
100
AcDbSymbolTableRecord
100
AcDbDimStyleTableRecord
  2
Standard
 70
     0
340
11
  0
ENDTAB
  0
TABLE
  2
BLOCK_RECORD
  5
1
330
0
100
AcDbSymbolTable
 70
     1
  0
BLOCK_RECORD
  5
1F
330
1
100
AcDbSymbolTableRecord
100
AcDbBlockTableRecord
  2
*Model_Space
340
22
  0
BLOCK_RECORD
  5
1B
330
1
100
AcDbSymbolTableRecord
100
AcDbBlockTableRecord
  2
*Paper_Space
340
1E
  0
BLOCK_RECORD
  5
23
330
1
100
AcDbSymbolTableRecord
100
AcDbBlockTableRecord
  2
*Paper_Space0
340
26
  0
ENDTAB
  0
ENDSEC
  0
SECTION
  2
BLOCKS
  0
BLOCK
  5
20
330
1F
100
AcDbEntity
  8
0
100
AcDbBlockBegin
  2
*Model_Space
 70
     0
 10
0.0
 20
0.0
 30
0.0
  3
*Model_Space
  1

  0
ENDBLK
  5
21
330
1F
100
AcDbEntity
  8
0
100
AcDbBlockEnd
  0
BLOCK
  5
1C
330
1B
100
AcDbEntity
 67
     1
  8
0
100
AcDbBlockBegin
  2
*Paper_Space
 70
     0
 10
0.0
 20
0.0
 30
0.0
  3
*Paper_Space
  1

  0
ENDBLK
  5
1D
330
1B
100
AcDbEntity
 67
     1
  8
0
100
AcDbBlockEnd
  0
BLOCK
  5
24
330
23
100
AcDbEntity
  8
0
100
AcDbBlockBegin
  2
*Paper_Space0
 70
     0
 10
0.0
 20
0.0
 30
0.0
  3
*Paper_Space0
  1

  0
ENDBLK
  5
25
330
23
100
AcDbEntity
  8
0
100
AcDbBlockEnd
  0
ENDSEC
  0
SECTION
  2
ENTITIES
  0
LINE
  5
6F
330
1F
100
AcDbEntity
  8
0
  6
Continuous
 62
     7
370
     5
100
AcDbLine
 10
6.278119747461639
 20
-10.66763436021429
 30
0.0
 11
7.604747076086672
 21
-11.02818324194944
 31
0.0
  0
LINE
  5
70
330
1F
100
AcDbEntity
  8
0
  6
Continuous
 62
     7
370
     5
100
AcDbLine
 10
13.43614011782137
 20
28.74818645565371
 30
0.0
 11
11.88840892622901
 21
29.16882662966068
 31
0.0
  0
LINE
  5
71
330
1F
100
AcDbEntity
  8
0
  6
Continuous
 62
     7
370
     5
100
AcDbLine
 10
-9.58948332622235
 20
12.31929636413941
 30
0.0
 11
-9.58948332622235
 21
11.03354539719565
 31
0.0
  0
LINE
  5
72
330
1F
100
AcDbEntity
  8
0
  6
Continuous
 62
     7
370
     5
100
AcDbLine
 10
-9.58948332622235
 20
13.60504733108317
 30
0.0
 11
-9.58948332622235
 21
12.31929636413941
 31
0.0
  0
LINE
  5
73
330
1F
100
AcDbEntity
  8
0
  6
Continuous
 62
     7
370
     5
100
AcDbLine
 10
-9.58948332622235
 20
13.80695369783643
 30
0.0
 11
-9.58948332622235
 21
13.60504733108317
 31
0.0
  0
LINE
  5
74
330
1F
100
AcDbEntity
  8
0
  6
Continuous
 62
     7
370
     5
100
AcDbLine
 10
6.895685826868825
 20
9.304117210874688
 30
0.0
 11
6.908113385243523
 21
9.300739666798811
 31
0.0
  0
LINE
  5
75
330
1F
100
AcDbEntity
  8
0
  6
Continuous
 62
     7
370
     5
100
AcDbLine
 10
6.926406351311007
 20
9.354665597283505
 30
0.0
 11
6.912629776078669
 21
9.358409775235354
 31
0.0
  0
LINE
  5
76
330
1F
100
AcDbEntity
  8
0
  6
Continuous
 62
     7
370
     5
100
AcDbLine
 10
6.898547976310008
 20
9.258599954798111
 30
0.0
 11
6.90940444889819
 21
9.25564939817471
 31
0.0
  0
LINE
  5
77
330
1F
100
AcDbEntity
  8
0
  6
Continuous
 62
     7
370
     5
100
AcDbLine
 10
6.923844621465834
 20
9.296668637496832
 30
0.0
 11
6.906570979456381
 21
9.301363243265624
 31
0.0
  0
LINE
  5
78
330
1F
100
AcDbEntity
  8
0
  6
Continuous
 62
     7
370
     5
100
AcDbLine
 10
6.935883641315395
 20
9.351903146184939
 30
0.0
 11
6.953157283324848
 21
9.347208540416147
 31
0.0
  0
LINE
  5
79
330
1F
100
AcDbEntity
  8
0
  6
Continuous
 62
     7
370
     5
100
AcDbLine
 10
6.968138057140746
 20
9.39609248474496
 30
0.0
 11
6.957414410827778
 21
9.399006942032878
 31
0.0
  0
LINE
  5
7A
330
1F
100
AcDbEntity
  8
0
  6
Continuous
 62
     7
370
     5
100
AcDbLine
 10
6.888784474662075
 20
9.056010753825004
 30
0.0
 11
6.899624343965854
 21
9.053064709618542
 31
0.0
  0
LINE
  5
7B
330
1F
100
AcDbEntity
  8
0
  6
Continuous
 62
     7
370
     5
100
AcDbLine
 10
6.980794750536042
 20
9.387665891516466
 30
0.0
 11
6.998068392545496
 21
9.382971285747673
 31
0.0
  0
LINE
  5
7C
330
1F
100
AcDbEntity
  8
0
  6
Continuous
 62
     7
370
     5
100
AcDbLine
 10
7.015410617749694
 20
9.441893775940911
 30
0.0
 11
7.004471128739503
 21
9.444866894648985
 31
0.0
  0
LINE
  5
7D
330
1F
100
AcDbEntity
  8
0
  6
Continuous
 62
     7
370
     5
100
AcDbLine
 10
6.893272158498667
 20
8.668081837509646
 30
0.0
 11
6.904089198286395
 21
8.665141997876466
 31
0.0
  0
LINE
  5
7E
330
1F
100
AcDbEntity
  8
0
  6
Continuous
 62
     7
370
     5
100
AcDbLine
 10
6.965574273859583
 20
8.805718369041713
 30
0.0
 11
6.955570795007539
 21
8.808437100245074
 31
0.0
  0
LINE
  5
7F
330
1F
100
AcDbEntity
  8
0
  6
Continuous
 62
     7
370
     5
100
AcDbLine
 10
6.945069982131912
 20
8.712665710856844
 30
0.0
 11
6.953672558862558
 21
8.710327714832377
 31
0.0
  0
LINE
  5
80
330
1F
100
AcDbEntity
  8
0
  6
Continuous
 62
     7
370
     5
100
AcDbLine
 10
7.013967462936046
 20
8.851549364210372
 30
0.0
 11
7.002224790042921
 21
8.85474077108768
 31
0.0
  0
LINE
  5
81
330
1F
100
AcDbEntity
  8
0
  6
Continuous
 62
     7
370
     5
100
AcDbLine
 10
7.286179132950127
 20
6.834759924448018
 30
0.0
 11
7.286179132950127
 21
8.594180757875886
 31
0.0
  0
LINE
  5
82
330
1F
100
AcDbEntity
  8
0
  6
Continuous
 62
     7
370
     5
100
AcDbLine
 10
7.214702005409264
 20
6.760546552918667
 30
0.0
 11
7.237738036365665
 21
6.781047188582277
 31
0.0
  0
LINE
  5
83
330
1F
100
AcDbEntity
  8
0
  6
Continuous
 62
     7
370
     5
100
AcDbLine
 10
5.946971228948864
 20
6.30951009012373
 30
0.0
 11
6.008457341909577
 21
6.292799482109042
 31
0.0
  0
LINE
  5
84
330
1F
100
AcDbEntity
  8
0
  6
Continuous
 62
     7
370
     5
100
AcDbLine
 10
7.141888853236054
 20
5.984757083830023
 30
0.0
 11
7.273598557573897
 21
5.948961208388579
 31
0.0
  0
LINE
  5
85
330
1F
100
AcDbEntity
  8
0
  6
Continuous
 62
     7
370
     5
100
AcDbLine
 10
7.273598557573897
 20
5.948961208388579
 30
0.0
 11
7.273598557573897
 21
-10.68527836152854
 31
0.0
  0
LINE
  5
86
330
1F
100
AcDbEntity
  8
0
  6
Continuous
 62
     7
370
     5
100
AcDbLine
 10
5.946971228948864
 20
-10.32472947979339
 30
0.0
 11
7.273598557573897
 21
-10.68527836152854
 31
0.0
  0
LINE
  5
87
330
1F
100
AcDbEntity
  8
0
  6
Continuous
 62
     7
370
     5
100
AcDbLine
 10
5.946971228948864
 20
6.30951009012373
 30
0.0
 11
5.946971228948864
 21
-10.32472947979339
 31
0.0
  0
LINE
  5
88
330
1F
100
AcDbEntity
  8
0
  6
Continuous
 62
     7
370
     5
100
AcDbLine
 10
9.840423114332768
 20
5.251353048368743
 30
0.0
 11
9.840423114332768
 21
-8.663705510869064
 31
0.0
  0
SPLINE
  5
89
330
1F
100
AcDbEntity
  8
0
  6
Continuous
 62
     7
370
     5
100
AcDbSpline
210
0.0
220
0.0
230
1.0
 70
     8
 71
     3
 72
    31
 73
    27
 74
     0
 42
0.0000000001
 43
0.0000000001
 40
0.0
 40
0.0
 40
0.0
 40
0.0
 40
0.0534153407932279
 40
0.1010251435603127
 40
0.1437195124256308
 40
0.1824431020246553
 40
0.2181711007918606
 40
0.2518610782014701
 40
0.2843886690238201
 40
0.3264972359239194
 40
0.3690164218395975
 40
0.4125643466089001
 40
0.4573062964473397
 40
0.503083796281199
 40
0.5495326327429612
 40
0.5961780918130783
 40
0.6425150669180581
 40
0.6880826661714663
 40
0.7325471921342752
 40
0.7758008527609516
 40
0.8180847633686134
 40
0.8516923139951236
 40
0.8857579829154206
 40
0.9211326831137432
 40
0.9588409205901832
 40
1.0
 40
1.0
 40
1.0
 40
1.0
 10
7.273598557573897
 20
-10.68527836152854
 30
0.0
 10
7.302052164889339
 20
-10.73550153520091
 30
0.0
 10
7.355866850355412
 20
-10.83048929068386
 30
0.0
 10
7.445161261091651
 20
-10.93600781771119
 30
0.0
 10
7.53479770719525
 20
-11.00495812175109
 30
0.0
 10
7.625472122717042
 20
-11.03837386399709
 30
0.0
 10
7.716927797696864
 20
-11.03918435822322
 30
0.0
 10
7.809025826647972
 20
-11.01001862003861
 30
0.0
 10
7.910922919677223
 20
-10.94818140851775
 30
0.0
 10
8.023422260923382
 20
-10.84661359014247
 30
0.0
 10
8.145586446768213
 20
-10.7020343372686
 30
0.0
 10
8.267572250521938
 20
-10.53030527769167
 30
0.0
 10
8.389485413912078
 20
-10.33778554918808
 30
0.0
 10
8.511404774477153
 20
-10.1306299775508
 30
0.0
 10
8.633340697539374
 20
-9.914930439063109
 30
0.0
 10
8.755266286619331
 20
-9.696787135360507
 30
0.0
 10
8.877141317650792
 20
-9.48229876316404
 30
0.0
 10
8.998944264925473
 20
-9.277567201627176
 30
0.0
 10
9.120699390640037
 20
-9.088678473364614
 30
0.0
 10
9.242483340152478
 20
-8.921818696804248
 30
0.0
 10
9.356405484731716
 20
-8.792540328465472
 30
0.0
 10
9.461702045608287
 20
-8.700690118187754
 30
0.0
 10
9.558671516499659
 20
-8.642164572797964
 30
0.0
 10
9.655015634218113
 20
-8.614094616970691
 30
0.0
 10
9.751202069096983
 20
-8.61759277609295
 30
0.0
 10
9.809827710328237
 20
-8.647892674934437
 30
0.0
 10
9.840423114332768
 20
-8.663705510869064
 30
0.0
  0
LINE
  5
8A
330
1F
100
AcDbEntity
  8
0
  6
Continuous
 62
     7
370
     5
100
AcDbLine
 10
9.683686034169859
 20
-8.621107730950164
 30
0.0
 11
9.840423114332768
 21
-8.663705510869064
 31
0.0
  0
SPLINE
  5
8B
330
1F
100
AcDbEntity
  8
0
  6
Continuous
 62
     7
370
     5
100
AcDbSpline
210
0.0
220
0.0
230
1.0
 70
     8
 71
     3
 72
    11
 73
     7
 74
     0
 42
0.0000000001
 43
0.0000000001
 40
0.0
 40
0.0
 40
0.0
 40
0.0
 40
0.1657005902826701
 40
0.4135436711657948
 40
0.6899211071516797
 40
1.0
 40
1.0
 40
1.0
 40
1.0
 10
6.278974387520602
 20
-10.66463788291865
 30
0.0
 10
6.256502144338739
 20
-10.65800051465628
 30
0.0
 10
6.200417528533171
 20
-10.64143544609851
 30
0.0
 10
6.11877116058955
 20
-10.57460013254321
 30
0.0
 10
6.029168696447981
 20
-10.4701968077049
 30
0.0
 10
5.975400340377666
 20
-10.37504133246076
 30
0.0
 10
5.946971228948864
 20
-10.32472947979339
 30
0.0
  0
LINE
  5
8C
330
1F
100
AcDbEntity
  8
0
  6
Continuous
 62
     7
370
     5
100
AcDbLine
 10
-2.505070149754963
 20
8.112527917601159
 30
0.0
 11
-0.9573389581626049
 21
7.691887743594187
 31
0.0
  0
SPLINE
  5
8D
330
1F
100
AcDbEntity
  8
0
  6
Continuous
 62
     7
370
     5
100
AcDbSpline
210
0.0
220
0.0
230
1.0
 70
     8
 71
     3
 72
    14
 73
    10
 74
     0
 42
0.0000000001
 43
0.0000000001
 40
0.0
 40
0.0
 40
0.0
 40
0.0
 40
0.1674645637010036
 40
0.3226263702235355
 40
0.4680772632818532
 40
0.6063433393528795
 40
0.7397732058133819
 40
0.8704283407337433
 40
1.0
 40
1.0
 40
1.0
 40
1.0
 10
-0.9573389581626049
 20
7.691887743594187
 30
0.0
 10
-0.9903840713730954
 20
7.565155303900195
 30
0.0
 10
-1.054046643878667
 20
7.321000802766175
 30
0.0
 10
-1.127481115282147
 20
6.965259304542011
 30
0.0
 10
-1.180667490236066
 20
6.635450169600576
 30
0.0
 10
-1.214156641935204
 20
6.329410546056795
 30
0.0
 10
-1.229463863704684
 20
6.045892374206403
 30
0.0
 10
-1.229369734028806
 20
5.781511883787903
 30
0.0
 10
-1.21721235781576
 20
5.620322465806845
 30
0.0
 10
-1.21115897882697
 20
5.540063319513897
 30
0.0
  0
LINE
  5
8E
330
1F
100
AcDbEntity
  8
0
  6
Continuous
 62
     7
370
     5
100
AcDbLine
 10
-1.21115897882697
 20
5.540063319513897
 30
0.0
 11
-1.708645264766634
 21
5.67526943219064
 31
0.0
  0
SPLINE
  5
8F
330
1F
100
AcDbEntity
  8
0
  6
Continuous
 62
     7
370
     5
100
AcDbSpline
210
0.0
220
0.0
230
1.0
 70
     8
 71
     3
 72
    28
 73
    24
 74
     0
 42
0.0000000001
 43
0.0000000001
 40
0.0
 40
0.0
 40
0.0
 40
0.0
 40
0.0398388292123979
 40
0.0801163107780675
 40
0.121014293644272
 40
0.1736141474732051
 40
0.227058836407388
 40
0.2809813887500112
 40
0.3349310467955015
 40
0.3884577942638195
 40
0.4411979589287593
 40
0.4929676316769749
 40
0.5375495510489771
 40
0.5817897422444541
 40
0.6262855587428657
 40
0.671570327151806
 40
0.7177730339470307
 40
0.7647266352239531
 40
0.8120802324018626
 40
0.8593940347921233
 40
0.9072174314688183
 40
0.9541502530595375
 40
0.9999999999999998
 40
0.9999999999999998
 40
0.9999999999999998
 40
0.9999999999999998
 10
-1.708645264766634
 20
5.67526943219064
 30
0.0
 10
-1.698094556994604
 20
5.583123401080465
 30
0.0
 10
-1.676876971048855
 20
5.397816748969049
 30
0.0
 10
-1.624354657094431
 20
5.147018226707211
 30
0.0
 10
-1.554455633642479
 20
4.889714001738346
 30
0.0
 10
-1.464876780575961
 20
4.629593385928131
 30
0.0
 10
-1.358216665674697
 20
4.364055550070665
 30
0.0
 10
-1.24615882189522
 20
4.105207078697385
 30
0.0
 10
-1.134115386452865
 20
3.846094579415708
 30
0.0
 10
-1.02743101944324
 20
3.579829900068495
 30
0.0
 10
-0.9314935388207866
 20
3.299425389197593
 30
0.0
 10
-0.8549710197845673
 20
3.009930786030025
 30
0.0
 10
-0.800663946401419
 20
2.708514459261227
 30
0.0
 10
-0.7693129848652827
 20
2.394363177348055
 30
0.0
 10
-0.7631498080921853
 20
2.049163343796446
 30
0.0
 10
-0.7781978013131298
 20
1.679470396625327
 30
0.0
 10
-0.8086844688335045
 20
1.291824914207715
 30
0.0
 10
-0.8495520506414969
 20
0.8921834552070178
 30
0.0
 10
-0.8956452506436773
 20
0.4866826294014228
 30
0.0
 10
-0.9423937341466348
 20
0.0784496877196582
 30
0.0
 10
-0.98406319499146
 20
-0.3257107253737379
 30
0.0
 10
-1.017220351308069
 20
-0.7212077325107897
 30
0.0
 10
-1.024814684303219
 20
-0.9710016859464023
 30
0.0
 10
-1.028567525505195
 20
-1.094440708314394
 30
0.0
  0
LINE
  5
90
330
1F
100
AcDbEntity
  8
0
  6
Continuous
 62
     7
370
     5
100
AcDbLine
 10
-1.028567525505195
 20
-1.094440708314394
 30
0.0
 11
-0.5310812395655313
 21
-1.229646820991137
 31
0.0
  0
SPLINE
  5
91
330
1F
100
AcDbEntity
  8
0
  6
Continuous
 62
     7
370
     5
100
AcDbSpline
210
0.0
220
0.0
230
1.0
 70
     8
 71
     3
 72
    14
 73
    10
 74
     0
 42
0.0000000001
 43
0.0000000001
 40
0.0
 40
0.0
 40
0.0
 40
0.0
 40
0.1374855956558978
 40
0.2736607464299363
 40
0.409809150043248
 40
0.5478184498315346
 40
0.6901620150306137
 40
0.8397977826297482
 40
1.0
 40
1.0
 40
1.0
 40
1.0
 10
-0.5310812395655313
 20
-1.229646820991137
 30
0.0
 10
-0.5312164633183781
 20
-1.311100217857574
 30
0.0
 10
-0.5314856219379657
 20
-1.473230637989101
 30
0.0
 10
-0.5169769878949931
 20
-1.700408996632154
 30
0.0
 10
-0.4890431540558758
 20
-1.910678233038707
 30
0.0
 10
-0.4449092995200675
 20
-2.100846213010289
 30
0.0
 10
-0.3826903332394138
 20
-2.267818946139208
 30
0.0
 10
-0.3015268230934446
 20
-2.411766208404492
 30
0.0
 10
-0.233738568055589
 20
-2.480256690158678
 30
0.0
 10
-0.1986885441865207
 20
-2.515669801455735
 30
0.0
  0
LINE
  5
92
330
1F
100
AcDbEntity
  8
0
  6
Continuous
 62
     7
370
     5
100
AcDbLine
 10
-1.746419735778879
 20
-2.095029627448762
 30
0.0
 11
-0.1986885441865207
 21
-2.51566980145573
 31
0.0
  0
SPLINE
  5
93
330
1F
100
AcDbEntity
  8
0
  6
Continuous
 62
     7
370
     5
100
AcDbSpline
210
0.0
220
0.0
230
1.0
 70
     8
 71
     3
 72
    14
 73
    10
 74
     0
 42
0.0000000001
 43
0.0000000001
 40
0.0
 40
0.0
 40
0.0
 40
0.0
 40
0.1374855956558978
 40
0.2736607464299363
 40
0.409809150043248
 40
0.5478184498315346
 40
0.6901620150306137
 40
0.8397977826297482
 40
1.0
 40
1.0
 40
1.0
 40
1.0
 10
-2.078812431157889
 20
-0.809006646984165
 30
0.0
 10
-2.078947654910736
 20
-0.8904600438506065
 30
0.0
 10
-2.079216813530324
 20
-1.052590463982128
 30
0.0
 10
-2.064708179487347
 20
-1.279768822625186
 30
0.0
 10
-2.036774345648242
 20
-1.490038059031735
 30
0.0
 10
-1.992640491112421
 20
-1.680206039003321
 30
0.0
 10
-1.930421524831776
 20
-1.847178772132235
 30
0.0
 10
-1.849258014685803
 20
-1.991126034397524
 30
0.0
 10
-1.781469759647947
 20
-2.059616516151705
 30
0.0
 10
-1.746419735778879
 20
-2.095029627448762
 30
0.0
  0
LINE
  5
94
330
1F
100
AcDbEntity
  8
0
  6
Continuous
 62
     7
370
     5
100
AcDbLine
 10
-2.078812431157889
 20
-0.809006646984165
 30
0.0
 11
-1.581328220628777
 21
-0.944212195608787
 31
0.0
  0
SPLINE
  5
95
330
1F
100
AcDbEntity
  8
0
  6
Continuous
 62
     7
370
     5
100
AcDbSpline
210
0.0
220
0.0
230
1.0
 70
     8
 71
     3
 72
    28
 73
    24
 74
     0
 42
0.0000000001
 43
0.0000000001
 40
0.0
 40
0.0
 40
0.0
 40
0.0
 40
0.0458491095520604
 40
0.092781278697823
 40
0.1406040105490735
 40
0.1936064122079942
 40
0.2465904329709521
 40
0.2989546800847481
 40
0.350272015899638
 40
0.3897996660961453
 40
0.4288240973221122
 40
0.4677772133997023
 40
0.5070392214001295
 40
0.558808174463043
 40
0.6115476059512148
 40
0.6650736093079442
 40
0.7190225173626791
 40
0.772944320091362
 40
0.8263882660547075
 40
0.8789873886574286
 40
0.9198848029730589
 40
0.9601617246141636
 40
1.0
 40
1.0
 40
1.0
 40
1.0
 10
-1.581328220628777
 20
-0.944212195608787
 30
0.0
 10
-1.577575282932589
 20
-0.8207730763994279
 30
0.0
 10
-1.569980754669603
 20
-0.5709789269934691
 30
0.0
 10
-1.53682509890225
 20
-0.1754834258042247
 30
0.0
 10
-1.493480896612881
 20
0.2448680632976441
 30
0.0
 10
-1.44272355050523
 20
0.6856944335968073
 30
0.0
 10
-1.391622127909766
 20
1.138875708348596
 30
0.0
 10
-1.348555559379315
 20
1.583028888037118
 30
0.0
 10
-1.322717423503448
 20
1.980178237320648
 30
0.0
 10
-1.316179959231439
 20
2.326453310404663
 30
0.0
 10
-1.328390042147336
 20
2.62167039989137
 30
0.0
 10
-1.359345609046078
 20
2.893284157617318
 30
0.0
 10
-1.41046001025772
 20
3.170479477522448
 30
0.0
 10
-1.48425481569914
 20
3.449656503384864
 30
0.0
 10
-1.58019155489654
 20
3.730057698763188
 30
0.0
 10
-1.686876125007857
 20
3.996323286337212
 30
0.0
 10
-1.798919505344825
 20
4.255435539199469
 30
0.0
 10
-1.910977363898328
 20
4.514284076639032
 30
0.0
 10
-2.017637474879713
 20
4.779821894967625
 30
0.0
 10
-2.107216328930943
 20
5.039942515181325
 30
0.0
 10
-2.17711535217944
 20
5.297246739240316
 30
0.0
 10
-2.229637666181896
 20
5.548045261716965
 30
0.0
 10
-2.250855252121334
 20
5.733351913800126
 30
0.0
 10
-2.261405959890216
 20
5.825497944896246
 30
0.0
  0
LINE
  5
96
330
1F
100
AcDbEntity
  8
0
  6
Continuous
 62
     7
370
     5
100
AcDbLine
 10
-2.261405959890216
 20
5.825497944896246
 30
0.0
 11
-2.758890170419328
 21
5.96070349352087
 31
0.0
  0
SPLINE
  5
97
330
1F
100
AcDbEntity
  8
0
  6
Continuous
 62
     7
370
     5
100
AcDbSpline
210
0.0
220
0.0
230
1.0
 70
     8
 71
     3
 72
    14
 73
    10
 74
     0
 42
0.0000000001
 43
0.0000000001
 40
0.0
 40
0.0
 40
0.0
 40
0.0
 40
0.1674645637010036
 40
0.3226263702235355
 40
0.4680772632818532
 40
0.6063433393528795
 40
0.7397732058133819
 40
0.8704283407337433
 40
1.0
 40
1.0
 40
1.0
 40
1.0
 10
-2.505070149754963
 20
8.112527917601159
 30
0.0
 10
-2.538115262965453
 20
7.985795477907168
 30
0.0
 10
-2.601777835471026
 20
7.741640976773146
 30
0.0
 10
-2.675212306874501
 20
7.385899478548981
 30
0.0
 10
-2.728398681828438
 20
7.056090343607549
 30
0.0
 10
-2.761887833527549
 20
6.750050720063761
 30
0.0
 10
-2.77719505529706
 20
6.466532548213375
 30
0.0
 10
-2.77710092562116
 20
6.202152057794873
 30
0.0
 10
-2.764943549408114
 20
6.040962639813815
 30
0.0
 10
-2.758890170419328
 20
5.96070349352087
 30
0.0
  0
SPLINE
  5
98
330
1F
100
AcDbEntity
  8
0
  6
Continuous
 62
     7
370
     5
100
AcDbSpline
210
0.0
220
0.0
230
1.0
 70
     8
 71
     3
 72
    15
 73
    11
 74
     0
 42
0.0000000001
 43
0.0000000001
 40
0.0
 40
0.0
 40
0.0
 40
0.0
 40
0.1247703663784631
 40
0.248526558780654
 40
0.3620718282091508
 40
0.4776251357005798
 40
0.5970511111000058
 40
0.7224401919525017
 40
0.8560097321469521
 40
1.0
 40
1.0
 40
1.0
 40
1.0
 10
13.91229359305653
 20
27.87652108691617
 30
0.0
 10
13.90302967633148
 20
27.94514216601088
 30
0.0
 10
13.88457714299897
 20
28.0818265498292
 30
0.0
 10
13.84205036765887
 20
28.25792820538825
 30
0.0
 10
13.7886159696263
 20
28.4083023389644
 30
0.0
 10
13.72339685714685
 20
28.53208149729676
 30
0.0
 10
13.64391890169617
 20
28.6322652157396
 30
0.0
 10
13.54890221215431
 20
28.70629234813449
 30
0.0
 10
13.43782343535633
 20
28.75461824719065
 30
0.0
 10
13.35450223115081
 20
28.7619829978034
 30
0.0
 10
13.31127752006678
 20
28.76580362450313
 30
0.0
  0
LINE
  5
99
330
1F
100
AcDbEntity
  8
0
  6
Continuous
 62
     7
370
     5
100
AcDbLine
 10
13.91229359305653
 20
27.87652108691617
 30
0.0
 11
-1.21115897882697
 21
5.540063319513897
 31
0.0
  0
LINE
  5
9A
330
1F
100
AcDbEntity
  8
0
  6
Continuous
 62
     7
370
     5
100
AcDbLine
 10
-0.9573389581626049
 20
7.691887743594187
 30
0.0
 11
13.31127752006678
 21
28.76580362450313
 31
0.0
  0
LINE
  5
9B
330
1F
100
AcDbEntity
  8
0
  6
Continuous
 62
     7
370
     5
100
AcDbLine
 10
11.76354632847442
 20
29.1864437985101
 30
0.0
 11
13.31127752006678
 21
28.76580362450313
 31
0.0
  0
LINE
  5
9C
330
1F
100
AcDbEntity
  8
0
  6
Continuous
 62
     7
370
     5
100
AcDbLine
 10
-2.505070149754963
 20
8.112527917601159
 30
0.0
 11
11.76354632847442
 21
29.1864437985101
 31
0.0
  0
SPLINE
  5
9D
330
1F
100
AcDbEntity
  8
0
  6
Continuous
 62
     7
370
     5
100
AcDbSpline
210
0.0
220
0.0
230
1.0
 70
     8
 71
     3
 72
    27
 73
    23
 74
     0
 42
0.0000000001
 43
0.0000000001
 40
0.0
 40
0.0
 40
0.0
 40
0.0
 40
0.0527759733357887
 40
0.1058993646372914
 40
0.1593686395269874
 40
0.2114053474676094
 40
0.2635182305764237
 40
0.3155432388250002
 40
0.367337775064065
 40
0.4188178131744119
 40
0.4699972806873082
 40
0.5210284565414224
 40
0.5722409589642891
 40
0.6241163215760058
 40
0.6768967288410936
 40
0.7305103476324097
 40
0.7846934836584274
 40
0.8390607392519626
 40
0.8931654032481436
 40
0.9465542519641456
 40
0.9988232196253838
 40
1.0
 40
1.0
 40
1.0
 40
1.0
 10
14.16904475025508
 20
21.35154714803992
 30
0.0
 10
14.14700656982886
 20
21.44379642921167
 30
0.0
 10
14.10278513425156
 20
21.62890225761922
 30
0.0
 10
14.02222373519519
 20
21.8836807864624
 30
0.0
 10
13.93609214860729
 20
22.1261168108005
 30
0.0
 10
13.84642996652476
 20
22.35931437989264
 30
0.0
 10
13.75659722593077
 20
22.58843006529659
 30
0.0
 10
13.6684296552118
 20
22.82014769195805
 30
0.0
 10
13.58482444620815
 20
23.05889496182386
 30
0.0
 10
13.50866046896305
 20
23.30908028589262
 30
0.0
 10
13.44284964152964
 20
23.57518300261445
 30
0.0
 10
13.39035447449468
 20
23.86172135803616
 30
0.0
 10
13.35416041491802
 20
24.17315998846956
 30
0.0
 10
13.33753497304598
 20
24.51267069757031
 30
0.0
 10
13.3366833244446
 20
24.87409662731093
 30
0.0
 10
13.34759780331783
 20
25.25160771437168
 30
0.0
 10
13.3664831728457
 20
25.63935842742236
 30
0.0
 10
13.38940739380096
 20
26.03134849469642
 30
0.0
 10
13.41302932448647
 20
26.42210123444801
 30
0.0
 10
13.43192208158725
 20
26.80417284554771
 30
0.0
 10
13.44307045691116
 20
27.0588861718935
 30
0.0
 10
13.44366390765446
 20
27.18169951486239
 30
0.0
 10
13.443676974385
 20
27.18440364638002
 30
0.0
  0
LINE
  5
9E
330
1F
100
AcDbEntity
  8
0
  6
Continuous
 62
     7
370
     5
100
AcDbLine
 10
14.16904475025508
 20
21.35154714803992
 30
0.0
 11
8.425721456240097
 21
12.86899352567056
 31
0.0
  0
LINE
  5
9F
330
1F
100
AcDbEntity
  8
0
  6
Continuous
 62
     7
370
     5
100
AcDbLine
 10
5.572094042365374
 20
8.654351906422096
 30
0.0
 11
-1.028567525505195
 21
-1.094440708314394
 31
0.0
  0
SPLINE
  5
A0
330
1F
100
AcDbEntity
  8
0
  6
Continuous
 62
     7
370
     5
100
AcDbSpline
210
0.0
220
0.0
230
1.0
 70
     8
 71
     3
 72
    13
 73
     9
 74
     0
 42
0.0000000001
 43
0.0000000001
 40
0.0
 40
0.0
 40
0.0
 40
0.0
 40
0.176384043622066
 40
0.3464462680687781
 40
0.5122852457521553
 40
0.6756465531190751
 40
0.8378915743008494
 40
0.9999999999999998
 40
0.9999999999999998
 40
0.9999999999999998
 40
0.9999999999999998
 10
14.74588565933431
 20
19.55659608600792
 30
0.0
 10
14.75482607844881
 20
19.6677269001971
 30
0.0
 10
14.77238648115634
 20
19.88600546470141
 30
0.0
 10
14.77807585375434
 20
20.19305720697404
 30
0.0
 10
14.76959046084657
 20
20.47801077603091
 30
0.0
 10
14.7469940234629
 20
20.74201624489217
 30
0.0
 10
14.71308515296937
 20
20.98896376797808
 30
0.0
 10
14.68204471775035
 20
21.14056989494455
 30
0.0
 10
14.66653103619474
 20
21.21634103536318
 30
0.0
  0
LINE
  5
A1
330
1F
100
AcDbEntity
  8
0
  6
Continuous
 62
     7
370
     5
100
AcDbLine
 10
14.74588565933431
 20
19.55659608600792
 30
0.0
 11
7.286178864717692
 21
8.539043556140377
 31
0.0
  0
LINE
  5
A2
330
1F
100
AcDbEntity
  8
0
  6
Continuous
 62
     7
370
     5
100
AcDbLine
 10
6.76820155282472
 20
7.774021201444353
 30
0.0
 11
-0.1986885441865207
 21
-2.51566980145573
 31
0.0
  0
LINE
  5
A3
330
1F
100
AcDbEntity
  8
0
  6
Continuous
 62
     7
370
     5
100
AcDbLine
 10
14.66653103619474
 20
21.21634103536318
 30
0.0
 11
7.251348757249754
 21
10.26454890889155
 31
0.0
  0
LINE
  5
A4
330
1F
100
AcDbEntity
  8
0
  6
Continuous
 62
     7
370
     5
100
AcDbLine
 10
6.615091342011167
 20
9.32483382224259
 30
0.0
 11
-0.5310812395655313
 21
-1.229646820991137
 31
0.0
  0
LINE
  5
A5
330
1F
100
AcDbEntity
  8
0
  6
Continuous
 62
     7
370
     5
100
AcDbLine
 10
14.66653103619474
 20
21.21634103536318
 30
0.0
 11
14.16904475025508
 21
21.35154714803992
 31
0.0
  0
LINE
  5
A6
330
1F
100
AcDbEntity
  8
0
  6
Continuous
 62
     7
370
     5
100
AcDbLine
 10
-1.515276767020276
 20
0.0233026946479986
 30
0.0
 11
-2.078812431157889
 21
-0.809006646984165
 31
0.0
  0
LINE
  5
A7
330
1F
100
AcDbEntity
  8
0
  6
Continuous
 62
     7
370
     5
100
AcDbLine
 10
11.88831419438201
 20
29.16844954650243
 30
0.0
 11
11.76354632847442
 21
29.1864437985101
 31
0.0
  0
SPLINE
  5
A8
330
1F
100
AcDbEntity
  8
0
  6
Continuous
 62
     7
370
     5
100
AcDbSpline
210
0.0
220
0.0
230
1.0
 70
     8
 71
     3
 72
    31
 73
    27
 74
     0
 42
0.0000000001
 43
0.0000000001
 40
0.0
 40
0.0
 40
0.0
 40
0.0
 40
0.042989543607412
 40
0.0819250449350472
 40
0.1177889279133781
 40
0.1515499745071706
 40
0.1840975165796572
 40
0.2161776169519333
 40
0.2483511360596292
 40
0.2942018612436352
 40
0.3413876803546596
 40
0.3898616164755101
 40
0.4392563200988415
 40
0.4890290397470378
 40
0.5385789613631672
 40
0.5873566577061017
 40
0.6349787212862456
 40
0.6813680561529685
 40
0.7269225088360242
 40
0.7595196635571658
 40
0.7928138719968187
 40
0.8275815948194289
 40
0.8647233741990925
 40
0.9052027700768466
 40
0.9499856843558644
 40
1.0
 40
1.0
 40
1.0
 40
1.0
 10
23.12607865971158
 20
6.129255132302345
 30
0.0
 10
23.04180584443936
 20
6.116812906374445
 30
0.0
 10
22.88120739191731
 20
6.093101793561898
 30
0.0
 10
22.66253331117839
 20
6.041081455264056
 30
0.0
 10
22.47526877225608
 20
5.979883167329311
 30
0.0
 10
22.31747048661193
 20
5.909377336831212
 30
0.0
 10
22.18646213502139
 20
5.830816649184368
 30
0.0
 10
22.07947427565603
 20
5.745174753547624
 30
0.0
 10
21.98178285183041
 20
5.640943715910625
 30
0.0
 10
21.89998358426873
 20
5.516141581879729
 30
0.0
 10
21.83720638314949
 20
5.371076873917932
 30
0.0
 10
21.79366049615752
 20
5.220494585386927
 30
0.0
 10
21.76164109951423
 20
5.066480639517624
 30
0.0
 10
21.73357524157041
 20
4.911146623956832
 30
0.0
 10
21.70190981121308
 20
4.756630313157852
 30
0.0
 10
21.65908604394708
 20
4.605052924249013
 30
0.0
 10
21.59737376391252
 20
4.458491175623624
 30
0.0
 10
21.50878319222087
 20
4.319016995047717
 30
0.0
 10
21.39649801293827
 20
4.201214578829609
 30
0.0
 10
21.26670378149439
 20
4.104900446448337
 30
0.0
 10
21.12717796184441
 20
4.027034855127241
 30
0.0
 10
20.95996323702101
 20
3.957409235917781
 30
0.0
 10
20.76256242298107
 20
3.896932888931478
 30
0.0
 10
20.53246010325358
 20
3.846712200574522
 30
0.0
 10
20.26738213580365
 20
3.806560260845337
 30
0.0
 10
20.07657734885487
 20
3.790807238010098
 30
0.0
 10
19.97591015796115
 20
3.782496059961236
 30
0.0
  0
LINE
  5
A9
330
1F
100
AcDbEntity
  8
0
  6
Continuous
 62
     7
370
     5
100
AcDbLine
 10
-9.191393975260815
 20
11.70954434364286
 30
0.0
 11
-1.48728841443376
 21
9.615733531223774
 31
0.0
  0
LINE
  5
AA
330
1F
100
AcDbEntity
  8
0
  6
Continuous
 62
     7
370
     5
100
AcDbLine
 10
7.286179696329309
 20
7.231292891399809
 30
0.0
 11
19.97591015796115
 21
3.782496059961236
 31
0.0
  0
LINE
  5
AB
330
1F
100
AcDbEntity
  8
0
  6
Continuous
 62
     7
370
     5
100
AcDbLine
 10
23.12607865971158
 20
6.129255132302345
 30
0.0
 11
23.12607865971158
 21
4.843504165358587
 31
0.0
  0
SPLINE
  5
AC
330
1F
100
AcDbEntity
  8
0
  6
Continuous
 62
     7
370
     5
100
AcDbSpline
210
0.0
220
0.0
230
1.0
 70
     8
 71
     3
 72
    31
 73
    27
 74
     0
 42
0.0000000001
 43
0.0000000001
 40
0.0
 40
0.0
 40
0.0
 40
0.0
 40
0.0500143156441356
 40
0.0947972299231535
 40
0.1352766258009074
 40
0.1724184051805709
 40
0.207186128003181
 40
0.240480336442834
 40
0.2730774911639757
 40
0.3186319438470314
 40
0.3650212787137543
 40
0.4126433422938982
 40
0.4614210386368328
 40
0.5109709602529622
 40
0.5607436799011585
 40
0.61013838352449
 40
0.6586123196453404
 40
0.7057981387563648
 40
0.7516488639403708
 40
0.7838223830480667
 40
0.8159024834203428
 40
0.8484500254928292
 40
0.8822110720866218
 40
0.9180749550649526
 40
0.9570104563925879
 40
1.0
 40
1.0
 40
1.0
 40
1.0
 10
19.97591015796116
 20
2.496745093017475
 30
0.0
 10
20.07657734885486
 20
2.505056271066345
 30
0.0
 10
20.26738213580365
 20
2.520809293901578
 30
0.0
 10
20.53246010325358
 20
2.560961233630766
 30
0.0
 10
20.76256242298106
 20
2.611181921987726
 30
0.0
 10
20.95996323702099
 20
2.67165826897403
 30
0.0
 10
21.12717796184442
 20
2.741283888183481
 30
0.0
 10
21.2667037814944
 20
2.819149479504579
 30
0.0
 10
21.39649801293827
 20
2.915463611885853
 30
0.0
 10
21.50878319222086
 20
3.033266028103962
 30
0.0
 10
21.59737376391249
 20
3.172740208679875
 30
0.0
 10
21.65908604394709
 20
3.319301957305253
 30
0.0
 10
21.70190981121308
 20
3.470879346214094
 30
0.0
 10
21.73357524157039
 20
3.625395657013082
 30
0.0
 10
21.76164109951423
 20
3.780729672573864
 30
0.0
 10
21.79366049615753
 20
3.934743618443165
 30
0.0
 10
21.83720638314948
 20
4.085325906974182
 30
0.0
 10
21.89998358426874
 20
4.230390614935966
 30
0.0
 10
21.98178285183041
 20
4.355192748966869
 30
0.0
 10
22.079474275656
 20
4.459423786603875
 30
0.0
 10
22.1864621350214
 20
4.545065682240609
 30
0.0
 10
22.31747048661194
 20
4.623626369887452
 30
0.0
 10
22.47526877225607
 20
4.694132200385557
 30
0.0
 10
22.6625333111784
 20
4.755330488320296
 30
0.0
 10
22.8812073919173
 20
4.807350826618145
 30
0.0
 10
23.04180584443936
 20
4.831061939430687
 30
0.0
 10
23.12607865971158
 20
4.843504165358587
 30
0.0
  0
LINE
  5
AD
330
1F
100
AcDbEntity
  8
0
  6
Continuous
 62
     7
370
     5
100
AcDbLine
 10
19.97591015796115
 20
3.782496059961236
 30
0.0
 11
19.97591015796115
 21
2.49674509301748
 31
0.0
  0
LINE
  5
AE
330
1F
100
AcDbEntity
  8
0
  6
Continuous
 62
     7
370
     5
100
AcDbLine
 10
-9.191393975260815
 20
10.42379337669911
 30
0.0
 11
-2.222539959237882
 21
8.529808179622889
 31
0.0
  0
LINE
  5
AF
330
1F
100
AcDbEntity
  8
0
  6
Continuous
 62
     7
370
     5
100
AcDbLine
 10
5.803093392555097
 20
6.348613003126443
 30
0.0
 11
6.008457341909577
 21
6.292799482109042
 31
0.0
  0
LINE
  5
B0
330
1F
100
AcDbEntity
  8
0
  6
Continuous
 62
     7
370
     5
100
AcDbLine
 10
7.141888853236054
 20
5.984757083830023
 30
0.0
 11
19.97591015796115
 21
2.49674509301748
 31
0.0
  0
LINE
  5
B1
330
1F
100
AcDbEntity
  8
0
  6
Continuous
 62
     7
370
     5
100
AcDbLine
 10
-9.191393975260815
 20
11.70954434364286
 30
0.0
 11
-9.191393975260815
 21
10.42379337669911
 31
0.0
  0
SPLINE
  5
B2
330
1F
100
AcDbEntity
  8
0
  6
Continuous
 62
     7
370
     5
100
AcDbSpline
210
0.0
220
0.0
230
1.0
 70
     8
 71
     3
 72
    12
 73
     8
 74
     0
 42
0.0000000001
 43
0.0000000001
 40
0.0
 40
0.0
 40
0.0
 40
0.0
 40
0.1511042457276933
 40
0.330448086456607
 40
0.5291132339032609
 40
0.7510637011878857
 40
1.0
 40
1.0
 40
1.0
 40
1.0
 10
-9.588402626775854
 20
11.0335785498508
 30
0.0
 10
-9.586305458732928
 20
11.0007679861451
 30
0.0
 10
-9.581719186762709
 20
10.92901495273498
 30
0.0
 10
-9.535639634353724
 20
10.8161532197932
 30
0.0
 10
-9.457317574172984
 20
10.69227774938187
 30
0.0
 10
-9.342844447866285
 20
10.55916113696873
 30
0.0
 10
-9.243770068695003
 20
10.47060758822242
 30
0.0
 10
-9.191393975260815
 20
10.42379337669911
 30
0.0
  0
SPLINE
  5
B3
330
1F
100
AcDbEntity
  8
0
  6
Continuous
 62
     7
370
     5
100
AcDbSpline
210
0.0
220
0.0
230
1.0
 70
     8
 71
     3
 72
    31
 73
    27
 74
     0
 42
0.0000000001
 43
0.0000000001
 40
0.0
 40
0.0
 40
0.0
 40
0.0
 40
0.042989543607412
 40
0.0819250449350472
 40
0.1177889279133781
 40
0.1515499745071706
 40
0.1840975165796572
 40
0.2161776169519333
 40
0.2483511360596292
 40
0.2942018612436352
 40
0.3413876803546596
 40
0.3898616164755101
 40
0.4392563200988415
 40
0.4890290397470378
 40
0.5385789613631672
 40
0.5873566577061017
 40
0.6349787212862456
 40
0.6813680561529685
 40
0.7269225088360242
 40
0.7595196635571658
 40
0.7928138719968187
 40
0.8275815948194289
 40
0.8647233741990925
 40
0.9052027700768466
 40
0.9499856843558644
 40
1.0
 40
1.0
 40
1.0
 40
1.0
 10
23.12607865971158
 20
7.415006099246101
 30
0.0
 10
23.04180584443936
 20
7.402563873318201
 30
0.0
 10
22.88120739191731
 20
7.378852760505654
 30
0.0
 10
22.66253331117839
 20
7.326832422207812
 30
0.0
 10
22.47526877225608
 20
7.265634134273069
 30
0.0
 10
22.31747048661193
 20
7.195128303774969
 30
0.0
 10
22.18646213502139
 20
7.116567616128123
 30
0.0
 10
22.07947427565603
 20
7.03092572049138
 30
0.0
 10
21.98178285183041
 20
6.92669468285438
 30
0.0
 10
21.89998358426873
 20
6.801892548823484
 30
0.0
 10
21.83720638314949
 20
6.656827840861688
 30
0.0
 10
21.79366049615752
 20
6.506245552330683
 30
0.0
 10
21.76164109951423
 20
6.35223160646138
 30
0.0
 10
21.73357524157041
 20
6.196897590900587
 30
0.0
 10
21.70190981121308
 20
6.042381280101608
 30
0.0
 10
21.65908604394708
 20
5.890803891192769
 30
0.0
 10
21.59737376391252
 20
5.744242142567379
 30
0.0
 10
21.50878319222087
 20
5.604767961991473
 30
0.0
 10
21.39649801293827
 20
5.486965545773364
 30
0.0
 10
21.26670378149439
 20
5.390651413392093
 30
0.0
 10
21.12717796184441
 20
5.312785822070997
 30
0.0
 10
20.95996323702101
 20
5.243160202861537
 30
0.0
 10
20.76256242298107
 20
5.182683855875234
 30
0.0
 10
20.53246010325358
 20
5.132463167518277
 30
0.0
 10
20.26738213580365
 20
5.09231122778909
 30
0.0
 10
20.07657734885487
 20
5.076558204953854
 30
0.0
 10
19.97591015796115
 20
5.068247026904991
 30
0.0
  0
LINE
  5
B4
330
1F
100
AcDbEntity
  8
0
  6
Continuous
 62
     7
370
     5
100
AcDbLine
 10
-9.191393975260815
 20
12.99529531058662
 30
0.0
 11
-0.752036869629634
 21
10.70165888282466
 31
0.0
  0
LINE
  5
B5
330
1F
100
AcDbEntity
  8
0
  6
Continuous
 62
     7
370
     5
100
AcDbLine
 10
7.286179696329309
 20
8.517043858343567
 30
0.0
 11
19.97591015796115
 21
5.068247026904991
 31
0.0
  0
SPLINE
  5
B6
330
1F
100
AcDbEntity
  8
0
  6
Continuous
 62
     7
370
     5
100
AcDbSpline
210
0.0
220
0.0
230
1.0
 70
     8
 71
     3
 72
    12
 73
     8
 74
     0
 42
0.0000000001
 43
0.0000000001
 40
0.0
 40
0.0
 40
0.0
 40
0.0
 40
0.2489362988121144
 40
0.4708867660967393
 40
0.6695519135433931
 40
0.8488957542723067
 40
1.0
 40
1.0
 40
1.0
 40
1.0
 10
-9.191393975260815
 20
12.99529531058662
 30
0.0
 10
-9.243770068694999
 20
13.04210952210994
 30
0.0
 10
-9.342844447866276
 20
13.13066307085624
 30
0.0
 10
-9.457317574172988
 20
13.26377968326938
 30
0.0
 10
-9.535639634353721
 20
13.38765515368071
 30
0.0
 10
-9.581719186762715
 20
13.50051688662249
 30
0.0
 10
-9.586305458732931
 20
13.57226992003261
 30
0.0
 10
-9.588402626775852
 20
13.60508048373831
 30
0.0
  0
LINE
  5
B7
330
1F
100
AcDbEntity
  8
0
  6
Continuous
 62
     7
370
     5
100
AcDbLine
 10
23.12607865971158
 20
7.415006099246101
 30
0.0
 11
23.12607865971158
 21
6.129255132302345
 31
0.0
  0
SPLINE
  5
B8
330
1F
100
AcDbEntity
  8
0
  6
Continuous
 62
     7
370
     5
100
AcDbSpline
210
0.0
220
0.0
230
1.0
 70
     8
 71
     3
 72
    31
 73
    27
 74
     0
 42
0.0000000001
 43
0.0000000001
 40
0.0
 40
0.0
 40
0.0
 40
0.0
 40
0.042989543607412
 40
0.0819250449350472
 40
0.1177889279133781
 40
0.1515499745071706
 40
0.1840975165796572
 40
0.2161776169519333
 40
0.2483511360596292
 40
0.2942018612436352
 40
0.3413876803546596
 40
0.3898616164755101
 40
0.4392563200988415
 40
0.4890290397470378
 40
0.5385789613631672
 40
0.5873566577061017
 40
0.6349787212862456
 40
0.6813680561529685
 40
0.7269225088360242
 40
0.7595196635571658
 40
0.7928138719968187
 40
0.8275815948194289
 40
0.8647233741990925
 40
0.9052027700768466
 40
0.9499856843558644
 40
1.0
 40
1.0
 40
1.0
 40
1.0
 10
23.12607865971158
 20
6.129255132302345
 30
0.0
 10
23.04180584443936
 20
6.116812906374445
 30
0.0
 10
22.88120739191731
 20
6.093101793561898
 30
0.0
 10
22.66253331117839
 20
6.041081455264056
 30
0.0
 10
22.47526877225608
 20
5.979883167329311
 30
0.0
 10
22.31747048661193
 20
5.909377336831212
 30
0.0
 10
22.18646213502139
 20
5.830816649184368
 30
0.0
 10
22.07947427565603
 20
5.745174753547624
 30
0.0
 10
21.98178285183041
 20
5.640943715910625
 30
0.0
 10
21.89998358426873
 20
5.516141581879729
 30
0.0
 10
21.83720638314949
 20
5.371076873917932
 30
0.0
 10
21.79366049615752
 20
5.220494585386927
 30
0.0
 10
21.76164109951423
 20
5.066480639517624
 30
0.0
 10
21.73357524157041
 20
4.911146623956832
 30
0.0
 10
21.70190981121308
 20
4.756630313157852
 30
0.0
 10
21.65908604394708
 20
4.605052924249013
 30
0.0
 10
21.59737376391252
 20
4.458491175623624
 30
0.0
 10
21.50878319222087
 20
4.319016995047717
 30
0.0
 10
21.39649801293827
 20
4.201214578829609
 30
0.0
 10
21.26670378149439
 20
4.104900446448337
 30
0.0
 10
21.12717796184441
 20
4.027034855127241
 30
0.0
 10
20.95996323702101
 20
3.957409235917781
 30
0.0
 10
20.76256242298107
 20
3.896932888931478
 30
0.0
 10
20.53246010325358
 20
3.846712200574522
 30
0.0
 10
20.26738213580365
 20
3.806560260845337
 30
0.0
 10
20.07657734885487
 20
3.790807238010098
 30
0.0
 10
19.97591015796115
 20
3.782496059961236
 30
0.0
  0
LINE
  5
B9
330
1F
100
AcDbEntity
  8
0
  6
Continuous
 62
     7
370
     5
100
AcDbLine
 10
19.97591015796115
 20
5.068247026904991
 30
0.0
 11
19.97591015796115
 21
3.782496059961236
 31
0.0
  0
LINE
  5
BA
330
1F
100
AcDbEntity
  8
0
  6
Continuous
 62
     7
370
     5
100
AcDbLine
 10
-9.191393975260815
 20
12.99529531058662
 30
0.0
 11
-9.191393975260815
 21
11.70954434364286
 31
0.0
  0
SPLINE
  5
BB
330
1F
100
AcDbEntity
  8
0
  6
Continuous
 62
     7
370
     5
100
AcDbSpline
210
0.0
220
0.0
230
1.0
 70
     8
 71
     3
 72
    12
 73
     8
 74
     0
 42
0.0000000001
 43
0.0000000001
 40
0.0
 40
0.0
 40
0.0
 40
0.0
 40
0.2489362988121144
 40
0.4708867660967393
 40
0.6695519135433931
 40
0.8488957542723067
 40
1.0
 40
1.0
 40
1.0
 40
1.0
 10
-9.191393975260815
 20
11.70954434364286
 30
0.0
 10
-9.243770068694999
 20
11.75635855516618
 30
0.0
 10
-9.342844447866276
 20
11.84491210391248
 30
0.0
 10
-9.457317574172988
 20
11.97802871632563
 30
0.0
 10
-9.535639634353721
 20
12.10190418673696
 30
0.0
 10
-9.581719186762715
 20
12.21476591967874
 30
0.0
 10
-9.586305458732931
 20
12.28651895308886
 30
0.0
 10
-9.588402626775852
 20
12.31932951679455
 30
0.0
  0
SPLINE
  5
BC
330
1F
100
AcDbEntity
  8
0
  6
Continuous
 62
     7
370
     5
100
AcDbSpline
210
0.0
220
0.0
230
1.0
 70
     8
 71
     3
 72
    31
 73
    27
 74
     0
 42
0.0000000001
 43
0.0000000001
 40
0.0
 40
0.0
 40
0.0
 40
0.0
 40
0.042989543607412
 40
0.0819250449350472
 40
0.1177889279133781
 40
0.1515499745071706
 40
0.1840975165796572
 40
0.2161776169519333
 40
0.2483511360596292
 40
0.2942018612436352
 40
0.3413876803546596
 40
0.3898616164755101
 40
0.4392563200988415
 40
0.4890290397470378
 40
0.5385789613631672
 40
0.5873566577061017
 40
0.6349787212862456
 40
0.6813680561529685
 40
0.7269225088360242
 40
0.7595196635571658
 40
0.7928138719968187
 40
0.8275815948194289
 40
0.8647233741990925
 40
0.9052027700768466
 40
0.9499856843558644
 40
1.0
 40
1.0
 40
1.0
 40
1.0
 10
23.12607865971158
 20
7.415006099246101
 30
0.0
 10
23.04180584443936
 20
7.402563873318201
 30
0.0
 10
22.88120739191731
 20
7.378852760505654
 30
0.0
 10
22.66253331117839
 20
7.326832422207812
 30
0.0
 10
22.47526877225608
 20
7.265634134273069
 30
0.0
 10
22.31747048661193
 20
7.195128303774969
 30
0.0
 10
22.18646213502139
 20
7.116567616128123
 30
0.0
 10
22.07947427565603
 20
7.03092572049138
 30
0.0
 10
21.98178285183041
 20
6.92669468285438
 30
0.0
 10
21.89998358426873
 20
6.801892548823484
 30
0.0
 10
21.83720638314949
 20
6.656827840861688
 30
0.0
 10
21.79366049615752
 20
6.506245552330683
 30
0.0
 10
21.76164109951423
 20
6.35223160646138
 30
0.0
 10
21.73357524157041
 20
6.196897590900587
 30
0.0
 10
21.70190981121308
 20
6.042381280101608
 30
0.0
 10
21.65908604394708
 20
5.890803891192769
 30
0.0
 10
21.59737376391252
 20
5.744242142567379
 30
0.0
 10
21.50878319222087
 20
5.604767961991473
 30
0.0
 10
21.39649801293827
 20
5.486965545773364
 30
0.0
 10
21.26670378149439
 20
5.390651413392093
 30
0.0
 10
21.12717796184441
 20
5.312785822070997
 30
0.0
 10
20.95996323702101
 20
5.243160202861537
 30
0.0
 10
20.76256242298107
 20
5.182683855875234
 30
0.0
 10
20.53246010325358
 20
5.132463167518277
 30
0.0
 10
20.26738213580365
 20
5.092311227789092
 30
0.0
 10
20.07657734885487
 20
5.076558204953854
 30
0.0
 10
19.97591015796115
 20
5.068247026904991
 30
0.0
  0
SPLINE
  5
BD
330
1F
100
AcDbEntity
  8
0
  6
Continuous
 62
     7
370
     5
100
AcDbSpline
210
0.0
220
0.0
230
1.0
 70
     8
 71
     3
 72
    31
 73
    27
 74
     0
 42
0.0000000001
 43
0.0000000001
 40
0.0
 40
0.0
 40
0.0
 40
0.0
 40
0.0527557530610042
 40
0.1054395582019266
 40
0.1411147214638066
 40
0.1769114287608138
 40
0.2125114683866391
 40
0.2429625548901104
 40
0.2735370132466075
 40
0.3040295336506647
 40
0.3507271740166328
 40
0.3976265819568728
 40
0.4444976677964731
 40
0.527218470584979
 40
0.6099512821728648
 40
0.6518458564032721
 40
0.6938855100511374
 40
0.7357381852414586
 40
0.777376870399198
 40
0.8075886733883926
 40
0.8378990412521378
 40
0.868079613596452
 40
0.8982352774285214
 40
0.928512168985531
 40
0.9587150730516249
 40
1.0
 40
1.0
 40
1.0
 40
1.0
 10
19.97591015796115
 20
5.068247026904994
 30
0.0
 10
20.08381036847122
 20
5.09265863098348
 30
0.0
 10
20.29946363595316
 20
5.14144854676877
 30
0.0
 10
20.57798375749524
 20
5.235111669758986
 30
0.0
 10
20.80912925052428
 20
5.338133120895733
 30
0.0
 10
20.99444186988296
 20
5.442917400774519
 30
0.0
 10
21.15302603926938
 20
5.557296193311185
 30
0.0
 10
21.2822310750802
 20
5.678229894006657
 30
0.0
 10
21.38637620819077
 20
5.800580875241431
 30
0.0
 10
21.48758475325487
 20
5.951413914906254
 30
0.0
 10
21.57465217794523
 20
6.131682123305113
 30
0.0
 10
21.64252727827505
 20
6.339074107368002
 30
0.0
 10
21.70055698627823
 20
6.600916515295256
 30
0.0
 10
21.74336189911977
 20
6.915883619210504
 30
0.0
 10
21.78265937815299
 20
7.22336904421857
 30
0.0
 10
21.83143795049589
 20
7.470676859286276
 30
0.0
 10
21.8830377681719
 20
7.656932597757852
 30
0.0
 10
21.95627193255965
 20
7.841077511090483
 30
0.0
 10
22.04809263149293
 20
8.00402951572707
 30
0.0
 10
22.15530953588352
 20
8.143753046129164
 30
0.0
 10
22.2691300315879
 20
8.260747012197718
 30
0.0
 10
22.40082572308701
 20
8.368484022789715
 30
0.0
 10
22.54951044675374
 20
8.464331369204691
 30
0.0
 10
22.71079784539362
 20
8.548254384955765
 30
0.0
 10
22.90219194560808
 20
8.630277205086903
 30
0.0
 10
23.04411607580884
 20
8.674955126346141
 30
0.0
 10
23.12607865971158
 20
8.700757066189856
 30
0.0
  0
LINE
  5
BE
330
1F
100
AcDbEntity
  8
0
  6
Continuous
 62
     7
370
     5
100
AcDbLine
 10
23.12607865971158
 20
8.700757066189856
 30
0.0
 11
23.12607865971158
 21
7.415006099246101
 31
0.0
  0
SPLINE
  5
BF
330
1F
100
AcDbEntity
  8
0
  6
Continuous
 62
     7
370
     5
100
AcDbSpline
210
0.0
220
0.0
230
1.0
 70
     8
 71
     3
 72
    74
 73
    70
 74
     0
 42
0.0000000001
 43
0.0000000001
 40
0.0
 40
0.0
 40
0.0
 40
0.0
 40
0.0312500000000002
 40
0.0312500000000002
 40
0.0625000000000005
 40
0.0625000000000005
 40
0.0937500000000007
 40
0.0937500000000007
 40
0.1250000000000009
 40
0.1250000000000009
 40
0.1562500000000011
 40
0.1562500000000011
 40
0.1718750000000015
 40
0.1718750000000015
 40
0.1875000000000019
 40
0.1875000000000019
 40
0.2187500000000027
 40
0.2187500000000027
 40
0.2265625000000028
 40
0.2265625000000028
 40
0.2343750000000029
 40
0.2343750000000029
 40
0.250000000000003
 40
0.250000000000003
 40
0.2812500000000031
 40
0.2812500000000031
 40
0.3125000000000034
 40
0.3125000000000034
 40
0.3437500000000036
 40
0.3437500000000036
 40
0.3750000000000038
 40
0.3750000000000038
 40
0.4375000000000039
 40
0.4375000000000039
 40
0.5000000000000039
 40
0.5000000000000039
 40
0.5625000000000039
 40
0.5625000000000039
 40
0.6250000000000039
 40
0.6250000000000039
 40
0.6562500000000039
 40
0.6562500000000039
 40
0.6718750000000038
 40
0.6718750000000038
 40
0.6875000000000037
 40
0.6875000000000037
 40
0.7187500000000035
 40
0.7187500000000035
 40
0.7343750000000035
 40
0.7343750000000035
 40
0.7421875000000035
 40
0.7421875000000035
 40
0.7500000000000036
 40
0.7500000000000036
 40
0.812500000000003
 40
0.812500000000003
 40
0.828125000000003
 40
0.828125000000003
 40
0.843750000000003
 40
0.843750000000003
 40
0.8750000000000024
 40
0.8750000000000024
 40
0.9062500000000019
 40
0.9062500000000019
 40
0.9218750000000012
 40
0.9218750000000012
 40
0.9375000000000005
 40
0.9375000000000005
 40
1.0
 40
1.0
 40
1.0
 40
1.0
 10
-7.441254001043057
 20
17.00830296783331
 30
0.0
 10
-7.405011798735436
 20
16.96975795588082
 30
0.0
 10
-7.370740181695316
 20
16.93039598677593
 30
0.0
 10
-7.307042353125767
 20
16.84966326023629
 30
0.0
 10
-7.277610510784151
 20
16.80829483720057
 30
0.0
 10
-7.22485284916057
 20
16.72302658114972
 30
0.0
 10
-7.201506082564683
 20
16.67910623281213
 30
0.0
 10
-7.162813917581608
 20
16.58806649143622
 30
0.0
 10
-7.147823944401087
 20
16.54174266528808
 30
0.0
 10
-7.128275744201956
 20
16.44716974925592
 30
0.0
 10
-7.123714610660536
 20
16.39892119579436
 30
0.0
 10
-7.126317738765233
 20
16.32480524557587
 30
0.0
 10
-7.128763448030814
 20
16.30008827366909
 30
0.0
 10
-7.136783401824316
 20
16.25099921384639
 30
0.0
 10
-7.142359422986787
 20
16.22656833402961
 30
0.0
 10
-7.16373408491309
 20
16.15361290494021
 30
0.0
 10
-7.184190212649455
 20
16.10542635622511
 30
0.0
 10
-7.217195260436545
 20
16.04573273090186
 30
0.0
 10
-7.224181532537303
 20
16.03380015612257
 30
0.0
 10
-7.238737392548297
 20
16.01021602815947
 30
0.0
 10
-7.246319522492237
 20
15.99853922572104
 30
0.0
 10
-7.269923591167608
 20
15.96383379344535
 30
0.0
 10
-7.286802241856671
 20
15.94112977229396
 30
0.0
 10
-7.340464860488236
 20
15.87416451465626
 30
0.0
 10
-7.380264172463972
 20
15.83104579387245
 30
0.0
 10
-7.466099272628275
 20
15.74717135696463
 30
0.0
 10
-7.512315214674885
 20
15.70628833272914
 30
0.0
 10
-7.607960166372355
 20
15.62752419296737
 30
0.0
 10
-7.657529165697672
 20
15.5894846731308
 30
0.0
 10
-7.759092658520309
 20
15.51527010728341
 30
0.0
 10
-7.811091592161973
 20
15.47909847440505
 30
0.0
 10
-7.969518162180754
 20
15.37245133572185
 30
0.0
 10
-8.078341278980989
 20
15.30381723221783
 30
0.0
 10
-8.29744500937968
 20
15.1676694008688
 30
0.0
 10
-8.407767716194056
 20
15.10018803001736
 30
0.0
 10
-8.625698840875649
 20
14.96313881836707
 30
0.0
 10
-8.733344951505198
 20
14.89359995193956
 30
0.0
 10
-8.941295785136757
 20
14.74887890514294
 30
0.0
 10
-9.041162041360117
 20
14.67404492742994
 30
0.0
 10
-9.179620809548136
 20
14.55507028361836
 30
0.0
 10
-9.223870804003489
 20
14.51428019624944
 30
0.0
 10
-9.28652312390507
 20
14.45088079844715
 30
0.0
 10
-9.306704790917418
 20
14.4294537705019
 30
0.0
 10
-9.34532566891433
 20
14.38616885909843
 30
0.0
 10
-9.363795323906378
 20
14.36428042494489
 30
0.0
 10
-9.416465430924086
 20
14.29781384649051
 30
0.0
 10
-9.447929585445059
 20
14.25243517527819
 30
0.0
 10
-9.48874464594297
 20
14.18250030298537
 30
0.0
 10
-9.501285528882931
 20
14.15887735656793
 30
0.0
 10
-9.518381092034413
 20
14.1229409765158
 30
0.0
 10
-9.523800257155505
 20
14.11085964085953
 30
0.0
 10
-9.533959435083753
 20
14.08674161552923
 30
0.0
 10
-9.538711399215475
 20
14.07468195140951
 30
0.0
 10
-9.578554168711223
 20
13.96613915839756
 30
0.0
 10
-9.593095903562154
 20
13.86961516939679
 30
0.0
 10
-9.587634778152416
 20
13.74891318037473
 30
0.0
 10
-9.585350274662641
 20
13.72474099042839
 30
0.0
 10
-9.578640577666901
 20
13.67713481462698
 30
0.0
 10
-9.574215406553705
 20
13.65360406745255
 30
0.0
 10
-9.558030425429647
 20
13.58375213222397
 30
0.0
 10
-9.543371758555082
 20
13.53816855054413
 30
0.0
 10
-9.507623633659221
 20
13.44863768478886
 30
0.0
 10
-9.48653081905093
 20
13.40469125478803
 30
0.0
 10
-9.450817035088732
 20
13.33980837120057
 30
0.0
 10
-9.438216411053748
 20
13.31833283034958
 30
0.0
 10
-9.411910958711612
 20
13.27593858553125
 30
0.0
 10
-9.39819239476915
 20
13.25499214242287
 30
0.0
 10
-9.327041715532489
 20
13.15139311817634
 30
0.0
 10
-9.262046323416548
 20
13.07209124468139
 30
0.0
 10
-9.191394360200616
 20
12.99529536382243
 30
0.0
  0
LINE
  5
C0
330
1F
100
AcDbEntity
  8
0
  6
Continuous
 62
     7
370
     5
100
AcDbLine
 10
23.12607865971158
 20
8.700757066189856
 30
0.0
 11
9.840423114332768
 21
12.31151356626091
 31
0.0
  0
LINE
  5
C1
330
1F
100
AcDbEntity
  8
0
  6
Continuous
 62
     7
370
     5
100
AcDbLine
 10
1.814787687129236
 20
14.49270930680947
 30
0.0
 11
-7.441253847064918
 21
17.00830306282433
 31
0.0
  0
LINE
  5
C2
330
1F
100
AcDbEntity
  8
0
  6
Continuous
 62
     7
370
     5
100
AcDbLine
 10
-7.441253847064918
 20
17.00830306282433
 30
0.0
 11
-7.441253847064918
 21
15.7758888618058
 31
0.0
  0
SPLINE
  5
C3
330
1F
100
AcDbEntity
  8
0
  6
Continuous
 62
     7
370
     5
100
AcDbSpline
210
0.0
220
0.0
230
1.0
 70
     8
 71
     3
 72
    12
 73
     8
 74
     0
 42
0.0000000001
 43
0.0000000001
 40
0.0
 40
0.0
 40
0.0
 40
0.0
 40
0.2489362988121144
 40
0.4708867660967393
 40
0.6695519135433931
 40
0.8488957542723067
 40
1.0
 40
1.0
 40
1.0
 40
1.0
 10
-9.191393975260815
 20
12.99529531058662
 30
0.0
 10
-9.243770068694999
 20
13.04210952210994
 30
0.0
 10
-9.342844447866276
 20
13.13066307085624
 30
0.0
 10
-9.457317574172988
 20
13.26377968326938
 30
0.0
 10
-9.535639634353721
 20
13.38765515368071
 30
0.0
 10
-9.581719186762715
 20
13.50051688662249
 30
0.0
 10
-9.586305458732931
 20
13.57226992003261
 30
0.0
 10
-9.588402626775852
 20
13.60508048373831
 30
0.0
  0
ARC
  5
C4
330
1F
100
AcDbEntity
  8
0
  6
Continuous
 62
     7
370
     5
100
AcDbCircle
 10
7.552500800322488
 20
8.272770377292131
 30
0.0
 40
0.8852792028153919
100
AcDbArc
 50
177.6297171950224
 51
202.965499987933
  0
LINE
  5
C5
330
1F
100
AcDbEntity
  8
0
  6
Continuous
 62
     7
370
     5
100
AcDbLine
 10
6.667979029062338
 20
8.684275401834343
 30
0.0
 11
6.667979029062338
 21
8.309383258963226
 31
0.0
  0
LWPOLYLINE
  5
C6
330
1F
100
AcDbEntity
  8
0
  6
Continuous
 62
     7
370
     5
100
AcDbPolyline
 90
        9
 70
   128
 43
0.0
 10
6.667979029062338
 20
8.684275401834343
 10
6.679141233311558
 20
8.699248107415728
 10
6.688604287727062
 20
8.72009745564417
 10
6.694927090931201
 20
8.743649063119359
 10
6.697147539714864
 20
8.766317745580147
 10
6.694927090931201
 20
8.784651975873218
 10
6.688604287727062
 20
8.795861083824952
 10
6.679141233311558
 20
8.798237969627635
 10
6.667979029062338
 20
8.791421368128164
  0
LINE
  5
C7
330
1F
100
AcDbEntity
  8
0
  6
Continuous
 62
     7
370
     5
100
AcDbLine
 10
6.667979029062338
 20
15.42375345080371
 30
0.0
 11
6.667979029062338
 21
8.791421368128164
 31
0.0
  0
LINE
  5
C8
330
1F
100
AcDbEntity
  8
0
  6
Continuous
 62
     7
370
     5
100
AcDbLine
 10
6.667979029062338
 20
15.42375345080371
 30
0.0
 11
6.682866576884295
 21
15.43828415387682
 31
0.0
  0
LINE
  5
C9
330
1F
100
AcDbEntity
  8
0
  6
Continuous
 62
     7
370
     5
100
AcDbLine
 10
6.682866576884295
 20
15.43828415387682
 30
0.0
 11
6.7762056466975
 21
15.73784891258423
 31
0.0
  0
LINE
  5
CA
330
1F
100
AcDbEntity
  8
0
  6
Continuous
 62
     7
370
     5
100
AcDbLine
 10
6.7762056466975
 20
15.73784891258423
 30
0.0
 11
7.143121529311834
 21
16.09597006234219
 31
0.0
  0
LINE
  5
CB
330
1F
100
AcDbEntity
  8
0
  6
Continuous
 62
     7
370
     5
100
AcDbLine
 10
7.143121529311834
 20
16.09597006234219
 30
0.0
 11
7.23646059912504
 21
15.97860889079307
 31
0.0
  0
LINE
  5
CC
330
1F
100
AcDbEntity
  8
0
  6
Continuous
 62
     7
370
     5
100
AcDbLine
 10
7.23646059912504
 20
15.97860889079307
 30
0.0
 11
7.251348283842732
 21
15.99313972748061
 31
0.0
  0
LINE
  5
CD
330
1F
100
AcDbEntity
  8
0
  6
Continuous
 62
     7
370
     5
100
AcDbLine
 10
7.251348283842732
 20
15.99313972748061
 30
0.0
 11
7.251348283842732
 21
9.360807644805067
 31
0.0
  0
LWPOLYLINE
  5
CE
330
1F
100
AcDbEntity
  8
0
  6
Continuous
 62
     7
370
     5
100
AcDbPolyline
 90
        9
 70
   128
 43
0.0
 10
7.251348283842732
 20
9.360807644805067
 10
7.240185942697781
 20
9.34583480560925
 10
7.230723025178004
 20
9.32498559099524
 10
7.224400085078139
 20
9.301433849905617
 10
7.222179773190206
 20
9.278765301059259
 10
7.224400085078139
 20
9.26043093715176
 10
7.230723025178004
 20
9.249221962814457
 10
7.240185942697781
 20
9.246844943397341
 10
7.251348283842732
 20
9.253661678511246
  0
LINE
  5
CF
330
1F
100
AcDbEntity
  8
0
  6
Continuous
 62
     7
370
     5
100
AcDbLine
 10
7.251348283842732
 20
9.253661678511246
 30
0.0
 11
7.251348283842732
 21
8.878769535640129
 31
0.0
  0
ARC
  5
D0
330
1F
100
AcDbEntity
  8
0
  6
Continuous
 62
     7
370
     5
100
AcDbCircle
 10
8.435754118298518
 20
8.867531720921178
 30
0.0
 40
1.184459146265739
100
AcDbArc
 50
179.4563856281913
 51
190.9626231335151
  0
LINE
  5
D1
330
1F
100
AcDbEntity
  8
0
  6
Continuous
 62
     7
370
     5
100
AcDbLine
 10
7.272909635527357
 20
6.854349991893188
 30
0.0
 11
7.272909635527357
 21
8.642284794058159
 31
0.0
  0
LINE
  5
D2
330
1F
100
AcDbEntity
  8
0
  6
Continuous
 62
     7
370
     5
100
AcDbLine
 10
7.272909635527357
 20
6.854349991893188
 30
0.0
 11
6.737388861703185
 21
7.927354983226178
 31
0.0
  0
SPLINE
  5
D3
330
1F
100
AcDbEntity
  8
0
  6
Continuous
 62
     7
370
     5
100
AcDbSpline
210
0.0
220
0.0
230
1.0
 70
     8
 71
     3
 72
    11
 73
     7
 74
     0
 42
0.0000000001
 43
0.0000000001
 40
0.0
 40
0.0
 40
0.0
 40
0.0
 40
0.2796315015556321
 40
0.5590690720844177
 40
0.7795612444575016
 40
0.9999999999999998
 40
0.9999999999999998
 40
0.9999999999999998
 40
0.9999999999999998
 10
6.959196225973383
 20
9.404556065427037
 30
0.0
 10
6.961805433921548
 20
9.40652581456405
 30
0.0
 10
6.967022040270765
 20
9.410463946770695
 30
0.0
 10
6.972910046493073
 20
9.40750301887453
 30
0.0
 10
6.976259666690799
 20
9.399868306584041
 30
0.0
 10
6.976663568595835
 20
9.392740662174045
 30
0.0
 10
6.976865495082893
 20
9.389177271710336
 30
0.0
  0
SPLINE
  5
D4
330
1F
100
AcDbEntity
  8
0
  6
Continuous
 62
     7
370
     5
100
AcDbSpline
210
0.0
220
0.0
230
1.0
 70
     8
 71
     3
 72
    11
 73
     7
 74
     0
 42
0.0000000001
 43
0.0000000001
 40
0.0
 40
0.0
 40
0.0
 40
0.0
 40
0.2796106482180373
 40
0.5589552188638985
 40
0.7794737979510459
 40
0.9999999999999998
 40
0.9999999999999998
 40
0.9999999999999998
 40
0.9999999999999998
 10
6.940965958151453
 20
9.353945122695282
 30
0.0
 10
6.941268458524957
 20
9.359144090346877
 30
0.0
 10
6.941873171412525
 20
9.369537078310973
 30
0.0
 10
6.946848914235785
 20
9.385257457739919
 30
0.0
 10
6.952924431490839
 20
9.397351242241224
 30
0.0
 10
6.957105603723586
 20
9.40215443002587
 30
0.0
 10
6.959196225973383
 20
9.404556065427037
 30
0.0
  0
SPLINE
  5
D5
330
1F
100
AcDbEntity
  8
0
  6
Continuous
 62
     7
370
     5
100
AcDbSpline
210
0.0
220
0.0
230
1.0
 70
     8
 71
     3
 72
    11
 73
     7
 74
     0
 42
0.0000000001
 43
0.0000000001
 40
0.0
 40
0.0
 40
0.0
 40
0.0
 40
0.2796442019958186
 40
0.5593354232811803
 40
0.7795410314358793
 40
0.9999999999999998
 40
0.9999999999999998
 40
0.9999999999999998
 40
0.9999999999999998
 10
6.958273001152359
 20
9.339092674404989
 30
0.0
 10
6.955717211566237
 20
9.337134299162519
 30
0.0
 10
6.95060520266432
 20
9.333217219396969
 30
0.0
 10
6.94491625208427
 20
9.336254760124923
 30
0.0
 10
6.941475328934054
 20
9.34337906560218
 30
0.0
 10
6.941135813480542
 20
9.350421753931373
 30
0.0
 10
6.940965958151458
 20
9.353945122695281
 30
0.0
  0
SPLINE
  5
D6
330
1F
100
AcDbEntity
  8
0
  6
Continuous
 62
     7
370
     5
100
AcDbSpline
210
0.0
220
0.0
230
1.0
 70
     8
 71
     3
 72
     9
 73
     5
 74
     0
 42
0.0000000001
 43
0.0000000001
 40
0.0
 40
0.0
 40
0.0
 40
0.0
 40
0.5599126381016593
 40
1.0
 40
1.0
 40
1.0
 40
1.0
 10
6.96431462052162
 20
9.34601972617326
 30
0.0
 10
6.963193270919317
 20
9.344601981021304
 30
0.0
 10
6.961190548483724
 20
9.342069898236454
 30
0.0
 10
6.95916459685846
 20
9.340002507111279
 30
0.0
 10
6.958273001152359
 20
9.339092674404989
 30
0.0
  0
LINE
  5
D7
330
1F
100
AcDbEntity
  8
0
  6
Continuous
 62
     7
370
     5
100
AcDbLine
 10
6.948900708607604
 20
9.287683444024692
 30
0.0
 11
6.96431462052162
 21
9.34601972617326
 31
0.0
  0
LINE
  5
D8
330
1F
100
AcDbEntity
  8
0
  6
Continuous
 62
     7
370
     5
100
AcDbLine
 10
6.952932424830023
 20
9.285801875405384
 30
0.0
 11
6.948900708607604
 21
9.287683444024692
 31
0.0
  0
LINE
  5
D9
330
1F
100
AcDbEntity
  8
0
  6
Continuous
 62
     7
370
     5
100
AcDbLine
 10
6.970344740649339
 20
9.351690710353441
 30
0.0
 11
6.952932424830023
 21
9.285801875405384
 31
0.0
  0
SPLINE
  5
DA
330
1F
100
AcDbEntity
  8
0
  6
Continuous
 62
     7
370
     5
100
AcDbSpline
210
0.0
220
0.0
230
1.0
 70
     8
 71
     3
 72
    11
 73
     7
 74
     0
 42
0.0000000001
 43
0.0000000001
 40
0.0
 40
0.0
 40
0.0
 40
0.0
 40
0.3393721293699456
 40
0.5594841282996678
 40
0.7797287372739257
 40
1.0
 40
1.0
 40
1.0
 40
1.0
 10
6.976865495082893
 20
9.389177271710336
 30
0.0
 10
6.976659205145849
 20
9.385145493510041
 30
0.0
 10
6.976319118451562
 20
9.378498760568019
 30
0.0
 10
6.974466781974331
 20
9.368519914865887
 30
0.0
 10
6.972542194954723
 20
9.360093821550677
 30
0.0
 10
6.971077254963576
 20
9.354491860402843
 30
0.0
 10
6.970344740649339
 20
9.351690710353441
 30
0.0
  0
LINE
  5
DB
330
1F
100
AcDbEntity
  8
0
  6
Continuous
 62
     7
370
     5
100
AcDbLine
 10
6.920024470344295
 20
9.11803324170552
 30
0.0
 11
6.920024470344295
 21
9.167485114938145
 31
0.0
  0
LINE
  5
DC
330
1F
100
AcDbEntity
  8
0
  6
Continuous
 62
     7
370
     5
100
AcDbLine
 10
6.915770709243505
 20
9.113881440466077
 30
0.0
 11
6.920024470344295
 21
9.11803324170552
 31
0.0
  0
LINE
  5
DD
330
1F
100
AcDbEntity
  8
0
  6
Continuous
 62
     7
370
     5
100
AcDbLine
 10
6.894338450234777
 20
9.142414771869908
 30
0.0
 11
6.915770709243505
 21
9.113881440466077
 31
0.0
  0
LINE
  5
DE
330
1F
100
AcDbEntity
  8
0
  6
Continuous
 62
     7
370
     5
100
AcDbLine
 10
6.887864377246057
 20
9.136095878161036
 30
0.0
 11
6.894338450234777
 21
9.142414771869908
 31
0.0
  0
LINE
  5
DF
330
1F
100
AcDbEntity
  8
0
  6
Continuous
 62
     7
370
     5
100
AcDbLine
 10
6.909296636254789
 20
9.107562546757204
 30
0.0
 11
6.887864377246057
 21
9.136095878161036
 31
0.0
  0
SPLINE
  5
E0
330
1F
100
AcDbEntity
  8
0
  6
Continuous
 62
     7
370
     5
100
AcDbSpline
210
0.0
220
0.0
230
1.0
 70
     8
 71
     3
 72
    11
 73
     7
 74
     0
 42
0.0000000001
 43
0.0000000001
 40
0.0
 40
0.0
 40
0.0
 40
0.0
 40
0.1871201126706235
 40
0.3739790208777887
 40
0.5609100433538114
 40
0.9999999999999998
 40
0.9999999999999998
 40
0.9999999999999998
 40
0.9999999999999998
 10
6.888612238633552
 20
9.058333762190866
 30
0.0
 10
6.888765201649471
 20
9.061871689170986
 30
0.0
 10
6.889070914157369
 20
9.068942604472818
 30
0.0
 10
6.89195533004916
 20
9.080758625137702
 30
0.0
 10
6.898529953249908
 20
9.096179047339239
 30
0.0
 10
6.904858091672184
 20
9.102869720781933
 30
0.0
 10
6.909296636254789
 20
9.107562546757204
 30
0.0
  0
SPLINE
  5
E1
330
1F
100
AcDbEntity
  8
0
  6
Continuous
 62
     7
370
     5
100
AcDbSpline
210
0.0
220
0.0
230
1.0
 70
     8
 71
     3
 72
    11
 73
     7
 74
     0
 42
0.0000000001
 43
0.0000000001
 40
0.0
 40
0.0
 40
0.0
 40
0.0
 40
0.2798143232527528
 40
0.5595063218224953
 40
0.7796110358930001
 40
1.0
 40
1.0
 40
1.0
 40
1.0
 10
6.900368433466765
 20
9.042613884544982
 30
0.0
 10
6.898537990173934
 20
9.04194245225249
 30
0.0
 10
6.894877903791733
 20
9.040599881193378
 30
0.0
 10
6.89102815288739
 20
9.044063932451541
 30
0.0
 10
6.888898912391158
 20
9.050297094017135
 30
0.0
 10
6.888707837652856
 20
9.05565372059141
 30
0.0
 10
6.888612238633552
 20
9.058333762190866
 30
0.0
  0
SPLINE
  5
E2
330
1F
100
AcDbEntity
  8
0
  6
Continuous
 62
     7
370
     5
100
AcDbSpline
210
0.0
220
0.0
230
1.0
 70
     8
 71
     3
 72
     9
 73
     5
 74
     0
 42
0.0000000001
 43
0.0000000001
 40
0.0
 40
0.0
 40
0.0
 40
0.0
 40
0.5602392839606133
 40
1.0
 40
1.0
 40
1.0
 40
1.0
 10
6.913585442663137
 20
9.054054585946412
 30
0.0
 10
6.911106978381206
 20
9.051620857474741
 30
0.0
 10
6.906683039623449
 20
9.047276769972585
 30
0.0
 10
6.9022971676613
 20
9.044038116927216
 30
0.0
 10
6.900368433466765
 20
9.042613884544982
 30
0.0
  0
LINE
  5
E3
330
1F
100
AcDbEntity
  8
0
  6
Continuous
 62
     7
370
     5
100
AcDbLine
 10
6.925259773848216
 20
9.065449091076221
 30
0.0
 11
6.913585442663137
 21
9.054054585946412
 31
0.0
  0
LINE
  5
E4
330
1F
100
AcDbEntity
  8
0
  6
Continuous
 62
     7
370
     5
100
AcDbLine
 10
6.925259773848216
 20
9.172594931653621
 30
0.0
 11
6.925259773848216
 21
9.065449091076221
 31
0.0
  0
LINE
  5
E5
330
1F
100
AcDbEntity
  8
0
  6
Continuous
 62
     7
370
     5
100
AcDbLine
 10
6.920024470344295
 20
9.167485114938145
 30
0.0
 11
6.925259773848216
 21
9.172594931653621
 31
0.0
  0
LINE
  5
E6
330
1F
100
AcDbEntity
  8
0
  6
Continuous
 62
     7
370
     5
100
AcDbLine
 10
6.984788746297498
 20
9.230697033709132
 30
0.0
 11
7.023235912813645
 21
9.184085676647432
 31
0.0
  0
LINE
  5
E7
330
1F
100
AcDbEntity
  8
0
  6
Continuous
 62
     7
370
     5
100
AcDbLine
 10
6.983596658257537
 20
9.229533519236984
 30
0.0
 11
6.984788746297498
 21
9.230697033709132
 31
0.0
  0
LINE
  5
E8
330
1F
100
AcDbEntity
  8
0
  6
Continuous
 62
     7
370
     5
100
AcDbLine
 10
6.983596658257537
 20
9.122387678659581
 30
0.0
 11
6.983596658257537
 21
9.229533519236984
 31
0.0
  0
LINE
  5
E9
330
1F
100
AcDbEntity
  8
0
  6
Continuous
 62
     7
370
     5
100
AcDbLine
 10
6.988832098657193
 20
9.127497628989491
 30
0.0
 11
6.983596658257537
 21
9.122387678659581
 31
0.0
  0
LINE
  5
EA
330
1F
100
AcDbEntity
  8
0
  6
Continuous
 62
     7
370
     5
100
AcDbLine
 10
6.988832098657193
 20
9.211827825358533
 30
0.0
 11
6.988832098657193
 21
9.127497628989491
 31
0.0
  0
LINE
  5
EB
330
1F
100
AcDbEntity
  8
0
  6
Continuous
 62
     7
370
     5
100
AcDbLine
 10
7.027372764958744
 20
9.165114500818548
 30
0.0
 11
6.988832098657193
 21
9.211827825358533
 31
0.0
  0
LINE
  5
EC
330
1F
100
AcDbEntity
  8
0
  6
Continuous
 62
     7
370
     5
100
AcDbLine
 10
7.02847121631757
 20
9.166186623019342
 30
0.0
 11
7.027372764958744
 21
9.165114500818548
 31
0.0
  0
LINE
  5
ED
330
1F
100
AcDbEntity
  8
0
  6
Continuous
 62
     7
370
     5
100
AcDbLine
 10
7.02847121631757
 20
9.273332463596746
 30
0.0
 11
7.02847121631757
 21
9.166186623019342
 31
0.0
  0
LINE
  5
EE
330
1F
100
AcDbEntity
  8
0
  6
Continuous
 62
     7
370
     5
100
AcDbLine
 10
7.023235912813645
 20
9.268222646881268
 30
0.0
 11
7.02847121631757
 21
9.273332463596746
 31
0.0
  0
LINE
  5
EF
330
1F
100
AcDbEntity
  8
0
  6
Continuous
 62
     7
370
     5
100
AcDbLine
 10
7.023235912813645
 20
9.184085676647432
 30
0.0
 11
7.023235912813645
 21
9.268222646881268
 31
0.0
  0
LINE
  5
F0
330
1F
100
AcDbEntity
  8
0
  6
Continuous
 62
     7
370
     5
100
AcDbLine
 10
6.96003758714628
 20
9.010448434075989
 30
0.0
 11
6.965272890650205
 21
9.015558250791467
 31
0.0
  0
LINE
  5
F1
330
1F
100
AcDbEntity
  8
0
  6
Continuous
 62
     7
370
     5
100
AcDbLine
 10
6.96003758714628
 20
8.914291842787429
 30
0.0
 11
6.96003758714628
 21
9.010448434075989
 31
0.0
  0
LINE
  5
F2
330
1F
100
AcDbEntity
  8
0
  6
Continuous
 62
     7
370
     5
100
AcDbLine
 10
6.947323122184485
 20
8.901882135204775
 30
0.0
 11
6.96003758714628
 21
8.914291842787429
 31
0.0
  0
LINE
  5
F3
330
1F
100
AcDbEntity
  8
0
  6
Continuous
 62
     7
370
     5
100
AcDbLine
 10
6.947323122184485
 20
8.890892823057725
 30
0.0
 11
6.947323122184485
 21
8.901882135204775
 31
0.0
  0
LINE
  5
F4
330
1F
100
AcDbEntity
  8
0
  6
Continuous
 62
     7
370
     5
100
AcDbLine
 10
6.977987355612
 20
8.920822054938511
 30
0.0
 11
6.947323122184485
 21
8.890892823057725
 31
0.0
  0
LINE
  5
F5
330
1F
100
AcDbEntity
  8
0
  6
Continuous
 62
     7
370
     5
100
AcDbLine
 10
6.977987355612
 20
8.931811367085561
 30
0.0
 11
6.977987355612
 21
8.920822054938511
 31
0.0
  0
LINE
  5
F6
330
1F
100
AcDbEntity
  8
0
  6
Continuous
 62
     7
370
     5
100
AcDbLine
 10
6.965272890650205
 20
8.919401659502907
 30
0.0
 11
6.977987355612
 21
8.931811367085561
 31
0.0
  0
LINE
  5
F7
330
1F
100
AcDbEntity
  8
0
  6
Continuous
 62
     7
370
     5
100
AcDbLine
 10
6.965272890650205
 20
9.015558250791467
 30
0.0
 11
6.965272890650205
 21
8.919401659502907
 31
0.0
  0
LINE
  5
F8
330
1F
100
AcDbEntity
  8
0
  6
Continuous
 62
     7
370
     5
100
AcDbLine
 10
6.923763914177497
 20
8.729501508768871
 30
0.0
 11
6.923763914177497
 21
8.778953444859705
 31
0.0
  0
LINE
  5
F9
330
1F
100
AcDbEntity
  8
0
  6
Continuous
 62
     7
370
     5
100
AcDbLine
 10
6.919592016724837
 20
8.725429608959645
 30
0.0
 11
6.923763914177497
 21
8.729501508768871
 31
0.0
  0
SPLINE
  5
FA
330
1F
100
AcDbEntity
  8
0
  6
Continuous
 62
     7
370
     5
100
AcDbSpline
210
0.0
220
0.0
230
1.0
 70
     8
 71
     3
 72
     9
 73
     5
 74
     0
 42
0.0000000001
 43
0.0000000001
 40
0.0
 40
0.0
 40
0.0
 40
0.0
 40
0.5596832095587177
 40
0.9999999999999998
 40
0.9999999999999998
 40
0.9999999999999998
 40
0.9999999999999998
 10
6.904739103523239
 20
8.709172680479023
 30
0.0
 10
6.907500114720676
 20
8.712503494953462
 30
0.0
 10
6.91243328253825
 20
8.71845474454887
 30
0.0
 10
6.91740353230143
 20
8.723297335051919
 30
0.0
 10
6.919592016724837
 20
8.725429608959645
 30
0.0
  0
SPLINE
  5
FB
330
1F
100
AcDbEntity
  8
0
  6
Continuous
 62
     7
370
     5
100
AcDbSpline
210
0.0
220
0.0
230
1.0
 70
     8
 71
     3
 72
    11
 73
     7
 74
     0
 42
0.0000000001
 43
0.0000000001
 40
0.0
 40
0.0
 40
0.0
 40
0.0
 40
0.2800990436673503
 40
0.5593207552569912
 40
0.7794545654718064
 40
1.0
 40
1.0
 40
1.0
 40
1.0
 10
6.893099680749982
 20
8.670617962823415
 30
0.0
 10
6.893238323082461
 20
8.674287020611673
 30
0.0
 10
6.893515173488999
 20
8.681613643888718
 30
0.0
 10
6.896439260059019
 20
8.693064471749567
 30
0.0
 10
6.900412904932296
 20
8.7024911953831
 30
0.0
 10
6.903296139613988
 20
8.706944132331971
 30
0.0
 10
6.904739103523239
 20
8.709172680479023
 30
0.0
  0
SPLINE
  5
FC
330
1F
100
AcDbEntity
  8
0
  6
Continuous
 62
     7
370
     5
100
AcDbSpline
210
0.0
220
0.0
230
1.0
 70
     8
 71
     3
 72
    11
 73
     7
 74
     0
 42
0.0000000001
 43
0.0000000001
 40
0.0
 40
0.0
 40
0.0
 40
0.0
 40
0.2797200168844716
 40
0.5593319607044436
 40
0.7794940487283352
 40
1.0
 40
1.0
 40
1.0
 40
1.0
 10
6.904271604596219
 20
8.654392248447067
 30
0.0
 10
6.902499816988899
 20
8.653839515602458
 30
0.0
 10
6.898956926324893
 20
8.652734263467968
 30
0.0
 10
6.895283361170668
 20
8.656383331260277
 30
0.0
 10
6.893359494490859
 20
8.66274690872464
 30
0.0
 10
6.893186330371568
 20
8.667992913598366
 30
0.0
 10
6.893099680749982
 20
8.670617962823415
 30
0.0
  0
SPLINE
  5
FD
330
1F
100
AcDbEntity
  8
0
  6
Continuous
 62
     7
370
     5
100
AcDbSpline
210
0.0
220
0.0
230
1.0
 70
     8
 71
     3
 72
     9
 73
     5
 74
     0
 42
0.0000000001
 43
0.0000000001
 40
0.0
 40
0.0
 40
0.0
 40
0.0
 40
0.560314139219217
 40
0.9999999999999998
 40
0.9999999999999998
 40
0.9999999999999998
 40
0.9999999999999998
 10
6.917558704407714
 20
8.665751066459282
 30
0.0
 10
6.915064734464317
 20
8.663302338753533
 30
0.0
 10
6.910613713565805
 20
8.658932062270487
 30
0.0
 10
6.906208510220866
 20
8.655778725874615
 30
0.0
 10
6.904271604596219
 20
8.654392248447067
 30
0.0
  0
LINE
  5
FE
330
1F
100
AcDbEntity
  8
0
  6
Continuous
 62
     7
370
     5
100
AcDbLine
 10
6.928999354577153
 20
8.676917491754002
 30
0.0
 11
6.917558704407714
 21
8.665751066459282
 31
0.0
  0
LINE
  5
FF
330
1F
100
AcDbEntity
  8
0
  6
Continuous
 62
     7
370
     5
100
AcDbLine
 10
6.928999354577153
 20
8.784063395189615
 30
0.0
 11
6.928999354577153
 21
8.676917491754002
 31
0.0
  0
LINE
  5
100
330
1F
100
AcDbEntity
  8
0
  6
Continuous
 62
     7
370
     5
100
AcDbLine
 10
6.923763914177497
 20
8.778953444859705
 30
0.0
 11
6.928999354577153
 21
8.784063395189615
 31
0.0
  0
SPLINE
  5
101
330
1F
100
AcDbEntity
  8
0
  6
Continuous
 62
     7
370
     5
100
AcDbSpline
210
0.0
220
0.0
230
1.0
 70
     8
 71
     3
 72
    11
 73
     7
 74
     0
 42
0.0000000001
 43
0.0000000001
 40
0.0
 40
0.0
 40
0.0
 40
0.0
 40
0.2802311885867596
 40
0.559930749033989
 40
0.7799532041217229
 40
1.0
 40
1.0
 40
1.0
 40
1.0
 10
7.003217649827511
 20
8.859250070372297
 30
0.0
 10
7.005433945596742
 20
8.861138697034268
 30
0.0
 10
7.009862332588252
 20
8.86491236743411
 30
0.0
 10
7.015429411766985
 20
8.864987540109403
 30
0.0
 10
7.019535707315518
 20
8.861530411352422
 30
0.0
 10
7.020810490701496
 20
8.85680510714446
 30
0.0
 10
7.02144791764944
 20
8.854442324359183
 30
0.0
  0
SPLINE
  5
102
330
1F
100
AcDbEntity
  8
0
  6
Continuous
 62
     7
370
     5
100
AcDbSpline
210
0.0
220
0.0
230
1.0
 70
     8
 71
     3
 72
    11
 73
     7
 74
     0
 42
0.0000000001
 43
0.0000000001
 40
0.0
 40
0.0
 40
0.0
 40
0.0
 40
0.2816915254906156
 40
0.5601585367352993
 40
0.7800942804798883
 40
1.0
 40
1.0
 40
1.0
 40
1.0
 10
6.985092517928257
 20
8.796378665214144
 30
0.0
 10
6.985141140361291
 20
8.802395698663479
 30
0.0
 10
6.985237828647855
 20
8.814360888764939
 30
0.0
 10
6.988766029396352
 20
8.833619730311992
 30
0.0
 10
6.995555296481533
 20
8.850236987759508
 30
0.0
 10
7.000663648280051
 20
8.856245846225867
 30
0.0
 10
7.003217649827511
 20
8.859250070372297
 30
0.0
  0
LINE
  5
103
330
1F
100
AcDbEntity
  8
0
  6
Continuous
 62
     7
370
     5
100
AcDbLine
 10
6.985092517928257
 20
8.731666138800097
 30
0.0
 11
6.985092517928257
 21
8.796378665214144
 31
0.0
  0
LINE
  5
104
330
1F
100
AcDbEntity
  8
0
  6
Continuous
 62
     7
370
     5
100
AcDbLine
 10
6.990327958327918
 20
8.736776089130005
 30
0.0
 11
6.985092517928257
 21
8.731666138800097
 31
0.0
  0
LINE
  5
105
330
1F
100
AcDbEntity
  8
0
  6
Continuous
 62
     7
370
     5
100
AcDbLine
 10
6.990327958327918
 20
8.800973492519322
 30
0.0
 11
6.990327958327918
 21
8.736776089130005
 31
0.0
  0
SPLINE
  5
106
330
1F
100
AcDbEntity
  8
0
  6
Continuous
 62
     7
370
     5
100
AcDbSpline
210
0.0
220
0.0
230
1.0
 70
     8
 71
     3
 72
     9
 73
     5
 74
     0
 42
0.0000000001
 43
0.0000000001
 40
0.0
 40
0.0
 40
0.0
 40
0.0
 40
0.5596221781176121
 40
1.0
 40
1.0
 40
1.0
 40
1.0
 10
6.990923865452162
 20
8.818189346910731
 30
0.0
 10
6.990702932426644
 20
8.814882925308261
 30
0.0
 10
6.990308142809369
 20
8.808974614787777
 30
0.0
 10
6.990321899976581
 20
8.803419737347358
 30
0.0
 10
6.990327958327918
 20
8.800973492519322
 30
0.0
  0
SPLINE
  5
107
330
1F
100
AcDbEntity
  8
0
  6
Continuous
 62
     7
370
     5
100
AcDbSpline
210
0.0
220
0.0
230
1.0
 70
     8
 71
     3
 72
    11
 73
     7
 74
     0
 42
0.0000000001
 43
0.0000000001
 40
0.0
 40
0.0
 40
0.0
 40
0.0
 40
0.2797323345410251
 40
0.5593552248920468
 40
0.7795753257219708
 40
1.0
 40
1.0
 40
1.0
 40
1.0
 10
7.003509785320996
 20
8.848545891422716
 30
0.0
 10
7.001902281988915
 20
8.846655257063959
 30
0.0
 10
6.9986879042542
 20
8.842874728049803
 30
0.0
 10
6.994795129814733
 20
8.834553650171208
 30
0.0
 10
6.992137623830096
 20
8.826003246637151
 30
0.0
 10
6.991328576780689
 20
8.820794786178325
 30
0.0
 10
6.990923865452167
 20
8.818189346910729
 30
0.0
  0
SPLINE
  5
108
330
1F
100
AcDbEntity
  8
0
  6
Continuous
 62
     7
370
     5
100
AcDbSpline
210
0.0
220
0.0
230
1.0
 70
     8
 71
     3
 72
    10
 73
     6
 74
     0
 42
0.0000000001
 43
0.0000000001
 40
0.0
 40
0.0
 40
0.0
 40
0.0
 40
0.2809770607575901
 40
0.5607674243761709
 40
1.0
 40
1.0
 40
1.0
 40
1.0
 10
7.01701893001085
 20
8.841276478054528
 30
0.0
 10
7.016647966775104
 20
8.844190484302346
 30
0.0
 10
7.015907607054329
 20
8.850006189590882
 30
0.0
 10
7.010918082749266
 20
8.853585384203013
 30
0.0
 10
7.00631915295934
 20
8.850456963172703
 30
0.0
 10
7.003509785320996
 20
8.848545891422716
 30
0.0
  0
SPLINE
  5
109
330
1F
100
AcDbEntity
  8
0
  6
Continuous
 62
     7
370
     5
100
AcDbSpline
210
0.0
220
0.0
230
1.0
 70
     8
 71
     3
 72
     9
 73
     5
 74
     0
 42
0.0000000001
 43
0.0000000001
 40
0.0
 40
0.0
 40
0.0
 40
0.0
 40
0.560127336734734
 40
1.0
 40
1.0
 40
1.0
 40
1.0
 10
7.017252611026495
 20
8.827252778966519
 30
0.0
 10
7.017257685798393
 20
8.829921614500158
 30
0.0
 10
7.017266745830924
 20
8.834686308809134
 30
0.0
 10
7.017094636292076
 20
8.839263219957965
 30
0.0
 10
7.01701893001085
 20
8.841276478054528
 30
0.0
  0
LINE
  5
10A
330
1F
100
AcDbEntity
  8
0
  6
Continuous
 62
     7
370
     5
100
AcDbLine
 10
7.017252611026495
 20
8.763055375577204
 30
0.0
 11
7.017252611026495
 21
8.827252778966519
 31
0.0
  0
LINE
  5
10B
330
1F
100
AcDbEntity
  8
0
  6
Continuous
 62
     7
370
     5
100
AcDbLine
 10
7.022488051426151
 20
8.768165325907114
 30
0.0
 11
7.017252611026495
 21
8.763055375577204
 31
0.0
  0
LINE
  5
10C
330
1F
100
AcDbEntity
  8
0
  6
Continuous
 62
     7
370
     5
100
AcDbLine
 10
7.022488051426151
 20
8.832877852321161
 30
0.0
 11
7.022488051426151
 21
8.768165325907114
 31
0.0
  0
SPLINE
  5
10D
330
1F
100
AcDbEntity
  8
0
  6
Continuous
 62
     7
370
     5
100
AcDbSpline
210
0.0
220
0.0
230
1.0
 70
     8
 71
     3
 72
     9
 73
     5
 74
     0
 42
0.0000000001
 43
0.0000000001
 40
0.0
 40
0.0
 40
0.0
 40
0.0
 40
0.5594975279132468
 40
1.0
 40
1.0
 40
1.0
 40
1.0
 10
7.02144791764944
 20
8.854442324359183
 30
0.0
 10
7.021821113322898
 20
8.85062119433922
 30
0.0
 10
7.022488132665881
 20
8.843791619891916
 30
0.0
 10
7.022488076269079
 20
8.836215258322093
 30
0.0
 10
7.022488051426155
 20
8.832877852321161
 30
0.0
  0
LWPOLYLINE
  5
10E
330
1F
100
AcDbEntity
  8
0
  6
Continuous
 62
     7
370
     5
100
AcDbPolyline
 90
       22
 70
   128
 43
0.0
 10
6.886859151881172
 20
15.27309115193238
 10
6.890093587356613
 20
15.23683395145554
 10
6.899509686535821
 20
15.2101122008145
 10
6.914270742700808
 20
15.19530043416884
 10
6.933065157837008
 20
15.19371478712195
 10
6.954222940901763
 20
15.20549588725817
 10
6.975864102798523
 20
15.22959679809659
 10
6.996065806066416
 20
15.26387676684928
 10
7.013033073858871
 20
15.30528896197605
 10
7.025258136576423
 20
15.35015467668212
 10
7.031655000371927
 20
15.39448626372637
 10
7.031655000371927
 20
15.43434591137054
 10
7.025258136576423
 20
15.46619093094179
 10
7.013033073858871
 20
15.48719207080428
 10
6.996065806066416
 20
15.49548311888889
 10
6.975864102798523
 20
15.49032812423897
 10
6.954222940901763
 20
15.47218416017394
 10
6.933065157837008
 20
15.44266397052411
 10
6.914270742700808
 20
15.4043904727925
 10
6.899509686535821
 20
15.36076421947059
 10
6.890093587356613
 20
15.31566216876968
 10
6.886859151881172
 20
15.27309115193238
  0
LWPOLYLINE
  5
10F
330
1F
100
AcDbEntity
  8
0
  6
Continuous
 62
     7
370
     5
100
AcDbPolyline
 90
       17
 70
   128
 43
0.0
 10
6.804720754018066
 20
9.471329622647042
 10
6.80763375831323
 20
9.447274896392062
 10
6.815929502816389
 20
9.432568724778437
 10
6.828344850602331
 20
9.429450032056735
 10
6.842989819186029
 20
9.438393731018894
 10
6.857634650873992
 20
9.458037775042207
 10
6.870049998659934
 20
9.485391987862236
 10
6.878345743163093
 20
9.516291961381636
 10
6.881258747458256
 20
9.546033050625327
 10
6.878345743163093
 20
9.570087776880306
 10
6.870049998659934
 20
9.584793822777513
 10
6.857634650873992
 20
9.587912641215636
 10
6.842989819186029
 20
9.578969075867908
 10
6.828344850602331
 20
9.55932489823016
 10
6.815929502816389
 20
9.531970559693714
 10
6.80763375831323
 20
9.501070711890733
 10
6.804720754018066
 20
9.471329622647042
  0
LWPOLYLINE
  5
110
330
1F
100
AcDbEntity
  8
0
  6
Continuous
 62
     7
370
     5
100
AcDbPolyline
 90
       17
 70
   128
 43
0.0
 10
6.746383869608744
 20
10.27155838826499
 10
6.749296873903908
 20
10.24750353629359
 10
6.757592618407067
 20
10.23279749039638
 10
6.770007966193014
 20
10.22967867195826
 10
6.784652797880976
 20
10.23862223730599
 10
6.799297766464671
 20
10.25826641494374
 10
6.811713114250617
 20
10.28562075348018
 10
6.820008858753776
 20
10.31652060128317
 10
6.822921863048939
 20
10.34626181624327
 10
6.820008858753776
 20
10.37031641678183
 10
6.811713114250617
 20
10.38502271411188
 10
6.799297766464671
 20
10.38814128111716
 10
6.784652797880976
 20
10.379197582155
 10
6.770007966193014
 20
10.35955353813169
 10
6.757592618407067
 20
10.33219945102808
 10
6.749296873903908
 20
10.30129935179226
 10
6.746383869608744
 20
10.27155838826499
  0
LWPOLYLINE
  5
111
330
1F
100
AcDbEntity
  8
0
  6
Continuous
 62
     7
370
     5
100
AcDbPolyline
 90
       17
 70
   128
 43
0.0
 10
7.096405312960399
 20
10.29175227421454
 10
7.099318454151294
 20
10.26769755585758
 10
7.107614061758723
 20
10.25299137634594
 10
7.120029409544664
 20
10.24987268362423
 10
7.134674378128362
 20
10.25881625686998
 10
7.149319346712057
 20
10.27846056022414
 10
7.161734694497998
 20
10.30581477304417
 10
7.170030302105427
 20
10.33671448723272
 10
7.172943443296325
 20
10.36645583580726
 10
7.170030302105427
 20
10.39051042844781
 10
7.161734694497998
 20
10.40521660795945
 10
7.149319346712057
 20
10.40833530068115
 10
7.134674378128362
 20
10.39939172743541
 10
7.120029409544664
 20
10.37974742408124
 10
7.107614061758723
 20
10.35239321126122
 10
7.099318454151294
 20
10.32149349707267
 10
7.096405312960399
 20
10.29175227421454
  0
LWPOLYLINE
  5
112
330
1F
100
AcDbEntity
  8
0
  6
Continuous
 62
     7
370
     5
100
AcDbPolyline
 90
       17
 70
   128
 43
0.0
 10
6.804720754018066
 20
11.18566420333324
 10
6.80763375831323
 20
11.16160935136184
 10
6.815929502816389
 20
11.14690330546464
 10
6.828344850602331
 20
11.14378473845935
 10
6.842989819186029
 20
11.15272818598867
 10
6.857634650873992
 20
11.17237248144482
 10
6.870049998659934
 20
11.19972656854844
 10
6.878345743163093
 20
11.23062641635142
 10
6.881258747458256
 20
11.26036763131153
 10
6.878345743163093
 20
11.28442248328292
 10
6.870049998659934
 20
11.29912852918013
 10
6.857634650873992
 20
11.30224709618542
 10
6.842989819186029
 20
11.29330378227053
 10
6.828344850602331
 20
11.27365935319994
 10
6.815929502816389
 20
11.24630526609633
 10
6.80763375831323
 20
11.21540541829335
 10
6.804720754018066
 20
11.18566420333324
  0
LWPOLYLINE
  5
113
330
1F
100
AcDbEntity
  8
0
  6
Continuous
 62
     7
370
     5
100
AcDbPolyline
 90
       17
 70
   128
 43
0.0
 10
7.038068428551078
 20
11.09198091411607
 10
7.040981569741977
 20
11.06792644719194
 10
7.049277177349401
 20
11.05322001624747
 10
7.061692525135347
 20
11.05010144924218
 10
7.076337493719041
 20
11.05904514820434
 10
7.090982462302735
 20
11.07868932584209
 10
7.103397810088681
 20
11.1060434129457
 10
7.111693417696105
 20
11.13694337856709
 10
7.114606558887004
 20
11.16668447570879
 10
7.111693417696105
 20
11.19073919406576
 10
7.103397810088681
 20
11.2054453735774
 10
7.090982462302735
 20
11.20856394058268
 10
7.076337493719041
 20
11.19962049305336
 10
7.061692525135347
 20
11.17997606398277
 10
7.049277177349401
 20
11.15262197687916
 10
7.040981569741977
 20
11.12172226269062
 10
7.038068428551078
 20
11.09198091411607
  0
LWPOLYLINE
  5
114
330
1F
100
AcDbEntity
  8
0
  6
Continuous
 62
     7
370
     5
100
AcDbPolyline
 90
       17
 70
   128
 43
0.0
 10
7.096405312960399
 20
12.00608672918433
 10
7.099318454151294
 20
11.9820322622602
 10
7.107614061758723
 20
11.96732608274856
 10
7.120029409544664
 20
11.96420726431044
 10
7.134674378128362
 20
11.9731509632726
 10
7.149319346712057
 20
11.99279514091034
 10
7.161734694497998
 20
12.02014947944679
 10
7.170030302105427
 20
12.05104919363534
 10
7.172943443296325
 20
12.08079029077704
 10
7.170030302105427
 20
12.10484500913401
 10
7.161734694497998
 20
12.11955118864565
 10
7.149319346712057
 20
12.12267000708377
 10
7.134674378128362
 20
12.11372630812161
 10
7.120029409544664
 20
12.09408213048386
 10
7.107614061758723
 20
12.06672779194742
 10
7.099318454151294
 20
12.03582807775887
 10
7.096405312960399
 20
12.00608672918433
  0
LWPOLYLINE
  5
115
330
1F
100
AcDbEntity
  8
0
  6
Continuous
 62
     7
370
     5
100
AcDbPolyline
 90
       17
 70
   128
 43
0.0
 10
6.746383869608744
 20
11.98589284323477
 10
6.749296873903908
 20
11.96183824269621
 10
6.757592618407067
 20
11.94713219679901
 10
6.770007966193014
 20
11.94401337836088
 10
6.784652797880976
 20
11.95295694370861
 10
6.799297766464671
 20
11.97260112134636
 10
6.811713114250617
 20
11.9999554598828
 10
6.820008858753776
 20
12.03085530768579
 10
6.822921863048939
 20
12.06059627121306
 10
6.820008858753776
 20
12.08465112318445
 10
6.811713114250617
 20
12.09935716908166
 10
6.799297766464671
 20
12.10247598751978
 10
6.784652797880976
 20
12.09353228855763
 10
6.770007966193014
 20
12.07388824453431
 10
6.757592618407067
 20
12.04653390599786
 10
6.749296873903908
 20
12.01563405819488
 10
6.746383869608744
 20
11.98589284323477
  0
LWPOLYLINE
  5
116
330
1F
100
AcDbEntity
  8
0
  6
Continuous
 62
     7
370
     5
100
AcDbPolyline
 90
       17
 70
   128
 43
0.0
 10
6.804720754018066
 20
12.89999890973586
 10
6.80763375831323
 20
12.87594380633163
 10
6.815929502816389
 20
12.86123776043442
 10
6.828344850602331
 20
12.85811919342914
 10
6.842989819186029
 20
12.86706264095846
 10
6.857634650873992
 20
12.88670693641461
 10
6.870049998659934
 20
12.91406102351822
 10
6.878345743163093
 20
12.9449608713212
 10
6.881258747458256
 20
12.97470233771415
 10
6.878345743163093
 20
12.99875693825271
 10
6.870049998659934
 20
13.01346298414992
 10
6.857634650873992
 20
13.0165815511552
 10
6.842989819186029
 20
13.00763823724031
 10
6.828344850602331
 20
12.98799380816973
 10
6.815929502816389
 20
12.96063972106612
 10
6.80763375831323
 20
12.92973987326314
 10
6.804720754018066
 20
12.89999890973586
  0
LWPOLYLINE
  5
117
330
1F
100
AcDbEntity
  8
0
  6
Continuous
 62
     7
370
     5
100
AcDbPolyline
 90
       17
 70
   128
 43
0.0
 10
7.038068428551078
 20
12.8063156205187
 10
7.040981569741977
 20
12.78226115359457
 10
7.049277177349401
 20
12.76755497408293
 10
7.061692525135347
 20
12.76443590421197
 10
7.076337493719041
 20
12.77337985460696
 10
7.090982462302735
 20
12.79302378081188
 10
7.103397810088681
 20
12.82037837078116
 10
7.111693417696105
 20
12.85127808496971
 10
7.114606558887004
 20
12.88101918211141
 10
7.111693417696105
 20
12.90507364903554
 10
7.103397810088681
 20
12.91977982854718
 10
7.090982462302735
 20
12.92289889841814
 10
7.076337493719041
 20
12.91395494802314
 10
7.061692525135347
 20
12.89431102181823
 10
7.049277177349401
 20
12.86695643184895
 10
7.040981569741977
 20
12.8360567176604
 10
7.038068428551078
 20
12.8063156205187
  0
LWPOLYLINE
  5
118
330
1F
100
AcDbEntity
  8
0
  6
Continuous
 62
     7
370
     5
100
AcDbPolyline
 90
       17
 70
   128
 43
0.0
 10
6.746383869608744
 20
13.70022754963739
 10
6.749296873903908
 20
13.67617294909883
 10
6.757592618407067
 20
13.66146690320162
 10
6.770007966193014
 20
13.65834783333067
 10
6.784652797880976
 20
13.66729165011123
 10
6.799297766464671
 20
13.68693557631614
 10
6.811713114250617
 20
13.71429016628543
 10
6.820008858753776
 20
13.74519001408841
 10
6.822921863048939
 20
13.77493097761568
 10
6.820008858753776
 20
13.79898557815424
 10
6.811713114250617
 20
13.81369162405145
 10
6.799297766464671
 20
13.8168106939224
 10
6.784652797880976
 20
13.80786674352741
 10
6.770007966193014
 20
13.78822295093693
 10
6.757592618407067
 20
13.76086836096765
 10
6.749296873903908
 20
13.72996851316467
 10
6.746383869608744
 20
13.70022754963739
  0
LWPOLYLINE
  5
119
330
1F
100
AcDbEntity
  8
0
  6
Continuous
 62
     7
370
     5
100
AcDbPolyline
 90
       17
 70
   128
 43
0.0
 10
7.096405312960399
 20
13.72042143558695
 10
7.099318454151294
 20
13.69636696866282
 10
7.107614061758723
 20
13.68166078915118
 10
7.120029409544664
 20
13.67854171928022
 10
7.134674378128362
 20
13.68748566967522
 10
7.149319346712057
 20
13.70712959588013
 10
7.161734694497998
 20
13.73448418584941
 10
7.170030302105427
 20
13.76538390003796
 10
7.172943443296325
 20
13.79512499717966
 10
7.170030302105427
 20
13.8191794641038
 10
7.161734694497998
 20
13.83388564361543
 10
7.149319346712057
 20
13.83700471348639
 10
7.134674378128362
 20
13.8280607630914
 10
7.120029409544664
 20
13.80841683688649
 10
7.107614061758723
 20
13.7810622469172
 10
7.099318454151294
 20
13.75016253272866
 10
7.096405312960399
 20
13.72042143558695
  0
LWPOLYLINE
  5
11A
330
1F
100
AcDbEntity
  8
0
  6
Continuous
 62
     7
370
     5
100
AcDbPolyline
 90
       17
 70
   128
 43
0.0
 10
6.804720754018066
 20
14.61433336470565
 10
6.80763375831323
 20
14.59027876416709
 10
6.815929502816389
 20
14.57557271826988
 10
6.828344850602331
 20
14.57245364839892
 10
6.842989819186029
 20
14.58139759879392
 10
6.857634650873992
 20
14.60104139138439
 10
6.870049998659934
 20
14.62839598135368
 10
6.878345743163093
 20
14.65929582915666
 10
6.881258747458256
 20
14.68903679268393
 10
6.878345743163093
 20
14.71309139322249
 10
6.870049998659934
 20
14.7277974391197
 10
6.857634650873992
 20
14.73091650899066
 10
6.842989819186029
 20
14.72197269221009
 10
6.828344850602331
 20
14.70232876600518
 10
6.815929502816389
 20
14.6749741760359
 10
6.80763375831323
 20
14.64407432823292
 10
6.804720754018066
 20
14.61433336470565
  0
LWPOLYLINE
  5
11B
330
1F
100
AcDbEntity
  8
0
  6
Continuous
 62
     7
370
     5
100
AcDbPolyline
 90
       17
 70
   128
 43
0.0
 10
7.038068428551078
 20
14.52065007548848
 10
7.040981569741977
 20
14.49659560856435
 10
7.049277177349401
 20
14.48188942905271
 10
7.061692525135347
 20
14.47877086204743
 10
7.076337493719041
 20
14.48771430957675
 10
7.090982462302735
 20
14.50735873864733
 10
7.103397810088681
 20
14.53471282575094
 10
7.111693417696105
 20
14.56561253993949
 10
7.114606558887004
 20
14.59535363708119
 10
7.111693417696105
 20
14.619408606871
 10
7.103397810088681
 20
14.63411478638264
 10
7.090982462302735
 20
14.63723335338792
 10
7.076337493719041
 20
14.6282899058586
 10
7.061692525135347
 20
14.60864547678801
 10
7.049277177349401
 20
14.5812913896844
 10
7.040981569741977
 20
14.55039167549586
 10
7.038068428551078
 20
14.52065007548848
  0
LWPOLYLINE
  5
11C
330
1F
100
AcDbEntity
  8
0
  6
Continuous
 62
     7
370
     5
100
AcDbPolyline
 90
       17
 70
   128
 43
0.0
 10
6.746383869608744
 20
15.41456200460718
 10
6.749296873903908
 20
15.39050740406862
 10
6.757592618407067
 20
15.37580135817141
 10
6.770007966193014
 20
15.37268279116612
 10
6.784652797880976
 20
15.38162610508102
 10
6.799297766464671
 20
15.4012705341516
 10
6.811713114250617
 20
15.42862462125521
 10
6.820008858753776
 20
15.45952446905819
 10
6.822921863048939
 20
15.48926543258546
 10
6.820008858753776
 20
15.5133205359897
 10
6.811713114250617
 20
15.52802658188691
 10
6.799297766464671
 20
15.53114514889219
 10
6.784652797880976
 20
15.52220170136287
 10
6.770007966193014
 20
15.50255740590672
 10
6.757592618407067
 20
15.47520331880311
 10
6.749296873903908
 20
15.44430347100013
 10
6.746383869608744
 20
15.41456200460718
  0
LWPOLYLINE
  5
11D
330
1F
100
AcDbEntity
  8
0
  6
Continuous
 62
     7
370
     5
100
AcDbPolyline
 90
       17
 70
   128
 43
0.0
 10
7.096405312960399
 20
15.43475589055673
 10
7.099318454151294
 20
15.4107014236326
 10
7.107614061758723
 20
15.39599524412096
 10
7.120029409544664
 20
15.39287667711568
 10
7.134674378128362
 20
15.401820124645
 10
7.149319346712057
 20
15.42146455371559
 10
7.161734694497998
 20
15.4488186408192
 10
7.170030302105427
 20
15.47971835500774
 10
7.172943443296325
 20
15.50945945214945
 10
7.170030302105427
 20
15.53351442193925
 10
7.161734694497998
 20
15.54822060145089
 10
7.149319346712057
 20
15.55133916845617
 10
7.134674378128362
 20
15.54239572092685
 10
7.120029409544664
 20
15.52275129185627
 10
7.107614061758723
 20
15.49539720475266
 10
7.099318454151294
 20
15.46449749056411
 10
7.096405312960399
 20
15.43475589055673
  0
SPLINE
  5
11E
330
1F
100
AcDbEntity
  8
0
  6
Continuous
 62
     7
370
     5
100
AcDbSpline
210
0.0
220
0.0
230
1.0
 70
     8
 71
     3
 72
    10
 73
     6
 74
     0
 42
0.0000000001
 43
0.0000000001
 40
0.0
 40
0.0
 40
0.0
 40
0.0
 40
0.5601375336276199
 40
0.780268676482547
 40
1.0
 40
1.0
 40
1.0
 40
1.0
 10
6.954708783856956
 20
8.748329011533806
 30
0.0
 10
6.951052307162792
 20
8.749734711836541
 30
0.0
 10
6.945958854109806
 20
8.751692845060791
 30
0.0
 10
6.94161968221945
 20
8.760352460877067
 30
0.0
 10
6.941183734087002
 20
8.766448218914284
 30
0.0
 10
6.940965958151453
 20
8.769493327519267
 30
0.0
  0
SPLINE
  5
11F
330
1F
100
AcDbEntity
  8
0
  6
Continuous
 62
     7
370
     5
100
AcDbSpline
210
0.0
220
0.0
230
1.0
 70
     8
 71
     3
 72
     9
 73
     5
 74
     0
 42
0.0000000001
 43
0.0000000001
 40
0.0
 40
0.0
 40
0.0
 40
0.0
 40
0.5599050126318735
 40
1.0
 40
1.0
 40
1.0
 40
1.0
 10
6.9625500345277
 20
8.745314897315578
 30
0.0
 10
6.961110981246476
 20
8.745961988268529
 30
0.0
 10
6.958540807290614
 20
8.747117703860192
 30
0.0
 10
6.955879855431695
 20
8.747958834260783
 30
0.0
 10
6.954708783856956
 20
8.748329011533806
 30
0.0
  0
SPLINE
  5
120
330
1F
100
AcDbEntity
  8
0
  6
Continuous
 62
     7
370
     5
100
AcDbSpline
210
0.0
220
0.0
230
1.0
 70
     8
 71
     3
 72
    10
 73
     6
 74
     0
 42
0.0000000001
 43
0.0000000001
 40
0.0
 40
0.0
 40
0.0
 40
0.0
 40
0.2799316929320827
 40
0.5597735019763729
 40
1.0
 40
1.0
 40
1.0
 40
1.0
 10
6.966394751179312
 20
8.735223503771251
 30
0.0
 10
6.966326972963263
 20
8.736652850091466
 30
0.0
 10
6.966191438294215
 20
8.739511083779923
 30
0.0
 10
6.964925762020161
 20
8.743203704479727
 30
0.0
 10
6.963451407342328
 20
8.744513891377518
 30
0.0
 10
6.9625500345277
 20
8.745314897315578
 30
0.0
  0
SPLINE
  5
121
330
1F
100
AcDbEntity
  8
0
  6
Continuous
 62
     7
370
     5
100
AcDbSpline
210
0.0
220
0.0
230
1.0
 70
     8
 71
     3
 72
    11
 73
     7
 74
     0
 42
0.0000000001
 43
0.0000000001
 40
0.0
 40
0.0
 40
0.0
 40
0.0
 40
0.2803068514980405
 40
0.5598341715140781
 40
0.7799030093474181
 40
1.0
 40
1.0
 40
1.0
 40
1.0
 10
6.9578405475329
 20
8.7133094115004
 30
0.0
 10
6.959024821407658
 20
8.714634076281285
 30
0.0
 10
6.961390075699436
 20
8.71727972195914
 30
0.0
 10
6.964247115946357
 20
8.723389832860181
 30
0.0
 10
6.966106857105189
 20
8.729810043532564
 30
0.0
 10
6.966298782396124
 20
8.733418940083858
 30
0.0
 10
6.966394751179316
 20
8.735223503771248
 30
0.0
  0
SPLINE
  5
122
330
1F
100
AcDbEntity
  8
0
  6
Continuous
 62
     7
370
     5
100
AcDbSpline
210
0.0
220
0.0
230
1.0
 70
     8
 71
     3
 72
    10
 73
     6
 74
     0
 42
0.0000000001
 43
0.0000000001
 40
0.0
 40
0.0
 40
0.0
 40
0.0
 40
0.559829957611826
 40
0.7798683016534517
 40
1.0
 40
1.0
 40
1.0
 40
1.0
 10
6.946446715704031
 20
8.715925338239722
 30
0.0
 10
6.948091439525905
 20
8.713633441362878
 30
0.0
 10
6.950382613758749
 20
8.710440725966696
 30
0.0
 10
6.954711260261558
 20
8.710698808954004
 30
0.0
 10
6.95679730430158
 20
8.71243908762149
 30
0.0
 10
6.957840547532905
 20
8.7133094115004
 30
0.0
  0
LINE
  5
123
330
1F
100
AcDbEntity
  8
0
  6
Continuous
 62
     7
370
     5
100
AcDbLine
 10
6.941713819538947
 20
8.704716586130606
 30
0.0
 11
6.946446715704031
 21
8.715925338239722
 31
0.0
  0
SPLINE
  5
124
330
1F
100
AcDbEntity
  8
0
  6
Continuous
 62
     7
370
     5
100
AcDbSpline
210
0.0
220
0.0
230
1.0
 70
     8
 71
     3
 72
    10
 73
     6
 74
     0
 42
0.0000000001
 43
0.0000000001
 40
0.0
 40
0.0
 40
0.0
 40
0.0
 40
0.2797882398776414
 40
0.5594927879554508
 40
1.0
 40
1.0
 40
1.0
 40
1.0
 10
6.957256276545932
 20
8.701749832958411
 30
0.0
 10
6.955459066762904
 20
8.70031316313643
 30
0.0
 10
6.951865184788153
 20
8.697440253237056
 30
0.0
 10
6.94623808972577
 20
8.698250819535562
 30
0.0
 10
6.94343083605571
 20
8.702262747703898
 30
0.0
 10
6.941713819538947
 20
8.704716586130606
 30
0.0
  0
SPLINE
  5
125
330
1F
100
AcDbEntity
  8
0
  6
Continuous
 62
     7
370
     5
100
AcDbSpline
210
0.0
220
0.0
230
1.0
 70
     8
 71
     3
 72
    11
 73
     7
 74
     0
 42
0.0000000001
 43
0.0000000001
 40
0.0
 40
0.0
 40
0.0
 40
0.0
 40
0.2795317513831355
 40
0.5588339494028909
 40
0.7793453856553484
 40
1.0
 40
1.0
 40
1.0
 40
1.0
 10
6.971630191578968
 20
8.740784210319631
 30
0.0
 10
6.971376540877357
 20
8.736732937339843
 30
0.0
 10
6.970869447773795
 20
8.72863371831302
 30
0.0
 10
6.966893925846333
 20
8.716476135280631
 30
0.0
 10
6.962125715512298
 20
8.707254904740752
 30
0.0
 10
6.958879774019066
 20
8.703585253874404
 30
0.0
 10
6.957256276545932
 20
8.701749832958411
 30
0.0
  0
SPLINE
  5
126
330
1F
100
AcDbEntity
  8
0
  6
Continuous
 62
     7
370
     5
100
AcDbSpline
210
0.0
220
0.0
230
1.0
 70
     8
 71
     3
 72
     9
 73
     5
 74
     0
 42
0.0000000001
 43
0.0000000001
 40
0.0
 40
0.0
 40
0.0
 40
0.0
 40
0.5598211714092058
 40
1.0
 40
1.0
 40
1.0
 40
1.0
 10
6.968369745914328
 20
8.75391418641939
 30
0.0
 10
6.969399245501067
 20
8.752140690188788
 30
0.0
 10
6.971238224873983
 20
8.748972720985095
 30
0.0
 10
6.971510390175415
 20
8.743286961339897
 30
0.0
 10
6.971630191578968
 20
8.740784210319631
 30
0.0
  0
SPLINE
  5
127
330
1F
100
AcDbEntity
  8
0
  6
Continuous
 62
     7
370
     5
100
AcDbSpline
210
0.0
220
0.0
230
1.0
 70
     8
 71
     3
 72
     9
 73
     5
 74
     0
 42
0.0000000001
 43
0.0000000001
 40
0.0
 40
0.0
 40
0.0
 40
0.0
 40
0.5604102392346108
 40
1.0
 40
1.0
 40
1.0
 40
1.0
 10
6.958810590694493
 20
8.75915789654622
 30
0.0
 10
6.960712511583668
 20
8.758545608745832
 30
0.0
 10
6.964106312688673
 20
8.757453038058292
 30
0.0
 10
6.967067873920795
 20
8.754994801875076
 30
0.0
 10
6.968369745914328
 20
8.75391418641939
 30
0.0
  0
SPLINE
  5
128
330
1F
100
AcDbEntity
  8
0
  6
Continuous
 62
     7
370
     5
100
AcDbSpline
210
0.0
220
0.0
230
1.0
 70
     8
 71
     3
 72
     9
 73
     5
 74
     0
 42
0.0000000001
 43
0.0000000001
 40
0.0
 40
0.0
 40
0.0
 40
0.0
 40
0.5595085397586468
 40
1.0
 40
1.0
 40
1.0
 40
1.0
 10
6.948293028450347
 20
8.765977357495183
 30
0.0
 10
6.950090474827725
 20
8.764199069513448
 30
0.0
 10
6.953303019855464
 20
8.761020765957079
 30
0.0
 10
6.957126416932813
 20
8.759727548008708
 30
0.0
 10
6.958810590694493
 20
8.75915789654622
 30
0.0
  0
SPLINE
  5
129
330
1F
100
AcDbEntity
  8
0
  6
Continuous
 62
     7
370
     5
100
AcDbSpline
210
0.0
220
0.0
230
1.0
 70
     8
 71
     3
 72
     9
 73
     5
 74
     0
 42
0.0000000001
 43
0.0000000001
 40
0.0
 40
0.0
 40
0.0
 40
0.0
 40
0.5590216031504495
 40
1.0
 40
1.0
 40
1.0
 40
1.0
 10
6.946201261655379
 20
8.774452850256446
 30
0.0
 10
6.946346437669227
 20
8.772460966889159
 30
0.0
 10
6.946606134276713
 20
8.768897806975369
 30
0.0
 10
6.947776793168839
 20
8.766871094092946
 30
0.0
 10
6.948293028450351
 20
8.765977357495181
 30
0.0
  0
SPLINE
  5
12A
330
1F
100
AcDbEntity
  8
0
  6
Continuous
 62
     7
370
     5
100
AcDbSpline
210
0.0
220
0.0
230
1.0
 70
     8
 71
     3
 72
    11
 73
     7
 74
     0
 42
0.0000000001
 43
0.0000000001
 40
0.0
 40
0.0
 40
0.0
 40
0.0
 40
0.2801832940442212
 40
0.5600537351592175
 40
0.7801613247904975
 40
1.0
 40
1.0
 40
1.0
 40
1.0
 10
6.957630275687545
 20
8.80376608351908
 30
0.0
 10
6.95606439351437
 20
8.801938738628555
 30
0.0
 10
6.952934377633511
 20
8.798286089262532
 30
0.0
 10
6.949095781402315
 20
8.790241270862509
 30
0.0
 10
6.946662390898166
 20
8.781689728732017
 30
0.0
 10
6.946354908754123
 20
8.776864159881974
 30
0.0
 10
6.946201261655379
 20
8.774452850256446
 30
0.0
  0
SPLINE
  5
12B
330
1F
100
AcDbEntity
  8
0
  6
Continuous
 62
     7
370
     5
100
AcDbSpline
210
0.0
220
0.0
230
1.0
 70
     8
 71
     3
 72
    10
 73
     6
 74
     0
 42
0.0000000001
 43
0.0000000001
 40
0.0
 40
0.0
 40
0.0
 40
0.0
 40
0.5593239154834193
 40
0.7797851856278477
 40
1.0
 40
1.0
 40
1.0
 40
1.0
 10
6.970438240434742
 20
8.798409409662422
 30
0.0
 10
6.968704530968854
 20
8.801610770280358
 30
0.0
 10
6.966287468296847
 20
8.806073968642898
 30
0.0
 10
6.961344993411511
 20
8.806681562886865
 30
0.0
 10
6.958868053171549
 20
8.804737547566871
 30
0.0
 10
6.957630275687545
 20
8.80376608351908
 30
0.0
  0
LINE
  5
12C
330
1F
100
AcDbEntity
  8
0
  6
Continuous
 62
     7
370
     5
100
AcDbLine
 10
6.975369772307905
 20
8.808652993791884
 30
0.0
 11
6.970438240434742
 21
8.798409409662422
 31
0.0
  0
SPLINE
  5
12D
330
1F
100
AcDbEntity
  8
0
  6
Continuous
 62
     7
370
     5
100
AcDbSpline
210
0.0
220
0.0
230
1.0
 70
     8
 71
     3
 72
    10
 73
     6
 74
     0
 42
0.0000000001
 43
0.0000000001
 40
0.0
 40
0.0
 40
0.0
 40
0.0
 40
0.27988431450141
 40
0.559676322134825
 40
1.0
 40
1.0
 40
1.0
 40
1.0
 10
6.957630275687545
 20
8.81475539566613
 30
0.0
 10
6.959788695569609
 20
8.81646499199569
 30
0.0
 10
6.964104823478972
 20
8.819883620823704
 30
0.0
 10
6.970753814982938
 20
8.818297309021227
 30
0.0
 10
6.973618267343175
 20
8.812312487330579
 30
0.0
 10
6.975369772307909
 20
8.808652993791884
 30
0.0
  0
SPLINE
  5
12E
330
1F
100
AcDbEntity
  8
0
  6
Continuous
 62
     7
370
     5
100
AcDbSpline
210
0.0
220
0.0
230
1.0
 70
     8
 71
     3
 72
    11
 73
     7
 74
     0
 42
0.0000000001
 43
0.0000000001
 40
0.0
 40
0.0
 40
0.0
 40
0.0
 40
0.2791584224281374
 40
0.5590835186991115
 40
0.7794416046298988
 40
0.9999999999999998
 40
0.9999999999999998
 40
0.9999999999999998
 40
0.9999999999999998
 10
6.940965958151453
 20
8.769493327519267
 30
0.0
 10
6.941292705640471
 20
8.77419414335756
 30
0.0
 10
6.941947097989777
 20
8.783608685239443
 30
0.0
 10
6.946617663090168
 20
8.797483019674942
 30
0.0
 10
6.951995470913846
 20
8.808424807722154
 30
0.0
 10
6.955751438647856
 20
8.812644560670099
 30
0.0
 10
6.957630275687545
 20
8.81475539566613
 30
0.0
  0
LINE
  5
12F
330
1F
100
AcDbEntity
  8
0
  6
Continuous
 62
     7
370
     5
100
AcDbLine
 10
7.016306113930918
 20
9.065368241209226
 30
0.0
 11
7.037446237446159
 21
9.008732944697689
 31
0.0
  0
LINE
  5
130
330
1F
100
AcDbEntity
  8
0
  6
Continuous
 62
     7
370
     5
100
AcDbLine
 10
7.015125798923965
 20
9.064216217578213
 30
0.0
 11
7.016306113930918
 21
9.065368241209226
 31
0.0
  0
LINE
  5
131
330
1F
100
AcDbEntity
  8
0
  6
Continuous
 62
     7
370
     5
100
AcDbLine
 10
6.994067402161118
 20
8.966565600247465
 30
0.0
 11
7.015125798923965
 21
9.064216217578213
 31
0.0
  0
LINE
  5
132
330
1F
100
AcDbEntity
  8
0
  6
Continuous
 62
     7
370
     5
100
AcDbLine
 10
6.988481508685866
 20
9.038210573487349
 30
0.0
 11
6.994067402161118
 21
8.966565600247465
 31
0.0
  0
LINE
  5
133
330
1F
100
AcDbEntity
  8
0
  6
Continuous
 62
     7
370
     5
100
AcDbLine
 10
6.983222796011656
 20
9.033077908704033
 30
0.0
 11
6.988481508685866
 21
9.038210573487349
 31
0.0
  0
LINE
  5
134
330
1F
100
AcDbEntity
  8
0
  6
Continuous
 62
     7
370
     5
100
AcDbLine
 10
6.990970683792731
 20
8.933494181265228
 30
0.0
 11
6.983222796011656
 21
9.033077908704033
 31
0.0
  0
LINE
  5
135
330
1F
100
AcDbEntity
  8
0
  6
Continuous
 62
     7
370
     5
100
AcDbLine
 10
6.991730181317502
 20
8.934235474132876
 30
0.0
 11
6.990970683792731
 21
8.933494181265228
 31
0.0
  0
LINE
  5
136
330
1F
100
AcDbEntity
  8
0
  6
Continuous
 62
     7
370
     5
100
AcDbLine
 10
7.015756888251506
 20
9.045600899566043
 30
0.0
 11
6.991730181317502
 21
8.934235474132876
 31
0.0
  0
LINE
  5
137
330
1F
100
AcDbEntity
  8
0
  6
Continuous
 62
     7
370
     5
100
AcDbLine
 10
7.039841775871891
 20
8.981193865347075
 30
0.0
 11
7.015756888251506
 21
9.045600899566043
 31
0.0
  0
LINE
  5
138
330
1F
100
AcDbEntity
  8
0
  6
Continuous
 62
     7
370
     5
100
AcDbLine
 10
7.040589774155115
 20
8.98192393460245
 30
0.0
 11
7.039841775871891
 21
8.981193865347075
 31
0.0
  0
LINE
  5
139
330
1F
100
AcDbEntity
  8
0
  6
Continuous
 62
     7
370
     5
100
AcDbLine
 10
7.048290843595622
 20
9.096586317899193
 30
0.0
 11
7.040589774155115
 21
8.98192393460245
 31
0.0
  0
LINE
  5
13A
330
1F
100
AcDbEntity
  8
0
  6
Continuous
 62
     7
370
     5
100
AcDbLine
 10
7.04302049478414
 20
9.091442295889173
 30
0.0
 11
7.048290843595622
 21
9.096586317899193
 31
0.0
  0
LINE
  5
13B
330
1F
100
AcDbEntity
  8
0
  6
Continuous
 62
     7
370
     5
100
AcDbLine
 10
7.037446237446159
 20
9.008732944697689
 30
0.0
 11
7.04302049478414
 21
9.091442295889173
 31
0.0
  0
LINE
  5
13C
330
1F
100
AcDbEntity
  8
0
  6
Continuous
 62
     7
370
     5
100
AcDbLine
 10
6.906562007099271
 20
8.876306884058047
 30
0.0
 11
6.924324912889916
 21
8.975591769179139
 31
0.0
  0
LINE
  5
13D
330
1F
100
AcDbEntity
  8
0
  6
Continuous
 62
     7
370
     5
100
AcDbLine
 10
6.889009510049717
 20
8.941122853363381
 30
0.0
 11
6.906562007099271
 21
8.876306884058047
 31
0.0
  0
LINE
  5
13E
330
1F
100
AcDbEntity
  8
0
  6
Continuous
 62
     7
370
     5
100
AcDbLine
 10
6.888261648662224
 20
8.940392917722437
 30
0.0
 11
6.889009510049717
 21
8.941122853363381
 31
0.0
  0
LINE
  5
13F
330
1F
100
AcDbEntity
  8
0
  6
Continuous
 62
     7
370
     5
100
AcDbLine
 10
6.872532192084436
 20
8.817894582458123
 30
0.0
 11
6.888261648662224
 21
8.940392917722437
 31
0.0
  0
LINE
  5
140
330
1F
100
AcDbEntity
  8
0
  6
Continuous
 62
     7
370
     5
100
AcDbLine
 10
6.877884404544046
 20
8.82311850589836
 30
0.0
 11
6.872532192084436
 21
8.817894582458123
 31
0.0
  0
LINE
  5
141
330
1F
100
AcDbEntity
  8
0
  6
Continuous
 62
     7
370
     5
100
AcDbLine
 10
6.889360100021045
 20
8.912360494738477
 30
0.0
 11
6.877884404544046
 21
8.82311850589836
 31
0.0
  0
LINE
  5
142
330
1F
100
AcDbEntity
  8
0
  6
Continuous
 62
     7
370
     5
100
AcDbLine
 10
6.906024554452868
 20
8.850584154885545
 30
0.0
 11
6.889360100021045
 21
8.912360494738477
 31
0.0
  0
LINE
  5
143
330
1F
100
AcDbEntity
  8
0
  6
Continuous
 62
     7
370
     5
100
AcDbLine
 10
6.906784051977639
 20
8.851325447753193
 30
0.0
 11
6.906024554452868
 21
8.850584154885545
 31
0.0
  0
LINE
  5
144
330
1F
100
AcDbEntity
  8
0
  6
Continuous
 62
     7
370
     5
100
AcDbLine
 10
6.923763914177497
 20
8.946476292585147
 30
0.0
 11
6.906784051977639
 21
8.851325447753193
 31
0.0
  0
LINE
  5
145
330
1F
100
AcDbEntity
  8
0
  6
Continuous
 62
     7
370
     5
100
AcDbLine
 10
6.935181292072386
 20
8.879042024643307
 30
0.0
 11
6.923763914177497
 21
8.946476292585147
 31
0.0
  0
LINE
  5
146
330
1F
100
AcDbEntity
  8
0
  6
Continuous
 62
     7
370
     5
100
AcDbLine
 10
6.940591959009841
 20
8.884323001445924
 30
0.0
 11
6.935181292072386
 21
8.879042024643307
 31
0.0
  0
LINE
  5
147
330
1F
100
AcDbEntity
  8
0
  6
Continuous
 62
     7
370
     5
100
AcDbLine
 10
6.92507277427741
 20
8.976321704820083
 30
0.0
 11
6.940591959009841
 21
8.884323001445924
 31
0.0
  0
LINE
  5
148
330
1F
100
AcDbEntity
  8
0
  6
Continuous
 62
     7
370
     5
100
AcDbLine
 10
6.924324912889916
 20
8.975591769179139
 30
0.0
 11
6.92507277427741
 21
8.976321704820083
 31
0.0
  0
LINE
  5
149
330
1F
100
AcDbEntity
  8
0
  6
Continuous
 62
     7
370
     5
100
AcDbLine
 10
6.935730517751798
 20
9.171825449410167
 30
0.0
 11
6.935730517751798
 21
9.18281469869901
 31
0.0
  0
LINE
  5
14A
330
1F
100
AcDbEntity
  8
0
  6
Continuous
 62
     7
370
     5
100
AcDbLine
 10
6.963403168733604
 20
9.198834805112744
 30
0.0
 11
6.935730517751798
 21
9.171825449410167
 31
0.0
  0
LINE
  5
14B
330
1F
100
AcDbEntity
  8
0
  6
Continuous
 62
     7
370
     5
100
AcDbLine
 10
6.963403168733604
 20
9.157624837417646
 30
0.0
 11
6.963403168733604
 21
9.198834805112744
 31
0.0
  0
LINE
  5
14C
330
1F
100
AcDbEntity
  8
0
  6
Continuous
 62
     7
370
     5
100
AcDbLine
 10
6.935730517751798
 20
9.130615481715071
 30
0.0
 11
6.963403168733604
 21
9.157624837417646
 31
0.0
  0
LINE
  5
14D
330
1F
100
AcDbEntity
  8
0
  6
Continuous
 62
     7
370
     5
100
AcDbLine
 10
6.935730517751798
 20
9.11962616956802
 30
0.0
 11
6.935730517751798
 21
9.130615481715071
 31
0.0
  0
LINE
  5
14E
330
1F
100
AcDbEntity
  8
0
  6
Continuous
 62
     7
370
     5
100
AcDbLine
 10
6.963403168733604
 20
9.146635525270594
 30
0.0
 11
6.935730517751798
 21
9.11962616956802
 31
0.0
  0
LINE
  5
14F
330
1F
100
AcDbEntity
  8
0
  6
Continuous
 62
     7
370
     5
100
AcDbLine
 10
6.963403168733604
 20
9.113667525971234
 30
0.0
 11
6.963403168733604
 21
9.146635525270594
 31
0.0
  0
LINE
  5
150
330
1F
100
AcDbEntity
  8
0
  6
Continuous
 62
     7
370
     5
100
AcDbLine
 10
6.935730517751798
 20
9.086658170268659
 30
0.0
 11
6.963403168733604
 21
9.113667525971234
 31
0.0
  0
LINE
  5
151
330
1F
100
AcDbEntity
  8
0
  6
Continuous
 62
     7
370
     5
100
AcDbLine
 10
6.935730517751798
 20
9.075668858121607
 30
0.0
 11
6.935730517751798
 21
9.086658170268659
 31
0.0
  0
LINE
  5
152
330
1F
100
AcDbEntity
  8
0
  6
Continuous
 62
     7
370
     5
100
AcDbLine
 10
6.96863847223753
 20
9.10778803053966
 30
0.0
 11
6.935730517751798
 21
9.075668858121607
 31
0.0
  0
LINE
  5
153
330
1F
100
AcDbEntity
  8
0
  6
Continuous
 62
     7
370
     5
100
AcDbLine
 10
6.96863847223753
 20
9.214933871117063
 30
0.0
 11
6.96863847223753
 21
9.10778803053966
 31
0.0
  0
LINE
  5
154
330
1F
100
AcDbEntity
  8
0
  6
Continuous
 62
     7
370
     5
100
AcDbLine
 10
6.935730517751798
 20
9.18281469869901
 30
0.0
 11
6.96863847223753
 21
9.214933871117063
 31
0.0
  0
SPLINE
  5
155
330
1F
100
AcDbEntity
  8
0
  6
Continuous
 62
     7
370
     5
100
AcDbSpline
210
0.0
220
0.0
230
1.0
 70
     8
 71
     3
 72
     9
 73
     5
 74
     0
 42
0.0000000001
 43
0.0000000001
 40
0.0
 40
0.0
 40
0.0
 40
0.0
 40
0.5594138921615949
 40
1.0
 40
1.0
 40
1.0
 40
1.0
 10
7.005145826221953
 20
9.387589395235318
 30
0.0
 10
7.007616425085799
 20
9.390471116435323
 30
0.0
 10
7.012032831075091
 20
9.395622438632331
 30
0.0
 10
7.016175435395764
 20
9.402569823746217
 30
0.0
 10
7.01800060930972
 20
9.405630745113199
 30
0.0
  0
SPLINE
  5
156
330
1F
100
AcDbEntity
  8
0
  6
Continuous
 62
     7
370
     5
100
AcDbSpline
210
0.0
220
0.0
230
1.0
 70
     8
 71
     3
 72
    11
 73
     7
 74
     0
 42
0.0000000001
 43
0.0000000001
 40
0.0
 40
0.0
 40
0.0
 40
0.0
 40
0.2795416515753357
 40
0.5586310386715984
 40
0.7790869400159302
 40
1.0
 40
1.0
 40
1.0
 40
1.0
 10
6.991075819715411
 20
9.397509427387978
 30
0.0
 10
6.991291219675165
 20
9.394012277230899
 30
0.0
 10
6.991721671103687
 20
9.387023634881424
 30
0.0
 10
6.995653583870637
 20
9.382816411954271
 30
0.0
 10
7.000409594516272
 20
9.383476297667421
 30
0.0
 10
7.003565992548041
 20
9.38621741631924
 30
0.0
 10
7.005145826221953
 20
9.387589395235318
 30
0.0
  0
SPLINE
  5
157
330
1F
100
AcDbEntity
  8
0
  6
Continuous
 62
     7
370
     5
100
AcDbSpline
210
0.0
220
0.0
230
1.0
 70
     8
 71
     3
 72
    11
 73
     7
 74
     0
 42
0.0000000001
 43
0.0000000001
 40
0.0
 40
0.0
 40
0.0
 40
0.0
 40
0.2796052059891392
 40
0.5593878653553496
 40
0.7795766264803821
 40
1.0
 40
1.0
 40
1.0
 40
1.0
 10
7.005882051472174
 20
9.439133613045154
 30
0.0
 10
7.003695520633227
 20
9.436533866231403
 30
0.0
 10
6.99932107125843
 20
9.431332722656607
 30
0.0
 10
6.99445391777555
 20
9.419239457430201
 30
0.0
 10
6.991487790756957
 20
9.40738758937009
 30
0.0
 10
6.991213192134368
 20
9.400803316689501
 30
0.0
 10
6.991075819715411
 20
9.397509427387978
 30
0.0
  0
SPLINE
  5
158
330
1F
100
AcDbEntity
  8
0
  6
Continuous
 62
     7
370
     5
100
AcDbSpline
210
0.0
220
0.0
230
1.0
 70
     8
 71
     3
 72
    11
 73
     7
 74
     0
 42
0.0000000001
 43
0.0000000001
 40
0.0
 40
0.0
 40
0.0
 40
0.0
 40
0.2800207178591591
 40
0.559166187518597
 40
0.7796252684828979
 40
1.0
 40
1.0
 40
1.0
 40
1.0
 10
7.018748470697214
 20
9.432460289246115
 30
0.0
 10
7.018296582938493
 20
9.435045816844866
 30
0.0
 10
7.017394219866337
 20
9.440208790574706
 30
0.0
 10
7.013830659643724
 20
9.44285202329085
 30
0.0
 10
7.009864995124061
 20
9.442411178455129
 30
0.0
 10
7.007209529989958
 20
9.440225995477005
 30
0.0
 10
7.005882051472174
 20
9.439133613045154
 30
0.0
  0
LINE
  5
159
330
1F
100
AcDbEntity
  8
0
  6
Continuous
 62
     7
370
     5
100
AcDbLine
 10
7.023983774201139
 20
9.437570105961594
 30
0.0
 11
7.018748470697214
 21
9.432460289246115
 31
0.0
  0
SPLINE
  5
15A
330
1F
100
AcDbEntity
  8
0
  6
Continuous
 62
     7
370
     5
100
AcDbSpline
210
0.0
220
0.0
230
1.0
 70
     8
 71
     3
 72
    11
 73
     7
 74
     0
 42
0.0000000001
 43
0.0000000001
 40
0.0
 40
0.0
 40
0.0
 40
0.0
 40
0.2795868587508762
 40
0.5590164092940013
 40
0.7793619798780826
 40
1.0
 40
1.0
 40
1.0
 40
1.0
 10
7.006185959998669
 20
9.4504194863726
 30
0.0
 10
7.008685855290195
 20
9.452385611534573
 30
0.0
 10
7.013684239319132
 20
9.456316755627607
 30
0.0
 10
7.019332134839997
 20
9.453628782638514
 30
0.0
 10
7.022839447299014
 20
9.447067591387867
 30
0.0
 10
7.02360216329556
 20
9.440737333794382
 30
0.0
 10
7.023983774201139
 20
9.437570105961594
 30
0.0
  0
SPLINE
  5
15B
330
1F
100
AcDbEntity
  8
0
  6
Continuous
 62
     7
370
     5
100
AcDbSpline
210
0.0
220
0.0
230
1.0
 70
     8
 71
     3
 72
    11
 73
     7
 74
     0
 42
0.0000000001
 43
0.0000000001
 40
0.0
 40
0.0
 40
0.0
 40
0.0
 40
0.2798594262964755
 40
0.5592945389647069
 40
0.7794353476178544
 40
1.0
 40
1.0
 40
1.0
 40
1.0
 10
6.985840516211486
 20
9.392807434734059
 30
0.0
 10
6.986181510356594
 20
9.398699185529553
 30
0.0
 10
6.986862981642762
 20
9.410473754242373
 30
0.0
 10
6.992105770358359
 20
9.42851198037651
 30
0.0
 10
6.999036789444583
 20
9.442445329773926
 30
0.0
 10
7.003801375717471
 20
9.447759730483832
 30
0.0
 10
7.006185959998669
 20
9.4504194863726
 30
0.0
  0
SPLINE
  5
15C
330
1F
100
AcDbEntity
  8
0
  6
Continuous
 62
     7
370
     5
100
AcDbSpline
210
0.0
220
0.0
230
1.0
 70
     8
 71
     3
 72
    11
 73
     7
 74
     0
 42
0.0000000001
 43
0.0000000001
 40
0.0
 40
0.0
 40
0.0
 40
0.0
 40
0.2796555856215129
 40
0.5589978943610529
 40
0.7792864274639121
 40
1.0
 40
1.0
 40
1.0
 40
1.0
 10
7.004199329126375
 20
9.375676210048565
 30
0.0
 10
7.001410698809424
 20
9.373500627267727
 30
0.0
 10
6.995836562065957
 20
9.369151898845968
 30
0.0
 10
6.989691020265476
 20
9.372776025449541
 30
0.0
 10
6.986288159125977
 20
9.381200503647212
 30
0.0
 10
6.985989826361041
 20
9.388935972547425
 30
0.0
 10
6.985840516211486
 20
9.392807434734059
 30
0.0
  0
SPLINE
  5
15D
330
1F
100
AcDbEntity
  8
0
  6
Continuous
 62
     7
370
     5
100
AcDbSpline
210
0.0
220
0.0
230
1.0
 70
     8
 71
     3
 72
     9
 73
     5
 74
     0
 42
0.0000000001
 43
0.0000000001
 40
0.0
 40
0.0
 40
0.0
 40
0.0
 40
0.5600563527121651
 40
0.9999999999999998
 40
0.9999999999999998
 40
0.9999999999999998
 40
0.9999999999999998
 10
7.011070673531262
 20
9.384464842445026
 30
0.0
 10
7.009809062096792
 20
9.382595448112976
 30
0.0
 10
7.007556411219149
 20
9.379257579837759
 30
0.0
 10
7.005225012973745
 20
9.376770420152073
 30
0.0
 10
7.004199329126375
 20
9.375676210048565
 30
0.0
  0
LINE
  5
15E
330
1F
100
AcDbEntity
  8
0
  6
Continuous
 62
     7
370
     5
100
AcDbLine
 10
7.007927136822305
 20
9.35321505614905
 30
0.0
 11
7.011070673531262
 21
9.384464842445026
 31
0.0
  0
LINE
  5
15F
330
1F
100
AcDbEntity
  8
0
  6
Continuous
 62
     7
370
     5
100
AcDbLine
 10
6.988084237269699
 20
9.333847777873501
 30
0.0
 11
7.007927136822305
 21
9.35321505614905
 31
0.0
  0
LINE
  5
160
330
1F
100
AcDbEntity
  8
0
  6
Continuous
 62
     7
370
     5
100
AcDbLine
 10
6.988084237269699
 20
9.32285840286824
 30
0.0
 11
6.988084237269699
 21
9.333847777873501
 31
0.0
  0
LINE
  5
161
330
1F
100
AcDbEntity
  8
0
  6
Continuous
 62
     7
370
     5
100
AcDbLine
 10
7.01201730752257
 20
9.346217813137227
 30
0.0
 11
6.988084237269699
 21
9.32285840286824
 31
0.0
  0
LINE
  5
162
330
1F
100
AcDbEntity
  8
0
  6
Continuous
 62
     7
370
     5
100
AcDbLine
 10
7.01800060930972
 20
9.405630745113199
 30
0.0
 11
7.01201730752257
 21
9.346217813137227
 31
0.0
  0
SPLINE
  5
163
330
1F
100
AcDbEntity
  8
0
  6
Continuous
 62
     7
370
     5
100
AcDbSpline
210
0.0
220
0.0
230
1.0
 70
     8
 71
     3
 72
    11
 73
     7
 74
     0
 42
0.0000000001
 43
0.0000000001
 40
0.0
 40
0.0
 40
0.0
 40
0.0
 40
0.2788366710522543
 40
0.5584854627061767
 40
0.7791755541977154
 40
0.9999999999999998
 40
0.9999999999999998
 40
0.9999999999999998
 40
0.9999999999999998
 10
6.931990937022865
 20
9.2928571506189
 30
0.0
 10
6.931579747619013
 20
9.288163944019331
 30
0.0
 10
6.930756171209201
 20
9.278763861707902
 30
0.0
 10
6.925933267943683
 20
9.265162865178117
 30
0.0
 10
6.920441825638832
 20
9.254906543255614
 30
0.0
 10
6.916743852156769
 20
9.250752937174139
 30
0.0
 10
6.91489430276305
 20
9.24867550215548
 30
0.0
  0
SPLINE
  5
164
330
1F
100
AcDbEntity
  8
0
  6
Continuous
 62
     7
370
     5
100
AcDbSpline
210
0.0
220
0.0
230
1.0
 70
     8
 71
     3
 72
    10
 73
     6
 74
     0
 42
0.0000000001
 43
0.0000000001
 40
0.0
 40
0.0
 40
0.0
 40
0.0
 40
0.5577226524509442
 40
0.7789194649059672
 40
1.0
 40
1.0
 40
1.0
 40
1.0
 10
6.92347177868401
 20
9.307250599016704
 30
0.0
 10
6.925976275797173
 20
9.306643291424787
 30
0.0
 10
6.929474074465862
 20
9.305795121277043
 30
0.0
 10
6.931695024654656
 20
9.29895164059477
 30
0.0
 10
6.931892316856567
 20
9.294888291184564
 30
0.0
 10
6.931990937022865
 20
9.2928571506189
 30
0.0
  0
SPLINE
  5
165
330
1F
100
AcDbEntity
  8
0
  6
Continuous
 62
     7
370
     5
100
AcDbSpline
210
0.0
220
0.0
230
1.0
 70
     8
 71
     3
 72
    10
 73
     6
 74
     0
 42
0.0000000001
 43
0.0000000001
 40
0.0
 40
0.0
 40
0.0
 40
0.0
 40
0.2799882355450489
 40
0.5598704405536074
 40
1.0
 40
1.0
 40
1.0
 40
1.0
 10
6.934982656364303
 20
9.347847643782957
 30
0.0
 10
6.934789652560852
 20
9.344080206792874
 30
0.0
 10
6.934403718043808
 20
9.336546759527527
 30
0.0
 10
6.93050033617783
 20
9.321609598177499
 30
0.0
 10
6.926138243406511
 20
9.312698056015719
 30
0.0
 10
6.92347177868401
 20
9.307250599016704
 30
0.0
  0
SPLINE
  5
166
330
1F
100
AcDbEntity
  8
0
  6
Continuous
 62
     7
370
     5
100
AcDbSpline
210
0.0
220
0.0
230
1.0
 70
     8
 71
     3
 72
    11
 73
     7
 74
     0
 42
0.0000000001
 43
0.0000000001
 40
0.0
 40
0.0
 40
0.0
 40
0.0
 40
0.2805329361953379
 40
0.5592479220418989
 40
0.7798011201778637
 40
0.9999999999999998
 40
0.9999999999999998
 40
0.9999999999999998
 40
0.9999999999999998
 10
6.915244892734378
 20
9.36165821679536
 30
0.0
 10
6.918068236295433
 20
9.364089759666089
 30
0.0
 10
6.923696627175818
 20
9.368937088169666
 30
0.0
 10
6.930267138111133
 20
9.36665833254886
 30
0.0
 10
6.93423730669104
 20
9.359222407807717
 30
0.0
 10
6.934734339660625
 20
9.351637199221238
 30
0.0
 10
6.934982656364303
 20
9.347847643782957
 30
0.0
  0
SPLINE
  5
167
330
1F
100
AcDbEntity
  8
0
  6
Continuous
 62
     7
370
     5
100
AcDbSpline
210
0.0
220
0.0
230
1.0
 70
     8
 71
     3
 72
     9
 73
     5
 74
     0
 42
0.0000000001
 43
0.0000000001
 40
0.0
 40
0.0
 40
0.0
 40
0.0
 40
0.5577571396428027
 40
1.0
 40
1.0
 40
1.0
 40
1.0
 10
6.899760753309508
 20
9.334783193915194
 30
0.0
 10
6.902276638561917
 20
9.341164192766671
 30
0.0
 10
6.906787356710719
 20
9.352604653852589
 30
0.0
 10
6.912651511948461
 20
9.358882072997189
 30
0.0
 10
6.915244892734378
 20
9.36165821679536
 30
0.0
  0
SPLINE
  5
168
330
1F
100
AcDbEntity
  8
0
  6
Continuous
 62
     7
370
     5
100
AcDbSpline
210
0.0
220
0.0
230
1.0
 70
     8
 71
     3
 72
     9
 73
     5
 74
     0
 42
0.0000000001
 43
0.0000000001
 40
0.0
 40
0.0
 40
0.0
 40
0.0
 40
0.5593310577178427
 40
1.0
 40
1.0
 40
1.0
 40
1.0
 10
6.895343401808196
 20
9.308278501209292
 30
0.0
 10
6.895576931994504
 20
9.313067349859815
 30
0.0
 10
6.895994448924912
 20
9.321629092649613
 30
0.0
 10
6.898608723637203
 20
9.330759643659302
 30
0.0
 10
6.899760753309508
 20
9.334783193915194
 30
0.0
  0
SPLINE
  5
169
330
1F
100
AcDbEntity
  8
0
  6
Continuous
 62
     7
370
     5
100
AcDbSpline
210
0.0
220
0.0
230
1.0
 70
     8
 71
     3
 72
    10
 73
     6
 74
     0
 42
0.0000000001
 43
0.0000000001
 40
0.0
 40
0.0
 40
0.0
 40
0.0
 40
0.558261283381425
 40
0.7790931145485104
 40
1.0
 40
1.0
 40
1.0
 40
1.0
 10
6.906620461577118
 20
9.290803196919366
 30
0.0
 10
6.90330998405525
 20
9.291246137975628
 30
0.0
 10
6.898689978477334
 20
9.291864293555029
 30
0.0
 10
6.895683380022539
 20
9.300408921428459
 30
0.0
 10
6.89545674071548
 20
9.305655010834097
 30
0.0
 10
6.8953434018082
 20
9.308278501209292
 30
0.0
  0
SPLINE
  5
16A
330
1F
100
AcDbEntity
  8
0
  6
Continuous
 62
     7
370
     5
100
AcDbSpline
210
0.0
220
0.0
230
1.0
 70
     8
 71
     3
 72
    10
 73
     6
 74
     0
 42
0.0000000001
 43
0.0000000001
 40
0.0
 40
0.0
 40
0.0
 40
0.0
 40
0.2801533063725295
 40
0.5602665485687566
 40
1.0
 40
1.0
 40
1.0
 40
1.0
 10
6.898335121149639
 20
9.260308504800077
 30
0.0
 10
6.898465583766044
 20
9.263107770182399
 30
0.0
 10
6.89872649034164
 20
9.268705900629576
 30
0.0
 10
6.901505235975542
 20
9.279845425904495
 30
0.0
 10
6.904680676890211
 20
9.286647814914166
 30
0.0
 10
6.906620461577118
 20
9.290803196919366
 30
0.0
  0
SPLINE
  5
16B
330
1F
100
AcDbEntity
  8
0
  6
Continuous
 62
     7
370
     5
100
AcDbSpline
210
0.0
220
0.0
230
1.0
 70
     8
 71
     3
 72
    11
 73
     7
 74
     0
 42
0.0000000001
 43
0.0000000001
 40
0.0
 40
0.0
 40
0.0
 40
0.0
 40
0.2799344888152634
 40
0.5596653232677818
 40
0.7799442010212566
 40
1.0
 40
1.0
 40
1.0
 40
1.0
 10
6.91489430276305
 20
9.24867550215548
 30
0.0
 10
6.91256878039287
 20
9.24687577714401
 30
0.0
 10
6.90791942748683
 20
9.243277636434017
 30
0.0
 10
6.902457860832252
 20
9.245010786909125
 30
0.0
 10
6.899007424654649
 20
9.250907668871315
 30
0.0
 10
6.898559146616989
 20
9.257175951352595
 30
0.0
 10
6.898335121149643
 20
9.260308504800077
 30
0.0
  0
LINE
  5
16C
330
1F
100
AcDbEntity
  8
0
  6
Continuous
 62
     7
370
     5
100
AcDbLine
 10
6.629978889833128
 20
15.45265789397127
 30
0.0
 11
6.682866576884295
 21
15.43828415387682
 31
0.0
  0
LINE
  5
16D
330
1F
100
AcDbEntity
  8
0
  6
Continuous
 62
     7
370
     5
100
AcDbLine
 10
6.723317959646334
 20
15.75222265267869
 30
0.0
 11
6.7762056466975
 21
15.73784891258423
 31
0.0
  0
LINE
  5
16E
330
1F
100
AcDbEntity
  8
0
  6
Continuous
 62
     7
370
     5
100
AcDbLine
 10
6.629978889833128
 20
15.45265789397127
 30
0.0
 11
6.723317959646334
 21
15.75222265267869
 31
0.0
  0
LINE
  5
16F
330
1F
100
AcDbEntity
  8
0
  6
Continuous
 62
     7
370
     5
100
AcDbLine
 10
6.667979029062338
 20
8.791421368128164
 30
0.0
 11
6.615091342011167
 21
8.805795108222618
 31
0.0
  0
LINE
  5
170
330
1F
100
AcDbEntity
  8
0
  6
Continuous
 62
     7
370
     5
100
AcDbLine
 10
6.615091342011167
 20
15.43812719089816
 30
0.0
 11
6.667979029062338
 21
15.42375345080371
 31
0.0
  0
LINE
  5
171
330
1F
100
AcDbEntity
  8
0
  6
Continuous
 62
     7
370
     5
100
AcDbLine
 10
6.615091342011167
 20
15.43812719089816
 30
0.0
 11
6.615091342011167
 21
8.805795108222618
 31
0.0
  0
LINE
  5
172
330
1F
100
AcDbEntity
  8
0
  6
Continuous
 62
     7
370
     5
100
AcDbLine
 10
6.615091342011167
 20
15.43812719089816
 30
0.0
 11
6.629978889833128
 21
15.45265789397127
 31
0.0
  0
LINE
  5
173
330
1F
100
AcDbEntity
  8
0
  6
Continuous
 62
     7
370
     5
100
AcDbLine
 10
7.090233842260667
 20
16.11034380243664
 30
0.0
 11
7.143121529311834
 21
16.09597006234219
 31
0.0
  0
LINE
  5
174
330
1F
100
AcDbEntity
  8
0
  6
Continuous
 62
     7
370
     5
100
AcDbLine
 10
6.723317959646334
 20
15.75222265267869
 30
0.0
 11
7.090233842260667
 21
16.11034380243664
 31
0.0
  0
ARC
  5
175
330
1F
100
AcDbEntity
  8
0
  6
Continuous
 62
     7
370
     5
100
AcDbCircle
 10
6.584231176389666
 20
15.50638396363456
 30
0.0
 40
0.1858373938065818
100
AcDbArc
 50
330.7594827514124
 51
358.8316156502738
  0
ARC
  5
176
330
1F
100
AcDbEntity
  8
0
  6
Continuous
 62
     7
370
     5
100
AcDbCircle
 10
6.708032043814334
 20
15.41253822479796
 30
0.0
 40
0.2722106570615784
100
AcDbArc
 50
313.806236577877
 51
15.78472540878054
  0
ARC
  5
177
330
1F
100
AcDbEntity
  8
0
  6
Continuous
 62
     7
370
     5
100
AcDbCircle
 10
6.643871498181238
 20
14.70580136397502
 30
0.0
 40
0.184527434592627
100
AcDbArc
 50
330.6576877783036
 51
358.9332872373741
  0
ARC
  5
178
330
1F
100
AcDbEntity
  8
0
  6
Continuous
 62
     7
370
     5
100
AcDbCircle
 10
6.934527113516394
 20
15.52650353463809
 30
0.0
 40
0.1855615886769884
100
AcDbArc
 50
330.7381040534298
 51
358.8528709622465
  0
LINE
  5
179
330
1F
100
AcDbEntity
  8
0
  6
Continuous
 62
     7
370
     5
100
AcDbLine
 10
7.217612485348961
 20
16.0023083946405
 30
0.0
 11
7.251348283842732
 21
15.99313972748061
 31
0.0
  0
ARC
  5
17A
330
1F
100
AcDbEntity
  8
0
  6
Continuous
 62
     7
370
     5
100
AcDbCircle
 10
6.585536595513013
 20
13.79169472524454
 30
0.0
 40
0.1845253034777879
100
AcDbArc
 50
330.6576091858978
 51
358.9334892157871
  0
ARC
  5
17B
330
1F
100
AcDbEntity
  8
0
  6
Continuous
 62
     7
370
     5
100
AcDbCircle
 10
6.876190229107095
 20
14.61239771956983
 30
0.0
 40
0.1855615886769663
100
AcDbArc
 50
330.7381040534278
 51
358.8528709622485
  0
ARC
  5
17C
330
1F
100
AcDbEntity
  8
0
  6
Continuous
 62
     7
370
     5
100
AcDbCircle
 10
6.643874638693623
 20
12.99146607533674
 30
0.0
 40
0.1845242884662892
100
AcDbArc
 50
330.6574355800876
 51
358.9333717817422
  0
ARC
  5
17D
330
1F
100
AcDbEntity
  8
0
  6
Continuous
 62
     7
370
     5
100
AcDbCircle
 10
6.935817876150976
 20
13.81181827805804
 30
0.0
 40
0.184264348160521
100
AcDbArc
 50
330.6370814688085
 51
358.9538935468703
  0
ARC
  5
17E
330
1F
100
AcDbEntity
  8
0
  6
Continuous
 62
     7
370
     5
100
AcDbCircle
 10
6.58488781481783
 20
12.0775363427749
 30
0.0
 40
0.1851773265209022
100
AcDbArc
 50
330.7084198158527
 51
358.8826785858321
  0
ARC
  5
17F
330
1F
100
AcDbEntity
  8
0
  6
Continuous
 62
     7
370
     5
100
AcDbCircle
 10
6.877480830223318
 20
12.89771252633629
 30
0.0
 40
0.1842645199901262
100
AcDbArc
 50
330.6370889284594
 51
358.9537184333695
  0
ARC
  5
180
330
1F
100
AcDbEntity
  8
0
  6
Continuous
 62
     7
370
     5
100
AcDbCircle
 10
6.643224279753947
 20
11.27730811313308
 30
0.0
 40
0.1851778930821386
100
AcDbArc
 50
330.7083726076157
 51
358.8825185813624
  0
ARC
  5
181
330
1F
100
AcDbEntity
  8
0
  6
Continuous
 62
     7
370
     5
100
AcDbCircle
 10
6.935176345480609
 20
12.09765792593727
 30
0.0
 40
0.1849090265917384
100
AcDbArc
 50
330.6874685632261
 51
358.9035064524507
  0
ARC
  5
182
330
1F
100
AcDbEntity
  8
0
  6
Continuous
 62
     7
370
     5
100
AcDbCircle
 10
6.584887814817823
 20
10.36320163637229
 30
0.0
 40
0.1851773265209092
100
AcDbArc
 50
330.7084198158533
 51
358.8826785858316
  0
ARC
  5
183
330
1F
100
AcDbEntity
  8
0
  6
Continuous
 62
     7
370
     5
100
AcDbCircle
 10
6.876840458552283
 20
11.18355185000237
 30
0.0
 40
0.1849080291128688
100
AcDbArc
 50
330.6873877285348
 51
358.9035034604444
  0
ARC
  5
184
330
1F
100
AcDbEntity
  8
0
  6
Continuous
 62
     7
370
     5
100
AcDbCircle
 10
6.643223209592051
 20
9.562973692358724
 30
0.0
 40
0.1851789661592299
100
AcDbArc
 50
330.7084575319614
 51
358.8824755704238
  0
LINE
  5
185
330
1F
100
AcDbEntity
  8
0
  6
Continuous
 62
     7
370
     5
100
AcDbLine
 10
6.615091342011167
 20
8.698649141928797
 30
0.0
 11
6.667979029062338
 21
8.684275401834343
 31
0.0
  0
ARC
  5
186
330
1F
100
AcDbEntity
  8
0
  6
Continuous
 62
     7
370
     5
100
AcDbCircle
 10
6.523740891394329
 20
8.777049178421531
 30
0.0
 40
0.120380523964475
100
AcDbArc
 50
319.3626945026992
 51
10.22829292041931
  0
ARC
  5
187
330
1F
100
AcDbEntity
  8
0
  6
Continuous
 62
     7
370
     5
100
AcDbCircle
 10
6.93517713010546
 20
10.38332313712049
 30
0.0
 40
0.1849082405334775
100
AcDbArc
 50
330.6874057701975
 51
358.9035273321872
  0
LINE
  5
188
330
1F
100
AcDbEntity
  8
0
  6
Continuous
 62
     7
370
     5
100
AcDbLine
 10
6.615091342011167
 20
8.32375699905768
 30
0.0
 11
6.667979029062338
 21
8.309383258963226
 31
0.0
  0
LINE
  5
189
330
1F
100
AcDbEntity
  8
0
  6
Continuous
 62
     7
370
     5
100
AcDbLine
 10
6.615091342011167
 20
8.698649141928797
 30
0.0
 11
6.615091342011167
 21
8.32375699905768
 31
0.0
  0
SPLINE
  5
18A
330
1F
100
AcDbEntity
  8
0
  6
Continuous
 62
     7
370
     5
100
AcDbSpline
210
0.0
220
0.0
230
1.0
 70
     8
 71
     3
 72
     9
 73
     5
 74
     0
 42
0.0000000001
 43
0.0000000001
 40
0.0
 40
0.0
 40
0.0
 40
0.0
 40
0.2241407990246504
 40
0.9999999999999998
 40
0.9999999999999998
 40
0.9999999999999998
 40
0.9999999999999998
 10
6.91894152311838
 20
9.364198354220635
 30
0.0
 10
6.91929714278416
 20
9.363577865233899
 30
0.0
 10
6.920883733299209
 20
9.360809565176827
 30
0.0
 10
6.921041876254239
 20
9.35562533525892
 30
0.0
 10
6.921164572920964
 20
9.351603102777144
 30
0.0
  0
SPLINE
  5
18B
330
1F
100
AcDbEntity
  8
0
  6
Continuous
 62
     7
370
     5
100
AcDbSpline
210
0.0
220
0.0
230
1.0
 70
     8
 71
     3
 72
     9
 73
     5
 74
     0
 42
0.0000000001
 43
0.0000000001
 40
0.0
 40
0.0
 40
0.0
 40
0.0
 40
0.3349284967401881
 40
1.0
 40
1.0
 40
1.0
 40
1.0
 10
6.916966117696172
 20
9.304681366692568
 30
0.0
 10
6.917230428321378
 20
9.303975869863267
 30
0.0
 10
6.918019583701612
 20
9.301869459581176
 30
0.0
 10
6.918111633729265
 20
9.298712327915779
 30
0.0
 10
6.918172853579525
 20
9.296612609613086
 30
0.0
  0
LINE
  5
18C
330
1F
100
AcDbEntity
  8
0
  6
Continuous
 62
     7
370
     5
100
AcDbLine
 10
6.906540823175832
 20
9.259194983447914
 30
0.0
 11
6.901076219319711
 21
9.252430961149666
 31
0.0
  0
SPLINE
  5
18D
330
1F
100
AcDbEntity
  8
0
  6
Continuous
 62
     7
370
     5
100
AcDbSpline
210
0.0
220
0.0
230
1.0
 70
     8
 71
     3
 72
    10
 73
     6
 74
     0
 42
0.0000000001
 43
0.0000000001
 40
0.0
 40
0.0
 40
0.0
 40
0.0
 40
0.0260788201569463
 40
0.5129465211358795
 40
0.9999999999999998
 40
0.9999999999999998
 40
0.9999999999999998
 40
0.9999999999999998
 10
6.908275976587232
 20
9.300824378164803
 30
0.0
 10
6.908228877770395
 20
9.300862214779186
 30
0.0
 10
6.907302487155313
 20
9.301606426350204
 30
0.0
 10
6.904788851151719
 20
9.300764780116352
 30
0.0
 10
6.902368401667557
 20
9.298816171178396
 30
0.0
 10
6.901157946072106
 20
9.29784168085842
 30
0.0
  0
LINE
  5
18E
330
1F
100
AcDbEntity
  8
0
  6
Continuous
 62
     7
370
     5
100
AcDbLine
 10
6.901157946072106
 20
9.29784168085842
 30
0.0
 11
6.897656427022258
 21
9.293239465110373
 31
0.0
  0
SPLINE
  5
18F
330
1F
100
AcDbEntity
  8
0
  6
Continuous
 62
     7
370
     5
100
AcDbSpline
210
0.0
220
0.0
230
1.0
 70
     8
 71
     3
 72
    10
 73
     6
 74
     0
 42
0.0000000001
 43
0.0000000001
 40
0.0
 40
0.0
 40
0.0
 40
0.0
 40
0.2798433810366938
 40
0.5601590263961221
 40
1.0
 40
1.0
 40
1.0
 40
1.0
 10
6.929747215964647
 20
9.34305965320078
 30
0.0
 10
6.92941954355409
 20
9.346315696478798
 30
0.0
 10
6.928763645752288
 20
9.352833277940828
 30
0.0
 10
6.923358451758249
 20
9.35696304157339
 30
0.0
 10
6.918285053631194
 20
9.353020096790261
 30
0.0
 10
6.915186438256537
 20
9.350611914144138
 30
0.0
  0
SPLINE
  5
190
330
1F
100
AcDbEntity
  8
0
  6
Continuous
 62
     7
370
     5
100
AcDbSpline
210
0.0
220
0.0
230
1.0
 70
     8
 71
     3
 72
    11
 73
     7
 74
     0
 42
0.0000000001
 43
0.0000000001
 40
0.0
 40
0.0
 40
0.0
 40
0.0
 40
0.2802770431085868
 40
0.5601021753264789
 40
0.7802964840731881
 40
0.9999999999999998
 40
0.9999999999999998
 40
0.9999999999999998
 40
0.9999999999999998
 10
6.914847484422486
 20
9.304950132918024
 30
0.0
 10
6.91689712225191
 20
9.307273552183554
 30
0.0
 10
6.920993093131881
 20
9.311916644498156
 30
0.0
 10
6.925834294489365
 20
9.322611883493449
 30
0.0
 10
6.929151863644675
 20
9.333626651736089
 30
0.0
 10
6.929548912853571
 20
9.339917658999176
 30
0.0
 10
6.929747215964652
 20
9.343059653200779
 30
0.0
  0
SPLINE
  5
191
330
1F
100
AcDbEntity
  8
0
  6
Continuous
 62
     7
370
     5
100
AcDbSpline
210
0.0
220
0.0
230
1.0
 70
     8
 71
     3
 72
    11
 73
     7
 74
     0
 42
0.0000000001
 43
0.0000000001
 40
0.0
 40
0.0
 40
0.0
 40
0.0
 40
0.2782941469049814
 40
0.5584937265943201
 40
0.7791518923063851
 40
1.0
 40
1.0
 40
1.0
 40
1.0
 10
6.900578842207852
 20
9.313581551957991
 30
0.0
 10
6.900922345925264
 20
9.310361116906857
 30
0.0
 10
6.90161170527173
 20
9.303898197032456
 30
0.0
 10
6.905738784983284
 20
9.300828944937897
 30
0.0
 10
6.910245849213998
 20
9.301063539639157
 30
0.0
 10
6.913313166152552
 20
9.303654230308326
 30
0.0
 10
6.914847484422481
 20
9.304950132918026
 30
0.0
  0
SPLINE
  5
192
330
1F
100
AcDbEntity
  8
0
  6
Continuous
 62
     7
370
     5
100
AcDbSpline
210
0.0
220
0.0
230
1.0
 70
     8
 71
     3
 72
    11
 73
     7
 74
     0
 42
0.0000000001
 43
0.0000000001
 40
0.0
 40
0.0
 40
0.0
 40
0.0
 40
0.280633993627238
 40
0.5600286655707717
 40
0.7802142419625926
 40
1.0
 40
1.0
 40
1.0
 40
1.0
 10
6.915186438256537
 20
9.350611914144138
 30
0.0
 10
6.913174880115796
 20
9.348405718953458
 30
0.0
 10
6.909160647175868
 20
9.344003071459992
 30
0.0
 10
6.904329377496004
 20
9.333626973582402
 30
0.0
 10
6.901144960421122
 20
9.322799244756337
 30
0.0
 10
6.900767433921475
 20
9.316652254224285
 30
0.0
 10
6.900578842207852
 20
9.313581551957991
 30
0.0
  0
LINE
  5
193
330
1F
100
AcDbEntity
  8
0
  6
Continuous
 62
     7
370
     5
100
AcDbLine
 10
6.895969355375823
 20
9.314834311709583
 30
0.0
 11
6.900578842207852
 21
9.313581551957991
 31
0.0
  0
LINE
  5
194
330
1F
100
AcDbEntity
  8
0
  6
Continuous
 62
     7
370
     5
100
AcDbLine
 10
6.907939104615182
 20
9.352581584136284
 30
0.0
 11
6.915186438256537
 21
9.350611914144138
 31
0.0
  0
LINE
  5
195
330
1F
100
AcDbEntity
  8
0
  6
Continuous
 62
     7
370
     5
100
AcDbLine
 10
6.900143105249893
 20
9.29256360357615
 30
0.0
 11
6.906620461577118
 21
9.290803196919366
 31
0.0
  0
LINE
  5
196
330
1F
100
AcDbEntity
  8
0
  6
Continuous
 62
     7
370
     5
100
AcDbLine
 10
6.928567562353585
 20
9.349591128876234
 30
0.0
 11
6.934982656364303
 21
9.347847643782957
 31
0.0
  0
SPLINE
  5
197
330
1F
100
AcDbEntity
  8
0
  6
Continuous
 62
     7
370
     5
100
AcDbSpline
210
0.0
220
0.0
230
1.0
 70
     8
 71
     3
 72
    11
 73
     7
 74
     0
 42
0.0000000001
 43
0.0000000001
 40
0.0
 40
0.0
 40
0.0
 40
0.0
 40
0.2777220631110635
 40
0.5582232237417056
 40
0.7790694768619236
 40
1.0
 40
1.0
 40
1.0
 40
1.0
 10
6.92675563351894
 20
9.287897565023509
 30
0.0
 10
6.926429503278536
 20
9.290417924442824
 30
0.0
 10
6.925773979291301
 20
9.29548386390862
 30
0.0
 10
6.92230878545155
 20
9.297493875162471
 30
0.0
 10
6.918674515897065
 20
9.297201668603861
 30
0.0
 10
6.916209015076126
 20
9.295124836164422
 30
0.0
 10
6.914976029515449
 20
9.29408622186423
 30
0.0
  0
SPLINE
  5
198
330
1F
100
AcDbEntity
  8
0
  6
Continuous
 62
     7
370
     5
100
AcDbSpline
210
0.0
220
0.0
230
1.0
 70
     8
 71
     3
 72
    11
 73
     7
 74
     0
 42
0.0000000001
 43
0.0000000001
 40
0.0
 40
0.0
 40
0.0
 40
0.0
 40
0.2806739998105089
 40
0.5605678062390651
 40
0.7806256295383543
 40
0.9999999999999998
 40
0.9999999999999998
 40
0.9999999999999998
 40
0.9999999999999998
 10
6.915186438256537
 20
9.259949884641789
 30
0.0
 10
6.916718746393089
 20
9.261638036485461
 30
0.0
 10
6.919779103288169
 20
9.265009647593881
 30
0.0
 10
6.923545994804692
 20
9.272611942220187
 30
0.0
 10
6.926260260149262
 20
9.280788076649528
 30
0.0
 10
6.926590680364221
 20
9.285530194051444
 30
0.0
 10
6.92675563351894
 20
9.287897565023509
 30
0.0
  0
SPLINE
  5
199
330
1F
100
AcDbEntity
  8
0
  6
Continuous
 62
     7
370
     5
100
AcDbSpline
210
0.0
220
0.0
230
1.0
 70
     8
 71
     3
 72
    10
 73
     6
 74
     0
 42
0.0000000001
 43
0.0000000001
 40
0.0
 40
0.0
 40
0.0
 40
0.0
 40
0.2789615703367072
 40
0.5598247703731193
 40
1.0
 40
1.0
 40
1.0
 40
1.0
 10
6.903570424653564
 20
9.265053366752699
 30
0.0
 10
6.903882278781326
 20
9.262604688629972
 30
0.0
 10
6.90450811288906
 20
9.257690640196283
 30
0.0
 10
6.908798965450944
 20
9.254739000991769
 30
0.0
 10
6.912765172121367
 20
9.25797462204575
 30
0.0
 10
6.915186438256537
 20
9.259949884641789
 30
0.0
  0
SPLINE
  5
19A
330
1F
100
AcDbEntity
  8
0
  6
Continuous
 62
     7
370
     5
100
AcDbSpline
210
0.0
220
0.0
230
1.0
 70
     8
 71
     3
 72
    11
 73
     7
 74
     0
 42
0.0000000001
 43
0.0000000001
 40
0.0
 40
0.0
 40
0.0
 40
0.0
 40
0.2801694941935504
 40
0.5601285319694228
 40
0.7804774331457323
 40
0.9999999999999998
 40
0.9999999999999998
 40
0.9999999999999998
 40
0.9999999999999998
 10
6.914976029515449
 20
9.29408622186423
 30
0.0
 10
6.913429479884483
 20
9.292274726288642
 30
0.0
 10
6.910337542352483
 20
9.288653095888291
 30
0.0
 10
6.906591817880862
 20
9.280650158931326
 30
0.0
 10
6.904138590292212
 20
9.272268609312522
 30
0.0
 10
6.903759575863298
 20
9.267455433625334
 30
0.0
 10
6.903570424653564
 20
9.265053366752699
 30
0.0
  0
LINE
  5
19B
330
1F
100
AcDbEntity
  8
0
  6
Continuous
 62
     7
370
     5
100
AcDbLine
 10
6.898838488599071
 20
9.266339405579186
 30
0.0
 11
6.903570424653564
 21
9.265053366752699
 31
0.0
  0
LINE
  5
19C
330
1F
100
AcDbEntity
  8
0
  6
Continuous
 62
     7
370
     5
100
AcDbLine
 10
6.901157946072106
 20
9.29784168085842
 30
0.0
 11
6.914976029515446
 21
9.294086221864231
 31
0.0
  0
LINE
  5
19D
330
1F
100
AcDbEntity
  8
0
  6
Continuous
 62
     7
370
     5
100
AcDbLine
 10
6.901076219319711
 20
9.252430961149666
 30
0.0
 11
6.91489430276305
 21
9.24867550215548
 31
0.0
  0
LINE
  5
19E
330
1F
100
AcDbEntity
  8
0
  6
Continuous
 62
     7
370
     5
100
AcDbLine
 10
6.917822511166322
 20
9.308785948878851
 30
0.0
 11
6.92347177868401
 21
9.307250599016704
 31
0.0
  0
SPLINE
  5
19F
330
1F
100
AcDbEntity
  8
0
  6
Continuous
 62
     7
370
     5
100
AcDbSpline
210
0.0
220
0.0
230
1.0
 70
     8
 71
     3
 72
     9
 73
     5
 74
     0
 42
0.0000000001
 43
0.0000000001
 40
0.0
 40
0.0
 40
0.0
 40
0.0
 40
0.4461084385614351
 40
1.0
 40
1.0
 40
1.0
 40
1.0
 10
6.949259410342285
 20
9.348267877889153
 30
0.0
 10
6.948549233102535
 20
9.347376637662048
 30
0.0
 10
6.946957294510129
 20
9.345378826928
 30
0.0
 10
6.945346901054613
 20
9.343750210368375
 30
0.0
 10
6.94445491770902
 20
9.342848133399177
 30
0.0
  0
SPLINE
  5
1A0
330
1F
100
AcDbEntity
  8
0
  6
Continuous
 62
     7
370
     5
100
AcDbSpline
210
0.0
220
0.0
230
1.0
 70
     8
 71
     3
 72
     9
 73
     5
 74
     0
 42
0.0000000001
 43
0.0000000001
 40
0.0
 40
0.0
 40
0.0
 40
0.0
 40
0.2689044379824638
 40
0.9999999999999998
 40
0.9999999999999998
 40
0.9999999999999998
 40
0.9999999999999998
 10
6.960946609726232
 20
9.405569732805412
 30
0.0
 10
6.961339578271613
 20
9.404767657361537
 30
0.0
 10
6.962800947032646
 20
9.401784904641308
 30
0.0
 10
6.962943321961172
 20
9.396671279414016
 30
0.0
 10
6.963047411639553
 20
9.392932730704524
 30
0.0
  0
LINE
  5
1A1
330
1F
100
AcDbEntity
  8
0
  6
Continuous
 62
     7
370
     5
100
AcDbLine
 10
6.925110951048901
 20
9.294726983386359
 30
0.0
 11
6.931990937022865
 21
9.2928571506189
 31
0.0
  0
SPLINE
  5
1A2
330
1F
100
AcDbEntity
  8
0
  6
Continuous
 62
     7
370
     5
100
AcDbSpline
210
0.0
220
0.0
230
1.0
 70
     8
 71
     3
 72
    11
 73
     7
 74
     0
 42
0.0000000001
 43
0.0000000001
 40
0.0
 40
0.0
 40
0.0
 40
0.0
 40
0.2790417111808691
 40
0.5587798674180022
 40
0.7792491207490321
 40
1.0
 40
1.0
 40
1.0
 40
1.0
 10
6.971630191578968
 20
9.384453781548854
 30
0.0
 10
6.971379529754726
 20
9.387498955683909
 30
0.0
 10
6.970877580493026
 20
9.393596904238791
 30
0.0
 10
6.967236470648384
 20
9.396841385820236
 30
0.0
 10
6.963139300632937
 20
9.39683859993968
 30
0.0
 10
6.960324183575096
 20
9.394475396227091
 30
0.0
 10
6.958915726617173
 20
9.393293040167428
 30
0.0
  0
SPLINE
  5
1A3
330
1F
100
AcDbEntity
  8
0
  6
Continuous
 62
     7
370
     5
100
AcDbSpline
210
0.0
220
0.0
230
1.0
 70
     8
 71
     3
 72
    11
 73
     7
 74
     0
 42
0.0000000001
 43
0.0000000001
 40
0.0
 40
0.0
 40
0.0
 40
0.0
 40
0.2801188699959489
 40
0.5594401919627324
 40
0.7796814684678383
 40
1.0
 40
1.0
 40
1.0
 40
1.0
 10
6.959371452511181
 20
9.351154171611046
 30
0.0
 10
6.961147091630472
 20
9.353175138801308
 30
0.0
 10
6.964693314310026
 20
9.357211319130353
 30
0.0
 10
6.96877705824763
 20
9.366813526137352
 30
0.0
 10
6.971247853107565
 20
9.376418915939366
 30
0.0
 10
6.971502730523697
 20
9.381775179927119
 30
0.0
 10
6.971630191578972
 20
9.384453781548854
 30
0.0
  0
SPLINE
  5
1A4
330
1F
100
AcDbEntity
  8
0
  6
Continuous
 62
     7
370
     5
100
AcDbSpline
210
0.0
220
0.0
230
1.0
 70
     8
 71
     3
 72
    11
 73
     7
 74
     0
 42
0.0000000001
 43
0.0000000001
 40
0.0
 40
0.0
 40
0.0
 40
0.0
 40
0.2787570773482022
 40
0.5586045936222608
 40
0.7791792299352746
 40
1.0
 40
1.0
 40
1.0
 40
1.0
 10
6.946201261655379
 20
9.359634366383547
 30
0.0
 10
6.946470704355254
 20
9.356539768818823
 30
0.0
 10
6.94701064375804
 20
9.35033846827603
 30
0.0
 10
6.950836570849215
 20
9.347295003961965
 30
0.0
 10
6.955059931591621
 20
9.347515930362101
 30
0.0
 10
6.957933744699931
 20
9.349940973771952
 30
0.0
 10
6.959371452511181
 20
9.351154171611046
 30
0.0
  0
SPLINE
  5
1A5
330
1F
100
AcDbEntity
  8
0
  6
Continuous
 62
     7
370
     5
100
AcDbSpline
210
0.0
220
0.0
230
1.0
 70
     8
 71
     3
 72
    11
 73
     7
 74
     0
 42
0.0000000001
 43
0.0000000001
 40
0.0
 40
0.0
 40
0.0
 40
0.0
 40
0.2800417948109058
 40
0.5599359742876827
 40
0.780012253511376
 40
0.9999999999999998
 40
0.9999999999999998
 40
0.9999999999999998
 40
0.9999999999999998
 10
6.958915726617173
 20
9.393293040167428
 30
0.0
 10
6.95712219886091
 20
9.391221525255607
 30
0.0
 10
6.953536088750851
 20
9.387079587366704
 30
0.0
 10
6.949388476990812
 20
9.377509103744133
 30
0.0
 10
6.946642969226629
 20
9.367826306801219
 30
0.0
 10
6.946348477763724
 20
9.362364646927817
 30
0.0
 10
6.946201261655379
 20
9.359634366383547
 30
0.0
  0
LINE
  5
1A6
330
1F
100
AcDbEntity
  8
0
  6
Continuous
 62
     7
370
     5
100
AcDbLine
 10
6.952228753824377
 20
9.395110416088016
 30
0.0
 11
6.958915726617173
 21
9.393293040167428
 31
0.0
  0
LINE
  5
1A7
330
1F
100
AcDbEntity
  8
0
  6
Continuous
 62
     7
370
     5
100
AcDbLine
 10
6.94445491770902
 20
9.342848133399177
 30
0.0
 11
6.958273001152359
 21
9.339092674404989
 31
0.0
  0
LINE
  5
1A8
330
1F
100
AcDbEntity
  8
0
  6
Continuous
 62
     7
370
     5
100
AcDbLine
 10
6.970628886379495
 20
9.39087224832156
 30
0.0
 11
6.976865495082893
 21
9.389177271710336
 31
0.0
  0
SPLINE
  5
1A9
330
1F
100
AcDbEntity
  8
0
  6
Continuous
 62
     7
370
     5
100
AcDbSpline
210
0.0
220
0.0
230
1.0
 70
     8
 71
     3
 72
     9
 73
     5
 74
     0
 42
0.0000000001
 43
0.0000000001
 40
0.0
 40
0.0
 40
0.0
 40
0.0
 40
0.3728882198968824
 40
1.0
 40
1.0
 40
1.0
 40
1.0
 10
6.895808745318614
 20
9.054101639051163
 30
0.0
 10
6.894652564419776
 20
9.052983771247093
 30
0.0
 10
6.891551954539535
 20
9.049985908229652
 30
0.0
 10
6.888478038796765
 20
9.04776321847059
 30
0.0
 10
6.886550350023426
 20
9.04636934353917
 30
0.0
  0
LINE
  5
1AA
330
1F
100
AcDbEntity
  8
0
  6
Continuous
 62
     7
370
     5
100
AcDbLine
 10
6.887993641732805
 20
9.136220923776971
 30
0.0
 11
6.901952625800165
 21
9.117636899460265
 31
0.0
  0
LINE
  5
1AB
330
1F
100
AcDbEntity
  8
0
  6
Continuous
 62
     7
370
     5
100
AcDbLine
 10
6.911441690404877
 20
9.115057916540379
 30
0.0
 11
6.911441690404877
 21
9.109376414439884
 31
0.0
  0
LINE
  5
1AC
330
1F
100
AcDbEntity
  8
0
  6
Continuous
 62
     7
370
     5
100
AcDbLine
 10
6.901952625800165
 20
9.117636899460265
 30
0.0
 11
6.915770709243505
 21
9.113881440466077
 31
0.0
  0
LINE
  5
1AD
330
1F
100
AcDbEntity
  8
0
  6
Continuous
 62
     7
370
     5
100
AcDbLine
 10
6.737388861703185
 20
7.927354983226178
 30
0.0
 11
6.684501174652018
 21
7.941728723320633
 31
0.0
  0
ARC
  5
1AE
330
1F
100
AcDbEntity
  8
0
  6
Continuous
 62
     7
370
     5
100
AcDbCircle
 10
7.499613113271443
 20
8.287144117386615
 30
0.0
 40
0.8852792028155162
100
AcDbArc
 50
177.6297171950247
 51
202.9654999879316
  0
LINE
  5
1AF
330
1F
100
AcDbEntity
  8
0
  6
Continuous
 62
     7
370
     5
100
AcDbLine
 10
6.961594809769628
 20
9.354068754078207
 30
0.0
 11
6.970344740649339
 21
9.351690710353441
 31
0.0
  0
LINE
  5
1B0
330
1F
100
AcDbEntity
  8
0
  6
Continuous
 62
     7
370
     5
100
AcDbLine
 10
6.955560538820808
 20
9.348398898002258
 30
0.0
 11
6.96431462052162
 21
9.34601972617326
 31
0.0
  0
SPLINE
  5
1B1
330
1F
100
AcDbEntity
  8
0
  6
Continuous
 62
     7
370
     5
100
AcDbSpline
210
0.0
220
0.0
230
1.0
 70
     8
 71
     3
 72
     9
 73
     5
 74
     0
 42
0.0000000001
 43
0.0000000001
 40
0.0
 40
0.0
 40
0.0
 40
0.0
 40
0.2122241955086375
 40
1.0
 40
1.0
 40
1.0
 40
1.0
 10
6.994249234609207
 20
9.384009266996129
 30
0.0
 10
6.99398116839179
 20
9.383625364483823
 30
0.0
 10
6.992718040892261
 20
9.381816416586111
 30
0.0
 10
6.99141094455313
 20
9.380482497904941
 30
0.0
 10
6.990381245683041
 20
9.379431669042753
 30
0.0
  0
SPLINE
  5
1B2
330
1F
100
AcDbEntity
  8
0
  6
Continuous
 62
     7
370
     5
100
AcDbSpline
210
0.0
220
0.0
230
1.0
 70
     8
 71
     3
 72
     9
 73
     5
 74
     0
 42
0.0000000001
 43
0.0000000001
 40
0.0
 40
0.0
 40
0.0
 40
0.0
 40
0.1752015854204883
 40
1.0
 40
1.0
 40
1.0
 40
1.0
 10
7.008014237423394
 20
9.451534575079206
 30
0.0
 10
7.00824429965263
 20
9.451123485708928
 30
0.0
 10
7.009557428347666
 20
9.448777106426508
 30
0.0
 10
7.009890759638009
 20
9.444693618951292
 30
0.0
 10
7.0101656907578
 20
9.441325564955782
 30
0.0
  0
LINE
  5
1B3
330
1F
100
AcDbEntity
  8
0
  6
Continuous
 62
     7
370
     5
100
AcDbLine
 10
6.90248201042061
 20
9.098633784549893
 30
0.0
 11
6.909343317699623
 21
9.096769028251488
 31
0.0
  0
SPLINE
  5
1B4
330
1F
100
AcDbEntity
  8
0
  6
Continuous
 62
     7
370
     5
100
AcDbSpline
210
0.0
220
0.0
230
1.0
 70
     8
 71
     3
 72
    12
 73
     8
 74
     0
 42
0.0000000001
 43
0.0000000001
 40
0.0
 40
0.0
 40
0.0
 40
0.0
 40
0.4986629097568825
 40
0.6240473742911849
 40
0.7493979604801879
 40
0.874679308482643
 40
1.0
 40
1.0
 40
1.0
 40
1.0
 10
6.909343317699623
 20
9.096769028251488
 30
0.0
 10
6.90576387575696
 20
9.093265267020125
 30
0.0
 10
6.901284414176704
 20
9.088880515409789
 30
0.0
 10
6.896835020672421
 20
9.079289103076906
 30
0.0
 10
6.895161946278285
 20
9.073926454832133
 30
0.0
 10
6.894043901584626
 20
9.068414143822456
 30
0.0
 10
6.893913093395805
 20
9.065086407335527
 30
0.0
 10
6.893847679033208
 20
9.063422277871424
 30
0.0
  0
LINE
  5
1B5
330
1F
100
AcDbEntity
  8
0
  6
Continuous
 62
     7
370
     5
100
AcDbLine
 10
6.920024470344295
 20
9.10704386670026
 30
0.0
 11
6.909343317699623
 21
9.096769028251488
 31
0.0
  0
LINE
  5
1B6
330
1F
100
AcDbEntity
  8
0
  6
Continuous
 62
     7
370
     5
100
AcDbLine
 10
6.920024470344295
 20
9.071328586507792
 30
0.0
 11
6.920024470344295
 21
9.10704386670026
 31
0.0
  0
LINE
  5
1B7
330
1F
100
AcDbEntity
  8
0
  6
Continuous
 62
     7
370
     5
100
AcDbLine
 10
6.909086227513698
 20
9.060652526177795
 30
0.0
 11
6.920024470344295
 21
9.071328586507792
 31
0.0
  0
SPLINE
  5
1B8
330
1F
100
AcDbEntity
  8
0
  6
Continuous
 62
     7
370
     5
100
AcDbSpline
210
0.0
220
0.0
230
1.0
 70
     8
 71
     3
 72
    12
 73
     8
 74
     0
 42
0.0000000001
 43
0.0000000001
 40
0.0
 40
0.0
 40
0.0
 40
0.0
 40
0.1253178067821899
 40
0.250667752152067
 40
0.3760051755467158
 40
0.5013519336420832
 40
1.0
 40
1.0
 40
1.0
 40
1.0
 10
6.893847679033208
 20
9.063422277871424
 30
0.0
 10
6.893911400756325
 20
9.061915539135441
 30
0.0
 10
6.89403886054442
 20
9.058901675250275
 30
0.0
 10
6.895189319976362
 20
9.055734586295891
 30
0.0
 10
6.896841896611189
 20
9.053735567922062
 30
0.0
 10
6.901158188824407
 20
9.052687965072387
 30
0.0
 10
6.905564803920516
 20
9.057114880300277
 30
0.0
 10
6.909086227513703
 20
9.060652526177793
 30
0.0
  0
LINE
  5
1B9
330
1F
100
AcDbEntity
  8
0
  6
Continuous
 62
     7
370
     5
100
AcDbLine
 10
6.89098757777979
 20
9.045163400113279
 30
0.0
 11
6.900368433466765
 21
9.042613884544982
 31
0.0
  0
LINE
  5
1BA
330
1F
100
AcDbEntity
  8
0
  6
Continuous
 62
     7
370
     5
100
AcDbLine
 10
6.998865088401895
 20
9.441040673252325
 30
0.0
 11
7.005882051472174
 21
9.439133613045154
 31
0.0
  0
LINE
  5
1BB
330
1F
100
AcDbEntity
  8
0
  6
Continuous
 62
     7
370
     5
100
AcDbLine
 10
6.91645380688365
 20
9.067842364208141
 30
0.0
 11
6.925259773848216
 21
9.065449091076221
 31
0.0
  0
LINE
  5
1BC
330
1F
100
AcDbEntity
  8
0
  6
Continuous
 62
     7
370
     5
100
AcDbLine
 10
6.990381245683041
 20
9.379431669042753
 30
0.0
 11
7.004199329126375
 21
9.375676210048565
 31
0.0
  0
LINE
  5
1BD
330
1F
100
AcDbEntity
  8
0
  6
Continuous
 62
     7
370
     5
100
AcDbLine
 10
6.907034475710491
 20
9.110574268899814
 30
0.0
 11
6.920024470344295
 21
9.10704386670026
 31
0.0
  0
LINE
  5
1BE
330
1F
100
AcDbEntity
  8
0
  6
Continuous
 62
     7
370
     5
100
AcDbLine
 10
7.016846437318944
 20
9.439509881191545
 30
0.0
 11
7.023983774201139
 21
9.437570105961594
 31
0.0
  0
LINE
  5
1BF
330
1F
100
AcDbEntity
  8
0
  6
Continuous
 62
     7
370
     5
100
AcDbLine
 10
6.903664980233102
 20
9.056750755065099
 30
0.0
 11
6.913585442663137
 21
9.054054585946412
 31
0.0
  0
LINE
  5
1C0
330
1F
100
AcDbEntity
  8
0
  6
Continuous
 62
     7
370
     5
100
AcDbLine
 10
6.95482038879419
 20
9.201445877577516
 30
0.0
 11
6.95482038879419
 21
9.201167352852365
 31
0.0
  0
LINE
  5
1C1
330
1F
100
AcDbEntity
  8
0
  6
Continuous
 62
     7
370
     5
100
AcDbLine
 10
6.95482038879419
 20
9.149246597735366
 30
0.0
 11
6.95482038879419
 21
9.148968010152009
 31
0.0
  0
LINE
  5
1C2
330
1F
100
AcDbEntity
  8
0
  6
Continuous
 62
     7
370
     5
100
AcDbLine
 10
6.954597201769038
 20
9.201228078244664
 30
0.0
 11
6.963403168733604
 21
9.198834805112744
 31
0.0
  0
LINE
  5
1C3
330
1F
100
AcDbEntity
  8
0
  6
Continuous
 62
     7
370
     5
100
AcDbLine
 10
7.003211340558004
 20
9.348611086269148
 30
0.0
 11
7.01201730752257
 21
9.346217813137227
 31
0.0
  0
LINE
  5
1C4
330
1F
100
AcDbEntity
  8
0
  6
Continuous
 62
     7
370
     5
100
AcDbLine
 10
7.003669759509189
 20
9.386476252293821
 30
0.0
 11
7.011070673531262
 21
9.384464842445026
 31
0.0
  0
LINE
  5
1C5
330
1F
100
AcDbEntity
  8
0
  6
Continuous
 62
     7
370
     5
100
AcDbLine
 10
6.954597201769038
 20
9.149028798402516
 30
0.0
 11
6.963403168733604
 21
9.146635525270594
 31
0.0
  0
LINE
  5
1C6
330
1F
100
AcDbEntity
  8
0
  6
Continuous
 62
     7
370
     5
100
AcDbLine
 10
6.873362084955125
 20
8.824347575461043
 30
0.0
 11
6.877884404544046
 21
8.82311850589836
 31
0.0
  0
LINE
  5
1C7
330
1F
100
AcDbEntity
  8
0
  6
Continuous
 62
     7
370
     5
100
AcDbLine
 10
6.884821177147721
 20
8.913594076718094
 30
0.0
 11
6.889360100021045
 21
8.912360494738477
 31
0.0
  0
LINE
  5
1C8
330
1F
100
AcDbEntity
  8
0
  6
Continuous
 62
     7
370
     5
100
AcDbLine
 10
6.89849488629058
 20
8.878499354636359
 30
0.0
 11
6.906562007099271
 21
8.876306884058047
 31
0.0
  0
LINE
  5
1C9
330
1F
100
AcDbEntity
  8
0
  6
Continuous
 62
     7
370
     5
100
AcDbLine
 10
6.959832505272964
 20
9.110181303671582
 30
0.0
 11
6.96863847223753
 21
9.10778803053966
 31
0.0
  0
LINE
  5
1CA
330
1F
100
AcDbEntity
  8
0
  6
Continuous
 62
     7
370
     5
100
AcDbLine
 10
7.009417829370305
 20
9.187841135641621
 30
0.0
 11
7.023235912813645
 21
9.184085676647432
 31
0.0
  0
LINE
  5
1CB
330
1F
100
AcDbEntity
  8
0
  6
Continuous
 62
     7
370
     5
100
AcDbLine
 10
6.983597651442787
 20
9.219144100448684
 30
0.0
 11
7.009417829370305
 21
9.187841135641621
 31
0.0
  0
LINE
  5
1CC
330
1F
100
AcDbEntity
  8
0
  6
Continuous
 62
     7
370
     5
100
AcDbLine
 10
7.014653132874231
 20
9.186418224387058
 30
0.0
 11
7.014653132874231
 21
9.180532118815479
 31
0.0
  0
LINE
  5
1CD
330
1F
100
AcDbEntity
  8
0
  6
Continuous
 62
     7
370
     5
100
AcDbLine
 10
6.905748422113084
 20
8.851606909759517
 30
0.0
 11
6.906784051977639
 21
8.851325447753193
 31
0.0
  0
LINE
  5
1CE
330
1F
100
AcDbEntity
  8
0
  6
Continuous
 62
     7
370
     5
100
AcDbLine
 10
6.919330837242237
 20
8.947681107906802
 30
0.0
 11
6.923763914177497
 21
8.946476292585147
 31
0.0
  0
LINE
  5
1CF
330
1F
100
AcDbEntity
  8
0
  6
Continuous
 62
     7
370
     5
100
AcDbLine
 10
6.983597913249549
 20
9.128920168428264
 30
0.0
 11
6.988832098657193
 21
9.127497628989491
 31
0.0
  0
LINE
  5
1D0
330
1F
100
AcDbEntity
  8
0
  6
Continuous
 62
     7
370
     5
100
AcDbLine
 10
6.983597913249549
 20
9.213250364797303
 30
0.0
 11
6.988832098657193
 21
9.211827825358533
 31
0.0
  0
LINE
  5
1D1
330
1F
100
AcDbEntity
  8
0
  6
Continuous
 62
     7
370
     5
100
AcDbLine
 10
6.933983851817954
 20
8.886118943386071
 30
0.0
 11
6.940591959009841
 21
8.884323001445924
 31
0.0
  0
LINE
  5
1D2
330
1F
100
AcDbEntity
  8
0
  6
Continuous
 62
     7
370
     5
100
AcDbLine
 10
6.960261720375759
 20
8.920763623591289
 30
0.0
 11
6.96003858033153
 21
8.920545832067446
 31
0.0
  0
LINE
  5
1D3
330
1F
100
AcDbEntity
  8
0
  6
Continuous
 62
     7
370
     5
100
AcDbLine
 10
7.025914310519706
 20
9.166881535227339
 30
0.0
 11
7.02847121631757
 21
9.166186623019342
 31
0.0
  0
LINE
  5
1D4
330
1F
100
AcDbEntity
  8
0
  6
Continuous
 62
     7
370
     5
100
AcDbLine
 10
6.960038705242561
 20
8.92082419894168
 30
0.0
 11
6.965272890650205
 21
8.919401659502907
 31
0.0
  0
SPLINE
  5
1D5
330
1F
100
AcDbEntity
  8
0
  6
Continuous
 62
     7
370
     5
100
AcDbSpline
210
0.0
220
0.0
230
1.0
 70
     8
 71
     3
 72
     9
 73
     5
 74
     0
 42
0.0000000001
 43
0.0000000001
 40
0.0
 40
0.0
 40
0.0
 40
0.0
 40
0.6558945519386917
 40
1.0
 40
1.0
 40
1.0
 40
1.0
 10
6.900195295280077
 20
8.666200181511253
 30
0.0
 10
6.898884948082707
 20
8.664902633890498
 30
0.0
 10
6.896887146464288
 20
8.662924346958675
 30
0.0
 10
6.894909898085884
 20
8.661492005302614
 30
0.0
 10
6.894229516146705
 20
8.660999128735276
 30
0.0
  0
LINE
  5
1D6
330
1F
100
AcDbEntity
  8
0
  6
Continuous
 62
     7
370
     5
100
AcDbLine
 10
6.915181271133814
 20
8.720981657439184
 30
0.0
 11
6.915181271133814
 21
8.720844877975876
 31
0.0
  0
LINE
  5
1D7
330
1F
100
AcDbEntity
  8
0
  6
Continuous
 62
     7
370
     5
100
AcDbLine
 10
6.969181388647434
 20
8.923215328070433
 30
0.0
 11
6.977987355612
 21
8.920822054938511
 31
0.0
  0
LINE
  5
1D8
330
1F
100
AcDbEntity
  8
0
  6
Continuous
 62
     7
370
     5
100
AcDbLine
 10
6.988274931315468
 20
8.968139869705677
 30
0.0
 11
6.994067402161118
 21
8.966565600247465
 31
0.0
  0
LINE
  5
1D9
330
1F
100
AcDbEntity
  8
0
  6
Continuous
 62
     7
370
     5
100
AcDbLine
 10
6.893601109684595
 20
8.67705744818884
 30
0.0
 11
6.898335121149639
 21
8.675770845310236
 31
0.0
  0
LINE
  5
1DA
330
1F
100
AcDbEntity
  8
0
  6
Continuous
 62
     7
370
     5
100
AcDbLine
 10
6.906134955459651
 20
8.710794944741314
 30
0.0
 11
6.913550397355575
 21
8.708779586527702
 31
0.0
  0
SPLINE
  5
1DB
330
1F
100
AcDbEntity
  8
0
  6
Continuous
 62
     7
370
     5
100
AcDbSpline
210
0.0
220
0.0
230
1.0
 70
     8
 71
     3
 72
    11
 73
     7
 74
     0
 42
0.0000000001
 43
0.0000000001
 40
0.0
 40
0.0
 40
0.0
 40
0.0
 40
0.499699916130906
 40
0.625303407820654
 40
0.7510768280269034
 40
1.0
 40
1.0
 40
1.0
 40
1.0
 10
6.913550397355575
 20
8.708779586527702
 30
0.0
 10
6.910002789588579
 20
8.705315200230462
 30
0.0
 10
6.905563462795218
 20
8.700980013275776
 30
0.0
 10
6.901237194666665
 20
8.691455819878425
 30
0.0
 10
6.898994591636021
 20
8.68433867101468
 30
0.0
 10
6.898598354444555
 20
8.679190766348437
 30
0.0
 10
6.898335121149639
 20
8.675770845310236
 30
0.0
  0
LINE
  5
1DC
330
1F
100
AcDbEntity
  8
0
  6
Continuous
 62
     7
370
     5
100
AcDbLine
 10
6.923763914177497
 20
8.718512196621819
 30
0.0
 11
6.913550397355575
 21
8.708779586527702
 31
0.0
  0
LINE
  5
1DD
330
1F
100
AcDbEntity
  8
0
  6
Continuous
 62
     7
370
     5
100
AcDbLine
 10
6.923763914177497
 20
8.682796853571142
 30
0.0
 11
6.923763914177497
 21
8.718512196621819
 31
0.0
  0
LINE
  5
1DE
330
1F
100
AcDbEntity
  8
0
  6
Continuous
 62
     7
370
     5
100
AcDbLine
 10
6.913094534565832
 20
8.672383211985208
 30
0.0
 11
6.923763914177497
 21
8.682796853571142
 31
0.0
  0
SPLINE
  5
1DF
330
1F
100
AcDbEntity
  8
0
  6
Continuous
 62
     7
370
     5
100
AcDbSpline
210
0.0
220
0.0
230
1.0
 70
     8
 71
     3
 72
    11
 73
     7
 74
     0
 42
0.0000000001
 43
0.0000000001
 40
0.0
 40
0.0
 40
0.0
 40
0.0
 40
0.2489924682021114
 40
0.3747719532665266
 40
0.5004526080681365
 40
1.0
 40
1.0
 40
1.0
 40
1.0
 10
6.898335121149639
 20
8.675770845310236
 30
0.0
 10
6.898599646336739
 20
8.67295401667371
 30
0.0
 10
6.898997797420465
 20
8.668714256420116
 30
0.0
 10
6.901147542918374
 20
8.665982966987835
 30
0.0
 10
6.905265208771556
 20
8.664570052445943
 30
0.0
 10
6.909617290000681
 20
8.66891314735149
 30
0.0
 10
6.913094534565832
 20
8.672383211985208
 30
0.0
  0
LINE
  5
1E0
330
1F
100
AcDbEntity
  8
0
  6
Continuous
 62
     7
370
     5
100
AcDbLine
 10
6.896046752585715
 20
8.656627586986262
 30
0.0
 11
6.904271604596219
 21
8.654392248447067
 31
0.0
  0
LINE
  5
1E1
330
1F
100
AcDbEntity
  8
0
  6
Continuous
 62
     7
370
     5
100
AcDbLine
 10
6.990895866276319
 20
8.934462223083864
 30
0.0
 11
6.991730181317502
 21
8.934235474132876
 31
0.0
  0
LINE
  5
1E2
330
1F
100
AcDbEntity
  8
0
  6
Continuous
 62
     7
370
     5
100
AcDbLine
 10
7.011369470348348
 20
9.046793305741125
 30
0.0
 11
7.015756888251506
 21
9.045600899566043
 31
0.0
  0
LINE
  5
1E3
330
1F
100
AcDbEntity
  8
0
  6
Continuous
 62
     7
370
     5
100
AcDbLine
 10
6.920193387612587
 20
8.679310764885924
 30
0.0
 11
6.928999354577153
 21
8.676917491754002
 31
0.0
  0
LINE
  5
1E4
330
1F
100
AcDbEntity
  8
0
  6
Continuous
 62
     7
370
     5
100
AcDbLine
 10
6.915074170203743
 20
8.720873882835197
 30
0.0
 11
6.923763914177497
 21
8.718512196621819
 31
0.0
  0
LINE
  5
1E5
330
1F
100
AcDbEntity
  8
0
  6
Continuous
 62
     7
370
     5
100
AcDbLine
 10
6.907517868165768
 20
8.668479950600747
 30
0.0
 11
6.917558704407714
 21
8.665751066459282
 31
0.0
  0
LINE
  5
1E6
330
1F
100
AcDbEntity
  8
0
  6
Continuous
 62
     7
370
     5
100
AcDbLine
 10
7.028650647534345
 20
9.011123397569027
 30
0.0
 11
7.037446237446159
 21
9.008732944697689
 31
0.0
  0
LINE
  5
1E7
330
1F
100
AcDbEntity
  8
0
  6
Continuous
 62
     7
370
     5
100
AcDbLine
 10
6.961551688864566
 20
8.812408452786073
 30
0.0
 11
6.959169018637707
 21
8.807459317663207
 31
0.0
  0
LINE
  5
1E8
330
1F
100
AcDbEntity
  8
0
  6
Continuous
 62
     7
370
     5
100
AcDbLine
 10
6.941580107323265
 20
8.764348218016049
 30
0.0
 11
6.944992507251154
 21
8.762913355540407
 31
0.0
  0
SPLINE
  5
1E9
330
1F
100
AcDbEntity
  8
0
  6
Continuous
 62
     7
370
     5
100
AcDbSpline
210
0.0
220
0.0
230
1.0
 70
     8
 71
     3
 72
     9
 73
     5
 74
     0
 42
0.0000000001
 43
0.0000000001
 40
0.0
 40
0.0
 40
0.0
 40
0.0
 40
0.5604102392346108
 40
1.0
 40
1.0
 40
1.0
 40
1.0
 10
6.944992507251154
 20
8.762913355540407
 30
0.0
 10
6.946894428140328
 20
8.76230106774002
 30
0.0
 10
6.950288229245325
 20
8.761208497052486
 30
0.0
 10
6.953249790477459
 20
8.758750260869264
 30
0.0
 10
6.954551662470988
 20
8.757669645413578
 30
0.0
  0
SPLINE
  5
1EA
330
1F
100
AcDbEntity
  8
0
  6
Continuous
 62
     7
370
     5
100
AcDbSpline
210
0.0
220
0.0
230
1.0
 70
     8
 71
     3
 72
     9
 73
     5
 74
     0
 42
0.0000000001
 43
0.0000000001
 40
0.0
 40
0.0
 40
0.0
 40
0.0
 40
0.6810667809735241
 40
1.0
 40
1.0
 40
1.0
 40
1.0
 10
6.954551662470988
 20
8.757669645413578
 30
0.0
 10
6.95561662256984
 20
8.755953128724396
 30
0.0
 10
6.957180287292027
 20
8.753432793366494
 30
0.0
 10
6.957455996553179
 20
8.748842803061647
 30
0.0
 10
6.95754392939536
 20
8.747378902678422
 30
0.0
  0
LINE
  5
1EB
330
1F
100
AcDbEntity
  8
0
  6
Continuous
 62
     7
370
     5
100
AcDbLine
 10
6.948227079622325
 20
8.711506077370213
 30
0.0
 11
6.943438193102593
 21
8.705505291952599
 31
0.0
  0
LINE
  5
1EC
330
1F
100
AcDbEntity
  8
0
  6
Continuous
 62
     7
370
     5
100
AcDbLine
 10
6.959318508777764
 20
8.8158358156826
 30
0.0
 11
6.961551688864566
 21
8.812408452786073
 31
0.0
  0
LINE
  5
1ED
330
1F
100
AcDbEntity
  8
0
  6
Continuous
 62
     7
370
     5
100
AcDbLine
 10
6.950978584874103
 20
8.805573870553681
 30
0.0
 11
6.957630275687545
 21
8.80376608351908
 31
0.0
  0
LINE
  5
1EE
330
1F
100
AcDbEntity
  8
0
  6
Continuous
 62
     7
370
     5
100
AcDbLine
 10
6.941153616157604
 20
8.767917696777249
 30
0.0
 11
6.948293028450347
 21
8.765977357495183
 31
0.0
  0
LINE
  5
1EF
330
1F
100
AcDbEntity
  8
0
  6
Continuous
 62
     7
370
     5
100
AcDbLine
 10
6.961551688864566
 20
8.812408452786073
 30
0.0
 11
6.975369772307905
 21
8.808652993791884
 31
0.0
  0
LINE
  5
1F0
330
1F
100
AcDbEntity
  8
0
  6
Continuous
 62
     7
370
     5
100
AcDbLine
 10
6.944992507251154
 20
8.762913355540407
 30
0.0
 11
6.958810590694493
 21
8.75915789654622
 31
0.0
  0
LINE
  5
1F1
330
1F
100
AcDbEntity
  8
0
  6
Continuous
 62
     7
370
     5
100
AcDbLine
 10
7.039454524584147
 20
8.982232471110386
 30
0.0
 11
7.040589774155115
 21
8.98192393460245
 31
0.0
  0
LINE
  5
1F2
330
1F
100
AcDbEntity
  8
0
  6
Continuous
 62
     7
370
     5
100
AcDbLine
 10
6.943438193102593
 20
8.705505291952599
 30
0.0
 11
6.957256276545932
 21
8.701749832958411
 31
0.0
  0
LINE
  5
1F3
330
1F
100
AcDbEntity
  8
0
  6
Continuous
 62
     7
370
     5
100
AcDbLine
 10
6.954551662470988
 20
8.757669645413578
 30
0.0
 11
6.968369745914328
 21
8.75391418641939
 31
0.0
  0
LINE
  5
1F4
330
1F
100
AcDbEntity
  8
0
  6
Continuous
 62
     7
370
     5
100
AcDbLine
 10
7.22002194847619
 20
6.868723731987643
 30
0.0
 11
7.272909635527357
 21
6.854349991893188
 31
0.0
  0
LINE
  5
1F5
330
1F
100
AcDbEntity
  8
0
  6
Continuous
 62
     7
370
     5
100
AcDbLine
 10
7.22002194847619
 20
6.868723731987643
 30
0.0
 11
6.684501174652018
 21
7.941728723320633
 31
0.0
  0
LINE
  5
1F6
330
1F
100
AcDbEntity
  8
0
  6
Continuous
 62
     7
370
     5
100
AcDbLine
 10
7.0076298342061
 20
8.858197783353372
 30
0.0
 11
7.008021629792957
 21
8.853165267422093
 31
0.0
  0
LINE
  5
1F7
330
1F
100
AcDbEntity
  8
0
  6
Continuous
 62
     7
370
     5
100
AcDbLine
 10
6.964858126953611
 20
8.742624712377009
 30
0.0
 11
6.971630191578968
 21
8.740784210319631
 31
0.0
  0
LINE
  5
1F8
330
1F
100
AcDbEntity
  8
0
  6
Continuous
 62
     7
370
     5
100
AcDbLine
 10
6.996683760021338
 20
8.850401058835133
 30
0.0
 11
7.003509785320996
 21
8.848545891422716
 31
0.0
  0
LINE
  5
1F9
330
1F
100
AcDbEntity
  8
0
  6
Continuous
 62
     7
370
     5
100
AcDbLine
 10
7.0076298342061
 20
8.858197783353372
 30
0.0
 11
7.02144791764944
 21
8.854442324359183
 31
0.0
  0
LINE
  5
1FA
330
1F
100
AcDbEntity
  8
0
  6
Continuous
 62
     7
370
     5
100
AcDbLine
 10
6.985093772920272
 20
8.738198628568776
 30
0.0
 11
6.990327958327918
 21
8.736776089130005
 31
0.0
  0
LINE
  5
1FB
330
1F
100
AcDbEntity
  8
0
  6
Continuous
 62
     7
370
     5
100
AcDbLine
 10
7.017216508628604
 20
8.834310544698036
 30
0.0
 11
7.022488051426151
 21
8.832877852321161
 31
0.0
  0
LINE
  5
1FC
330
1F
100
AcDbEntity
  8
0
  6
Continuous
 62
     7
370
     5
100
AcDbLine
 10
7.017253866018506
 20
8.769587865345886
 30
0.0
 11
7.022488051426151
 21
8.768165325907114
 31
0.0
  0
LINE
  5
1FD
330
1F
100
AcDbEntity
  8
0
  6
Continuous
 62
     7
370
     5
100
AcDbLine
 10
7.251348283842732
 20
9.253661678511246
 30
0.0
 11
7.224230969593605
 21
9.261031583470401
 31
0.0
  0
SPLINE
  5
1FE
330
1F
100
AcDbEntity
  8
0
  6
Continuous
 62
     7
370
     5
100
AcDbSpline
210
0.0
220
0.0
230
1.0
 70
     8
 71
     3
 72
     9
 73
     5
 74
     0
 42
0.0000000001
 43
0.0000000001
 40
0.0
 40
0.0
 40
0.0
 40
0.0
 40
0.4083809402905973
 40
1.0
 40
1.0
 40
1.0
 40
1.0
 10
7.235704221617951
 20
6.77955221616594
 30
0.0
 10
7.244318253546556
 20
6.786505611090979
 30
0.0
 10
7.265411382727537
 20
6.80353234823521
 30
0.0
 10
7.275200288128522
 20
6.815720272027882
 30
0.0
 10
7.280991591137431
 20
6.822930880041917
 30
0.0
  0
SPLINE
  5
1FF
330
1F
100
AcDbEntity
  8
0
  6
Continuous
 62
     7
370
     5
100
AcDbSpline
210
0.0
220
0.0
230
1.0
 70
     8
 71
     3
 72
     9
 73
     5
 74
     0
 42
0.0000000001
 43
0.0000000001
 40
0.0
 40
0.0
 40
0.0
 40
0.0
 40
0.1884222438451405
 40
1.0
 40
1.0
 40
1.0
 40
1.0
 10
7.284603045267632
 20
6.834674445474722
 30
0.0
 10
7.285094203886391
 20
6.835852137783168
 30
0.0
 10
7.287700895159862
 20
6.84210242057575
 30
0.0
 10
7.279536045717294
 20
6.848863141320876
 30
0.0
 10
7.272909635527357
 20
6.854349991893188
 30
0.0
  0
SPLINE
  5
200
330
1F
100
AcDbEntity
  8
0
  6
Continuous
 62
     7
370
     5
100
AcDbSpline
210
0.0
220
0.0
230
1.0
 70
     8
 71
     3
 72
     9
 73
     5
 74
     0
 42
0.0000000001
 43
0.0000000001
 40
0.0
 40
0.0
 40
0.0
 40
0.0
 40
0.965359876660322
 40
1.0
 40
1.0
 40
1.0
 40
1.0
 10
7.272909635527357
 20
8.642284794058159
 30
0.0
 10
7.279820456907605
 20
8.626597799760125
 30
0.0
 10
7.286979260113887
 20
8.610347907178818
 30
0.0
 10
7.286111612019968
 20
8.594720099333278
 30
0.0
 10
7.286081556582975
 20
8.594178750141981
 30
0.0
  0
LINE
  5
201
330
1F
100
AcDbEntity
  8
0
  6
Continuous
 62
     7
370
     5
100
AcDbLine
 10
7.223892934141499
 20
6.813777016237253
 30
0.0
 11
7.22002194847619
 21
6.868723731987643
 31
0.0
  0
LINE
  5
202
330
1F
100
AcDbEntity
  8
0
  6
Continuous
 62
     7
370
     5
100
AcDbLine
 10
7.197046699664483
 20
6.743314433263345
 30
0.0
 11
7.223892934141499
 21
6.813777016237253
 31
0.0
  0
LINE
  5
203
330
1F
100
AcDbEntity
  8
0
  6
Continuous
 62
     7
370
     5
100
AcDbLine
 10
7.113980467802616
 20
-0.7110728137199772
 30
0.0
 11
7.113980467802616
 21
6.403212016672357
 31
0.0
  0
LINE
  5
204
330
1F
100
AcDbEntity
  8
0
  6
Continuous
 62
     7
370
     5
100
AcDbLine
 10
7.085767336782971
 20
-0.7034050892431094
 30
0.0
 11
7.113980467802616
 21
-0.7110728137199772
 31
0.0
  0
LINE
  5
205
330
1F
100
AcDbEntity
  8
0
  6
Continuous
 62
     7
370
     5
100
AcDbLine
 10
6.908884246409114
 20
-0.7897349755599981
 30
0.0
 11
7.085767336782971
 21
-0.7034050892431094
 31
0.0
  0
LINE
  5
206
330
1F
100
AcDbEntity
  8
0
  6
Continuous
 62
     7
370
     5
100
AcDbLine
 10
6.213553223538406
 20
-0.6007589026853124
 30
0.0
 11
6.908884246409114
 21
-0.7897349755599981
 31
0.0
  0
LINE
  5
207
330
1F
100
AcDbEntity
  8
0
  6
Continuous
 62
     7
370
     5
100
AcDbLine
 10
6.036670133164548
 20
-0.4182829487335134
 30
0.0
 11
6.213553223538406
 21
-0.6007589026853124
 31
0.0
  0
LINE
  5
208
330
1F
100
AcDbEntity
  8
0
  6
Continuous
 62
     7
370
     5
100
AcDbLine
 10
6.008457002144903
 20
-0.4106152242566457
 30
0.0
 11
6.036670133164548
 21
-0.4182829487335134
 31
0.0
  0
LINE
  5
209
330
1F
100
AcDbEntity
  8
0
  6
Continuous
 62
     7
370
     5
100
AcDbLine
 10
6.008457002144903
 20
-0.4106152242566457
 30
0.0
 11
6.008457002144903
 21
6.651923722556798
 31
0.0
  0
ARC
  5
20A
330
1F
100
AcDbEntity
  8
0
  6
Continuous
 62
     7
370
     5
100
AcDbCircle
 10
7.812104654583688
 20
6.412898160007843
 30
0.0
 40
0.6981913788793505
100
AcDbArc
 50
151.754791803084
 51
180.7949008731296
  0
LWPOLYLINE
  5
20B
330
1F
100
AcDbEntity
  8
0
  6
Continuous
 62
     7
370
     5
100
AcDbPolyline
 90
       17
 70
   128
 43
0.0
 10
6.302084011378993
 20
-0.0832615034886775
 10
6.296563419315416
 20
-0.1086594097563697
 10
6.280842184397526
 20
-0.1271896618210953
 10
6.257315330400271
 20
-0.1360323969442643
 10
6.229560865112224
 20
-0.1338388130245098
 10
6.20180847523473
 20
-0.1209468230783065
 10
6.178281621237475
 20
-0.0993158983612329
 10
6.162560386319581
 20
-0.0722402567257726
 10
6.157039794256008
 20
-0.0438415931962802
 10
6.162560386319581
 20
-0.0184446926599393
 10
6.178281621237475
 20
0.0000855594047885
 10
6.20180847523473
 20
0.0089282945279575
 10
6.229560865112224
 20
0.0067362803916685
 10
6.257315330400271
 20
-0.0061572793380003
 10
6.280842184397526
 20
-0.027788204055074
 10
6.296563419315416
 20
-0.0548638456905342
 10
6.302084011378993
 20
-0.0832615034886775
  0
LWPOLYLINE
  5
20C
330
1F
100
AcDbEntity
  8
0
  6
Continuous
 62
     7
370
     5
100
AcDbPolyline
 90
       17
 70
   128
 43
0.0
 10
6.965397675691512
 20
-0.5849737175212962
 10
6.959877083627934
 20
-0.6103716237889884
 10
6.944155848710044
 20
-0.628901875853714
 10
6.92062899471279
 20
-0.6377446109768851
 10
6.892874529424743
 20
-0.6355510270571285
 10
6.865122139547245
 20
-0.6226590371109273
 10
6.84159528554999
 20
-0.6010281123938515
 10
6.8258740506321
 20
-0.5739524707583912
 10
6.820353458568527
 20
-0.5455538072288988
 10
6.8258740506321
 20
-0.5201569066925579
 10
6.84159528554999
 20
-0.5016266546278301
 10
6.865122139547245
 20
-0.4927839195046612
 10
6.892874529424743
 20
-0.4949759336409523
 10
6.92062899471279
 20
-0.507869493370619
 10
6.944155848710044
 20
-0.5295004180876926
 10
6.959877083627934
 20
-0.5565760597231528
 10
6.965397675691512
 20
-0.5849737175212962
  0
LWPOLYLINE
  5
20D
330
1F
100
AcDbEntity
  8
0
  6
Continuous
 62
     7
370
     5
100
AcDbPolyline
 90
       17
 70
   128
 43
0.0
 10
6.412636980567929
 20
0.7438597958342453
 10
6.407116388504352
 20
0.7184618895665552
 10
6.391395153586462
 20
0.6999316375018296
 10
6.367866224178656
 20
0.6910899692964506
 10
6.340113834301161
 20
0.6932819834327396
 10
6.312361444423666
 20
0.7061749791102919
 10
6.28883251501586
 20
0.7278059650138086
 10
6.27311128009797
 20
0.7548816066492666
 10
6.267592763444945
 20
0.7832797061266448
 10
6.27311128009797
 20
0.8086776735807777
 10
6.28883251501586
 20
0.8272079256455032
 10
6.312361444423666
 20
0.8360495938508824
 10
6.340113834301161
 20
0.8338575797145912
 10
6.367866224178656
 20
0.8209645840370411
 10
6.391395153586462
 20
0.7993335981335222
 10
6.407116388504352
 20
0.7722579564980621
 10
6.412636980567929
 20
0.7438597958342453
  0
LWPOLYLINE
  5
20E
330
1F
100
AcDbEntity
  8
0
  6
Continuous
 62
     7
370
     5
100
AcDbPolyline
 90
       17
 70
   128
 43
0.0
 10
6.854844706502576
 20
0.3022394381255615
 10
6.849324114438998
 20
0.2768415318578715
 10
6.833604954931656
 20
0.2583107157410272
 10
6.810076025523853
 20
0.2494690475356504
 10
6.782323635646354
 20
0.2516610616719415
 10
6.754569170358308
 20
0.2645546214016082
 10
6.731042316361053
 20
0.2861850432530084
 10
6.715321081443164
 20
0.3132606848884686
 10
6.70980048937959
 20
0.3416593484179588
 10
6.715321081443164
 20
0.3670567518199776
 10
6.731042316361053
 20
0.3855870038847032
 10
6.754569170358308
 20
0.3944292361421987
 10
6.782323635646354
 20
0.3922366579537911
 10
6.810076025523853
 20
0.3793436622762409
 10
6.833604954931656
 20
0.3577126763727242
 10
6.849324114438998
 20
0.3306375987893805
 10
6.854844706502576
 20
0.3022394381255615
  0
LWPOLYLINE
  5
20F
330
1F
100
AcDbEntity
  8
0
  6
Continuous
 62
     7
370
     5
100
AcDbPolyline
 90
       17
 70
   128
 43
0.0
 10
6.302084011378993
 20
1.631072951481105
 10
6.296563419315416
 20
1.605675045213414
 10
6.280842184397526
 20
1.587144793148687
 10
6.257315330400271
 20
1.578302560891191
 10
6.229560865112224
 20
1.580495139079601
 10
6.20180847523473
 20
1.593388134757149
 10
6.178281621237475
 20
1.615018556608552
 10
6.162560386319581
 20
1.642094198244012
 10
6.157039794256008
 20
1.670492861773502
 10
6.162560386319581
 20
1.695890265175519
 10
6.178281621237475
 20
1.714420517240246
 10
6.20180847523473
 20
1.723262749497742
 10
6.229560865112224
 20
1.721070735361451
 10
6.257315330400271
 20
1.708177175631784
 10
6.280842184397526
 20
1.686546753780384
 10
6.296563419315416
 20
1.659471112144923
 10
6.302084011378993
 20
1.631072951481105
  0
LWPOLYLINE
  5
210
330
1F
100
AcDbEntity
  8
0
  6
Continuous
 62
     7
370
     5
100
AcDbPolyline
 90
       17
 70
   128
 43
0.0
 10
6.965397675691512
 20
1.129360737448486
 10
6.959877083627934
 20
1.103962831180796
 10
6.944155848710044
 20
1.085432579116068
 10
6.92062899471279
 20
1.076590346858573
 10
6.892874529424743
 20
1.07878292504698
 10
6.865122139547245
 20
1.091675920724531
 10
6.84159528554999
 20
1.113306342575933
 10
6.8258740506321
 20
1.140381984211393
 10
6.820353458568527
 20
1.168780647740883
 10
6.8258740506321
 20
1.1941780511429
 10
6.84159528554999
 20
1.212708303207628
 10
6.865122139547245
 20
1.221550535465121
 10
6.892874529424743
 20
1.219358521328832
 10
6.92062899471279
 20
1.206464961599163
 10
6.944155848710044
 20
1.184834539747765
 10
6.959877083627934
 20
1.157758898112305
 10
6.965397675691512
 20
1.129360737448486
  0
LWPOLYLINE
  5
211
330
1F
100
AcDbEntity
  8
0
  6
Continuous
 62
     7
370
     5
100
AcDbPolyline
 90
       17
 70
   128
 43
0.0
 10
6.412636980567929
 20
2.45819425080403
 10
6.407116388504352
 20
2.432796344536337
 10
6.391395153586462
 20
2.414266092471612
 10
6.367866224178656
 20
2.405424424266233
 10
6.340113834301161
 20
2.407616438402522
 10
6.312361444423666
 20
2.420509434080074
 10
6.28883251501586
 20
2.442140419983593
 10
6.27311128009797
 20
2.469216061619051
 10
6.267592763444945
 20
2.497614161096427
 10
6.27311128009797
 20
2.52301212855056
 10
6.28883251501586
 20
2.541542380615286
 10
6.312361444423666
 20
2.550384048820665
 10
6.340113834301161
 20
2.548192034684376
 10
6.367866224178656
 20
2.535299039006823
 10
6.391395153586462
 20
2.513668053103307
 10
6.407116388504352
 20
2.486592411467846
 10
6.412636980567929
 20
2.45819425080403
  0
LWPOLYLINE
  5
212
330
1F
100
AcDbEntity
  8
0
  6
Continuous
 62
     7
370
     5
100
AcDbPolyline
 90
       17
 70
   128
 43
0.0
 10
6.854844706502576
 20
2.016573893095346
 10
6.849324114438998
 20
1.991176489693329
 10
6.833604954931656
 20
1.972645170710812
 10
6.810076025523853
 20
1.963803502505435
 10
6.782323635646354
 20
1.965996019507399
 10
6.754569170358308
 20
1.978889076371392
 10
6.731042316361053
 20
2.000519498222791
 10
6.715321081443164
 20
2.027595642723926
 10
6.70980048937959
 20
2.055993803387743
 10
6.715321081443164
 20
2.081391206789762
 10
6.731042316361053
 20
2.099921458854487
 10
6.754569170358308
 20
2.108764193977656
 10
6.782323635646354
 20
2.106571112923576
 10
6.810076025523853
 20
2.093678620111699
 10
6.833604954931656
 20
2.072047131342506
 10
6.849324114438998
 20
2.044972053759162
 10
6.854844706502576
 20
2.016573893095346
  0
LWPOLYLINE
  5
213
330
1F
100
AcDbEntity
  8
0
  6
Continuous
 62
     7
370
     5
100
AcDbPolyline
 90
       17
 70
   128
 43
0.0
 10
6.302084011378993
 20
3.345407406450887
 10
6.296563419315416
 20
3.32001000304887
 10
6.280842184397526
 20
3.301479750984145
 10
6.257315330400271
 20
3.292637015860976
 10
6.229560865112224
 20
3.294830096915057
 10
6.20180847523473
 20
3.307722589726934
 10
6.178281621237475
 20
3.32935351444401
 10
6.162560386319581
 20
3.356429156079468
 10
6.157039794256008
 20
3.384827316743287
 10
6.162560386319581
 20
3.410224720145301
 10
6.178281621237475
 20
3.428754972210031
 10
6.20180847523473
 20
3.437597707333198
 10
6.229560865112224
 20
3.435405190331233
 10
6.257315330400271
 20
3.42251213346724
 10
6.280842184397526
 20
3.400881208750166
 10
6.296563419315416
 20
3.373805567114706
 10
6.302084011378993
 20
3.345407406450887
  0
LWPOLYLINE
  5
214
330
1F
100
AcDbEntity
  8
0
  6
Continuous
 62
     7
370
     5
100
AcDbPolyline
 90
       17
 70
   128
 43
0.0
 10
6.965397675691512
 20
2.843695192418269
 10
6.959877083627934
 20
2.818297789016252
 10
6.944155848710044
 20
2.799767536951526
 10
6.92062899471279
 20
2.790924801828355
 10
6.892874529424743
 20
2.793117882882436
 10
6.865122139547245
 20
2.806010375694313
 10
6.84159528554999
 20
2.827641300411391
 10
6.8258740506321
 20
2.854716942046849
 10
6.820353458568527
 20
2.883115102710668
 10
6.8258740506321
 20
2.908512506112682
 10
6.84159528554999
 20
2.927042758177412
 10
6.865122139547245
 20
2.935885493300579
 10
6.892874529424743
 20
2.933692976298615
 10
6.92062899471279
 20
2.920799919434621
 10
6.944155848710044
 20
2.899168994717548
 10
6.959877083627934
 20
2.872093353082087
 10
6.965397675691512
 20
2.843695192418269
  0
LWPOLYLINE
  5
215
330
1F
100
AcDbEntity
  8
0
  6
Continuous
 62
     7
370
     5
100
AcDbPolyline
 90
       17
 70
   128
 43
0.0
 10
6.412636980567929
 20
4.172528705773812
 10
6.407116388504352
 20
4.147131302371795
 10
6.391395153586462
 20
4.12860105030707
 10
6.367866224178656
 20
4.119758879236015
 10
6.340113834301161
 20
4.12195139623798
 10
6.312361444423666
 20
4.134843889049856
 10
6.28883251501586
 20
4.156475377819049
 10
6.27311128009797
 20
4.183551019454509
 10
6.267592763444945
 20
4.211948616066211
 10
6.27311128009797
 20
4.237346583520342
 10
6.28883251501586
 20
4.255876835585071
 10
6.312361444423666
 20
4.264719006656123
 10
6.340113834301161
 20
4.262526489654158
 10
6.367866224178656
 20
4.249633996842281
 10
6.391395153586462
 20
4.228002508073092
 10
6.407116388504352
 20
4.200926866437629
 10
6.412636980567929
 20
4.172528705773812
  0
LWPOLYLINE
  5
216
330
1F
100
AcDbEntity
  8
0
  6
Continuous
 62
     7
370
     5
100
AcDbPolyline
 90
       17
 70
   128
 43
0.0
 10
6.854844706502576
 20
3.73090834806513
 10
6.849324114438998
 20
3.705510944663114
 10
6.833604954931656
 20
3.686980128546267
 10
6.810076025523853
 20
3.678138460340891
 10
6.782323635646354
 20
3.680330474477182
 10
6.754569170358308
 20
3.693224034206848
 10
6.731042316361053
 20
3.714854456058249
 10
6.715321081443164
 20
3.741930097693709
 10
6.70980048937959
 20
3.770328258357528
 10
6.715321081443164
 20
3.795725661759544
 10
6.731042316361053
 20
3.814256416689945
 10
6.754569170358308
 20
3.823098648947439
 10
6.782323635646354
 20
3.82090556789336
 10
6.810076025523853
 20
3.808013075081481
 10
6.833604954931656
 20
3.786382089177965
 10
6.849324114438998
 20
3.759306508728947
 10
6.854844706502576
 20
3.73090834806513
  0
LWPOLYLINE
  5
217
330
1F
100
AcDbEntity
  8
0
  6
Continuous
 62
     7
370
     5
100
AcDbPolyline
 90
       17
 70
   128
 43
0.0
 10
6.302084011378993
 20
5.059741861420672
 10
6.296563419315416
 20
5.034344458018655
 10
6.280842184397526
 20
5.01581420595393
 10
6.257315330400271
 20
5.006971722263596
 10
6.229560865112224
 20
5.009164551884841
 10
6.20180847523473
 20
5.022057296129554
 10
6.178281621237475
 20
5.043687969413793
 10
6.162560386319581
 20
5.070763611049253
 10
6.157039794256008
 20
5.099161771713071
 10
6.162560386319581
 20
5.124559426547923
 10
6.178281621237475
 20
5.143089678612652
 10
6.20180847523473
 20
5.151932162302983
 10
6.229560865112224
 20
5.149739896733856
 10
6.257315330400271
 20
5.136846588437025
 10
6.280842184397526
 20
5.115215915152787
 10
6.296563419315416
 20
5.088140273517327
 10
6.302084011378993
 20
5.059741861420672
  0
LWPOLYLINE
  5
218
330
1F
100
AcDbEntity
  8
0
  6
Continuous
 62
     7
370
     5
100
AcDbPolyline
 90
       17
 70
   128
 43
0.0
 10
6.965397675691512
 20
4.558029898820889
 10
6.959877083627934
 20
4.532632243986037
 10
6.944155848710044
 20
4.514101991921309
 10
6.92062899471279
 20
4.505259508230977
 10
6.892874529424743
 20
4.507452337852221
 10
6.865122139547245
 20
4.520345082096936
 10
6.84159528554999
 20
4.541975755381174
 10
6.8258740506321
 20
4.569051397016634
 10
6.820353458568527
 20
4.597449809113288
 10
6.8258740506321
 20
4.622847212515305
 10
6.84159528554999
 20
4.641377464580033
 10
6.865122139547245
 20
4.650219948270364
 10
6.892874529424743
 20
4.648027682701235
 10
6.92062899471279
 20
4.635134374404406
 10
6.944155848710044
 20
4.613503701120168
 10
6.959877083627934
 20
4.586428059484708
 10
6.965397675691512
 20
4.558029898820889
  0
LWPOLYLINE
  5
219
330
1F
100
AcDbEntity
  8
0
  6
Continuous
 62
     7
370
     5
100
AcDbPolyline
 90
       17
 70
   128
 43
0.0
 10
6.854844706502576
 20
5.445243054467751
 10
6.849324114438998
 20
5.419845399632897
 10
6.833604954931656
 20
5.401314583516052
 10
6.810076025523853
 20
5.392472915310675
 10
6.782323635646354
 20
5.394664929446965
 10
6.754569170358308
 20
5.407558489176633
 10
6.731042316361053
 20
5.429188911028031
 10
6.715321081443164
 20
5.456264552663494
 10
6.70980048937959
 20
5.484662964760148
 10
6.715321081443164
 20
5.510060619595003
 10
6.731042316361053
 20
5.528590871659728
 10
6.754569170358308
 20
5.537433103917224
 10
6.782323635646354
 20
5.535240525728816
 10
6.810076025523853
 20
5.522347530051266
 10
6.833604954931656
 20
5.500716544147747
 10
6.849324114438998
 20
5.473641466564403
 10
6.854844706502576
 20
5.445243054467751
  0
LWPOLYLINE
  5
21A
330
1F
100
AcDbEntity
  8
0
  6
Continuous
 62
     7
370
     5
100
AcDbPolyline
 90
       22
 70
   128
 43
0.0
 10
6.699186839825782
 20
-0.2340437790339892
 10
6.693058152470992
 20
-0.2717927446555865
 10
6.675213772560229
 20
-0.3028546737927895
 10
6.647241389164411
 20
-0.3244718922109371
 10
6.611625268712145
 20
-0.3347217662224073
 10
6.571528336881957
 20
-0.3326938240810871
 10
6.530518224409682
 20
-0.3185691779991661
 10
6.492233125989836
 20
-0.2936021244133742
 10
6.46008086574588
 20
-0.2600122074129785
 10
6.436913057773812
 20
-0.2207820149151285
 10
6.424790584749998
 20
-0.1793993346255207
 10
6.424790584749998
 20
-0.1395391841156732
 10
6.436913057773812
 20
-0.1047457606554569
 10
6.46008086574588
 20
-0.0781085957190736
 10
6.492233125989836
 20
-0.0619952695080893
 10
6.530518224409682
 20
-0.0578383547224696
 10
6.571528336881957
 20
-0.066005048299651
 10
6.611625268712145
 20
-0.0857720799545768
 10
6.647241389164411
 20
-0.115381350721605
 10
6.675213772560229
 20
-0.152203158002374
 10
6.693058152470992
 20
-0.1929645273414459
 10
6.699186839825782
 20
-0.2340437790339892
  0
LINE
  5
21B
330
1F
100
AcDbEntity
  8
0
  6
Continuous
 62
     7
370
     5
100
AcDbLine
 10
7.280991591137431
 20
6.822931005758333
 30
0.0
 11
7.223892934141499
 21
6.813777016237253
 31
0.0
  0
LINE
  5
21C
330
1F
100
AcDbEntity
  8
0
  6
Continuous
 62
     7
370
     5
100
AcDbLine
 10
7.214702005409264
 20
6.760546552918667
 30
0.0
 11
7.197046699664483
 21
6.743314433263345
 31
0.0
  0
LINE
  5
21D
330
1F
100
AcDbEntity
  8
0
  6
Continuous
 62
     7
370
     5
100
AcDbLine
 10
7.141888853236054
 20
6.430451456426497
 30
0.0
 11
7.113980467802616
 21
6.403212016672357
 31
0.0
  0
ARC
  5
21E
330
1F
100
AcDbEntity
  8
0
  6
Continuous
 62
     7
370
     5
100
AcDbCircle
 10
7.84001304001712
 20
6.440137599761986
 30
0.0
 40
0.6981913788793437
100
AcDbArc
 50
151.754791803084
 51
180.7949008731299
  0
LINE
  5
21F
330
1F
100
AcDbEntity
  8
0
  6
Continuous
 62
     7
370
     5
100
AcDbLine
 10
7.113980467802616
 20
-0.7110728137199772
 30
0.0
 11
7.141888853236054
 21
-0.6838333739658371
 31
0.0
  0
LINE
  5
220
330
1F
100
AcDbEntity
  8
0
  6
Continuous
 62
     7
370
     5
100
AcDbLine
 10
7.141888853236054
 20
-0.6838333739658371
 30
0.0
 11
7.141888853236054
 21
6.430451456426497
 31
0.0
  0
ARC
  5
221
330
1F
100
AcDbEntity
  8
0
  6
Continuous
 62
     7
370
     5
100
AcDbCircle
 10
6.828536343168465
 20
5.510058574130592
 30
0.0
 40
0.0899687381167794
100
AcDbArc
 50
164.3737823242334
 51
284.2359224920755
  0
ARC
  5
222
330
1F
100
AcDbEntity
  8
0
  6
Continuous
 62
     7
370
     5
100
AcDbCircle
 10
6.939089408679635
 20
4.622845512496592
 30
0.0
 40
0.0899688055556107
100
AcDbArc
 50
164.3738565056419
 51
284.2358483106677
  0
ARC
  5
223
330
1F
100
AcDbEntity
  8
0
  6
Continuous
 62
     7
370
     5
100
AcDbCircle
 10
6.275775759873317
 20
5.124557741663639
 30
0.0
 40
0.0899688164120987
100
AcDbArc
 50
164.3738684475422
 51
284.2358363687678
  0
ARC
  5
224
330
1F
100
AcDbEntity
  8
0
  6
Continuous
 62
     7
370
     5
100
AcDbCircle
 10
6.828536358674669
 20
3.795724134295242
 30
0.0
 40
0.0899687489732477
100
AcDbArc
 50
164.3737942661569
 51
284.2359105501522
  0
ARC
  5
225
330
1F
100
AcDbEntity
  8
0
  6
Continuous
 62
     7
370
     5
100
AcDbCircle
 10
6.386330312554445
 20
4.237347867850237
 30
0.0
 40
0.0899716080942003
100
AcDbArc
 50
164.3761628425474
 51
284.2343449897477
  0
ARC
  5
226
330
1F
100
AcDbEntity
  8
0
  6
Continuous
 62
     7
370
     5
100
AcDbCircle
 10
6.939089424185837
 20
2.908511072661241
 30
0.0
 40
0.0899688164121025
100
AcDbArc
 50
164.373868447545
 51
284.2358363687636
  0
ARC
  5
227
330
1F
100
AcDbEntity
  8
0
  6
Continuous
 62
     7
370
     5
100
AcDbCircle
 10
6.275776404196065
 20
3.410223522054768
 30
0.0
 40
0.0899693735248516
100
AcDbArc
 50
164.3741233197614
 51
284.235323029694
  0
ARC
  5
228
330
1F
100
AcDbEntity
  8
0
  6
Continuous
 62
     7
370
     5
100
AcDbCircle
 10
6.828536841634159
 20
2.081389757193017
 30
0.0
 40
0.0899691931081014
100
AcDbArc
 50
164.3739248686248
 51
284.23552148083
  0
ARC
  5
229
330
1F
100
AcDbEntity
  8
0
  6
Continuous
 62
     7
370
     5
100
AcDbCircle
 10
6.38633028158682
 20
2.523012879789196
 30
0.0
 40
0.0899715864111883
100
AcDbArc
 50
164.3761389942544
 51
284.2343688380397
  0
ARC
  5
22A
330
1F
100
AcDbEntity
  8
0
  6
Continuous
 62
     7
370
     5
100
AcDbCircle
 10
6.939089393172335
 20
1.194176084555844
 30
0.0
 40
0.0899687946983544
100
AcDbArc
 50
164.3738445628874
 51
284.2358602534208
  0
ARC
  5
22B
330
1F
100
AcDbEntity
  8
0
  6
Continuous
 62
     7
370
     5
100
AcDbCircle
 10
6.275775728859816
 20
1.695888298588459
 30
0.0
 40
0.0899687946983518
100
AcDbArc
 50
164.3738445628843
 51
284.2358602534241
  0
ARC
  5
22C
330
1F
100
AcDbEntity
  8
0
  6
Continuous
 62
     7
370
     5
100
AcDbCircle
 10
6.828536327661167
 20
0.367054691220063
 30
0.0
 40
0.0899687272595491
100
AcDbArc
 50
164.373770381463
 51
284.2359344348449
  0
ARC
  5
22D
330
1F
100
AcDbEntity
  8
0
  6
Continuous
 62
     7
370
     5
100
AcDbCircle
 10
6.386330281586822
 20
0.8086784248194131
 30
0.0
 40
0.0899715864111895
100
AcDbArc
 50
164.3761389942557
 51
284.2343688380385
  0
LWPOLYLINE
  5
22E
330
1F
100
AcDbEntity
  8
0
  6
Continuous
 62
     7
370
     5
100
AcDbPolyline
 90
       12
 70
   128
 43
0.0
 10
6.682644082094681
 20
-0.2930387389508424
 10
6.675149774597849
 20
-0.2972324524567972
 10
6.639533654145584
 20
-0.3074823264682673
 10
6.599436722315395
 20
-0.3054543843269472
 10
6.558426609843119
 20
-0.2913297382450262
 10
6.520141511423274
 20
-0.2663626846592342
 10
6.487989251179318
 20
-0.2327727676588386
 10
6.464821443207249
 20
-0.1935425751609886
 10
6.452698970183436
 20
-0.1521598948713807
 10
6.452698970183436
 20
-0.1122997443615334
 10
6.464821443207249
 20
-0.0775063209013171
 10
6.467702113050949
 20
-0.0728170409758257
  0
ARC
  5
22F
330
1F
100
AcDbEntity
  8
0
  6
Continuous
 62
     7
370
     5
100
AcDbCircle
 10
6.939090394238541
 20
-0.5201577868641106
 30
0.0
 40
0.0899696015840266
100
AcDbArc
 50
164.3743741728022
 51
284.2350721766532
  0
ARC
  5
230
330
1F
100
AcDbEntity
  8
0
  6
Continuous
 62
     7
370
     5
100
AcDbCircle
 10
6.275776729926021
 20
-0.0184455728314975
 30
0.0
 40
0.0899696015840226
100
AcDbArc
 50
164.374374172798
 51
284.2350721766574
  0
LINE
  5
231
330
1F
100
AcDbEntity
  8
0
  6
Continuous
 62
     7
370
     5
100
AcDbLine
 10
7.471497629718837
 20
18.36384129878846
 30
0.0
 11
4.995118030089114
 21
14.70637247712511
 31
0.0
  0
LINE
  5
232
330
1F
100
AcDbEntity
  8
0
  6
Continuous
 62
     7
370
     5
100
AcDbLine
 10
6.069580328305038
 20
8.519145793745357
 30
0.0
 11
4.995118030089114
 21
14.70637247712511
 31
0.0
  0
LINE
  5
233
330
1F
100
AcDbEntity
  8
0
  6
Continuous
 62
     7
370
     5
100
AcDbLine
 10
6.069580328305038
 20
8.519145793745357
 30
0.0
 11
5.572094042365374
 21
8.654351906422096
 31
0.0
  0
LINE
  5
234
330
1F
100
AcDbEntity
  8
0
  6
Continuous
 62
     7
370
     5
100
AcDbLine
 10
5.572094042365374
 20
8.654351906422096
 30
0.0
 11
4.617868908889097
 21
14.14919982870279
 31
0.0
  0
LINE
  5
235
330
1F
100
AcDbEntity
  8
0
  6
Continuous
 62
     7
370
     5
100
AcDbLine
 10
8.545959804942501
 20
12.17661399249881
 30
0.0
 11
7.471497629718837
 21
18.36384129878846
 31
0.0
  0
LINE
  5
236
330
1F
100
AcDbEntity
  8
0
  6
Continuous
 62
     7
370
     5
100
AcDbLine
 10
8.545959804942501
 20
12.17661399249881
 30
0.0
 11
7.251348757249754
 21
10.26454890889155
 31
0.0
  0
LINE
  5
237
330
1F
100
AcDbEntity
  8
0
  6
Continuous
 62
     7
370
     5
100
AcDbLine
 10
6.615091342011167
 20
9.32483382224259
 30
0.0
 11
6.069580328305038
 21
8.519145793745357
 31
0.0
  0
LINE
  5
238
330
1F
100
AcDbEntity
  8
0
  6
Continuous
 62
     8
370
     5
100
AcDbLine
 10
7.197046699664483
 20
6.743314433263345
 30
0.0
 11
7.197046699664483
 21
6.914757558924547
 31
0.0
  0
ENDSEC
  0
SECTION
  2
OBJECTS
  0
DICTIONARY
  5
C
330
0
100
AcDbDictionary
281
     1
  3
ACAD_COLOR
350
23B
  3
ACAD_GROUP
350
D
  3
ACAD_LAYOUT
350
1A
  3
ACAD_MATERIAL
350
23A
  3
ACAD_MLINESTYLE
350
17
  3
ACAD_PLOTSETTINGS
350
19
  3
ACAD_PLOTSTYLENAME
350
E
  3
ACAD_SCALELIST
350
47
  0
DICTIONARY
  5
23B
102
{ACAD_REACTORS
330
C
102
}
330
C
100
AcDbDictionary
281
     1
  0
DICTIONARY
  5
D
102
{ACAD_REACTORS
330
C
102
}
330
C
100
AcDbDictionary
281
     1
  0
DICTIONARY
  5
1A
102
{ACAD_REACTORS
330
C
102
}
330
C
100
AcDbDictionary
281
     1
  3
Layout1
350
1E
  3
Layout2
350
26
  3
Model
350
22
  0
DICTIONARY
  5
23A
102
{ACAD_REACTORS
330
C
102
}
330
C
100
AcDbDictionary
281
     1
  0
DICTIONARY
  5
17
102
{ACAD_REACTORS
330
C
102
}
330
C
100
AcDbDictionary
281
     1
  3
Standard
350
18
  0
DICTIONARY
  5
19
102
{ACAD_REACTORS
330
C
102
}
330
C
100
AcDbDictionary
281
     1
  0
ACDBDICTIONARYWDFLT
  5
E
102
{ACAD_REACTORS
330
C
102
}
330
C
100
AcDbDictionary
281
     1
  3
Normal
350
F
100
AcDbDictionaryWithDefault
340
F
  0
DICTIONARY
  5
47
102
{ACAD_REACTORS
330
C
102
}
330
C
100
AcDbDictionary
281
     1
  3
A0
350
48
  3
A1
350
49
  3
A2
350
4A
  3
A3
350
4B
  3
A4
350
4C
  3
A5
350
4D
  3
A6
350
4E
  3
A7
350
4F
  3
A8
350
50
  3
A9
350
51
  3
B0
350
52
  3
B1
350
53
  3
B2
350
54
  3
B3
350
55
  3
B4
350
56
  3
B5
350
57
  3
B6
350
58
  3
B7
350
59
  3
B8
350
5A
  3
B9
350
5B
  3
C0
350
5C
  3
C1
350
5D
  3
C2
350
5E
  3
C3
350
5F
  3
C4
350
60
  3
C5
350
61
  3
C6
350
62
  3
C7
350
63
  3
C8
350
64
  3
C9
350
65
  3
D0
350
66
  3
D1
350
67
  3
D2
350
68
  0
LAYOUT
  5
1E
102
{ACAD_REACTORS
330
1A
102
}
330
1A
100
AcDbPlotSettings
  1

  2
none_device
  4

  6

 40
0.0
 41
0.0
 42
0.0
 43
0.0
 44
0.0
 45
0.0
 46
0.0
 47
0.0
 48
0.0
 49
0.0
140
0.0
141
0.0
142
1.0
143
1.0
 70
   688
 72
     0
 73
     0
 74
     5
  7

 75
    16
147
1.0
 76
     0
 77
     2
 78
   300
148
0.0
149
0.0
100
AcDbLayout
  1
Layout1
 70
     1
 71
     1
 10
0.0
 20
0.0
 11
12.0
 21
9.0
 12
0.0
 22
0.0
 32
0.0
 14
1.000000000000000E+20
 24
1.000000000000000E+20
 34
1.000000000000000E+20
 15
-1.000000000000000E+20
 25
-1.000000000000000E+20
 35
-1.000000000000000E+20
146
0.0
 13
0.0
 23
0.0
 33
0.0
 16
1.0
 26
0.0
 36
0.0
 17
0.0
 27
1.0
 37
0.0
 76
     0
330
1B
  0
LAYOUT
  5
26
102
{ACAD_REACTORS
330
1A
102
}
330
1A
100
AcDbPlotSettings
  1

  2
none_device
  4

  6

 40
0.0
 41
0.0
 42
0.0
 43
0.0
 44
0.0
 45
0.0
 46
0.0
 47
0.0
 48
0.0
 49
0.0
140
0.0
141
0.0
142
1.0
143
1.0
 70
   688
 72
     0
 73
     0
 74
     5
  7

 75
    16
147
1.0
 76
     0
 77
     2
 78
   300
148
0.0
149
0.0
100
AcDbLayout
  1
Layout2
 70
     1
 71
     2
 10
0.0
 20
0.0
 11
0.0
 21
0.0
 12
0.0
 22
0.0
 32
0.0
 14
0.0
 24
0.0
 34
0.0
 15
0.0
 25
0.0
 35
0.0
146
0.0
 13
0.0
 23
0.0
 33
0.0
 16
1.0
 26
0.0
 36
0.0
 17
0.0
 27
1.0
 37
0.0
 76
     0
330
23
  0
LAYOUT
  5
22
102
{ACAD_REACTORS
330
1A
102
}
330
1A
100
AcDbPlotSettings
  1

  2
none_device
  4
Letter_(8.50_x_11.00_Inches)
  6

 40
6.349999999999999
 41
6.349999999999999
 42
6.350005079999999
 43
6.350005079999999
 44
215.9
 45
279.4
 46
0.0
 47
0.0
 48
0.0
 49
0.0
140
0.0
141
0.0
142
1.0
143
1.0
 70
  1712
 72
     0
 73
     0
 74
     0
  7

 75
     0
147
1.0
 76
     0
 77
     2
 78
   300
148
0.0
149
0.0
100
AcDbLayout
  1
Model
 70
     1
 71
     0
 10
0.0
 20
0.0
 11
11.0
 21
8.5
 12
0.0
 22
0.0
 32
0.0
 14
0.0
 24
0.0
 34
0.0
 15
11.0
 25
8.5
 35
0.0
146
0.0
 13
0.0
 23
0.0
 33
0.0
 16
1.0
 26
0.0
 36
0.0
 17
0.0
 27
1.0
 37
0.0
 76
     0
330
1F
  0
MLINESTYLE
  5
18
102
{ACAD_REACTORS
330
17
102
}
330
17
100
AcDbMlineStyle
  2
STANDARD
 70
     0
  3

 62
   256
 51
90.0
 52
90.0
 71
     2
 49
0.5
 62
   256
  6
BYLAYER
 49
-0.5
 62
   256
  6
BYLAYER
  0
ACDBPLACEHOLDER
  5
F
102
{ACAD_REACTORS
330
E
102
}
330
E
  0
ACAD_PROXY_OBJECT
  5
48
102
{ACAD_REACTORS
330
47
102
}
330
47
100
AcDbProxyObject
 90
      499
 91
      503
 95
   393239
 70
     0
 93
       41
310
903313A31580
 94
        0
  0
ACAD_PROXY_OBJECT
  5
49
102
{ACAD_REACTORS
330
47
102
}
330
47
100
AcDbProxyObject
 90
      499
 91
      503
 95
   393239
 70
     0
 93
      105
310
903313A324000000000000004000
 94
        0
  0
ACAD_PROXY_OBJECT
  5
4A
102
{ACAD_REACTORS
330
47
102
}
330
47
100
AcDbProxyObject
 90
      499
 91
      503
 95
   393239
 70
     0
 93
      105
310
903313A344000000000000104000
 94
        0
  0
ACAD_PROXY_OBJECT
  5
4B
102
{ACAD_REACTORS
330
47
102
}
330
47
100
AcDbProxyObject
 90
      499
 91
      503
 95
   393239
 70
     0
 93
      105
310
903313A354000000000000144000
 94
        0
  0
ACAD_PROXY_OBJECT
  5
4C
102
{ACAD_REACTORS
330
47
102
}
330
47
100
AcDbProxyObject
 90
      499
 91
      503
 95
   393239
 70
     0
 93
      105
310
903313A384000000000000204000
 94
        0
  0
ACAD_PROXY_OBJECT
  5
4D
102
{ACAD_REACTORS
330
47
102
}
330
47
100
AcDbProxyObject
 90
      499
 91
      503
 95
   393239
 70
     0
 93
      113
310
904313A31304000000000000244000
 94
        0
  0
ACAD_PROXY_OBJECT
  5
4E
102
{ACAD_REACTORS
330
47
102
}
330
47
100
AcDbProxyObject
 90
      499
 91
      503
 95
   393239
 70
     0
 93
      113
310
904313A31364000000000000304000
 94
        0
  0
ACAD_PROXY_OBJECT
  5
4F
102
{ACAD_REACTORS
330
47
102
}
330
47
100
AcDbProxyObject
 90
      499
 91
      503
 95
   393239
 70
     0
 93
      113
310
904313A32304000000000000344000
 94
        0
  0
ACAD_PROXY_OBJECT
  5
50
102
{ACAD_REACTORS
330
47
102
}
330
47
100
AcDbProxyObject
 90
      499
 91
      503
 95
   393239
 70
     0
 93
      113
310
904313A333040000000000003E4000
 94
        0
  0
ACAD_PROXY_OBJECT
  5
51
102
{ACAD_REACTORS
330
47
102
}
330
47
100
AcDbProxyObject
 90
      499
 91
      503
 95
   393239
 70
     0
 93
      113
310
904313A34304000000000000444000
 94
        0
  0
ACAD_PROXY_OBJECT
  5
52
102
{ACAD_REACTORS
330
47
102
}
330
47
100
AcDbProxyObject
 90
      499
 91
      503
 95
   393239
 70
     0
 93
      113
310
904313A35304000000000000494000
 94
        0
  0
ACAD_PROXY_OBJECT
  5
53
102
{ACAD_REACTORS
330
47
102
}
330
47
100
AcDbProxyObject
 90
      499
 91
      503
 95
   393239
 70
     0
 93
      121
310
905313A3130304000000000000594000
 94
        0
  0
ACAD_PROXY_OBJECT
  5
54
102
{ACAD_REACTORS
330
47
102
}
330
47
100
AcDbProxyObject
 90
      499
 91
      503
 95
   393239
 70
     0
 93
      105
310
903323A310000000000000010140
 94
        0
  0
ACAD_PROXY_OBJECT
  5
55
102
{ACAD_REACTORS
330
47
102
}
330
47
100
AcDbProxyObject
 90
      499
 91
      503
 95
   393239
 70
     0
 93
      105
310
903343A310000000000000410159
 94
        0
  0
ACAD_PROXY_OBJECT
  5
56
102
{ACAD_REACTORS
330
47
102
}
330
47
100
AcDbProxyObject
 90
      499
 91
      503
 95
   393239
 70
     0
 93
      105
310
903383A310000000000000810140
 94
        0
  0
ACAD_PROXY_OBJECT
  5
57
102
{ACAD_REACTORS
330
47
102
}
330
47
100
AcDbProxyObject
 90
      499
 91
      503
 95
   393239
 70
     0
 93
      113
310
90431303A310000000000000910140
 94
        0
  0
ACAD_PROXY_OBJECT
  5
58
102
{ACAD_REACTORS
330
47
102
}
330
47
100
AcDbProxyObject
 90
      499
 91
      503
 95
   393239
 70
     0
 93
      121
310
9053130303A310000000000001650100
 94
        0
  0
ACAD_PROXY_OBJECT
  5
59
102
{ACAD_REACTORS
330
47
102
}
330
47
100
AcDbProxyObject
 90
      499
 91
      503
 95
   393239
 70
     0
 93
      257
310
90E312F31323822203D2031272D3022000000000000200FC000000000000284000
 94
        0
  0
ACAD_PROXY_OBJECT
  5
5A
102
{ACAD_REACTORS
330
47
102
}
330
47
100
AcDbProxyObject
 90
      499
 91
      503
 95
   393239
 70
     0
 93
      249
310
90D312F363422203D2031272D3022000000000000240FC000000000000284000
 94
        0
  0
ACAD_PROXY_OBJECT
  5
5B
102
{ACAD_REACTORS
330
47
102
}
330
47
100
AcDbProxyObject
 90
      499
 91
      503
 95
   393239
 70
     0
 93
      249
310
90D312F333222203D2031272D3022000000000000280FC000000000000284040
 94
        0
  0
ACAD_PROXY_OBJECT
  5
5C
102
{ACAD_REACTORS
330
47
102
}
330
47
100
AcDbProxyObject
 90
      499
 91
      503
 95
   393239
 70
     0
 93
      249
310
90D312F313622203D2031272D30220000000000002C0FC000000000000284000
 94
        0
  0
ACAD_PROXY_OBJECT
  5
5D
102
{ACAD_REACTORS
330
47
102
}
330
47
100
AcDbProxyObject
 90
      499
 91
      503
 95
   393239
 70
     0
 93
      249
310
90D332F333222203D2031272D30220000000000002E0FC000000000000284040
 94
        0
  0
ACAD_PROXY_OBJECT
  5
5E
102
{ACAD_REACTORS
330
47
102
}
330
47
100
AcDbProxyObject
 90
      499
 91
      503
 95
   393239
 70
     0
 93
      241
310
90C312F3822203D2031272D3022000000000000300FC000000000000284040
 94
        0
  0
ACAD_PROXY_OBJECT
  5
5F
102
{ACAD_REACTORS
330
47
102
}
330
47
100
AcDbProxyObject
 90
      499
 91
      503
 95
   393239
 70
     0
 93
      249
310
90D332F313622203D2031272D3022000000000000320FC000000000000284040
 94
        0
  0
ACAD_PROXY_OBJECT
  5
60
102
{ACAD_REACTORS
330
47
102
}
330
47
100
AcDbProxyObject
 90
      499
 91
      503
 95
   393239
 70
     0
 93
      241
310
90C312F3422203D2031272D3022000000000000340FC000000000000284040
 94
        0
  0
ACAD_PROXY_OBJECT
  5
61
102
{ACAD_REACTORS
330
47
102
}
330
47
100
AcDbProxyObject
 90
      499
 91
      503
 95
   393239
 70
     0
 93
      241
310
90C332F3822203D2031272D3022000000000000360FC000000000000284040
 94
        0
  0
ACAD_PROXY_OBJECT
  5
62
102
{ACAD_REACTORS
330
47
102
}
330
47
100
AcDbProxyObject
 90
      499
 91
      503
 95
   393239
 70
     0
 93
      241
310
90C312F3222203D2031272D3022000000000000380FC000000000000284040
 94
        0
  0
ACAD_PROXY_OBJECT
  5
63
102
{ACAD_REACTORS
330
47
102
}
330
47
100
AcDbProxyObject
 90
      499
 91
      503
 95
   393239
 70
     0
 93
      241
310
90C332F3422203D2031272D30220000000000003A0FC000000000000284040
 94
        0
  0
ACAD_PROXY_OBJECT
  5
64
102
{ACAD_REACTORS
330
47
102
}
330
47
100
AcDbProxyObject
 90
      499
 91
      503
 95
   393239
 70
     0
 93
      161
310
90A3122203D2031272D30224000000000000284000
 94
        0
  0
ACAD_PROXY_OBJECT
  5
65
102
{ACAD_REACTORS
330
47
102
}
330
47
100
AcDbProxyObject
 90
      499
 91
      503
 95
   393239
 70
     0
 93
      257
310
90E312D312F3222203D2031272D30220000000000003E0FC000000000000284000
 94
        0
  0
ACAD_PROXY_OBJECT
  5
66
102
{ACAD_REACTORS
330
47
102
}
330
47
100
AcDbProxyObject
 90
      499
 91
      503
 95
   393239
 70
     0
 93
      225
310
90A3322203D2031272D302200000000000002100000000000000284028
 94
        0
  0
ACAD_PROXY_OBJECT
  5
67
102
{ACAD_REACTORS
330
47
102
}
330
47
100
AcDbProxyObject
 90
      499
 91
      503
 95
   393239
 70
     0
 93
      225
310
90A3622203D2031272D302200000000000006100000000000000284000
 94
        0
  0
ACAD_PROXY_OBJECT
  5
68
102
{ACAD_REACTORS
330
47
102
}
330
47
100
AcDbProxyObject
 90
      499
 91
      503
 95
   393239
 70
     0
 93
      249
310
90D31272D3022203D2031272D30220000000000000A100000000000000284000
 94
        0
  0
ENDSEC
  0
EOF
