  0
SECTION
  2
HEADER
  9
$ACADVER
  1
AC1018
  9
$ACADMAINTVER
 70
     0
  9
$DWGCODEPAGE
  3
ANSI_1252
  9
$INSBASE
 10
0.0
 20
0.0
 30
0.0
  9
$EXTMIN
 10
-19.15640201583558
 20
-8.138069128882095
 30
0.0
  9
$EXTMAX
 10
24.1328909329808
 20
15.64905401427826
 30
0.0
  9
$LIMMIN
 10
-100.0
 20
-100.0
  9
$LIMMAX
 10
100.0
 20
100.0
  9
$ORTHOMODE
 70
     0
  9
$REGENMODE
 70
     1
  9
$FILLMODE
 70
     1
  9
$QTEXTMODE
 70
     0
  9
$MIRRTEXT
 70
     1
  9
$LTSCALE
 40
1.0
  9
$ATTMODE
 70
     1
  9
$TEXTSIZE
 40
0.1377952755905512
  9
$TRACEWID
 40
0.05
  9
$TEXTSTYLE
  7
Standard
  9
$CLAYER
  8
0
  9
$CELTYPE
  6
ByLayer
  9
$CECOLOR
 62
   256
  9
$CELTSCALE
 40
1.0
  9
$DISPSILH
 70
     0
  9
$DIMSCALE
 40
1.0
  9
$DIMASZ
 40
0.13
  9
$DIMEXO
 40
0.0393700787401575
  9
$DIMDLI
 40
0.38
  9
$DIMRND
 40
0.0
  9
$DIMDLE
 40
0.0
  9
$DIMEXE
 40
0.0393700787401575
  9
$DIMTP
 40
0.0
  9
$DIMTM
 40
0.0
  9
$DIMTXT
 40
0.1377952755905512
  9
$DIMCEN
 40
0.09
  9
$DIMTSZ
 40
0.0
  9
$DIMTOL
 70
     0
  9
$DIMLIM
 70
     0
  9
$DIMTIH
 70
     1
  9
$DIMTOH
 70
     1
  9
$DIMSE1
 70
     0
  9
$DIMSE2
 70
     0
  9
$DIMTAD
 70
     1
  9
$DIMZIN
 70
     0
  9
$DIMBLK
  1

  9
$DIMASO
 70
     1
  9
$DIMSHO
 70
     1
  9
$DIMPOST
  1

  9
$DIMAPOST
  1

  9
$DIMALT
 70
     0
  9
$DIMALTD
 70
     2
  9
$DIMALTF
 40
25.4
  9
$DIMLFAC
 40
1.0
  9
$DIMTOFL
 70
     0
  9
$DIMTVP
 40
0.0
  9
$DIMTIX
 70
     0
  9
$DIMSOXD
 70
     0
  9
$DIMSAH
 70
     0
  9
$DIMBLK1
  1

  9
$DIMBLK2
  1

  9
$DIMSTYLE
  2
Standard
  9
$DIMCLRD
 70
     0
  9
$DIMCLRE
 70
     0
  9
$DIMCLRT
 70
     0
  9
$DIMTFAC
 40
1.0
  9
$DIMGAP
 40
0.06
  9
$DIMJUST
 70
     0
  9
$DIMSD1
 70
     0
  9
$DIMSD2
 70
     0
  9
$DIMTOLJ
 70
     1
  9
$DIMTZIN
 70
     0
  9
$DIMALTZ
 70
     0
  9
$DIMALTTZ
 70
     0
  9
$DIMUPT
 70
     0
  9
$DIMDEC
 70
     2
  9
$DIMTDEC
 70
     2
  9
$DIMALTU
 70
     2
  9
$DIMALTTD
 70
     2
  9
$DIMTXSTY
  7
Standard
  9
$DIMAUNIT
 70
     0
  9
$DIMADEC
 70
     2
  9
$DIMALTRND
 40
0.0
  9
$DIMAZIN
 70
     0
  9
$DIMDSEP
 70
    46
  9
$DIMATFIT
 70
     3
  9
$DIMFRAC
 70
     0
  9
$DIMLDRBLK
  1

  9
$DIMLUNIT
 70
     2
  9
$DIMLWD
 70
    -2
  9
$DIMLWE
 70
    -2
  9
$DIMTMOVE
 70
     0
  9
$LUNITS
 70
     2
  9
$LUPREC
 70
     2
  9
$SKETCHINC
 40
0.1
  9
$FILLETRAD
 40
0.5
  9
$AUNITS
 70
     0
  9
$AUPREC
 70
     2
  9
$MENU
  1
.
  9
$ELEVATION
 40
0.0
  9
$PELEVATION
 40
0.0
  9
$THICKNESS
 40
0.0
  9
$LIMCHECK
 70
     0
  9
$CHAMFERA
 40
0.0
  9
$CHAMFERB
 40
0.0
  9
$CHAMFERC
 40
0.0
  9
$CHAMFERD
 40
0.0
  9
$SKPOLY
 70
     0
  9
$TDCREATE
 40
2457060.504586678
  9
$TDUCREATE
 40
2457060.754586679
  9
$TDUPDATE
 40
2457064.332596806
  9
$TDUUPDATE
 40
2457064.582596805
  9
$TDINDWG
 40
0.0003302546
  9
$TDUSRTIMER
 40
0.0003302546
  9
$USRTIMER
 70
     1
  9
$ANGBASE
 50
0.0
  9
$ANGDIR
 70
     0
  9
$PDMODE
 70
     0
  9
$PDSIZE
 40
-1.0
  9
$PLINEWID
 40
0.0
  9
$SPLFRAME
 70
     0
  9
$SPLINETYPE
 70
     6
  9
$SPLINESEGS
 70
     8
  9
$HANDSEED
  5
3DC
  9
$SURFTAB1
 70
     6
  9
$SURFTAB2
 70
     6
  9
$SURFTYPE
 70
     6
  9
$SURFU
 70
     6
  9
$SURFV
 70
     6
  9
$UCSBASE
  2

  9
$UCSNAME
  2

  9
$UCSORG
 10
0.0
 20
0.0
 30
0.0
  9
$UCSXDIR
 10
1.0
 20
0.0
 30
0.0
  9
$UCSYDIR
 10
0.0
 20
1.0
 30
0.0
  9
$UCSORTHOREF
  2

  9
$UCSORTHOVIEW
 70
     0
  9
$UCSORGTOP
 10
0.0
 20
0.0
 30
0.0
  9
$UCSORGBOTTOM
 10
0.0
 20
0.0
 30
0.0
  9
$UCSORGLEFT
 10
0.0
 20
0.0
 30
0.0
  9
$UCSORGRIGHT
 10
0.0
 20
0.0
 30
0.0
  9
$UCSORGFRONT
 10
0.0
 20
0.0
 30
0.0
  9
$UCSORGBACK
 10
0.0
 20
0.0
 30
0.0
  9
$PUCSBASE
  2

  9
$PUCSNAME
  2

  9
$PUCSORG
 10
0.0
 20
0.0
 30
0.0
  9
$PUCSXDIR
 10
1.0
 20
0.0
 30
0.0
  9
$PUCSYDIR
 10
0.0
 20
1.0
 30
0.0
  9
$PUCSORTHOREF
  2

  9
$PUCSORTHOVIEW
 70
     0
  9
$PUCSORGTOP
 10
0.0
 20
0.0
 30
0.0
  9
$PUCSORGBOTTOM
 10
0.0
 20
0.0
 30
0.0
  9
$PUCSORGLEFT
 10
0.0
 20
0.0
 30
0.0
  9
$PUCSORGRIGHT
 10
0.0
 20
0.0
 30
0.0
  9
$PUCSORGFRONT
 10
0.0
 20
0.0
 30
0.0
  9
$PUCSORGBACK
 10
0.0
 20
0.0
 30
0.0
  9
$USERI1
 70
     0
  9
$USERI2
 70
     0
  9
$USERI3
 70
     0
  9
$USERI4
 70
     0
  9
$USERI5
 70
     0
  9
$USERR1
 40
0.0
  9
$USERR2
 40
0.0
  9
$USERR3
 40
0.0
  9
$USERR4
 40
0.0
  9
$USERR5
 40
0.0
  9
$WORLDVIEW
 70
     1
  9
$SHADEDGE
 70
     3
  9
$SHADEDIF
 70
    70
  9
$TILEMODE
 70
     1
  9
$MAXACTVP
 70
    64
  9
$PINSBASE
 10
0.0
 20
0.0
 30
0.0
  9
$PLIMCHECK
 70
     0
  9
$PEXTMIN
 10
1.000000000000000E+20
 20
1.000000000000000E+20
 30
1.000000000000000E+20
  9
$PEXTMAX
 10
-1.000000000000000E+20
 20
-1.000000000000000E+20
 30
-1.000000000000000E+20
  9
$PLIMMIN
 10
0.0
 20
0.0
  9
$PLIMMAX
 10
12.0
 20
9.0
  9
$UNITMODE
 70
     0
  9
$VISRETAIN
 70
     1
  9
$PLINEGEN
 70
     0
  9
$PSLTSCALE
 70
     1
  9
$TREEDEPTH
 70
  3020
  9
$CMLSTYLE
  2
Standard
  9
$CMLJUST
 70
     0
  9
$CMLSCALE
 40
1.0
  9
$PROXYGRAPHICS
 70
     1
  9
$MEASUREMENT
 70
     0
  9
$CELWEIGHT
370
    -1
  9
$ENDCAPS
280
     0
  9
$JOINSTYLE
280
     0
  9
$LWDISPLAY
290
     1
  9
$INSUNITS
 70
     1
  9
$HYPERLINKBASE
  1

  9
$STYLESHEET
  1

  9
$XEDIT
290
     1
  9
$CEPSNTYPE
380
     0
  9
$PSTYLEMODE
290
     1
  9
$FINGERPRINTGUID
  2
{0A5C4628-1B8F-44C5-BE61-E130EB9576DE}
  9
$VERSIONGUID
  2
{3DFA71C2-8F59-4187-81C9-9D10575D62ED}
  9
$EXTNAMES
290
     1
  9
$PSVPSCALE
 40
0.0
  9
$OLESTARTUP
290
     0
  9
$SORTENTS
280
   127
  9
$INDEXCTL
280
     0
  9
$HIDETEXT
280
     0
  9
$XCLIPFRAME
290
     0
  9
$HALOGAP
280
     0
  9
$OBSCOLOR
 70
   257
  9
$OBSLTYPE
280
     0
  9
$INTERSECTIONDISPLAY
280
     0
  9
$INTERSECTIONCOLOR
 70
   257
  9
$DIMASSOC
280
     1
  9
$PROJECTNAME
  1

  0
ENDSEC
  0
SECTION
  2
CLASSES
  0
CLASS
  1
ACDBDICTIONARYWDFLT
  2
AcDbDictionaryWithDefault
  3
ObjectDBX Classes
 90
        0
 91
        1
280
     0
281
     0
  0
CLASS
  1
VISUALSTYLE
  2
AcDbVisualStyle
  3
ObjectDBX Classes
 90
     4095
 91
        0
280
     0
281
     0
  0
CLASS
  1
MATERIAL
  2
AcDbMaterial
  3
ObjectDBX Classes
 90
        0
 91
        0
280
     0
281
     0
  0
CLASS
  1
SCALE
  2
AcDbScale
  3
ObjectDBX Classes
 90
     1153
 91
       33
280
     0
281
     0
  0
CLASS
  1
SUN
  2
AcDbSun
  3
SCENEOE
 90
     1153
 91
        1
280
     0
281
     0
  0
CLASS
  1
ACDBPLACEHOLDER
  2
AcDbPlaceHolder
  3
ObjectDBX Classes
 90
        0
 91
        1
280
     0
281
     0
  0
CLASS
  1
LAYOUT
  2
AcDbLayout
  3
ObjectDBX Classes
 90
        0
 91
        3
280
     0
281
     0
  0
ENDSEC
  0
SECTION
  2
TABLES
  0
TABLE
  2
VPORT
  5
8
330
0
100
AcDbSymbolTable
 70
     3
  0
VPORT
  5
3DB
330
8
100
AcDbSymbolTableRecord
100
AcDbViewportTableRecord
  2
*Active
 70
     0
 10
0.0
 20
0.0
 11
1.0
 21
1.0
 12
1.565202330037713
 22
3.138744473222775
 13
0.0
 23
0.0
 14
0.5
 24
0.5
 15
0.5
 25
0.5
 16
0.0
 26
0.0
 36
1.0
 17
0.0
 27
0.0
 37
0.0
 40
43.67648785917103
 41
2.240490797546012
 42
50.0
 43
0.0
 44
0.0
 50
0.0
 51
0.0
 71
     0
 72
  2000
 73
     1
 74
     3
 75
     0
 76
     0
 77
     0
 78
     0
281
     0
 65
     1
110
0.0
120
0.0
130
0.0
111
1.0
121
0.0
131
0.0
112
0.0
122
1.0
132
0.0
 79
     0
146
0.0
  0
ENDTAB
  0
TABLE
  2
LTYPE
  5
5
330
0
100
AcDbSymbolTable
 70
     6
  0
LTYPE
  5
14
330
5
100
AcDbSymbolTableRecord
100
AcDbLinetypeTableRecord
  2
ByBlock
 70
     0
  3

 72
    65
 73
     0
 40
0.0
  0
LTYPE
  5
15
330
5
100
AcDbSymbolTableRecord
100
AcDbLinetypeTableRecord
  2
ByLayer
 70
     0
  3

 72
    65
 73
     0
 40
0.0
  0
LTYPE
  5
16
330
5
100
AcDbSymbolTableRecord
100
AcDbLinetypeTableRecord
  2
Continuous
 70
     0
  3
Solid line
 72
    65
 73
     0
 40
0.0
  0
LTYPE
  5
6A
330
5
100
AcDbSymbolTableRecord
100
AcDbLinetypeTableRecord
  2
HIDDEN
 70
     0
  3
Hidden __ __ __ __ __ __ __ __ __ __ __ __ __ __
 72
    65
 73
     2
 40
0.075
 49
0.05
 74
     0
 49
-0.025
 74
     0
  0
LTYPE
  5
6B
330
5
100
AcDbSymbolTableRecord
100
AcDbLinetypeTableRecord
  2
PHANTOM
 70
     0
  3
Phantom ______  __  __  ______  __  __  ______
 72
    65
 73
     6
 40
0.5
 49
0.25
 74
     0
 49
-0.05
 74
     0
 49
0.05
 74
     0
 49
-0.05
 74
     0
 49
0.05
 74
     0
 49
-0.05
 74
     0
  0
LTYPE
  5
6C
330
5
100
AcDbSymbolTableRecord
100
AcDbLinetypeTableRecord
  2
CENTER
 70
     0
  3
Center ____ _ ____ _ ____ _ ____ _ ____ _ ____
 72
    65
 73
     4
 40
0.4
 49
0.25
 74
     0
 49
-0.05
 74
     0
 49
0.05
 74
     0
 49
-0.05
 74
     0
  0
LTYPE
  5
6D
330
5
100
AcDbSymbolTableRecord
100
AcDbLinetypeTableRecord
  2
CENTERX2
 70
     0
  3
Center (2x) ________  __  ________  __  _____
 72
    65
 73
     4
 40
0.8
 49
0.5
 74
     0
 49
-0.1
 74
     0
 49
0.1
 74
     0
 49
-0.1
 74
     0
  0
LTYPE
  5
6E
330
5
100
AcDbSymbolTableRecord
100
AcDbLinetypeTableRecord
  2
DOT2
 70
     0
  3
Dot (.5x) ........................................
 72
    65
 73
     2
 40
0.025
 49
0.0
 74
     0
 49
-0.025
 74
     0
  0
ENDTAB
  0
TABLE
  2
LAYER
  5
2
330
0
100
AcDbSymbolTable
 70
     1
  0
LAYER
  5
10
330
2
100
AcDbSymbolTableRecord
100
AcDbLayerTableRecord
  2
0
 70
     0
 62
     7
  6
Continuous
370
    -3
390
F
  0
ENDTAB
  0
TABLE
  2
STYLE
  5
3
330
0
100
AcDbSymbolTable
 70
     1
  0
STYLE
  5
11
330
3
100
AcDbSymbolTableRecord
100
AcDbTextStyleTableRecord
  2
Standard
 70
     0
 40
0.0
 41
1.0
 50
0.0
 71
     0
 42
0.1377952755905512
  3
txt
  4

  0
ENDTAB
  0
TABLE
  2
VIEW
  5
6
330
0
100
AcDbSymbolTable
 70
     0
  0
ENDTAB
  0
TABLE
  2
UCS
  5
7
330
0
100
AcDbSymbolTable
 70
     0
  0
ENDTAB
  0
TABLE
  2
APPID
  5
9
330
0
100
AcDbSymbolTable
 70
     1
  0
APPID
  5
12
330
9
100
AcDbSymbolTableRecord
100
AcDbRegAppTableRecord
  2
ACAD
 70
     0
  0
ENDTAB
  0
TABLE
  2
DIMSTYLE
  5
A
330
0
100
AcDbSymbolTable
 70
     1
100
AcDbDimStyleTable
 71
     0
  0
DIMSTYLE
105
27
330
A
100
AcDbSymbolTableRecord
100
AcDbDimStyleTableRecord
  2
Standard
 70
     0
340
11
  0
ENDTAB
  0
TABLE
  2
BLOCK_RECORD
  5
1
330
0
100
AcDbSymbolTable
 70
     1
  0
BLOCK_RECORD
  5
1F
330
1
100
AcDbSymbolTableRecord
100
AcDbBlockTableRecord
  2
*Model_Space
340
22
  0
BLOCK_RECORD
  5
1B
330
1
100
AcDbSymbolTableRecord
100
AcDbBlockTableRecord
  2
*Paper_Space
340
1E
  0
BLOCK_RECORD
  5
23
330
1
100
AcDbSymbolTableRecord
100
AcDbBlockTableRecord
  2
*Paper_Space0
340
26
  0
ENDTAB
  0
ENDSEC
  0
SECTION
  2
BLOCKS
  0
BLOCK
  5
20
330
1F
100
AcDbEntity
  8
0
100
AcDbBlockBegin
  2
*Model_Space
 70
     0
 10
0.0
 20
0.0
 30
0.0
  3
*Model_Space
  1

  0
ENDBLK
  5
21
330
1F
100
AcDbEntity
  8
0
100
AcDbBlockEnd
  0
BLOCK
  5
1C
330
1B
100
AcDbEntity
 67
     1
  8
0
100
AcDbBlockBegin
  2
*Paper_Space
 70
     0
 10
0.0
 20
0.0
 30
0.0
  3
*Paper_Space
  1

  0
ENDBLK
  5
1D
330
1B
100
AcDbEntity
 67
     1
  8
0
100
AcDbBlockEnd
  0
BLOCK
  5
24
330
23
100
AcDbEntity
  8
0
100
AcDbBlockBegin
  2
*Paper_Space0
 70
     0
 10
0.0
 20
0.0
 30
0.0
  3
*Paper_Space0
  1

  0
ENDBLK
  5
25
330
23
100
AcDbEntity
  8
0
100
AcDbBlockEnd
  0
ENDSEC
  0
SECTION
  2
ENTITIES
  0
LINE
  5
6F
330
1F
100
AcDbEntity
  8
0
  6
Continuous
 62
     7
370
     5
100
AcDbLine
 10
-18.19186937097784
 20
13.96576522192929
 30
0.0
 11
-18.89191246302474
 21
13.28250170327845
 31
0.0
  0
LINE
  5
70
330
1F
100
AcDbEntity
  8
0
  6
Continuous
 62
     7
370
     5
100
AcDbLine
 10
-17.49182627893094
 20
14.64902874058013
 30
0.0
 11
-18.19186937097784
 21
13.96576522192929
 31
0.0
  0
LINE
  5
71
330
1F
100
AcDbEntity
  8
0
  6
Continuous
 62
     7
370
     5
100
AcDbLine
 10
-8.541627212297907
 20
9.641328444589307
 30
0.0
 11
-8.531677694120169
 21
9.638624378740985
 31
0.0
  0
LINE
  5
72
330
1F
100
AcDbEntity
  8
0
  6
Continuous
 62
     7
370
     5
100
AcDbLine
 10
-8.481966404481838
 20
9.75564900929203
 30
0.0
 11
-8.491915922659575
 21
9.758353075140352
 31
0.0
  0
LINE
  5
73
330
1F
100
AcDbEntity
  8
0
  6
Continuous
 62
     7
370
     5
100
AcDbLine
 10
-8.500504961386827
 20
9.678517753374009
 30
0.0
 11
-8.491894083013976
 21
9.676177501141076
 31
0.0
  0
LINE
  5
74
330
1F
100
AcDbEntity
  8
0
  6
Continuous
 62
     7
370
     5
100
AcDbLine
 10
-8.44066414056544
 20
9.793328657534416
 30
0.0
 11
-8.450613658743177
 21
9.79603272338274
 31
0.0
  0
LINE
  5
75
330
1F
100
AcDbEntity
  8
0
  6
Continuous
 62
     7
370
     5
100
AcDbLine
 10
-8.448454808262967
 20
9.603164247047194
 30
0.0
 11
-8.458404326440705
 21
9.605868312895518
 31
0.0
  0
LINE
  5
76
330
1F
100
AcDbEntity
  8
0
  6
Continuous
 62
     7
370
     5
100
AcDbLine
 10
-8.542752905907528
 20
9.091889161993046
 30
0.0
 11
-8.53280338772979
 21
9.089185096144724
 31
0.0
  0
LINE
  5
77
330
1F
100
AcDbEntity
  8
0
  6
Continuous
 62
     7
370
     5
100
AcDbLine
 10
-8.518352879534329
 20
9.138288560333506
 30
0.0
 11
-8.528302397712067
 21
9.140992626181828
 31
0.0
  0
LINE
  5
78
330
1F
100
AcDbEntity
  8
0
  6
Continuous
 62
     7
370
     5
100
AcDbLine
 10
-8.436322560852152
 20
9.43236475396308
 30
0.0
 11
-8.44627207902989
 21
9.435068819811402
 31
0.0
  0
LINE
  5
79
330
1F
100
AcDbEntity
  8
0
  6
Continuous
 62
     7
370
     5
100
AcDbLine
 10
-8.482461419451118
 20
9.206776887561973
 30
0.0
 11
-8.492410937628855
 21
9.209480953410297
 31
0.0
  0
LINE
  5
7A
330
1F
100
AcDbEntity
  8
0
  6
Continuous
 62
     7
370
     5
100
AcDbLine
 10
-8.503912437951461
 20
9.12953043344892
 30
0.0
 11
-8.493962919773723
 21
9.126826367600598
 31
0.0
  0
LINE
  5
7B
330
1F
100
AcDbEntity
  8
0
  6
Continuous
 62
     7
370
     5
100
AcDbLine
 10
-8.467961975807474
 20
9.164887402592649
 30
0.0
 11
-8.458012457629738
 21
9.162183336744327
 31
0.0
  0
LINE
  5
7C
330
1F
100
AcDbEntity
  8
0
  6
Continuous
 62
     7
370
     5
100
AcDbLine
 10
-8.443561949434279
 20
9.211286800933109
 30
0.0
 11
-8.453511467612017
 21
9.213990866781433
 31
0.0
  0
LINE
  5
7D
330
1F
100
AcDbEntity
  8
0
  6
Continuous
 62
     7
370
     5
100
AcDbLine
 10
-6.974009891023634
 20
8.557081075347186
 30
0.0
 11
-6.949741768465091
 21
8.580767506938013
 31
0.0
  0
LINE
  5
7E
330
1F
100
AcDbEntity
  8
0
  6
Continuous
 62
     7
370
     5
100
AcDbLine
 10
-7.002459618846004
 20
6.646750853427695
 30
0.0
 11
-6.978191496287462
 21
6.670437285018523
 31
0.0
  0
LINE
  5
7F
330
1F
100
AcDbEntity
  8
0
  6
Continuous
 62
     7
370
     5
100
AcDbLine
 10
12.68441004570265
 20
3.87254633682689
 30
0.0
 11
12.69435956388039
 21
3.869842270978566
 31
0.0
  0
LINE
  5
80
330
1F
100
AcDbEntity
  8
0
  6
Continuous
 62
     7
370
     5
100
AcDbLine
 10
12.74407085351872
 20
3.98686690152961
 30
0.0
 11
12.73412133534098
 21
3.989570967377935
 31
0.0
  0
LINE
  5
81
330
1F
100
AcDbEntity
  8
0
  6
Continuous
 62
     7
370
     5
100
AcDbLine
 10
12.72553022120318
 20
3.909736209663709
 30
0.0
 11
12.73414317498658
 21
3.907395393378656
 31
0.0
  0
LINE
  5
82
330
1F
100
AcDbEntity
  8
0
  6
Continuous
 62
     7
370
     5
100
AcDbLine
 10
12.78537311743512
 20
4.024546549772
 30
0.0
 11
12.77542359925738
 21
4.027250615620324
 31
0.0
  0
LINE
  5
83
330
1F
100
AcDbEntity
  8
0
  6
Continuous
 62
     7
370
     5
100
AcDbLine
 10
12.77758244973759
 20
3.834382139284776
 30
0.0
 11
12.76763293155985
 21
3.837086205133101
 31
0.0
  0
LINE
  5
84
330
1F
100
AcDbEntity
  8
0
  6
Continuous
 62
     7
370
     5
100
AcDbLine
 10
12.68328435209302
 20
3.32310705423063
 30
0.0
 11
12.69323387027077
 21
3.320402988382306
 31
0.0
  0
LINE
  5
85
330
1F
100
AcDbEntity
  8
0
  6
Continuous
 62
     7
370
     5
100
AcDbLine
 10
12.70768437846623
 20
3.36950645257109
 30
0.0
 11
12.69773486028849
 21
3.372210518419414
 31
0.0
  0
LINE
  5
86
330
1F
100
AcDbEntity
  8
0
  6
Continuous
 62
     7
370
     5
100
AcDbLine
 10
12.7897146971484
 20
3.663582646200661
 30
0.0
 11
12.77976517897066
 21
3.666286712048988
 31
0.0
  0
LINE
  5
87
330
1F
100
AcDbEntity
  8
0
  6
Continuous
 62
     7
370
     5
100
AcDbLine
 10
12.74357583854944
 20
3.437994779799555
 30
0.0
 11
12.7336263203717
 21
3.440698845647879
 31
0.0
  0
LINE
  5
88
330
1F
100
AcDbEntity
  8
0
  6
Continuous
 62
     7
370
     5
100
AcDbLine
 10
12.72212482004909
 20
3.360748325686505
 30
0.0
 11
12.73207433822683
 21
3.358044259838181
 31
0.0
  0
LINE
  5
89
330
1F
100
AcDbEntity
  8
0
  6
Continuous
 62
     7
370
     5
100
AcDbLine
 10
12.75807528219308
 20
3.396105294830233
 30
0.0
 11
12.76802480037082
 21
3.393401228981908
 31
0.0
  0
LINE
  5
8A
330
1F
100
AcDbEntity
  8
0
  6
Continuous
 62
     7
370
     5
100
AcDbLine
 10
12.78247530856628
 20
3.442504693170692
 30
0.0
 11
12.77252579038854
 21
3.445208759019017
 31
0.0
  0
LINE
  5
8B
330
1F
100
AcDbEntity
  8
0
  6
Continuous
 62
     7
370
     5
100
AcDbLine
 10
14.25202529156637
 20
2.788299531636885
 30
0.0
 11
14.27629341412492
 21
2.811985963227713
 31
0.0
  0
LINE
  5
8C
330
1F
100
AcDbEntity
  8
0
  6
Continuous
 62
     7
370
     5
100
AcDbLine
 10
14.223575563744
 20
0.8779693097173934
 30
0.0
 11
14.24784368630254
 21
0.9016557413082216
 31
0.0
  0
LINE
  5
8D
330
1F
100
AcDbEntity
  8
0
  6
Continuous
 62
     7
370
     5
100
AcDbLine
 10
-8.256899670718546
 20
10.77969394488307
 30
0.0
 11
-14.29114480910137
 21
1.920420572792245
 31
0.0
  0
LINE
  5
8E
330
1F
100
AcDbEntity
  8
0
  6
Continuous
 62
     7
370
     5
100
AcDbLine
 10
-8.256899670718546
 20
10.77969394488307
 30
0.0
 11
-8.256899670718546
 21
10.11698914786569
 31
0.0
  0
LINE
  5
8F
330
1F
100
AcDbEntity
  8
0
  6
Continuous
 62
     7
370
     5
100
AcDbLine
 10
-8.256899670718546
 20
7.540922010815598
 30
0.0
 11
-8.256899670718546
 21
5.898967212332085
 31
0.0
  0
LINE
  5
90
330
1F
100
AcDbEntity
  8
0
  6
Continuous
 62
     7
370
     5
100
AcDbLine
 10
-13.88858921765618
 20
-2.369288149223913
 30
0.0
 11
-8.256899670718546
 21
5.898967212332085
 31
0.0
  0
SPLINE
  5
91
330
1F
100
AcDbEntity
  8
0
  6
Continuous
 62
     7
370
     5
100
AcDbSpline
210
0.0
220
0.0
230
1.0
 70
     8
 71
     3
 72
    31
 73
    27
 74
     0
 42
0.0000000001
 43
0.0000000001
 40
0.0
 40
0.0
 40
0.0
 40
0.0
 40
0.048863526080244
 40
0.0922064784225131
 40
0.131124625233086
 40
0.1667575893800653
 40
0.2002257133882811
 40
0.232542073087005
 40
0.2645281254466687
 40
0.309794891817456
 40
0.3563640245528536
 40
0.4043479904333496
 40
0.4533790158933633
 40
0.5028136509187203
 40
0.5518933213519032
 40
0.5998821848882355
 40
0.6462152707342561
 40
0.6906852370735761
 40
0.7336905118956612
 40
0.7642074279588812
 40
0.795394822335941
 40
0.828268641838579
 40
0.8639914540637713
 40
0.9037641499546577
 40
0.948743185816493
 40
1.0
 40
1.0
 40
1.0
 40
1.0
 10
-13.88858921765618
 20
-2.369288149223913
 30
0.0
 10
-13.86158800468324
 20
-2.270334938987415
 30
0.0
 10
-13.81063616061692
 20
-2.083608196641276
 30
0.0
 10
-13.75372735268143
 20
-1.81588781865909
 30
0.0
 10
-13.71647649368638
 20
-1.578270161003842
 30
0.0
 10
-13.69811434862723
 20
-1.368288647407326
 30
0.0
 10
-13.69683137572494
 20
-1.183969564754505
 30
0.0
 10
-13.71087312699064
 20
-1.023125765668614
 30
0.0
 10
-13.74199503432585
 20
-0.8643988225709005
 30
0.0
 10
-13.79456838711116
 20
-0.7140948996192775
 30
0.0
 10
-13.86978865217024
 20
-0.5769806842032361
 30
0.0
 10
-13.95743359638548
 20
-0.4604967348983772
 30
0.0
 10
-14.05293035319431
 20
-0.3573276150933682
 30
0.0
 10
-14.15175131264091
 20
-0.2604087971626519
 30
0.0
 10
-14.24937386379572
 20
-0.1628106905336658
 30
0.0
 10
-14.34128128029108
 20
-0.0575792447071601
 30
0.0
 10
-14.42295799070842
 20
0.0624391577321081
 30
0.0
 10
-14.48981186006512
 20
0.2047794593430239
 30
0.0
 10
-14.53241712134895
 20
0.3616933783478742
 30
0.0
 10
-14.55265854779726
 20
0.5272160389985805
 30
0.0
 10
-14.55567974211037
 20
0.6950115656461193
 30
0.0
 10
-14.54197386630959
 20
0.886845814617736
 30
0.0
 10
-14.50991449877427
 20
1.104691771529884
 30
0.0
 10
-14.4578440511495
 20
1.350495183687839
 30
0.0
 10
-14.38488727667115
 20
1.62703965613022
 30
0.0
 10
-14.32372229535433
 20
1.81846451139112
 30
0.0
 10
-14.29114480910137
 20
1.920420572792241
 30
0.0
  0
LINE
  5
92
330
1F
100
AcDbEntity
  8
0
  6
Continuous
 62
     7
370
     5
100
AcDbLine
 10
-15.21521654628122
 20
-2.008739267488761
 30
0.0
 11
-13.88858921765618
 21
-2.369288149223913
 31
0.0
  0
SPLINE
  5
93
330
1F
100
AcDbEntity
  8
0
  6
Continuous
 62
     7
370
     5
100
AcDbSpline
210
0.0
220
0.0
230
1.0
 70
     8
 71
     3
 72
    31
 73
    27
 74
     0
 42
0.0000000001
 43
0.0000000001
 40
0.0
 40
0.0
 40
0.0
 40
0.0
 40
0.048863526080244
 40
0.0922064784225131
 40
0.131124625233086
 40
0.1667575893800653
 40
0.2002257133882811
 40
0.232542073087005
 40
0.2645281254466687
 40
0.309794891817456
 40
0.3563640245528536
 40
0.4043479904333496
 40
0.4533790158933633
 40
0.5028136509187203
 40
0.5518933213519032
 40
0.5998821848882355
 40
0.6462152707342561
 40
0.6906852370735761
 40
0.7336905118956612
 40
0.7642074279588812
 40
0.795394822335941
 40
0.828268641838579
 40
0.8639914540637713
 40
0.9037641499546577
 40
0.948743185816493
 40
1.0
 40
1.0
 40
1.0
 40
1.0
 10
-15.21521654628122
 20
-2.008739267488761
 30
0.0
 10
-15.18821533330828
 20
-1.909786057252265
 30
0.0
 10
-15.13726348924196
 20
-1.723059314906124
 30
0.0
 10
-15.08035468130647
 20
-1.455338936923938
 30
0.0
 10
-15.04310382231141
 20
-1.217721279268693
 30
0.0
 10
-15.02474167725227
 20
-1.007739765672174
 30
0.0
 10
-15.02345870434998
 20
-0.8234206830193532
 30
0.0
 10
-15.03750045561568
 20
-0.6625768839334629
 30
0.0
 10
-15.06862236295089
 20
-0.5038499408357486
 30
0.0
 10
-15.12119571573619
 20
-0.3535460178841254
 30
0.0
 10
-15.19641598079527
 20
-0.2164318024680861
 30
0.0
 10
-15.28406092501052
 20
-0.0999478531632252
 30
0.0
 10
-15.37955768181934
 20
0.0032212666417816
 30
0.0
 10
-15.47837864126594
 20
0.1001400845724978
 30
0.0
 10
-15.57600119242075
 20
0.197738191201484
 30
0.0
 10
-15.66790860891611
 20
0.3029696370279897
 30
0.0
 10
-15.74958531933345
 20
0.4229880394672601
 30
0.0
 10
-15.81643918869015
 20
0.5653283410781716
 30
0.0
 10
-15.85904444997399
 20
0.7222422600830263
 30
0.0
 10
-15.87928587642229
 20
0.8877649207337302
 30
0.0
 10
-15.8823070707354
 20
1.055560447381268
 30
0.0
 10
-15.86860119493462
 20
1.247394696352887
 30
0.0
 10
-15.83654182739931
 20
1.465240653265036
 30
0.0
 10
-15.78447137977453
 20
1.711044065422991
 30
0.0
 10
-15.71151460529619
 20
1.987588537865372
 30
0.0
 10
-15.65034962397937
 20
2.17901339312627
 30
0.0
 10
-15.61777213772641
 20
2.280969454527393
 30
0.0
  0
LINE
  5
94
330
1F
100
AcDbEntity
  8
0
  6
Continuous
 62
     7
370
     5
100
AcDbLine
 10
-15.61777213772641
 20
2.280969454527395
 30
0.0
 11
-14.29114480910137
 21
1.920420572792245
 31
0.0
  0
LINE
  5
95
330
1F
100
AcDbEntity
  8
0
  6
Continuous
 62
     7
370
     5
100
AcDbLine
 10
-8.256899670718546
 20
10.77969394488307
 30
0.0
 11
-9.583526999343581
 21
11.14024282661822
 31
0.0
  0
LINE
  5
96
330
1F
100
AcDbEntity
  8
0
  6
Continuous
 62
     7
370
     5
100
AcDbLine
 10
-9.583526999343581
 20
11.14024282661822
 30
0.0
 11
-15.61777213772641
 21
2.280969454527395
 31
0.0
  0
LINE
  5
97
330
1F
100
AcDbEntity
  8
0
  6
Continuous
 62
     7
370
     5
100
AcDbLine
 10
-8.183440815249772
 20
12.50676986391991
 30
0.0
 11
-6.856813486624736
 21
12.14622098218476
 31
0.0
  0
LINE
  5
98
330
1F
100
AcDbEntity
  8
0
  6
Continuous
 62
     7
370
     5
100
AcDbLine
 10
-8.183440815249772
 20
12.50676986391991
 30
0.0
 11
-1.689713911537439
 21
15.64905401427826
 31
0.0
  0
LINE
  5
99
330
1F
100
AcDbEntity
  8
0
  6
Continuous
 62
     7
370
     5
100
AcDbLine
 10
-1.689713911537439
 20
15.64905401427826
 30
0.0
 11
-0.3630865829124019
 21
15.28850513254311
 31
0.0
  0
LINE
  5
9A
330
1F
100
AcDbEntity
  8
0
  6
Continuous
 62
     7
370
     5
100
AcDbLine
 10
-6.856813486624736
 20
12.14622098218476
 30
0.0
 11
-0.3630865829124019
 21
15.28850513254311
 31
0.0
  0
SPLINE
  5
9B
330
1F
100
AcDbEntity
  8
0
  6
Continuous
 62
     7
370
     5
100
AcDbSpline
210
0.0
220
0.0
230
1.0
 70
     8
 71
     3
 72
    32
 73
    28
 74
     0
 42
0.0000000001
 43
0.0000000001
 40
0.0
 40
0.0
 40
0.0
 40
0.0
 40
0.0305368105542527
 40
0.0654366278211773
 40
0.097872752565907
 40
0.1289085033639476
 40
0.159456273407721
 40
0.2005648417811972
 40
0.2429899571824701
 40
0.2870513726986184
 40
0.3325980151682182
 40
0.379178352198384
 40
0.4261688291173574
 40
0.4728717295588313
 40
0.5185986487757873
 40
0.5627570954752787
 40
0.6049618573822638
 40
0.6451897332364699
 40
0.6839852537718679
 40
0.7129289760126873
 40
0.742660735944174
 40
0.7742546491581789
 40
0.8088882705581415
 40
0.8477333886290637
 40
0.8918859826703092
 40
0.9423414262758914
 40
1.0
 40
1.0
 40
1.0
 40
1.0
 10
-1.178552559020812
 20
10.60299182825196
 30
0.0
 10
-1.185380490130443
 20
10.64464693927444
 30
0.0
 10
-1.200011906401497
 20
10.73390871702247
 30
0.0
 10
-1.205996385430796
 20
10.8884499924021
 30
0.0
 10
-1.198779568942703
 20
11.0561139678932
 30
0.0
 10
-1.177644130628088
 20
11.22600648918946
 30
0.0
 10
-1.140826466781795
 20
11.41598161770637
 30
0.0
 10
-1.084964310893644
 20
11.62705257434118
 30
0.0
 10
-1.009196068794502
 20
11.85668351938226
 30
0.0
 10
-0.921821100380615
 20
12.08625547599444
 30
0.0
 10
-0.8259617254098627
 20
12.31573327900486
 30
0.0
 10
-0.7246991074798511
 20
12.54491410472456
 30
0.0
 10
-0.6211285261927133
 20
12.77343202945868
 30
0.0
 10
-0.518355391571311
 20
13.00086162296437
 30
0.0
 10
-0.4194790173571079
 20
13.22678804947731
 30
0.0
 10
-0.3275783081456287
 20
13.45088997314531
 30
0.0
 10
-0.2457167094990448
 20
13.67306102396084
 30
0.0
 10
-0.1770164166543196
 20
13.89342260584626
 30
0.0
 10
-0.1292356459315371
 20
14.09423774537739
 30
0.0
 10
-0.1011336330378657
 20
14.27295696824515
 30
0.0
 10
-0.0889684052711437
 20
14.43128446002849
 30
0.0
 10
-0.0914355632033205
 20
14.58624874636886
 30
0.0
 10
-0.1098107377609986
 20
14.73719370830844
 30
0.0
 10
-0.1452313084761303
 20
14.88390729600006
 30
0.0
 10
-0.198999919200325
 20
15.02605143518731
 30
0.0
 10
-0.2718476641928311
 20
15.16493709171112
 30
0.0
 10
-0.3313521092695697
 20
15.24552603119129
 30
0.0
 10
-0.3630865829124019
 20
15.28850513254311
 30
0.0
  0
LINE
  5
9C
330
1F
100
AcDbEntity
  8
0
  6
Continuous
 62
     7
370
     5
100
AcDbLine
 10
13.04259229192968
 20
6.737988884261727
 30
0.0
 11
14.36921962055472
 21
6.377440002526577
 31
0.0
  0
LINE
  5
9D
330
1F
100
AcDbEntity
  8
0
  6
Continuous
 62
     7
370
     5
100
AcDbLine
 10
14.36921962055472
 20
6.377440002526577
 30
0.0
 11
20.86294652426706
 21
9.519724152884924
 31
0.0
  0
SPLINE
  5
9E
330
1F
100
AcDbEntity
  8
0
  6
Continuous
 62
     7
370
     5
100
AcDbSpline
210
0.0
220
0.0
230
1.0
 70
     8
 71
     3
 72
    32
 73
    28
 74
     0
 42
0.0000000001
 43
0.0000000001
 40
0.0
 40
0.0
 40
0.0
 40
0.0
 40
0.0576585737241086
 40
0.1081140173296908
 40
0.1522666113709365
 40
0.1911117294418586
 40
0.2257453508418212
 40
0.2573392640558261
 40
0.2870710239873129
 40
0.3160147462281322
 40
0.3548102667635303
 40
0.3950381426177364
 40
0.4372429045247215
 40
0.4814013512242128
 40
0.5271282704411688
 40
0.5738311708826427
 40
0.6208216478016161
 40
0.6674019848317819
 40
0.7129486273013815
 40
0.75701004281753
 40
0.7994351582188026
 40
0.8405437265922788
 40
0.8710914966360522
 40
0.902127247434093
 40
0.9345633721788226
 40
0.9694631894457474
 40
1.0
 40
1.0
 40
1.0
 40
1.0
 10
20.86294652426706
 20
9.519724152884924
 30
0.0
 10
20.89468099790989
 20
9.476745051533107
 30
0.0
 10
20.95418544298663
 20
9.39615611205294
 30
0.0
 10
21.02703318797913
 20
9.257270455529129
 30
0.0
 10
21.08080179870331
 20
9.115126316341882
 30
0.0
 10
21.11622236941845
 20
8.968412728650253
 30
0.0
 10
21.13459754397615
 20
8.817467766710677
 30
0.0
 10
21.1370647019083
 20
8.662503480370315
 30
0.0
 10
21.12489947414159
 20
8.504175988586963
 30
0.0
 10
21.09679746124793
 20
8.325456765719209
 30
0.0
 10
21.04901669052515
 20
8.124641626188079
 30
0.0
 10
20.98031639768041
 20
7.904280044302658
 30
0.0
 10
20.89845479903383
 20
7.682108993487134
 30
0.0
 10
20.80655408982234
 20
7.458007069819128
 30
0.0
 10
20.70767771560815
 20
7.232080643306194
 30
0.0
 10
20.60490458098674
 20
7.004651049800494
 30
0.0
 10
20.5013339996996
 20
6.77613312506638
 30
0.0
 10
20.4000713817696
 20
6.546952299346676
 30
0.0
 10
20.30421200679885
 20
6.317474496336264
 30
0.0
 10
20.21683703838495
 20
6.087902539724084
 30
0.0
 10
20.14106879628581
 20
5.858271594682995
 30
0.0
 10
20.08520664039766
 20
5.647200638048192
 30
0.0
 10
20.04838897655139
 20
5.457225509531275
 30
0.0
 10
20.02725353823675
 20
5.287332988235017
 30
0.0
 10
20.02003672174867
 20
5.119669012743917
 30
0.0
 10
20.02602120077796
 20
4.965127737364293
 30
0.0
 10
20.04065261704902
 20
4.875865959616251
 30
0.0
 10
20.04748054815866
 20
4.834210848593776
 30
0.0
  0
LINE
  5
9F
330
1F
100
AcDbEntity
  8
0
  6
Continuous
 62
     7
370
     5
100
AcDbLine
 10
13.04259229192968
 20
6.737988884261727
 30
0.0
 11
19.53631919564202
 21
9.880273034620072
 31
0.0
  0
LINE
  5
A0
330
1F
100
AcDbEntity
  8
0
  6
Continuous
 62
     7
370
     5
100
AcDbLine
 10
19.53631919564202
 20
9.880273034620072
 30
0.0
 11
20.86294652426706
 21
9.519724152884924
 31
0.0
  0
SPLINE
  5
A1
330
1F
100
AcDbEntity
  8
0
  6
Continuous
 62
     7
370
     5
100
AcDbSpline
210
0.0
220
0.0
230
1.0
 70
     8
 71
     3
 72
    31
 73
    27
 74
     0
 42
0.0000000001
 43
0.0000000001
 40
0.0
 40
0.0
 40
0.0
 40
0.0
 40
0.048863526080244
 40
0.0922064784225131
 40
0.131124625233086
 40
0.1667575893800653
 40
0.2002257133882811
 40
0.232542073087005
 40
0.2645281254466687
 40
0.309794891817456
 40
0.3563640245528536
 40
0.4043479904333496
 40
0.4533790158933633
 40
0.5028136509187203
 40
0.5518933213519032
 40
0.5998821848882355
 40
0.6462152707342561
 40
0.6906852370735761
 40
0.7336905118956612
 40
0.7642074279588812
 40
0.795394822335941
 40
0.828268641838579
 40
0.8639914540637713
 40
0.9037641499546577
 40
0.948743185816493
 40
1.0
 40
1.0
 40
1.0
 40
1.0
 10
6.01081656089824
 20
-7.777520247146947
 30
0.0
 10
6.037817773871175
 20
-7.678567036910449
 30
0.0
 10
6.088769617937493
 20
-7.49184029456431
 30
0.0
 10
6.145678425872989
 20
-7.224119916582124
 30
0.0
 10
6.182929284868038
 20
-6.986502258926874
 30
0.0
 10
6.201291429927207
 20
-6.776520745330365
 30
0.0
 10
6.202574402829477
 20
-6.592201662677538
 30
0.0
 10
6.188532651563781
 20
-6.431357863591649
 30
0.0
 10
6.157410744228567
 20
-6.27263092049393
 30
0.0
 10
6.104837391443265
 20
-6.122326997542309
 30
0.0
 10
6.029617126384188
 20
-5.985212782126271
 30
0.0
 10
5.94197218216894
 20
-5.86872883282141
 30
0.0
 10
5.846475425360111
 20
-5.765559713016402
 30
0.0
 10
5.747654465913507
 20
-5.668640895085683
 30
0.0
 10
5.650031914758701
 20
-5.571042788456699
 30
0.0
 10
5.558124498263334
 20
-5.465811342630193
 30
0.0
 10
5.476447787846
 20
-5.345792940190923
 30
0.0
 10
5.409593918489305
 20
-5.203452638580009
 30
0.0
 10
5.366988657205472
 20
-5.046538719575157
 30
0.0
 10
5.346747230757161
 20
-4.881016058924453
 30
0.0
 10
5.343726036444051
 20
-4.713220532276914
 30
0.0
 10
5.357431912244826
 20
-4.521386283305295
 30
0.0
 10
5.389491279780151
 20
-4.303540326393147
 30
0.0
 10
5.441561727404929
 20
-4.057736914235194
 30
0.0
 10
5.514518501883263
 20
-3.781192441792813
 30
0.0
 10
5.575683483200088
 20
-3.589767586531913
 30
0.0
 10
5.60826096945305
 20
-3.48781152513079
 30
0.0
  0
LINE
  5
A2
330
1F
100
AcDbEntity
  8
0
  6
Continuous
 62
     7
370
     5
100
AcDbLine
 10
5.608260969453046
 20
-3.487811525130788
 30
0.0
 11
6.934888298078083
 21
-3.848360406865936
 31
0.0
  0
SPLINE
  5
A3
330
1F
100
AcDbEntity
  8
0
  6
Continuous
 62
     7
370
     5
100
AcDbSpline
210
0.0
220
0.0
230
1.0
 70
     8
 71
     3
 72
    31
 73
    27
 74
     0
 42
0.0000000001
 43
0.0000000001
 40
0.0
 40
0.0
 40
0.0
 40
0.0
 40
0.048863526080244
 40
0.0922064784225131
 40
0.131124625233086
 40
0.1667575893800653
 40
0.2002257133882811
 40
0.232542073087005
 40
0.2645281254466687
 40
0.309794891817456
 40
0.3563640245528536
 40
0.4043479904333496
 40
0.4533790158933633
 40
0.5028136509187203
 40
0.5518933213519032
 40
0.5998821848882355
 40
0.6462152707342561
 40
0.6906852370735761
 40
0.7336905118956612
 40
0.7642074279588812
 40
0.795394822335941
 40
0.828268641838579
 40
0.8639914540637713
 40
0.9037641499546577
 40
0.948743185816493
 40
1.0
 40
1.0
 40
1.0
 40
1.0
 10
7.337443889523277
 20
-8.138069128882095
 30
0.0
 10
7.364445102496205
 20
-8.039115918645601
 30
0.0
 10
7.41539694656253
 20
-7.852389176299458
 30
0.0
 10
7.472305754498018
 20
-7.584668798317272
 30
0.0
 10
7.509556613493071
 20
-7.347051140662026
 30
0.0
 10
7.527918758552232
 20
-7.137069627065512
 30
0.0
 10
7.52920173145451
 20
-6.95275054441269
 30
0.0
 10
7.515159980188815
 20
-6.7919067453268
 30
0.0
 10
7.4840380728536
 20
-6.633179802229082
 30
0.0
 10
7.431464720068307
 20
-6.482875879277461
 30
0.0
 10
7.356244455009221
 20
-6.345761663861419
 30
0.0
 10
7.268599510793973
 20
-6.229277714556558
 30
0.0
 10
7.17310275398514
 20
-6.126108594751549
 30
0.0
 10
7.074281794538549
 20
-6.029189776820835
 30
0.0
 10
6.976659243383731
 20
-5.931591670191851
 30
0.0
 10
6.884751826888376
 20
-5.826360224365346
 30
0.0
 10
6.803075116471037
 20
-5.706341821926073
 30
0.0
 10
6.736221247114333
 20
-5.564001520315161
 30
0.0
 10
6.693615985830505
 20
-5.407087601310309
 30
0.0
 10
6.673374559382191
 20
-5.241564940659605
 30
0.0
 10
6.670353365069093
 20
-5.073769414012066
 30
0.0
 10
6.684059240869868
 20
-4.881935165040447
 30
0.0
 10
6.716118608405181
 20
-4.664089208128297
 30
0.0
 10
6.768189056029958
 20
-4.418285795970343
 30
0.0
 10
6.841145830508297
 20
-4.141741323527965
 30
0.0
 10
6.902310811825117
 20
-3.950316468267063
 30
0.0
 10
6.934888298078088
 20
-3.84836040686594
 30
0.0
  0
LINE
  5
A4
330
1F
100
AcDbEntity
  8
0
  6
Continuous
 62
     7
370
     5
100
AcDbLine
 10
6.01081656089824
 20
-7.777520247146947
 30
0.0
 11
7.337443889523277
 21
-8.138069128882095
 31
0.0
  0
LINE
  5
A5
330
1F
100
AcDbEntity
  8
0
  6
Continuous
 62
     7
370
     5
100
AcDbLine
 10
12.96913343646091
 20
5.010912965224893
 30
0.0
 11
6.934888298078083
 21
-3.848360406865936
 31
0.0
  0
LINE
  5
A6
330
1F
100
AcDbEntity
  8
0
  6
Continuous
 62
     7
370
     5
100
AcDbLine
 10
12.96913343646091
 20
5.010912965224893
 30
0.0
 11
12.96913343646091
 21
4.348208168207505
 31
0.0
  0
LINE
  5
A7
330
1F
100
AcDbEntity
  8
0
  6
Continuous
 62
     7
370
     5
100
AcDbLine
 10
12.96913343646091
 20
1.772141031157417
 30
0.0
 11
12.96913343646091
 21
0.1301862326739048
 31
0.0
  0
LINE
  5
A8
330
1F
100
AcDbEntity
  8
0
  6
Continuous
 62
     7
370
     5
100
AcDbLine
 10
7.337443889523277
 20
-8.138069128882095
 30
0.0
 11
12.96913343646091
 21
0.1301862326739048
 31
0.0
  0
LINE
  5
A9
330
1F
100
AcDbEntity
  8
0
  6
Continuous
 62
     7
370
     5
100
AcDbLine
 10
12.96913343646091
 20
5.010912965224893
 30
0.0
 11
11.64250610783587
 21
5.371461846960042
 31
0.0
  0
LINE
  5
AA
330
1F
100
AcDbEntity
  8
0
  6
Continuous
 62
     7
370
     5
100
AcDbLine
 10
11.64250610783587
 20
5.371461846960042
 30
0.0
 11
5.608260969453046
 21
-3.487811525130788
 31
0.0
  0
LINE
  5
AB
330
1F
100
AcDbEntity
  8
0
  6
Continuous
 62
     7
370
     5
100
AcDbLine
 10
21.81109632161278
 20
2.607856913387538
 30
0.0
 11
-18.47128018631751
 21
13.55574370132333
 31
0.0
  0
SPLINE
  5
AC
330
1F
100
AcDbEntity
  8
0
  6
Continuous
 62
     7
370
     5
100
AcDbSpline
210
0.0
220
0.0
230
1.0
 70
     8
 71
     3
 72
    31
 73
    27
 74
     0
 42
0.0000000001
 43
0.0000000001
 40
0.0
 40
0.0
 40
0.0
 40
0.0
 40
0.0520504229108936
 40
0.0983467238561033
 40
0.1398156251976877
 40
0.1774461034652659
 40
0.2122568113639561
 40
0.2452401621853162
 40
0.2772886349445965
 40
0.3191050555803248
 40
0.3616641664165381
 40
0.4055080665961704
 40
0.450725628249207
 40
0.4970921927796402
 40
0.5441893186505821
 40
0.591499531845813
 40
0.638483391857117
 40
0.6846554267296592
 40
0.7296654051736836
 40
0.7734006466320663
 40
0.8161111320269485
 40
0.8500390605945732
 40
0.8844311744436948
 40
0.9201685788846599
 40
0.9583086763410832
 40
1.0
 40
1.0
 40
1.0
 40
1.0
 10
21.81109632161278
 20
2.607856913387538
 30
0.0
 10
21.89187738371794
 20
2.537857883170191
 30
0.0
 10
22.04450924266091
 20
2.405598145208682
 30
0.0
 10
22.24430091620712
 20
2.19764204368149
 30
0.0
 10
22.40652422961492
 20
1.997319300984274
 30
0.0
 10
22.53299849138519
 20
1.802934971265166
 30
0.0
 10
22.62647454572002
 20
1.614377198989119
 30
0.0
 10
22.68956312322607
 20
1.431374789815487
 30
0.0
 10
22.72883844772315
 20
1.235499530959389
 30
0.0
 10
22.73782100475619
 20
1.02691619032629
 30
0.0
 10
22.71244924682775
 20
0.8083924504333305
 30
0.0
 10
22.65922845607728
 20
0.5961684891068528
 30
0.0
 10
22.58486774636158
 20
0.388499546278676
 30
0.0
 10
22.49585290098599
 20
0.1837800022341053
 30
0.0
 10
22.39856188773884
 20
-0.0194381662620442
 30
0.0
 10
22.29933441523511
 20
-0.2225181794067738
 30
0.0
 10
22.20453190369144
 20
-0.4268235280752984
 30
0.0
 10
22.1205027371127
 20
-0.6337378212082392
 30
0.0
 10
22.05366517794135
 20
-0.8447682662994187
 30
0.0
 10
22.01056548049493
 20
-1.061543197398531
 30
0.0
 10
21.99895515658704
 20
-1.271156881864367
 30
0.0
 10
22.01771221630693
 20
-1.471813409509144
 30
0.0
 10
22.06274113099716
 20
-1.663077407115929
 30
0.0
 10
22.13943415525309
 20
-1.860526751771232
 30
0.0
 10
22.24946597441273
 20
-2.06540067281527
 30
0.0
 10
22.34624395250142
 20
-2.197009297231478
 30
0.0
 10
22.3967854805261
 20
-2.265740852804233
 30
0.0
  0
LINE
  5
AD
330
1F
100
AcDbEntity
  8
0
  6
Continuous
 62
     7
370
     5
100
AcDbLine
 10
-18.92681567995301
 20
8.965128484948809
 30
0.0
 11
-12.29305018743112
 21
7.16221316848164
 31
0.0
  0
LINE
  5
AE
330
1F
100
AcDbEntity
  8
0
  6
Continuous
 62
     7
370
     5
100
AcDbLine
 10
-8.256899670718546
 20
6.065273942283333
 30
0.0
 11
8.932982919748335
 21
1.393432188823455
 31
0.0
  0
LINE
  5
AF
330
1F
100
AcDbEntity
  8
0
  6
Continuous
 62
     7
370
     5
100
AcDbLine
 10
12.96913343646091
 20
0.2964929626251509
 30
0.0
 11
22.3967854805261
 21
-2.265740852804233
 31
0.0
  0
SPLINE
  5
B0
330
1F
100
AcDbEntity
  8
0
  6
Continuous
 62
     7
370
     5
100
AcDbSpline
210
0.0
220
0.0
230
1.0
 70
     8
 71
     3
 72
    31
 73
    27
 74
     0
 42
0.0000000001
 43
0.0000000001
 40
0.0
 40
0.0
 40
0.0
 40
0.0
 40
0.0491280496755899
 40
0.0927689131192972
 40
0.1319747645061744
 40
0.1678434078102658
 40
0.2014626096413518
 40
0.2338290571327486
 40
0.2657672640647649
 40
0.3108411657345563
 40
0.3571469059956913
 40
0.4048875649617772
 40
0.4537793233495631
 40
0.5032509640040828
 40
0.5526005892069428
 40
0.6011283674074842
 40
0.6482708973562269
 40
0.6937650922602742
 40
0.7378599000703126
 40
0.7690438586878811
 40
0.8006601015661766
 40
0.8335857053736866
 40
0.8688667407469498
 40
0.9076273999257596
 40
0.9509857372218018
 40
1.0
 40
1.0
 40
1.0
 40
1.0
 10
-18.92681567995301
 20
8.965128484948809
 30
0.0
 10
-18.85779748767596
 20
9.002621416080394
 30
0.0
 10
-18.727469849488
 20
9.073419636113586
 30
0.0
 10
-18.5647623677372
 20
9.20388580297398
 30
0.0
 10
-18.4399799807021
 20
9.343618351289881
 30
0.0
 10
-18.35132991292782
 20
9.493428453680031
 30
0.0
 10
-18.29560994607902
 20
9.651855555914126
 30
0.0
 10
-18.26967751882052
 20
9.817715366908585
 30
0.0
 10
-18.27006914640415
 20
10.01281889384836
 30
0.0
 10
-18.30539116681066
 20
10.23990507301879
 30
0.0
 10
-18.37927020372664
 20
10.49718606822449
 30
0.0
 10
-18.47869545226623
 20
10.75953482658901
 30
0.0
 10
-18.59489701449734
 20
11.02517612280428
 30
0.0
 10
-18.71926764942772
 20
11.29220369278828
 30
0.0
 10
-18.84324366509538
 20
11.55859444229174
 30
0.0
 10
-18.95826874741616
 20
11.82233025745144
 30
0.0
 10
-19.05573885393474
 20
12.08152835185046
 30
0.0
 10
-19.12689034540644
 20
12.33445449364336
 30
0.0
 10
-19.15898593900234
 20
12.55662468655255
 30
0.0
 10
-19.1558225054655
 20
12.74636174817914
 30
0.0
 10
-19.12626355427589
 20
12.9067657373981
 30
0.0
 10
-19.06643162959457
 20
13.05900589227535
 30
0.0
 10
-18.9732341441892
 20
13.20187611952154
 30
0.0
 10
-18.84355195055702
 20
13.33396217078753
 30
0.0
 10
-18.67553216680808
 20
13.45609244398246
 30
0.0
 10
-18.5420877567152
 20
13.52119782616249
 30
0.0
 10
-18.47128018631751
 20
13.55574370132333
 30
0.0
  0
SPLINE
  5
B1
330
1F
100
AcDbEntity
  8
0
  6
Continuous
 62
     7
370
     5
100
AcDbSpline
210
0.0
220
0.0
230
1.0
 70
     8
 71
     3
 72
    31
 73
    27
 74
     0
 42
0.0000000001
 43
0.0000000001
 40
0.0
 40
0.0
 40
0.0
 40
0.0
 40
0.0520504229108936
 40
0.0983467238561033
 40
0.1398156251976877
 40
0.1774461034652659
 40
0.2122568113639561
 40
0.2452401621853162
 40
0.2772886349445965
 40
0.3191050555803248
 40
0.3616641664165381
 40
0.4055080665961704
 40
0.450725628249207
 40
0.4970921927796402
 40
0.5441893186505821
 40
0.591499531845813
 40
0.638483391857117
 40
0.6846554267296592
 40
0.7296654051736836
 40
0.7734006466320663
 40
0.8161111320269485
 40
0.8500390605945732
 40
0.8844311744436948
 40
0.9201685788846599
 40
0.9583086763410832
 40
1.0
 40
1.0
 40
1.0
 40
1.0
 10
22.51113941365968
 20
3.291120432038378
 30
0.0
 10
22.59192047576484
 20
3.221121401821032
 30
0.0
 10
22.74455233470781
 20
3.088861663859523
 30
0.0
 10
22.94434400825402
 20
2.880905562332331
 30
0.0
 10
23.10656732166182
 20
2.680582819635115
 30
0.0
 10
23.23304158343209
 20
2.486198489916009
 30
0.0
 10
23.32651763776692
 20
2.29764071763996
 30
0.0
 10
23.38960621527297
 20
2.11463830846633
 30
0.0
 10
23.42888153977005
 20
1.91876304961023
 30
0.0
 10
23.43786409680308
 20
1.710179708977131
 30
0.0
 10
23.41249233887466
 20
1.491655969084171
 30
0.0
 10
23.35927154812418
 20
1.279432007757693
 30
0.0
 10
23.28491083840848
 20
1.071763064929517
 30
0.0
 10
23.19589599303289
 20
0.8670435208849484
 30
0.0
 10
23.09860497978574
 20
0.6638253523887969
 30
0.0
 10
22.99937750728201
 20
0.4607453392440672
 30
0.0
 10
22.90457499573834
 20
0.2564399905755427
 30
0.0
 10
22.8205458291596
 20
0.0495256974426019
 30
0.0
 10
22.75370826998825
 20
-0.1615047476485778
 30
0.0
 10
22.71060857254183
 20
-0.3782796787476886
 30
0.0
 10
22.69899824863394
 20
-0.587893363213527
 30
0.0
 10
22.71775530835383
 20
-0.7885498908583033
 30
0.0
 10
22.76278422304406
 20
-0.9798138884650862
 30
0.0
 10
22.83947724729999
 20
-1.177263233120389
 30
0.0
 10
22.94950906645963
 20
-1.382137154164429
 30
0.0
 10
23.04628704454831
 20
-1.513745778580637
 30
0.0
 10
23.096828572573
 20
-1.582477334153392
 30
0.0
  0
LINE
  5
B2
330
1F
100
AcDbEntity
  8
0
  6
Continuous
 62
     7
370
     5
100
AcDbLine
 10
23.096828572573
 20
-1.582477334153392
 30
0.0
 11
22.3967854805261
 21
-2.265740852804233
 31
0.0
  0
LINE
  5
B3
330
1F
100
AcDbEntity
  8
0
  6
Continuous
 62
     7
370
     5
100
AcDbLine
 10
22.51113941365968
 20
3.291120432038378
 30
0.0
 11
21.81109632161278
 21
2.607856913387538
 31
0.0
  0
LINE
  5
B4
330
1F
100
AcDbEntity
  8
0
  6
Continuous
 62
     7
370
     5
100
AcDbLine
 10
-17.77123709427061
 20
14.23900721997418
 30
0.0
 11
-18.47128018631751
 21
13.55574370132333
 31
0.0
  0
LINE
  5
B5
330
1F
100
AcDbEntity
  8
0
  6
Continuous
 62
     7
370
     5
100
AcDbLine
 10
22.51113941365968
 20
3.291120432038378
 30
0.0
 11
-17.77123709427061
 21
14.23900721997418
 31
0.0
  0
LINE
  5
B6
330
1F
100
AcDbEntity
  8
0
  6
Continuous
 62
     7
370
     5
100
AcDbLine
 10
-18.34174224442072
 20
9.536178094283632
 30
0.0
 11
-18.92681567995301
 21
8.965128484948809
 31
0.0
  0
SPLINE
  5
B7
330
1F
100
AcDbEntity
  8
0
  6
Continuous
 62
     7
370
     5
100
AcDbSpline
210
0.0
220
0.0
230
1.0
 70
     8
 71
     3
 72
    10
 73
     6
 74
     0
 42
0.0000000001
 43
0.0000000001
 40
0.0
 40
0.0
 40
0.0
 40
0.0
 40
0.1265176620312676
 40
0.5365174000633836
 40
1.0
 40
1.0
 40
1.0
 40
1.0
 10
-18.18917445037838
 20
13.9630975217094
 30
0.0
 10
-18.17483007602692
 20
13.97850803943149
 30
0.0
 10
-18.11400057357625
 20
14.04385868509742
 30
0.0
 10
-17.97427485514885
 20
14.13814897535565
 30
0.0
 10
-17.84162373391173
 20
14.20404292127381
 30
0.0
 10
-17.77123709427061
 20
14.23900721997418
 30
0.0
  0
SPLINE
  5
B8
330
1F
100
AcDbEntity
  8
0
  6
Continuous
 62
     7
370
     5
100
AcDbSpline
210
0.0
220
0.0
230
1.0
 70
     8
 71
     3
 72
    31
 73
    27
 74
     0
 42
0.0000000001
 43
0.0000000001
 40
0.0
 40
0.0
 40
0.0
 40
0.0
 40
0.0520504229108936
 40
0.0983467238561033
 40
0.1398156251976877
 40
0.1774461034652659
 40
0.2122568113639561
 40
0.2452401621853162
 40
0.2772886349445965
 40
0.3191050555803248
 40
0.3616641664165381
 40
0.4055080665961704
 40
0.450725628249207
 40
0.4970921927796402
 40
0.5441893186505821
 40
0.591499531845813
 40
0.638483391857117
 40
0.6846554267296592
 40
0.7296654051736836
 40
0.7734006466320663
 40
0.8161111320269485
 40
0.8500390605945732
 40
0.8844311744436948
 40
0.9201685788846599
 40
0.9583086763410832
 40
1.0
 40
1.0
 40
1.0
 40
1.0
 10
22.51113941365968
 20
3.291120432038378
 30
0.0
 10
22.59192047576484
 20
3.221121401821032
 30
0.0
 10
22.74455233470781
 20
3.088861663859523
 30
0.0
 10
22.94434400825402
 20
2.880905562332331
 30
0.0
 10
23.10656732166182
 20
2.680582819635115
 30
0.0
 10
23.23304158343209
 20
2.486198489916009
 30
0.0
 10
23.32651763776692
 20
2.29764071763996
 30
0.0
 10
23.38960621527297
 20
2.11463830846633
 30
0.0
 10
23.42888153977005
 20
1.91876304961023
 30
0.0
 10
23.43786409680308
 20
1.710179708977131
 30
0.0
 10
23.41249233887466
 20
1.491655969084171
 30
0.0
 10
23.35927154812418
 20
1.279432007757693
 30
0.0
 10
23.28491083840848
 20
1.071763064929517
 30
0.0
 10
23.19589599303289
 20
0.8670435208849484
 30
0.0
 10
23.09860497978574
 20
0.6638253523887969
 30
0.0
 10
22.99937750728201
 20
0.4607453392440672
 30
0.0
 10
22.90457499573834
 20
0.2564399905755427
 30
0.0
 10
22.8205458291596
 20
0.0495256974426019
 30
0.0
 10
22.75370826998825
 20
-0.1615047476485778
 30
0.0
 10
22.71060857254183
 20
-0.3782796787476886
 30
0.0
 10
22.69899824863394
 20
-0.587893363213527
 30
0.0
 10
22.71775530835383
 20
-0.7885498908583033
 30
0.0
 10
22.76278422304406
 20
-0.9798138884650862
 30
0.0
 10
22.83947724729999
 20
-1.177263233120389
 30
0.0
 10
22.94950906645963
 20
-1.382137154164429
 30
0.0
 10
23.04628704454831
 20
-1.513745778580637
 30
0.0
 10
23.096828572573
 20
-1.582477334153392
 30
0.0
  0
LINE
  5
B9
330
1F
100
AcDbEntity
  8
0
  6
Continuous
 62
     7
370
     5
100
AcDbLine
 10
23.21118250570658
 20
3.974383950689219
 30
0.0
 11
22.51113941365968
 21
3.291120432038378
 31
0.0
  0
SPLINE
  5
BA
330
1F
100
AcDbEntity
  8
0
  6
Continuous
 62
     7
370
     5
100
AcDbSpline
210
0.0
220
0.0
230
1.0
 70
     8
 71
     3
 72
    31
 73
    27
 74
     0
 42
0.0000000001
 43
0.0000000001
 40
0.0
 40
0.0
 40
0.0
 40
0.0
 40
0.0520504229108936
 40
0.0983467238561033
 40
0.1398156251976877
 40
0.1774461034652659
 40
0.2122568113639561
 40
0.2452401621853162
 40
0.2772886349445965
 40
0.3191050555803248
 40
0.3616641664165381
 40
0.4055080665961704
 40
0.450725628249207
 40
0.4970921927796402
 40
0.5441893186505821
 40
0.591499531845813
 40
0.638483391857117
 40
0.6846554267296592
 40
0.7296654051736836
 40
0.7734006466320663
 40
0.8161111320269485
 40
0.8500390605945732
 40
0.8844311744436948
 40
0.9201685788846599
 40
0.9583086763410832
 40
1.0
 40
1.0
 40
1.0
 40
1.0
 10
23.21118250570658
 20
3.974383950689219
 30
0.0
 10
23.29196356781174
 20
3.904384920471872
 30
0.0
 10
23.44459542675471
 20
3.772125182510364
 30
0.0
 10
23.64438710030092
 20
3.564169080983172
 30
0.0
 10
23.80661041370872
 20
3.363846338285956
 30
0.0
 10
23.933084675479
 20
3.169462008566853
 30
0.0
 10
24.02656072981382
 20
2.980904236290801
 30
0.0
 10
24.08964930731988
 20
2.797901827117173
 30
0.0
 10
24.12892463181695
 20
2.602026568261071
 30
0.0
 10
24.13790718884999
 20
2.393443227627972
 30
0.0
 10
24.11253543092156
 20
2.174919487735012
 30
0.0
 10
24.05931464017108
 20
1.962695526408534
 30
0.0
 10
23.98495393045537
 20
1.755026583580358
 30
0.0
 10
23.89593908507979
 20
1.550307039535791
 30
0.0
 10
23.79864807183263
 20
1.347088871039637
 30
0.0
 10
23.69942059932891
 20
1.144008857894908
 30
0.0
 10
23.60461808778524
 20
0.9397035092263836
 30
0.0
 10
23.5205889212065
 20
0.732789216093443
 30
0.0
 10
23.45375136203515
 20
0.5217587710022633
 30
0.0
 10
23.41065166458873
 20
0.3049838399031546
 30
0.0
 10
23.39904134068084
 20
0.0953701554373141
 30
0.0
 10
23.41779840040073
 20
-0.1052863722074623
 30
0.0
 10
23.46282731509096
 20
-0.2965503698142431
 30
0.0
 10
23.53952033934689
 20
-0.4939997144695466
 30
0.0
 10
23.64955215850653
 20
-0.6988736355135885
 30
0.0
 10
23.74633013659522
 20
-0.8304822599297963
 30
0.0
 10
23.7968716646199
 20
-0.8992138155025511
 30
0.0
  0
LINE
  5
BB
330
1F
100
AcDbEntity
  8
0
  6
Continuous
 62
     7
370
     5
100
AcDbLine
 10
23.7968716646199
 20
-0.8992138155025511
 30
0.0
 11
23.096828572573
 21
-1.582477334153392
 31
0.0
  0
LINE
  5
BC
330
1F
100
AcDbEntity
  8
0
  6
Continuous
 62
     7
370
     5
100
AcDbLine
 10
-17.07119400222371
 20
14.92227073862502
 30
0.0
 11
-17.77123709427061
 21
14.23900721997418
 31
0.0
  0
LINE
  5
BD
330
1F
100
AcDbEntity
  8
0
  6
Continuous
 62
     7
370
     5
100
AcDbLine
 10
23.21118250570658
 20
3.974383950689219
 30
0.0
 11
-17.07119400222371
 21
14.92227073862502
 31
0.0
  0
SPLINE
  5
BE
330
1F
100
AcDbEntity
  8
0
  6
Continuous
 62
     7
370
     5
100
AcDbSpline
210
0.0
220
0.0
230
1.0
 70
     8
 71
     3
 72
    10
 73
     6
 74
     0
 42
0.0000000001
 43
0.0000000001
 40
0.0
 40
0.0
 40
0.0
 40
0.0
 40
0.1265176620312676
 40
0.5365174000633836
 40
1.0
 40
1.0
 40
1.0
 40
1.0
 10
-17.48913135833148
 20
14.64636104036024
 30
0.0
 10
-17.47478698398001
 20
14.66177155808233
 30
0.0
 10
-17.41395748152934
 20
14.72712220374827
 30
0.0
 10
-17.27423176310194
 20
14.8214124940065
 30
0.0
 10
-17.14158064186483
 20
14.88730643992466
 30
0.0
 10
-17.07119400222371
 20
14.92227073862502
 30
0.0
  0
LINE
  5
BF
330
1F
100
AcDbEntity
  8
0
  6
Continuous
 62
     7
370
     5
100
AcDbLine
 10
-8.462601461222812
 20
9.193063861556131
 30
0.0
 11
-8.457615376400186
 21
9.242574596297304
 31
0.0
  0
SPLINE
  5
C0
330
1F
100
AcDbEntity
  8
0
  6
Continuous
 62
     7
370
     5
100
AcDbSpline
210
0.0
220
0.0
230
1.0
 70
     8
 71
     3
 72
     9
 73
     5
 74
     0
 42
0.0000000001
 43
0.0000000001
 40
0.0
 40
0.0
 40
0.0
 40
0.0
 40
0.5594163250403734
 40
1.0
 40
1.0
 40
1.0
 40
1.0
 10
-8.451889233246827
 20
9.208098167853204
 30
0.0
 10
-8.453948058723625
 20
9.205696759786999
 30
0.0
 10
-8.457628368690713
 20
9.201404056913103
 30
0.0
 10
-8.461080505917131
 20
9.195614601220981
 30
0.0
 10
-8.462601461222812
 20
9.193063861556131
 30
0.0
  0
SPLINE
  5
C1
330
1F
100
AcDbEntity
  8
0
  6
Continuous
 62
     7
370
     5
100
AcDbSpline
210
0.0
220
0.0
230
1.0
 70
     8
 71
     3
 72
    11
 73
     7
 74
     0
 42
0.0000000001
 43
0.0000000001
 40
0.0
 40
0.0
 40
0.0
 40
0.0
 40
0.2795389507196886
 40
0.5586152440480893
 40
0.779045439128212
 40
1.0
 40
1.0
 40
1.0
 40
1.0
 10
-8.440164182192795
 20
9.199831539883533
 30
0.0
 10
-8.440344033132831
 20
9.202745411964112
 30
0.0
 10
-8.440703437346456
 20
9.208568333454039
 30
0.0
 10
-8.443979144169928
 20
9.212074635365425
 30
0.0
 10
-8.447941549326506
 20
9.211531112855361
 30
0.0
 10
-8.450572296829315
 20
9.209243388793863
 30
0.0
 10
-8.451889233246824
 20
9.208098167853203
 30
0.0
  0
SPLINE
  5
C2
330
1F
100
AcDbEntity
  8
0
  6
Continuous
 62
     7
370
     5
100
AcDbSpline
210
0.0
220
0.0
230
1.0
 70
     8
 71
     3
 72
    11
 73
     7
 74
     0
 42
0.0000000001
 43
0.0000000001
 40
0.0
 40
0.0
 40
0.0
 40
0.0
 40
0.2796170595720894
 40
0.5593571018486722
 40
0.7795593550188558
 40
1.0
 40
1.0
 40
1.0
 40
1.0
 10
-8.452502731472719
 20
9.165144696233481
 30
0.0
 10
-8.450681546678568
 20
9.167314897211458
 30
0.0
 10
-8.447038376086803
 20
9.171656253677079
 30
0.0
 10
-8.442977833681894
 20
9.181723241916524
 30
0.0
 10
-8.44050772048898
 20
9.191600458213811
 30
0.0
 10
-8.440278736252377
 20
9.197086856596504
 30
0.0
 10
-8.440164182192795
 20
9.199831539883533
 30
0.0
  0
SPLINE
  5
C3
330
1F
100
AcDbEntity
  8
0
  6
Continuous
 62
     7
370
     5
100
AcDbSpline
210
0.0
220
0.0
230
1.0
 70
     8
 71
     3
 72
    11
 73
     7
 74
     0
 42
0.0000000001
 43
0.0000000001
 40
0.0
 40
0.0
 40
0.0
 40
0.0
 40
0.2800510743038228
 40
0.5591651425654737
 40
0.779584589967501
 40
1.0
 40
1.0
 40
1.0
 40
1.0
 10
-8.46322474749359
 20
9.170705820352083
 30
0.0
 10
-8.462848674225751
 20
9.168550408677418
 30
0.0
 10
-8.462097785971002
 20
9.164246796990344
 30
0.0
 10
-8.45912811152106
 20
9.162041706716296
 30
0.0
 10
-8.455820620096066
 20
9.162427014953191
 30
0.0
 10
-8.453608687594536
 20
9.164238808004464
 30
0.0
 10
-8.452502731472719
 20
9.165144696233481
 30
0.0
  0
LINE
  5
C4
330
1F
100
AcDbEntity
  8
0
  6
Continuous
 62
     7
370
     5
100
AcDbLine
 10
-8.467587546045438
 20
9.166447595217709
 30
0.0
 11
-8.46322474749359
 21
9.170705820352083
 31
0.0
  0
SPLINE
  5
C5
330
1F
100
AcDbEntity
  8
0
  6
Continuous
 62
     7
370
     5
100
AcDbSpline
210
0.0
220
0.0
230
1.0
 70
     8
 71
     3
 72
    11
 73
     7
 74
     0
 42
0.0000000001
 43
0.0000000001
 40
0.0
 40
0.0
 40
0.0
 40
0.0
 40
0.2796255990230518
 40
0.5590188677844551
 40
0.7793802974543692
 40
1.0
 40
1.0
 40
1.0
 40
1.0
 10
-8.452755920130266
 20
9.155739826695684
 30
0.0
 10
-8.454840050906366
 20
9.154097220304691
 30
0.0
 10
-8.459006580833671
 20
9.150813372301801
 30
0.0
 10
-8.46371773362325
 20
9.153047837581912
 30
0.0
 10
-8.466631915944475
 20
9.158535344450791
 30
0.0
 10
-8.467268878326866
 20
9.163809148711978
 30
0.0
 10
-8.467587546045438
 20
9.166447595217709
 30
0.0
  0
SPLINE
  5
C6
330
1F
100
AcDbEntity
  8
0
  6
Continuous
 62
     7
370
     5
100
AcDbSpline
210
0.0
220
0.0
230
1.0
 70
     8
 71
     3
 72
    11
 73
     7
 74
     0
 42
0.0000000001
 43
0.0000000001
 40
0.0
 40
0.0
 40
0.0
 40
0.0
 40
0.2798648498736897
 40
0.5592724675381174
 40
0.7794243922078809
 40
1.0
 40
1.0
 40
1.0
 40
1.0
 10
-8.435801383640948
 20
9.20374995353875
 30
0.0
 10
-8.436085982943453
 20
9.198839930438806
 30
0.0
 10
-8.436654716581285
 20
9.189027906041978
 30
0.0
 10
-8.441022216436781
 20
9.17399640950027
 30
0.0
 10
-8.446798096537962
 20
9.162385215678467
 30
0.0
 10
-8.450768706581751
 20
9.157956375543964
 30
0.0
 10
-8.452755920130266
 20
9.155739826695684
 30
0.0
  0
SPLINE
  5
C7
330
1F
100
AcDbEntity
  8
0
  6
Continuous
 62
     7
370
     5
100
AcDbSpline
210
0.0
220
0.0
230
1.0
 70
     8
 71
     3
 72
    11
 73
     7
 74
     0
 42
0.0000000001
 43
0.0000000001
 40
0.0
 40
0.0
 40
0.0
 40
0.0
 40
0.2796891592404425
 40
0.5590267382024664
 40
0.7792922930940338
 40
1.0
 40
1.0
 40
1.0
 40
1.0
 10
-8.451100440035268
 20
9.218025866713642
 30
0.0
 10
-8.44877564418387
 20
9.219841972334423
 30
0.0
 10
-8.444128974840914
 20
9.223471900659754
 30
0.0
 10
-8.439017790228309
 20
9.220423571691929
 30
0.0
 10
-8.436171977750163
 20
9.213425905661514
 30
0.0
 10
-8.435924997557481
 20
9.206977426151919
 30
0.0
 10
-8.435801383640946
 20
9.203749953538748
 30
0.0
  0
SPLINE
  5
C8
330
1F
100
AcDbEntity
  8
0
  6
Continuous
 62
     7
370
     5
100
AcDbSpline
210
0.0
220
0.0
230
1.0
 70
     8
 71
     3
 72
     9
 73
     5
 74
     0
 42
0.0000000001
 43
0.0000000001
 40
0.0
 40
0.0
 40
0.0
 40
0.0
 40
0.5600662504053217
 40
1.0
 40
1.0
 40
1.0
 40
1.0
 10
-8.456826583188627
 20
9.210701963161449
 30
0.0
 10
-8.455775217999683
 20
9.212259833536185
 30
0.0
 10
-8.453898002244963
 20
9.215041415846506
 30
0.0
 10
-8.451955161325733
 20
9.217114046526893
 30
0.0
 10
-8.451100440035268
 20
9.218025866713642
 30
0.0
  0
LINE
  5
C9
330
1F
100
AcDbEntity
  8
0
  6
Continuous
 62
     7
370
     5
100
AcDbLine
 10
-8.454206946448541
 20
9.236743515915975
 30
0.0
 11
-8.456826583188627
 21
9.210701963161449
 31
0.0
  0
LINE
  5
CA
330
1F
100
AcDbEntity
  8
0
  6
Continuous
 62
     7
370
     5
100
AcDbLine
 10
-8.437671174005416
 20
9.252882936748004
 30
0.0
 11
-8.454206946448541
 21
9.236743515915975
 31
0.0
  0
LINE
  5
CB
330
1F
100
AcDbEntity
  8
0
  6
Continuous
 62
     7
370
     5
100
AcDbLine
 10
-8.437671174005416
 20
9.262040749252387
 30
0.0
 11
-8.437671174005416
 21
9.252882936748004
 31
0.0
  0
LINE
  5
CC
330
1F
100
AcDbEntity
  8
0
  6
Continuous
 62
     7
370
     5
100
AcDbLine
 10
-8.457615376400186
 20
9.242574596297304
 30
0.0
 11
-8.437671174005416
 21
9.262040749252387
 31
0.0
  0
LINE
  5
CD
330
1F
100
AcDbEntity
  8
0
  6
Continuous
 62
     7
370
     5
100
AcDbLine
 10
-8.537392391322862
 20
9.120065620956529
 30
0.0
 11
-8.532406306500238
 21
9.169576355697699
 31
0.0
  0
SPLINE
  5
CE
330
1F
100
AcDbEntity
  8
0
  6
Continuous
 62
     7
370
     5
100
AcDbSpline
210
0.0
220
0.0
230
1.0
 70
     8
 71
     3
 72
     9
 73
     5
 74
     0
 42
0.0000000001
 43
0.0000000001
 40
0.0
 40
0.0
 40
0.0
 40
0.0
 40
0.5594163250403734
 40
1.0
 40
1.0
 40
1.0
 40
1.0
 10
-8.526680163346878
 20
9.1350999272536
 30
0.0
 10
-8.528738988823675
 20
9.132698519187396
 30
0.0
 10
-8.532419298790763
 20
9.128405816313499
 30
0.0
 10
-8.535871436017181
 20
9.12261636062138
 30
0.0
 10
-8.537392391322862
 20
9.120065620956529
 30
0.0
  0
SPLINE
  5
CF
330
1F
100
AcDbEntity
  8
0
  6
Continuous
 62
     7
370
     5
100
AcDbSpline
210
0.0
220
0.0
230
1.0
 70
     8
 71
     3
 72
    11
 73
     7
 74
     0
 42
0.0000000001
 43
0.0000000001
 40
0.0
 40
0.0
 40
0.0
 40
0.0
 40
0.2795389507196886
 40
0.5586152440480893
 40
0.779045439128212
 40
1.0
 40
1.0
 40
1.0
 40
1.0
 10
-8.514955112292847
 20
9.12683329928393
 30
0.0
 10
-8.515134963232881
 20
9.129747171364508
 30
0.0
 10
-8.515494367446507
 20
9.135570092854434
 30
0.0
 10
-8.518770074269978
 20
9.139076394765821
 30
0.0
 10
-8.522732479426558
 20
9.138532872255758
 30
0.0
 10
-8.525363226929366
 20
9.136245148194259
 30
0.0
 10
-8.526680163346878
 20
9.1350999272536
 30
0.0
  0
SPLINE
  5
D0
330
1F
100
AcDbEntity
  8
0
  6
Continuous
 62
     7
370
     5
100
AcDbSpline
210
0.0
220
0.0
230
1.0
 70
     8
 71
     3
 72
    11
 73
     7
 74
     0
 42
0.0000000001
 43
0.0000000001
 40
0.0
 40
0.0
 40
0.0
 40
0.0
 40
0.2796170595720894
 40
0.5593571018486722
 40
0.7795593550188558
 40
1.0
 40
1.0
 40
1.0
 40
1.0
 10
-8.527293661572771
 20
9.092146455633878
 30
0.0
 10
-8.525472476778618
 20
9.094316656611855
 30
0.0
 10
-8.521829306186853
 20
9.098658013077475
 30
0.0
 10
-8.517768763781944
 20
9.108725001316919
 30
0.0
 10
-8.515298650589031
 20
9.118602217614206
 30
0.0
 10
-8.515069666352431
 20
9.1240886159969
 30
0.0
 10
-8.514955112292847
 20
9.12683329928393
 30
0.0
  0
SPLINE
  5
D1
330
1F
100
AcDbEntity
  8
0
  6
Continuous
 62
     7
370
     5
100
AcDbSpline
210
0.0
220
0.0
230
1.0
 70
     8
 71
     3
 72
    11
 73
     7
 74
     0
 42
0.0000000001
 43
0.0000000001
 40
0.0
 40
0.0
 40
0.0
 40
0.0
 40
0.2800510743038228
 40
0.5591651425654737
 40
0.779584589967501
 40
1.0
 40
1.0
 40
1.0
 40
1.0
 10
-8.538015677593641
 20
9.09770757975248
 30
0.0
 10
-8.537639604325804
 20
9.095552168077814
 30
0.0
 10
-8.536888716071052
 20
9.091248556390743
 30
0.0
 10
-8.533919041621111
 20
9.089043466116692
 30
0.0
 10
-8.530611550196116
 20
9.089428774353589
 30
0.0
 10
-8.528399617694587
 20
9.091240567404861
 30
0.0
 10
-8.527293661572771
 20
9.092146455633878
 30
0.0
  0
LINE
  5
D2
330
1F
100
AcDbEntity
  8
0
  6
Continuous
 62
     7
370
     5
100
AcDbLine
 10
-8.542378476145488
 20
9.093449354618105
 30
0.0
 11
-8.538015677593641
 21
9.09770757975248
 31
0.0
  0
SPLINE
  5
D3
330
1F
100
AcDbEntity
  8
0
  6
Continuous
 62
     7
370
     5
100
AcDbSpline
210
0.0
220
0.0
230
1.0
 70
     8
 71
     3
 72
    11
 73
     7
 74
     0
 42
0.0000000001
 43
0.0000000001
 40
0.0
 40
0.0
 40
0.0
 40
0.0
 40
0.2796255990230518
 40
0.5590188677844551
 40
0.7793802974543692
 40
1.0
 40
1.0
 40
1.0
 40
1.0
 10
-8.527546850230317
 20
9.082741586096082
 30
0.0
 10
-8.529630981006416
 20
9.081098979705089
 30
0.0
 10
-8.533797510933721
 20
9.077815131702196
 30
0.0
 10
-8.5385086637233
 20
9.080049596982309
 30
0.0
 10
-8.541422846044525
 20
9.085537103851187
 30
0.0
 10
-8.542059808426916
 20
9.090810908112375
 30
0.0
 10
-8.542378476145488
 20
9.093449354618105
 30
0.0
  0
SPLINE
  5
D4
330
1F
100
AcDbEntity
  8
0
  6
Continuous
 62
     7
370
     5
100
AcDbSpline
210
0.0
220
0.0
230
1.0
 70
     8
 71
     3
 72
    11
 73
     7
 74
     0
 42
0.0000000001
 43
0.0000000001
 40
0.0
 40
0.0
 40
0.0
 40
0.0
 40
0.2798648498736897
 40
0.5592724675381174
 40
0.7794243922078809
 40
1.0
 40
1.0
 40
1.0
 40
1.0
 10
-8.510592313741
 20
9.130751712939146
 30
0.0
 10
-8.510876913043503
 20
9.125841689839202
 30
0.0
 10
-8.511445646681336
 20
9.116029665442374
 30
0.0
 10
-8.515813146536832
 20
9.100998168900666
 30
0.0
 10
-8.521589026638013
 20
9.089386975078864
 30
0.0
 10
-8.525559636681803
 20
9.084958134944359
 30
0.0
 10
-8.527546850230317
 20
9.082741586096082
 30
0.0
  0
SPLINE
  5
D5
330
1F
100
AcDbEntity
  8
0
  6
Continuous
 62
     7
370
     5
100
AcDbSpline
210
0.0
220
0.0
230
1.0
 70
     8
 71
     3
 72
    11
 73
     7
 74
     0
 42
0.0000000001
 43
0.0000000001
 40
0.0
 40
0.0
 40
0.0
 40
0.0
 40
0.2796891592404425
 40
0.5590267382024664
 40
0.7792922930940338
 40
1.0
 40
1.0
 40
1.0
 40
1.0
 10
-8.525891370135321
 20
9.145027626114037
 30
0.0
 10
-8.52356657428392
 20
9.14684373173482
 30
0.0
 10
-8.518919904940965
 20
9.150473660060153
 30
0.0
 10
-8.513808720328359
 20
9.147425331092327
 30
0.0
 10
-8.510962907850215
 20
9.14042766506191
 30
0.0
 10
-8.510715927657532
 20
9.133979185552316
 30
0.0
 10
-8.510592313740996
 20
9.130751712939146
 30
0.0
  0
SPLINE
  5
D6
330
1F
100
AcDbEntity
  8
0
  6
Continuous
 62
     7
370
     5
100
AcDbSpline
210
0.0
220
0.0
230
1.0
 70
     8
 71
     3
 72
     9
 73
     5
 74
     0
 42
0.0000000001
 43
0.0000000001
 40
0.0
 40
0.0
 40
0.0
 40
0.0
 40
0.5600662504053217
 40
1.0
 40
1.0
 40
1.0
 40
1.0
 10
-8.531617513288678
 20
9.137703722561845
 30
0.0
 10
-8.530566148099733
 20
9.139261592936581
 30
0.0
 10
-8.528688932345016
 20
9.142043175246904
 30
0.0
 10
-8.526746091425783
 20
9.14411580592729
 30
0.0
 10
-8.525891370135321
 20
9.145027626114037
 30
0.0
  0
LINE
  5
D7
330
1F
100
AcDbEntity
  8
0
  6
Continuous
 62
     7
370
     5
100
AcDbLine
 10
-8.528997876548592
 20
9.163745275316371
 30
0.0
 11
-8.531617513288678
 21
9.137703722561845
 31
0.0
  0
LINE
  5
D8
330
1F
100
AcDbEntity
  8
0
  6
Continuous
 62
     7
370
     5
100
AcDbLine
 10
-8.512462104105468
 20
9.179884696148402
 30
0.0
 11
-8.528997876548592
 21
9.163745275316371
 31
0.0
  0
LINE
  5
D9
330
1F
100
AcDbEntity
  8
0
  6
Continuous
 62
     7
370
     5
100
AcDbLine
 10
-8.512462104105468
 20
9.189042508652784
 30
0.0
 11
-8.512462104105468
 21
9.179884696148402
 31
0.0
  0
LINE
  5
DA
330
1F
100
AcDbEntity
  8
0
  6
Continuous
 62
     7
370
     5
100
AcDbLine
 10
-8.532406306500238
 20
9.169576355697699
 30
0.0
 11
-8.512462104105468
 21
9.189042508652784
 31
0.0
  0
LINE
  5
DB
330
1F
100
AcDbEntity
  8
0
  6
Continuous
 62
     7
370
     5
100
AcDbLine
 10
-8.468834050139127
 20
9.324896980586645
 30
0.0
 11
-8.496257413991767
 21
9.298130936764385
 31
0.0
  0
LINE
  5
DC
330
1F
100
AcDbEntity
  8
0
  6
Continuous
 62
     7
370
     5
100
AcDbLine
 10
-8.468834050139127
 20
9.334054793091029
 30
0.0
 11
-8.468834050139127
 21
9.324896980586645
 31
0.0
  0
LINE
  5
DD
330
1F
100
AcDbEntity
  8
0
  6
Continuous
 62
     7
370
     5
100
AcDbLine
 10
-8.491894546992053
 20
9.31154704121036
 30
0.0
 11
-8.468834050139127
 21
9.334054793091029
 31
0.0
  0
LINE
  5
DE
330
1F
100
AcDbEntity
  8
0
  6
Continuous
 62
     7
370
     5
100
AcDbLine
 10
-8.491894546992053
 20
9.345888743814484
 30
0.0
 11
-8.491894546992053
 21
9.31154704121036
 31
0.0
  0
LINE
  5
DF
330
1F
100
AcDbEntity
  8
0
  6
Continuous
 62
     7
370
     5
100
AcDbLine
 10
-8.468834050139127
 20
9.368396495695153
 30
0.0
 11
-8.491894546992053
 21
9.345888743814484
 31
0.0
  0
LINE
  5
E0
330
1F
100
AcDbEntity
  8
0
  6
Continuous
 62
     7
370
     5
100
AcDbLine
 10
-8.468834050139127
 20
9.377554182483118
 30
0.0
 11
-8.468834050139127
 21
9.368396495695153
 31
0.0
  0
LINE
  5
E1
330
1F
100
AcDbEntity
  8
0
  6
Continuous
 62
     7
370
     5
100
AcDbLine
 10
-8.491894546992053
 20
9.355046430602449
 30
0.0
 11
-8.468834050139127
 21
9.377554182483118
 31
0.0
  0
LINE
  5
E2
330
1F
100
AcDbEntity
  8
0
  6
Continuous
 62
     7
370
     5
100
AcDbLine
 10
-8.491894546992053
 20
9.382519742399182
 30
0.0
 11
-8.491894546992053
 21
9.355046430602449
 31
0.0
  0
LINE
  5
E3
330
1F
100
AcDbEntity
  8
0
  6
Continuous
 62
     7
370
     5
100
AcDbLine
 10
-8.468834050139127
 20
9.405027494279849
 30
0.0
 11
-8.491894546992053
 21
9.382519742399182
 31
0.0
  0
LINE
  5
E4
330
1F
100
AcDbEntity
  8
0
  6
Continuous
 62
     7
370
     5
100
AcDbLine
 10
-8.468834050139127
 20
9.414185306784233
 30
0.0
 11
-8.468834050139127
 21
9.405027494279849
 31
0.0
  0
LINE
  5
E5
330
1F
100
AcDbEntity
  8
0
  6
Continuous
 62
     7
370
     5
100
AcDbLine
 10
-8.496257413991767
 20
9.387419262961973
 30
0.0
 11
-8.468834050139127
 21
9.414185306784233
 31
0.0
  0
LINE
  5
E6
330
1F
100
AcDbEntity
  8
0
  6
Continuous
 62
     7
370
     5
100
AcDbLine
 10
-8.496257413991767
 20
9.298130936764385
 30
0.0
 11
-8.496257413991767
 21
9.387419262961973
 31
0.0
  0
LINE
  5
E7
330
1F
100
AcDbEntity
  8
0
  6
Continuous
 62
     7
370
     5
100
AcDbLine
 10
-8.467275902910047
 20
9.508978385746333
 30
0.0
 11
-8.471638701461895
 21
9.504720160611958
 31
0.0
  0
LINE
  5
E8
330
1F
100
AcDbEntity
  8
0
  6
Continuous
 62
     7
370
     5
100
AcDbLine
 10
-8.467275902910047
 20
9.550188353441431
 30
0.0
 11
-8.467275902910047
 21
9.508978385746333
 31
0.0
  0
LINE
  5
E9
330
1F
100
AcDbEntity
  8
0
  6
Continuous
 62
     7
370
     5
100
AcDbLine
 10
-8.463799298883543
 20
9.553581625551524
 30
0.0
 11
-8.467275902910047
 21
9.550188353441431
 31
0.0
  0
SPLINE
  5
EA
330
1F
100
AcDbEntity
  8
0
  6
Continuous
 62
     7
370
     5
100
AcDbSpline
210
0.0
220
0.0
230
1.0
 70
     8
 71
     3
 72
     9
 73
     5
 74
     0
 42
0.0000000001
 43
0.0000000001
 40
0.0
 40
0.0
 40
0.0
 40
0.0
 40
0.5596925471784806
 40
1.0
 40
1.0
 40
1.0
 40
1.0
 10
-8.451421802767676
 20
9.567129048948315
 30
0.0
 10
-8.453722650025374
 20
9.564351778520737
 30
0.0
 10
-8.457833562827937
 20
9.559389642716761
 30
0.0
 10
-8.461975550737477
 20
9.555357158434423
 30
0.0
 10
-8.463799298883543
 20
9.553581625551524
 30
0.0
  0
SPLINE
  5
EB
330
1F
100
AcDbEntity
  8
0
  6
Continuous
 62
     7
370
     5
100
AcDbSpline
210
0.0
220
0.0
230
1.0
 70
     8
 71
     3
 72
    11
 73
     7
 74
     0
 42
0.0000000001
 43
0.0000000001
 40
0.0
 40
0.0
 40
0.0
 40
0.0
 40
0.2800966419792823
 40
0.5593221296596632
 40
0.7794550239575059
 40
1.0
 40
1.0
 40
1.0
 40
1.0
 10
-8.441722329421875
 20
9.599257925313471
 30
0.0
 10
-8.441837827111736
 20
9.59620042568962
 30
0.0
 10
-8.442068463271489
 20
9.590094935852386
 30
0.0
 10
-8.444505389393659
 20
9.580552643411134
 30
0.0
 10
-8.447816642003889
 20
9.572696920651591
 30
0.0
 10
-8.450219333587085
 20
9.568986162836807
 30
0.0
 10
-8.451421802767674
 20
9.567129048948311
 30
0.0
  0
SPLINE
  5
EC
330
1F
100
AcDbEntity
  8
0
  6
Continuous
 62
     7
370
     5
100
AcDbSpline
210
0.0
220
0.0
230
1.0
 70
     8
 71
     3
 72
    11
 73
     7
 74
     0
 42
0.0000000001
 43
0.0000000001
 40
0.0
 40
0.0
 40
0.0
 40
0.0
 40
0.279706035902318
 40
0.5593815042271725
 40
0.7795061490064636
 40
1.0
 40
1.0
 40
1.0
 40
1.0
 10
-8.451032265960408
 20
9.61277947967685
 30
0.0
 10
-8.449555268188346
 20
9.613242050733198
 30
0.0
 10
-8.446601434057402
 20
9.614167142293974
 30
0.0
 10
-8.443547790572987
 20
9.611107561908351
 30
0.0
 10
-8.44193704749273
 20
9.605819227403001
 30
0.0
 10
-8.441793942082798
 20
9.601446247422915
 30
0.0
 10
-8.441722329421875
 20
9.599257925313473
 30
0.0
  0
SPLINE
  5
ED
330
1F
100
AcDbEntity
  8
0
  6
Continuous
 62
     7
370
     5
100
AcDbSpline
210
0.0
220
0.0
230
1.0
 70
     8
 71
     3
 72
     9
 73
     5
 74
     0
 42
0.0000000001
 43
0.0000000001
 40
0.0
 40
0.0
 40
0.0
 40
0.0
 40
0.5603165693421239
 40
1.0
 40
1.0
 40
1.0
 40
1.0
 10
-8.462104803504738
 20
9.603313737774463
 30
0.0
 10
-8.460026495463651
 20
9.605354361776017
 30
0.0
 10
-8.456317327905878
 20
9.608996274425413
 30
0.0
 10
-8.452646338969751
 20
9.611624077990331
 30
0.0
 10
-8.451032265960407
 20
9.612779479676847
 30
0.0
  0
LINE
  5
EE
330
1F
100
AcDbEntity
  8
0
  6
Continuous
 62
     7
370
     5
100
AcDbLine
 10
-8.471638701461895
 20
9.594008361093125
 30
0.0
 11
-8.462104803504738
 21
9.603313737774463
 31
0.0
  0
LINE
  5
EF
330
1F
100
AcDbEntity
  8
0
  6
Continuous
 62
     7
370
     5
100
AcDbLine
 10
-8.471638701461895
 20
9.504720160611958
 30
0.0
 11
-8.471638701461895
 21
9.594008361093125
 31
0.0
  0
LINE
  5
F0
330
1F
100
AcDbEntity
  8
0
  6
Continuous
 62
     7
370
     5
100
AcDbLine
 10
-8.459485166764652
 20
9.699142863040773
 30
0.0
 11
-8.463847965316499
 21
9.694884637906397
 31
0.0
  0
LINE
  5
F1
330
1F
100
AcDbEntity
  8
0
  6
Continuous
 62
     7
370
     5
100
AcDbLine
 10
-8.459485166764652
 20
9.74035283073587
 30
0.0
 11
-8.459485166764652
 21
9.699142863040773
 31
0.0
  0
LINE
  5
F2
330
1F
100
AcDbEntity
  8
0
  6
Continuous
 62
     7
370
     5
100
AcDbLine
 10
-8.45600856273815
 20
9.743746102845964
 30
0.0
 11
-8.459485166764652
 21
9.74035283073587
 31
0.0
  0
SPLINE
  5
F3
330
1F
100
AcDbEntity
  8
0
  6
Continuous
 62
     7
370
     5
100
AcDbSpline
210
0.0
220
0.0
230
1.0
 70
     8
 71
     3
 72
     9
 73
     5
 74
     0
 42
0.0000000001
 43
0.0000000001
 40
0.0
 40
0.0
 40
0.0
 40
0.0
 40
0.5596925471784806
 40
1.0
 40
1.0
 40
1.0
 40
1.0
 10
-8.443631066622282
 20
9.757293526242753
 30
0.0
 10
-8.445931913879979
 20
9.754516255815177
 30
0.0
 10
-8.450042826682542
 20
9.7495541200112
 30
0.0
 10
-8.454184814592082
 20
9.745521635728861
 30
0.0
 10
-8.45600856273815
 20
9.743746102845964
 30
0.0
  0
SPLINE
  5
F4
330
1F
100
AcDbEntity
  8
0
  6
Continuous
 62
     7
370
     5
100
AcDbSpline
210
0.0
220
0.0
230
1.0
 70
     8
 71
     3
 72
    11
 73
     7
 74
     0
 42
0.0000000001
 43
0.0000000001
 40
0.0
 40
0.0
 40
0.0
 40
0.0
 40
0.2801006890331639
 40
0.5593235419152318
 40
0.7794592199933646
 40
1.0
 40
1.0
 40
1.0
 40
1.0
 10
-8.433931593276479
 20
9.789422528324331
 30
0.0
 10
-8.434047122141425
 20
9.786364965026848
 30
0.0
 10
-8.434277817803611
 20
9.780259420841716
 30
0.0
 10
-8.436714644012102
 20
9.770717041691614
 30
0.0
 10
-8.440025954149893
 20
9.76286141962139
 30
0.0
 10
-8.442428626227703
 20
9.759150627779098
 30
0.0
 10
-8.44363106662228
 20
9.757293526242751
 30
0.0
  0
SPLINE
  5
F5
330
1F
100
AcDbEntity
  8
0
  6
Continuous
 62
     7
370
     5
100
AcDbSpline
210
0.0
220
0.0
230
1.0
 70
     8
 71
     3
 72
    11
 73
     7
 74
     0
 42
0.0000000001
 43
0.0000000001
 40
0.0
 40
0.0
 40
0.0
 40
0.0
 40
0.2797069512904626
 40
0.5593803603300091
 40
0.7795095117358933
 40
0.9999999999999998
 40
0.9999999999999998
 40
0.9999999999999998
 40
0.9999999999999998
 10
-8.443241529815015
 20
9.802943956971288
 30
0.0
 10
-8.441764536431207
 20
9.803406517229561
 30
0.0
 10
-8.438810726783547
 20
9.804331582276217
 30
0.0
 10
-8.435757013325904
 20
9.801272172283374
 30
0.0
 10
-8.434146334329536
 20
9.795983748790469
 30
0.0
 10
-8.434003212750507
 20
9.791610797181604
 30
0.0
 10
-8.433931593276478
 20
9.78942252832433
 30
0.0
  0
SPLINE
  5
F6
330
1F
100
AcDbEntity
  8
0
  6
Continuous
 62
     7
370
     5
100
AcDbSpline
210
0.0
220
0.0
230
1.0
 70
     8
 71
     3
 72
     9
 73
     5
 74
     0
 42
0.0000000001
 43
0.0000000001
 40
0.0
 40
0.0
 40
0.0
 40
0.0
 40
0.5603165693421239
 40
1.0
 40
1.0
 40
1.0
 40
1.0
 10
-8.454314067359344
 20
9.793478215068903
 30
0.0
 10
-8.452235759318257
 20
9.795518839070455
 30
0.0
 10
-8.448526591760485
 20
9.799160751719851
 30
0.0
 10
-8.444855602824357
 20
9.801788555284769
 30
0.0
 10
-8.443241529815011
 20
9.802943956971287
 30
0.0
  0
LINE
  5
F7
330
1F
100
AcDbEntity
  8
0
  6
Continuous
 62
     7
370
     5
100
AcDbLine
 10
-8.463847965316499
 20
9.784172838387565
 30
0.0
 11
-8.454314067359344
 21
9.793478215068903
 31
0.0
  0
LINE
  5
F8
330
1F
100
AcDbEntity
  8
0
  6
Continuous
 62
     7
370
     5
100
AcDbLine
 10
-8.463847965316499
 20
9.694884637906397
 30
0.0
 11
-8.463847965316499
 21
9.784172838387565
 31
0.0
  0
SPLINE
  5
F9
330
1F
100
AcDbEntity
  8
0
  6
Continuous
 62
     7
370
     5
100
AcDbSpline
210
0.0
220
0.0
230
1.0
 70
     8
 71
     3
 72
     9
 73
     5
 74
     0
 42
0.0000000001
 43
0.0000000001
 40
0.0
 40
0.0
 40
0.0
 40
0.0
 40
0.5594975352336889
 40
1.0
 40
1.0
 40
1.0
 40
1.0
 10
-8.540265216720491
 20
9.636843841394981
 30
0.0
 10
-8.54057620338253
 20
9.640028119425
 30
0.0
 10
-8.541132035432635
 20
9.645719436775825
 30
0.0
 10
-8.541131991433518
 20
9.652033052038712
 30
0.0
 10
-8.541131972051797
 20
9.654814215123598
 30
0.0
  0
SPLINE
  5
FA
330
1F
100
AcDbEntity
  8
0
  6
Continuous
 62
     7
370
     5
100
AcDbSpline
210
0.0
220
0.0
230
1.0
 70
     8
 71
     3
 72
    11
 73
     7
 74
     0
 42
0.0000000001
 43
0.0000000001
 40
0.0
 40
0.0
 40
0.0
 40
0.0
 40
0.2802231809517986
 40
0.559914939423344
 40
0.7799529544467755
 40
1.0
 40
1.0
 40
1.0
 40
1.0
 10
-8.525073281236974
 20
9.632837430922197
 30
0.0
 10
-8.526919687793004
 20
9.631266473918744
 30
0.0
 10
-8.53060899933197
 20
9.628127539115286
 30
0.0
 10
-8.535258577037549
 20
9.628026517222158
 30
0.0
 10
-8.538669401035267
 20
9.630942244912866
 30
0.0
 10
-8.539733270881892
 20
9.634876615656558
 30
0.0
 10
-8.54026521672049
 20
9.636843841394979
 30
0.0
  0
SPLINE
  5
FB
330
1F
100
AcDbEntity
  8
0
  6
Continuous
 62
     7
370
     5
100
AcDbSpline
210
0.0
220
0.0
230
1.0
 70
     8
 71
     3
 72
    11
 73
     7
 74
     0
 42
0.0000000001
 43
0.0000000001
 40
0.0
 40
0.0
 40
0.0
 40
0.0
 40
0.2816549017334917
 40
0.560111439484346
 40
0.7800817134469346
 40
1.0
 40
1.0
 40
1.0
 40
1.0
 10
-8.509969027470221
 20
9.685230204379447
 30
0.0
 10
-8.510010093478422
 20
9.680215213788004
 30
0.0
 10
-8.510091759165131
 20
9.670242180896034
 30
0.0
 10
-8.513026622994106
 20
9.654194045262409
 30
0.0
 10
-8.518683771669804
 20
9.640333655741734
 30
0.0
 10
-8.522943612528367
 20
9.635335975648208
 30
0.0
 10
-8.525073281236972
 20
9.632837430922197
 30
0.0
  0
LINE
  5
FC
330
1F
100
AcDbEntity
  8
0
  6
Continuous
 62
     7
370
     5
100
AcDbLine
 10
-8.509969027470221
 20
9.739157267819011
 30
0.0
 11
-8.509969027470221
 21
9.685230204379447
 31
0.0
  0
LINE
  5
FD
330
1F
100
AcDbEntity
  8
0
  6
Continuous
 62
     7
370
     5
100
AcDbLine
 10
-8.514331826022068
 20
9.734899042684638
 30
0.0
 11
-8.509969027470221
 21
9.739157267819011
 31
0.0
  0
LINE
  5
FE
330
1F
100
AcDbEntity
  8
0
  6
Continuous
 62
     7
370
     5
100
AcDbLine
 10
-8.514331826022068
 20
9.681401300814188
 30
0.0
 11
-8.514331826022068
 21
9.734899042684638
 31
0.0
  0
SPLINE
  5
FF
330
1F
100
AcDbEntity
  8
0
  6
Continuous
 62
     7
370
     5
100
AcDbSpline
210
0.0
220
0.0
230
1.0
 70
     8
 71
     3
 72
     9
 73
     5
 74
     0
 42
0.0000000001
 43
0.0000000001
 40
0.0
 40
0.0
 40
0.0
 40
0.0
 40
0.5596258575074693
 40
0.9999999999999998
 40
0.9999999999999998
 40
0.9999999999999998
 40
0.9999999999999998
 10
-8.514828483740142
 20
9.667054678204429
 30
0.0
 10
-8.514644405730376
 20
9.669810019645275
 30
0.0
 10
-8.514315475236367
 20
9.674733561693736
 30
0.0
 10
-8.51432682699923
 20
9.679362733326124
 30
0.0
 10
-8.514331826022068
 20
9.681401300814188
 30
0.0
  0
SPLINE
  5
100
330
1F
100
AcDbEntity
  8
0
  6
Continuous
 62
     7
370
     5
100
AcDbSpline
210
0.0
220
0.0
230
1.0
 70
     8
 71
     3
 72
    11
 73
     7
 74
     0
 42
0.0000000001
 43
0.0000000001
 40
0.0
 40
0.0
 40
0.0
 40
0.0
 40
0.2797831476868339
 40
0.5593745983232262
 40
0.7795660883060087
 40
1.0
 40
1.0
 40
1.0
 40
1.0
 10
-8.525316750297502
 20
9.6417574844432
 30
0.0
 10
-8.523976418569491
 20
9.643330299990241
 30
0.0
 10
-8.521296673459129
 20
9.64647485344936
 30
0.0
 10
-8.518054482519312
 20
9.653417141231592
 30
0.0
 10
-8.515843434363038
 20
9.660542122948648
 30
0.0
 10
-8.515166924681002
 20
9.664883030364183
 30
0.0
 10
-8.514828483740142
 20
9.667054678204429
 30
0.0
  0
SPLINE
  5
101
330
1F
100
AcDbEntity
  8
0
  6
Continuous
 62
     7
370
     5
100
AcDbSpline
210
0.0
220
0.0
230
1.0
 70
     8
 71
     3
 72
    10
 73
     6
 74
     0
 42
0.0000000001
 43
0.0000000001
 40
0.0
 40
0.0
 40
0.0
 40
0.0
 40
0.2810536691790415
 40
0.5608216230119471
 40
1.0
 40
1.0
 40
1.0
 40
1.0
 10
-8.536574370872383
 20
9.647815339393055
 30
0.0
 10
-8.536265020019548
 20
9.645386675645305
 30
0.0
 10
-8.535647733478249
 20
9.640540458377472
 30
0.0
 10
-8.531482805892748
 20
9.637585449974363
 30
0.0
 10
-8.527655011687217
 20
9.640175385974524
 30
0.0
 10
-8.525316750297502
 20
9.6417574844432
 30
0.0
  0
SPLINE
  5
102
330
1F
100
AcDbEntity
  8
0
  6
Continuous
 62
     7
370
     5
100
AcDbSpline
210
0.0
220
0.0
230
1.0
 70
     8
 71
     3
 72
     9
 73
     5
 74
     0
 42
0.0000000001
 43
0.0000000001
 40
0.0
 40
0.0
 40
0.0
 40
0.0
 40
0.5601213699371491
 40
1.0
 40
1.0
 40
1.0
 40
1.0
 10
-8.536769105052085
 20
9.659501828634308
 30
0.0
 10
-8.536773320952251
 20
9.657277822633627
 30
0.0
 10
-8.536780847714119
 20
9.653307243898293
 30
0.0
 10
-8.536637448932149
 20
9.649493099851307
 30
0.0
 10
-8.536574370872383
 20
9.647815339393055
 30
0.0
  0
LINE
  5
103
330
1F
100
AcDbEntity
  8
0
  6
Continuous
 62
     7
370
     5
100
AcDbLine
 10
-8.536769105052085
 20
9.712999570504756
 30
0.0
 11
-8.536769105052085
 21
9.659501828634308
 31
0.0
  0
LINE
  5
104
330
1F
100
AcDbEntity
  8
0
  6
Continuous
 62
     7
370
     5
100
AcDbLine
 10
-8.541131972051797
 20
9.708741278563165
 30
0.0
 11
-8.536769105052085
 21
9.712999570504756
 31
0.0
  0
LINE
  5
105
330
1F
100
AcDbEntity
  8
0
  6
Continuous
 62
     7
370
     5
100
AcDbLine
 10
-8.541131972051797
 20
9.654814215123598
 30
0.0
 11
-8.541131972051797
 21
9.708741278563165
 31
0.0
  0
LINE
  5
106
330
1F
100
AcDbEntity
  8
0
  6
Continuous
 62
     7
370
     5
100
AcDbLine
 10
-8.875625332448397
 20
9.475537783947396
 30
0.0
 11
-8.251513169715229
 21
10.08469038781779
 31
0.0
  0
LINE
  5
107
330
1F
100
AcDbEntity
  8
0
  6
Continuous
 62
     7
370
     5
100
AcDbLine
 10
-8.251513169715229
 20
10.08469038781779
 30
0.0
 11
-8.251513169715229
 21
7.555918333124832
 31
0.0
  0
ARC
  5
108
330
1F
100
AcDbEntity
  8
0
  6
Continuous
 62
     7
370
     5
100
AcDbCircle
 10
-8.118299540149942
 20
7.499126177802835
 30
0.0
 40
0.1448144330102331
100
AcDbArc
 50
156.9102892535495
 51
178.9058148785086
  0
LINE
  5
109
330
1F
100
AcDbEntity
  8
0
  6
Continuous
 62
     7
370
     5
100
AcDbLine
 10
-8.263087567015475
 20
6.216140520391929
 30
0.0
 11
-8.263087567015475
 21
7.501891550193894
 31
0.0
  0
LINE
  5
10A
330
1F
100
AcDbEntity
  8
0
  6
Continuous
 62
     7
370
     5
100
AcDbLine
 10
-8.263087567015475
 20
6.216140520391929
 30
0.0
 11
-8.875625332448397
 21
5.618284883116128
 31
0.0
  0
LINE
  5
10B
330
1F
100
AcDbEntity
  8
0
  6
Continuous
 62
     7
370
     5
100
AcDbLine
 10
-8.875625332448397
 20
5.618284883116128
 30
0.0
 11
-8.875625332448397
 21
5.867437727116227
 31
0.0
  0
ARC
  5
10C
330
1F
100
AcDbEntity
  8
0
  6
Continuous
 62
     7
370
     5
100
AcDbCircle
 10
-8.446695744465229
 20
5.859779253251822
 30
0.0
 40
0.428997952989688
100
AcDbArc
 50
159.2521723153602
 51
178.9771010856933
  0
LINE
  5
10D
330
1F
100
AcDbEntity
  8
0
  6
Continuous
 62
     7
370
     5
100
AcDbLine
 10
-8.650734391800146
 20
6.541810982132902
 30
0.0
 11
-8.847872597462988
 21
6.011754173183227
 31
0.0
  0
LWPOLYLINE
  5
10E
330
1F
100
AcDbEntity
  8
0
  6
Continuous
 62
     7
370
     5
100
AcDbPolyline
 90
       11
 70
   128
 43
0.0
 10
-8.725960787225773
 20
6.966599429003113
 10
-8.693149344231564
 20
6.978752408977159
 10
-8.66345761808883
 20
6.975287990659821
 10
-8.63829296537713
 20
6.956370754123284
 10
-8.618848500854419
 20
6.922897303468187
 10
-8.606046011936525
 20
6.876454805250197
 10
-8.600492494302045
 20
6.81924467190485
 10
-8.602451198444871
 20
6.753979384684351
 10
-8.611829240610402
 20
6.683752840501814
 10
-8.628182051906835
 20
6.611894578491443
 10
-8.650734391800146
 20
6.541810982132902
  0
LINE
  5
10F
330
1F
100
AcDbEntity
  8
0
  6
Continuous
 62
     7
370
     5
100
AcDbLine
 10
-8.875625332448397
 20
6.878950835923281
 30
0.0
 11
-8.725960787225773
 21
6.966599429003113
 31
0.0
  0
LINE
  5
110
330
1F
100
AcDbEntity
  8
0
  6
Continuous
 62
     7
370
     5
100
AcDbLine
 10
-8.875625332448397
 20
6.878950835923281
 30
0.0
 11
-8.875625332448397
 21
7.705808443850858
 31
0.0
  0
ARC
  5
111
330
1F
100
AcDbEntity
  8
0
  6
Continuous
 62
     7
370
     5
100
AcDbCircle
 10
-8.451406275244744
 20
7.698760822041074
 30
0.0
 40
0.4242775948219863
100
AcDbArc
 50
160.8028304209757
 51
179.048223234067
  0
LINE
  5
112
330
1F
100
AcDbEntity
  8
0
  6
Continuous
 62
     7
370
     5
100
AcDbLine
 10
-8.623809465310102
 20
8.509355886356772
 30
0.0
 11
-8.852090902569017
 21
7.838271778219929
 31
0.0
  0
ARC
  5
113
330
1F
100
AcDbEntity
  8
0
  6
Continuous
 62
     7
370
     5
100
AcDbCircle
 10
-9.024486928234304
 20
8.648865571953372
 30
0.0
 40
0.424270411024193
100
AcDbArc
 50
340.8026743260858
 51
359.0483728901889
  0
LINE
  5
114
330
1F
100
AcDbEntity
  8
0
  6
Continuous
 62
     7
370
     5
100
AcDbLine
 10
-8.600275035430723
 20
8.806698900395872
 30
0.0
 11
-8.600275035430723
 21
8.641819177510821
 31
0.0
  0
ARC
  5
115
330
1F
100
AcDbEntity
  8
0
  6
Continuous
 62
     7
370
     5
100
AcDbCircle
 10
-8.726190687665566
 20
8.818911487785749
 30
0.0
 40
0.1265065167036122
100
AcDbArc
 50
354.4601972798208
 51
35.97279096255561
  0
LINE
  5
116
330
1F
100
AcDbEntity
  8
0
  6
Continuous
 62
     7
370
     5
100
AcDbLine
 10
-8.852090902569017
 20
9.118686248201886
 30
0.0
 11
-8.623809465310102
 21
8.893221541462775
 31
0.0
  0
ARC
  5
117
330
1F
100
AcDbEntity
  8
0
  6
Continuous
 62
     7
370
     5
100
AcDbCircle
 10
-8.749706937503638
 20
9.192997065648349
 30
0.0
 40
0.1265091850106947
100
AcDbArc
 50
174.4606048186611
 51
215.972341255066
  0
LINE
  5
118
330
1F
100
AcDbEntity
  8
0
  6
Continuous
 62
     7
370
     5
100
AcDbLine
 10
-8.875625332448397
 20
9.205209014985209
 30
0.0
 11
-8.875625332448397
 21
9.475537783947396
 31
0.0
  0
LWPOLYLINE
  5
119
330
1F
100
AcDbEntity
  8
0
  6
Continuous
 62
     7
370
     5
100
AcDbPolyline
 90
        9
 70
   128
 43
0.0
 10
-8.569006407343536
 20
7.189590665274776
 10
-8.560612371704332
 20
7.200850164843958
 10
-8.553496257729461
 20
7.216528852680739
 10
-8.548741389799291
 20
7.234239731278953
 10
-8.547071740995965
 20
7.251286466960676
 10
-8.548741389799291
 20
7.265073945807405
 10
-8.553496257729461
 20
7.273503030671494
 10
-8.560612371704332
 20
7.27529062772021
 10
-8.569006407343536
 20
7.270164392201341
  0
LINE
  5
11A
330
1F
100
AcDbEntity
  8
0
  6
Continuous
 62
     7
370
     5
100
AcDbLine
 10
-8.569006407343536
 20
7.270164392201341
 30
0.0
 11
-8.670746083791113
 21
7.170863349014543
 31
0.0
  0
LWPOLYLINE
  5
11B
330
1F
100
AcDbEntity
  8
0
  6
Continuous
 62
     7
370
     5
100
AcDbPolyline
 90
        9
 70
   128
 43
0.0
 10
-8.670746083791113
 20
7.090289622087977
 10
-8.679140119430318
 20
7.085163449427317
 10
-8.686256233405188
 20
7.086951046476032
 10
-8.691011032887494
 20
7.095380198147338
 10
-8.692680750138688
 20
7.109167610186851
 10
-8.691011032887494
 20
7.12621441267579
 10
-8.686256233405188
 20
7.143925224466786
 10
-8.679140119430318
 20
7.159603912303568
 10
-8.670746083791113
 20
7.170863349014543
  0
LINE
  5
11C
330
1F
100
AcDbEntity
  8
0
  6
Continuous
 62
     7
370
     5
100
AcDbLine
 10
-8.670746083791113
 20
7.090289622087977
 30
0.0
 11
-8.569006407343536
 21
7.189590665274776
 31
0.0
  0
LWPOLYLINE
  5
11D
330
1F
100
AcDbEntity
  8
0
  6
Continuous
 62
     7
370
     5
100
AcDbPolyline
 90
       17
 70
   128
 43
0.0
 10
-8.50553586451179
 20
6.300941322604418
 10
-8.502622791768757
 20
6.330682604371745
 10
-8.494327115713465
 20
6.361582385367508
 10
-8.481911767927522
 20
6.388936598187538
 10
-8.467266799343827
 20
6.408580901541704
 10
-8.452621899207997
 20
6.417524407980229
 10
-8.440206551422054
 20
6.414405715258524
 10
-8.43191087536676
 20
6.399699602554102
 10
-8.428997802623728
 20
6.37564481738992
 10
-8.43191087536676
 20
6.345903661339012
 10
-8.440206551422054
 20
6.315003880343247
 10
-8.452621899207997
 20
6.287649667523219
 10
-8.467266799343827
 20
6.268005430976271
 10
-8.481911767927522
 20
6.259061857730529
 10
-8.494327115713465
 20
6.262180550452232
 10
-8.502622791768757
 20
6.276886663156655
 10
-8.50553586451179
 20
6.300941322604418
  0
LWPOLYLINE
  5
11E
330
1F
100
AcDbEntity
  8
0
  6
Continuous
 62
     7
370
     5
100
AcDbPolyline
 90
       17
 70
   128
 43
0.0
 10
-8.563872748921108
 20
8.815504668908571
 10
-8.560959744625945
 20
8.845245821010472
 10
-8.552664068570653
 20
8.876145602006237
 10
-8.540248652336842
 20
8.90349988163348
 10
-8.525603752201012
 20
8.923144118180431
 10
-8.510958852065185
 20
8.932087624618956
 10
-8.498543435831372
 20
8.928968998704467
 10
-8.490247759776082
 20
8.914262886000043
 10
-8.487334755480915
 20
8.890208096886857
 10
-8.490247759776082
 20
8.860466944784954
 10
-8.498543435831372
 20
8.829567163789191
 10
-8.510958852065185
 20
8.802212884161946
 10
-8.525603752201012
 20
8.782568647614997
 10
-8.540248652336842
 20
8.773625141176472
 10
-8.552664068570653
 20
8.776743767090959
 10
-8.560959744625945
 20
8.791449879795381
 10
-8.563872748921108
 20
8.815504668908571
  0
LWPOLYLINE
  5
11F
330
1F
100
AcDbEntity
  8
0
  6
Continuous
 62
     7
370
     5
100
AcDbPolyline
 90
       17
 70
   128
 43
0.0
 10
-8.563872748921108
 20
6.779732315057325
 10
-8.560959744625945
 20
6.809473404301016
 10
-8.552664068570653
 20
6.8403733110132
 10
-8.540248652336842
 20
6.867727590640444
 10
-8.525603752201012
 20
6.887371701470975
 10
-8.510958852065185
 20
6.896315333625919
 10
-8.498543435831372
 20
6.893196707711432
 10
-8.490247759776082
 20
6.878490469290589
 10
-8.487334755480915
 20
6.85443574303561
 10
-8.490247759776082
 20
6.824694653791918
 10
-8.498543435831372
 20
6.793794872796153
 10
-8.510958852065185
 20
6.766440593168909
 10
-8.525603752201012
 20
6.746796356621961
 10
-8.540248652336842
 20
6.737852850183434
 10
-8.552664068570653
 20
6.740971476097922
 10
-8.560959744625945
 20
6.755677588802345
 10
-8.563872748921108
 20
6.779732315057325
  0
LWPOLYLINE
  5
120
330
1F
100
AcDbEntity
  8
0
  6
Continuous
 62
     7
370
     5
100
AcDbPolyline
 90
       17
 70
   128
 43
0.0
 10
-8.826155595330337
 20
7.595195360667544
 10
-8.823242591035173
 20
7.624936481340339
 10
-8.814946846532015
 20
7.655836360572426
 10
-8.80253149874607
 20
7.683190589107006
 10
-8.787886530162374
 20
7.702834861032067
 10
-8.773241698474413
 20
7.711778332092481
 10
-8.760826213792736
 20
7.708659757270656
 10
-8.75253060618531
 20
7.693953546329913
 10
-8.749617601890143
 20
7.669898788645829
 10
-8.75253060618531
 20
7.640157652258481
 10
-8.760826213792736
 20
7.609257906640827
 10
-8.773241698474413
 20
7.581903560206367
 10
-8.787886530162374
 20
7.562259421895737
 10
-8.80253149874607
 20
7.553315817220892
 10
-8.814946846532015
 20
7.556434509942596
 10
-8.823242591035173
 20
7.571140587268907
 10
-8.826155595330337
 20
7.595195360667544
  0
LWPOLYLINE
  5
121
330
1F
100
AcDbEntity
  8
0
  6
Continuous
 62
     7
370
     5
100
AcDbPolyline
 90
       17
 70
   128
 43
0.0
 10
-8.826155595330337
 20
5.880860795695895
 10
-8.823242591035173
 20
5.910601884939586
 10
-8.814946846532015
 20
5.941501732742566
 10
-8.80253149874607
 20
5.968855945562594
 10
-8.787886530162374
 20
5.988500248916759
 10
-8.773241698474413
 20
5.997443688548069
 10
-8.760826213792736
 20
5.994325129440798
 10
-8.75253060618531
 20
5.979618949929159
 10
-8.749617601890143
 20
5.95556422367418
 10
-8.75253060618531
 20
5.925823008714069
 10
-8.760826213792736
 20
5.89492329452552
 10
-8.773241698474413
 20
5.86756894809106
 10
-8.787886530162374
 20
5.847924778351327
 10
-8.80253149874607
 20
5.838981205105586
 10
-8.814946846532015
 20
5.842099897827289
 10
-8.823242591035173
 20
5.856805943724496
 10
-8.826155595330337
 20
5.880860795695895
  0
LWPOLYLINE
  5
122
330
1F
100
AcDbEntity
  8
0
  6
Continuous
 62
     7
370
     5
100
AcDbPolyline
 90
       17
 70
   128
 43
0.0
 10
-8.826155595330337
 20
9.309529957068299
 10
-8.823242591035173
 20
9.33927104631199
 10
-8.814946846532015
 20
9.370171019831389
 10
-8.80253149874607
 20
9.397525232651418
 10
-8.787886530162374
 20
9.417169410289163
 10
-8.773241698474413
 20
9.426112975636893
 10
-8.760826213792736
 20
9.42299441652962
 10
-8.75253060618531
 20
9.408288111301564
 10
-8.749617601890143
 20
9.384233385046584
 10
-8.75253060618531
 20
9.354492295802891
 10
-8.760826213792736
 20
9.323592455897925
 10
-8.773241698474413
 20
9.296238109463464
 10
-8.787886530162374
 20
9.27659406544015
 10
-8.80253149874607
 20
9.26765036647799
 10
-8.814946846532015
 20
9.270769059199693
 10
-8.823242591035173
 20
9.285475230813318
 10
-8.826155595330337
 20
9.309529957068299
  0
SPLINE
  5
123
330
1F
100
AcDbEntity
  8
0
  6
Continuous
 62
     7
370
     5
100
AcDbSpline
210
0.0
220
0.0
230
1.0
 70
     8
 71
     3
 72
    11
 73
     7
 74
     0
 42
0.0000000001
 43
0.0000000001
 40
0.0
 40
0.0
 40
0.0
 40
0.0
 40
0.279181995123355
 40
0.5590848926584977
 40
0.7794476152803036
 40
1.0
 40
1.0
 40
1.0
 40
1.0
 10
-8.473820134961753
 20
9.707026402870493
 30
0.0
 10
-8.474091821152116
 20
9.703109128075917
 30
0.0
 10
-8.47463589507962
 20
9.695264463318542
 30
0.0
 10
-8.478522263937897
 20
9.683691408888408
 30
0.0
 10
-8.483011758540522
 20
9.674587468107276
 30
0.0
 10
-8.486141499705533
 20
9.671068343653315
 30
0.0
 10
-8.487707043425871
 20
9.669308024540809
 30
0.0
  0
SPLINE
  5
124
330
1F
100
AcDbEntity
  8
0
  6
Continuous
 62
     7
370
     5
100
AcDbSpline
210
0.0
220
0.0
230
1.0
 70
     8
 71
     3
 72
    10
 73
     6
 74
     0
 42
0.0000000001
 43
0.0000000001
 40
0.0
 40
0.0
 40
0.0
 40
0.0
 40
0.5601167907982939
 40
0.7802851181241904
 40
1.0
 40
1.0
 40
1.0
 40
1.0
 10
-8.485272489716333
 20
9.724663385240218
 30
0.0
 10
-8.482225409746753
 20
9.723492291941832
 30
0.0
 10
-8.477980596534475
 20
9.721860870267502
 30
0.0
 10
-8.474366385552018
 20
9.714641554609618
 30
0.0
 10
-8.47400209331721
 20
9.709563041753265
 30
0.0
 10
-8.473820134961753
 20
9.707026402870493
 30
0.0
  0
SPLINE
  5
125
330
1F
100
AcDbEntity
  8
0
  6
Continuous
 62
     7
370
     5
100
AcDbSpline
210
0.0
220
0.0
230
1.0
 70
     8
 71
     3
 72
     9
 73
     5
 74
     0
 42
0.0000000001
 43
0.0000000001
 40
0.0
 40
0.0
 40
0.0
 40
0.0
 40
0.5599077956384287
 40
1.0
 40
1.0
 40
1.0
 40
1.0
 10
-8.491806933723156
 20
9.727174975517842
 30
0.0
 10
-8.490607722283918
 20
9.726635697437554
 30
0.0
 10
-8.488465920636258
 20
9.725672542281497
 30
0.0
 10
-8.48624840226469
 20
9.724971783650749
 30
0.0
 10
-8.485272489716333
 20
9.724663385240218
 30
0.0
  0
SPLINE
  5
126
330
1F
100
AcDbEntity
  8
0
  6
Continuous
 62
     7
370
     5
100
AcDbSpline
210
0.0
220
0.0
230
1.0
 70
     8
 71
     3
 72
    10
 73
     6
 74
     0
 42
0.0000000001
 43
0.0000000001
 40
0.0
 40
0.0
 40
0.0
 40
0.0
 40
0.2799435938969834
 40
0.5597756707178754
 40
0.9999999999999998
 40
0.9999999999999998
 40
0.9999999999999998
 40
0.9999999999999998
 10
-8.495010841450209
 20
9.735584481930818
 30
0.0
 10
-8.494953876628937
 20
9.73439400382294
 30
0.0
 10
-8.494839969678645
 20
9.732013521840713
 30
0.0
 10
-8.493787096663664
 20
9.728933403468664
 30
0.0
 10
-8.492558231125389
 20
9.727842144024251
 30
0.0
 10
-8.491806933723156
 20
9.727174975517842
 30
0.0
  0
SPLINE
  5
127
330
1F
100
AcDbEntity
  8
0
  6
Continuous
 62
     7
370
     5
100
AcDbSpline
210
0.0
220
0.0
230
1.0
 70
     8
 71
     3
 72
    11
 73
     7
 74
     0
 42
0.0000000001
 43
0.0000000001
 40
0.0
 40
0.0
 40
0.0
 40
0.0
 40
0.2802764707544076
 40
0.5599326286483985
 40
0.7799218947908616
 40
1.0
 40
1.0
 40
1.0
 40
1.0
 10
-8.487882338411536
 20
9.75384628834807
 30
0.0
 10
-8.488869372804515
 20
9.752743349236164
 30
0.0
 10
-8.490841257068437
 20
9.750539912056773
 30
0.0
 10
-8.493215070359813
 20
9.745439859405305
 30
0.0
 10
-8.494772551972207
 20
9.740094606614752
 30
0.0
 10
-8.494931400934943
 20
9.737088059142115
 30
0.0
 10
-8.495010841450211
 20
9.735584481930818
 30
0.0
  0
SPLINE
  5
128
330
1F
100
AcDbEntity
  8
0
  6
Continuous
 62
     7
370
     5
100
AcDbSpline
210
0.0
220
0.0
230
1.0
 70
     8
 71
     3
 72
    11
 73
     7
 74
     0
 42
0.0000000001
 43
0.0000000001
 40
0.0
 40
0.0
 40
0.0
 40
0.0
 40
0.3404090499765165
 40
0.5604841002928282
 40
0.7801787755333914
 40
1.0
 40
1.0
 40
1.0
 40
1.0
 10
-8.47838738729032
 20
9.751666417522185
 30
0.0
 10
-8.47922769913513
 20
9.752767121740241
 30
0.0
 10
-8.480611274067506
 20
9.754579433173759
 30
0.0
 10
-8.482892842305462
 20
9.756170385969303
 30
0.0
 10
-8.485274983392377
 20
9.756020911517451
 30
0.0
 10
-8.487013053258438
 20
9.754571301865921
 30
0.0
 10
-8.487882338411536
 20
9.75384628834807
 30
0.0
  0
LINE
  5
129
330
1F
100
AcDbEntity
  8
0
  6
Continuous
 62
     7
370
     5
100
AcDbLine
 10
-8.474443352784662
 20
9.761006957836166
 30
0.0
 11
-8.47838738729032
 21
9.751666417522185
 31
0.0
  0
SPLINE
  5
12A
330
1F
100
AcDbEntity
  8
0
  6
Continuous
 62
     7
370
     5
100
AcDbSpline
210
0.0
220
0.0
230
1.0
 70
     8
 71
     3
 72
    10
 73
     6
 74
     0
 42
0.0000000001
 43
0.0000000001
 40
0.0
 40
0.0
 40
0.0
 40
0.0
 40
0.279750678730383
 40
0.5595040821127415
 40
1.0
 40
1.0
 40
1.0
 40
1.0
 10
-8.487395468738348
 20
9.763479300579163
 30
0.0
 10
-8.485898672756448
 20
9.764671806922768
 30
0.0
 10
-8.482905066214495
 20
9.767056831224479
 30
0.0
 10
-8.478219649045435
 20
9.766375375342819
 30
0.0
 10
-8.475876434766382
 20
9.763044240365891
 30
0.0
 10
-8.47444335278466
 20
9.761006957836166
 30
0.0
  0
SPLINE
  5
12B
330
1F
100
AcDbEntity
  8
0
  6
Continuous
 62
     7
370
     5
100
AcDbSpline
210
0.0
220
0.0
230
1.0
 70
     8
 71
     3
 72
    11
 73
     7
 74
     0
 42
0.0000000001
 43
0.0000000001
 40
0.0
 40
0.0
 40
0.0
 40
0.0
 40
0.2795552266270402
 40
0.5587984292119863
 40
0.7793803088732223
 40
1.0
 40
1.0
 40
1.0
 40
1.0
 10
-8.499373640002058
 20
9.730950616138017
 30
0.0
 10
-8.499163064155009
 20
9.734326417180396
 30
0.0
 10
-8.498742147493995
 20
9.741074251383224
 30
0.0
 10
-8.495421400757958
 20
9.751198600125245
 30
0.0
 10
-8.491451984933366
 20
9.758883111486639
 30
0.0
 10
-8.488747718056245
 20
9.761947150017817
 30
0.0
 10
-8.487395468738347
 20
9.763479300579163
 30
0.0
  0
SPLINE
  5
12C
330
1F
100
AcDbEntity
  8
0
  6
Continuous
 62
     7
370
     5
100
AcDbSpline
210
0.0
220
0.0
230
1.0
 70
     8
 71
     3
 72
     9
 73
     5
 74
     0
 42
0.0000000001
 43
0.0000000001
 40
0.0
 40
0.0
 40
0.0
 40
0.0
 40
0.5598414372731279
 40
1.0
 40
1.0
 40
1.0
 40
1.0
 10
-8.496656670396056
 20
9.720008996868315
 30
0.0
 10
-8.497513350191844
 20
9.721488931363886
 30
0.0
 10
-8.499043568819388
 20
9.724132420032356
 30
0.0
 10
-8.49927275968157
 20
9.728866757126981
 30
0.0
 10
-8.499373640002058
 20
9.730950616138017
 30
0.0
  0
SPLINE
  5
12D
330
1F
100
AcDbEntity
  8
0
  6
Continuous
 62
     7
370
     5
100
AcDbSpline
210
0.0
220
0.0
230
1.0
 70
     8
 71
     3
 72
     9
 73
     5
 74
     0
 42
0.0000000001
 43
0.0000000001
 40
0.0
 40
0.0
 40
0.0
 40
0.0
 40
0.5604105435417183
 40
1.0
 40
1.0
 40
1.0
 40
1.0
 10
-8.488690639264996
 20
9.715639252854666
 30
0.0
 10
-8.49027558962679
 20
9.716149481103178
 30
0.0
 10
-8.493103784742066
 20
9.717059935509134
 30
0.0
 10
-8.495571770068057
 20
9.71910847882539
 30
0.0
 10
-8.496656670396056
 20
9.720008996868315
 30
0.0
  0
SPLINE
  5
12E
330
1F
100
AcDbEntity
  8
0
  6
Continuous
 62
     7
370
     5
100
AcDbSpline
210
0.0
220
0.0
230
1.0
 70
     8
 71
     3
 72
     9
 73
     5
 74
     0
 42
0.0000000001
 43
0.0000000001
 40
0.0
 40
0.0
 40
0.0
 40
0.0
 40
0.5594961189934431
 40
1.0
 40
1.0
 40
1.0
 40
1.0
 10
-8.479926095325362
 20
9.709956206319665
 30
0.0
 10
-8.481424066013596
 20
9.711437640041902
 30
0.0
 10
-8.484101422723288
 20
9.714085439860252
 30
0.0
 10
-8.487287263873888
 20
9.715164099220286
 30
0.0
 10
-8.488690639264996
 20
9.715639252854666
 30
0.0
  0
SPLINE
  5
12F
330
1F
100
AcDbEntity
  8
0
  6
Continuous
 62
     7
370
     5
100
AcDbSpline
210
0.0
220
0.0
230
1.0
 70
     8
 71
     3
 72
     9
 73
     5
 74
     0
 42
0.0000000001
 43
0.0000000001
 40
0.0
 40
0.0
 40
0.0
 40
0.0
 40
0.5589854750643174
 40
1.0
 40
1.0
 40
1.0
 40
1.0
 10
-8.4781829335136
 20
9.702893391288926
 30
0.0
 10
-8.478302506826592
 20
9.704555590178587
 30
0.0
 10
-8.478516418132567
 20
9.707529189607928
 30
0.0
 10
-8.479494671417597
 20
9.709213431279152
 30
0.0
 10
-8.479926095325362
 20
9.709956206319665
 30
0.0
  0
SPLINE
  5
130
330
1F
100
AcDbEntity
  8
0
  6
Continuous
 62
     7
370
     5
100
AcDbSpline
210
0.0
220
0.0
230
1.0
 70
     8
 71
     3
 72
    11
 73
     7
 74
     0
 42
0.0000000001
 43
0.0000000001
 40
0.0
 40
0.0
 40
0.0
 40
0.0
 40
0.2802771284793814
 40
0.5601458596310062
 40
0.7801510117643231
 40
1.0
 40
1.0
 40
1.0
 40
1.0
 10
-8.487707043425871
 20
9.678465711328774
 30
0.0
 10
-8.486400180797165
 20
9.679981961116174
 30
0.0
 10
-8.483788359795036
 20
9.683012251333526
 30
0.0
 10
-8.480595622940395
 20
9.689737050109368
 30
0.0
 10
-8.47856779435431
 20
9.696860749136229
 30
0.0
 10
-8.478311190092615
 20
9.700882986583913
 30
0.0
 10
-8.4781829335136
 20
9.702893391288926
 30
0.0
  0
SPLINE
  5
131
330
1F
100
AcDbEntity
  8
0
  6
Continuous
 62
     7
370
     5
100
AcDbSpline
210
0.0
220
0.0
230
1.0
 70
     8
 71
     3
 72
    10
 73
     6
 74
     0
 42
0.0000000001
 43
0.0000000001
 40
0.0
 40
0.0
 40
0.0
 40
0.0
 40
0.5593173366449682
 40
0.77978085288194
 40
1.0
 40
1.0
 40
1.0
 40
1.0
 10
-8.498380324565912
 20
9.682929691336601
 30
0.0
 10
-8.496935586247882
 20
9.680261930930567
 30
0.0
 10
-8.494921382138667
 20
9.676542631798561
 30
0.0
 10
-8.490802711223807
 20
9.676036004080904
 30
0.0
 10
-8.48873855114974
 20
9.677656108375062
 30
0.0
 10
-8.487707043425871
 20
9.678465711328774
 30
0.0
  0
LINE
  5
132
330
1F
100
AcDbEntity
  8
0
  6
Continuous
 62
     7
370
     5
100
AcDbLine
 10
-8.502489934460218
 20
9.674393297894139
 30
0.0
 11
-8.498380324565914
 21
9.682929691336603
 31
0.0
  0
SPLINE
  5
133
330
1F
100
AcDbEntity
  8
0
  6
Continuous
 62
     7
370
     5
100
AcDbSpline
210
0.0
220
0.0
230
1.0
 70
     8
 71
     3
 72
    10
 73
     6
 74
     0
 42
0.0000000001
 43
0.0000000001
 40
0.0
 40
0.0
 40
0.0
 40
0.0
 40
0.2798799422186424
 40
0.5596663850305022
 40
1.0
 40
1.0
 40
1.0
 40
1.0
 10
-8.487707043425871
 20
9.669308024540809
 30
0.0
 10
-8.489505698711477
 20
9.667883342052725
 30
0.0
 10
-8.493102408406464
 20
9.665034453019799
 30
0.0
 10
-8.498643170264156
 20
9.666356536782361
 30
0.0
 10
-8.501030281546736
 20
9.671343752568812
 30
0.0
 10
-8.502489934460214
 20
9.674393297894139
 30
0.0
  0
LINE
  5
134
330
1F
100
AcDbEntity
  8
0
  6
Continuous
 62
     7
370
     5
100
AcDbLine
 10
-8.526797003854699
 20
9.515274533186966
 30
0.0
 11
-8.531442218303014
 21
9.446350094813466
 31
0.0
  0
LINE
  5
135
330
1F
100
AcDbEntity
  8
0
  6
Continuous
 62
     7
370
     5
100
AcDbLine
 10
-8.509180234258664
 20
9.468078473713422
 30
0.0
 11
-8.526797003854699
 21
9.515274533186966
 31
0.0
  0
LINE
  5
136
330
1F
100
AcDbEntity
  8
0
  6
Continuous
 62
     7
370
     5
100
AcDbLine
 10
-8.508196638419539
 20
9.469038493405932
 30
0.0
 11
-8.509180234258664
 21
9.468078473713422
 31
0.0
  0
LINE
  5
137
330
1F
100
AcDbEntity
  8
0
  6
Continuous
 62
     7
370
     5
100
AcDbLine
 10
-8.490648042898364
 20
9.550413961993744
 30
0.0
 11
-8.508196638419539
 21
9.469038493405932
 31
0.0
  0
LINE
  5
138
330
1F
100
AcDbEntity
  8
0
  6
Continuous
 62
     7
370
     5
100
AcDbLine
 10
-8.48599310885303
 20
9.490709818943509
 30
0.0
 11
-8.490648042898364
 21
9.550413961993744
 31
0.0
  0
LINE
  5
139
330
1F
100
AcDbEntity
  8
0
  6
Continuous
 62
     7
370
     5
100
AcDbLine
 10
-8.481610802659279
 20
9.494987084134416
 30
0.0
 11
-8.48599310885303
 21
9.490709818943509
 31
0.0
  0
LINE
  5
13A
330
1F
100
AcDbEntity
  8
0
  6
Continuous
 62
     7
370
     5
100
AcDbLine
 10
-8.488067352994217
 20
9.577973493553983
 30
0.0
 11
-8.481610802659279
 21
9.494987084134416
 31
0.0
  0
LINE
  5
13B
330
1F
100
AcDbEntity
  8
0
  6
Continuous
 62
     7
370
     5
100
AcDbLine
 10
-8.488700358862015
 20
9.577355660421323
 30
0.0
 11
-8.488067352994217
 21
9.577973493553983
 31
0.0
  0
LINE
  5
13C
330
1F
100
AcDbEntity
  8
0
  6
Continuous
 62
     7
370
     5
100
AcDbLine
 10
-8.508722523376533
 20
9.484551291161514
 30
0.0
 11
-8.488700358862015
 21
9.577355660421323
 31
0.0
  0
LINE
  5
13D
330
1F
100
AcDbEntity
  8
0
  6
Continuous
 62
     7
370
     5
100
AcDbLine
 10
-8.528793354324008
 20
9.538223667742823
 30
0.0
 11
-8.508722523376533
 21
9.484551291161514
 31
0.0
  0
LINE
  5
13E
330
1F
100
AcDbEntity
  8
0
  6
Continuous
 62
     7
370
     5
100
AcDbLine
 10
-8.529416640594785
 20
9.53761532123482
 30
0.0
 11
-8.528793354324008
 21
9.538223667742823
 31
0.0
  0
LINE
  5
13F
330
1F
100
AcDbEntity
  8
0
  6
Continuous
 62
     7
370
     5
100
AcDbLine
 10
-8.535834244093784
 20
9.442063342997899
 30
0.0
 11
-8.529416640594785
 21
9.53761532123482
 31
0.0
  0
LINE
  5
140
330
1F
100
AcDbEntity
  8
0
  6
Continuous
 62
     7
370
     5
100
AcDbLine
 10
-8.531442218303014
 20
9.446350094813466
 30
0.0
 11
-8.535834244093784
 21
9.442063342997899
 31
0.0
  0
LINE
  5
141
330
1F
100
AcDbEntity
  8
0
  6
Continuous
 62
     7
370
     5
100
AcDbLine
 10
-8.541755189874709
 20
9.323837896470838
 30
0.0
 11
-8.541755189874709
 21
9.253723712703836
 31
0.0
  0
LINE
  5
142
330
1F
100
AcDbEntity
  8
0
  6
Continuous
 62
     7
370
     5
100
AcDbLine
 10
-8.509715838812677
 20
9.284995101552093
 30
0.0
 11
-8.541755189874709
 21
9.323837896470838
 31
0.0
  0
LINE
  5
143
330
1F
100
AcDbEntity
  8
0
  6
Continuous
 62
     7
370
     5
100
AcDbLine
 10
-8.508722523376533
 20
9.285964607869262
 30
0.0
 11
-8.509715838812677
 21
9.284995101552093
 31
0.0
  0
LINE
  5
144
330
1F
100
AcDbEntity
  8
0
  6
Continuous
 62
     7
370
     5
100
AcDbLine
 10
-8.508722523376533
 20
9.37525293406685
 30
0.0
 11
-8.508722523376533
 21
9.285964607869262
 31
0.0
  0
LINE
  5
145
330
1F
100
AcDbEntity
  8
0
  6
Continuous
 62
     7
370
     5
100
AcDbLine
 10
-8.513085321928381
 20
9.370994708932474
 30
0.0
 11
-8.508722523376533
 21
9.37525293406685
 31
0.0
  0
LINE
  5
146
330
1F
100
AcDbEntity
  8
0
  6
Continuous
 62
     7
370
     5
100
AcDbLine
 10
-8.513085321928381
 20
9.300719482433397
 30
0.0
 11
-8.513085321928381
 21
9.370994708932474
 31
0.0
  0
LINE
  5
147
330
1F
100
AcDbEntity
  8
0
  6
Continuous
 62
     7
370
     5
100
AcDbLine
 10
-8.545202566662293
 20
9.33964729347252
 30
0.0
 11
-8.513085321928381
 21
9.300719482433397
 31
0.0
  0
LINE
  5
148
330
1F
100
AcDbEntity
  8
0
  6
Continuous
 62
     7
370
     5
100
AcDbLine
 10
-8.546117988426557
 20
9.338753813767048
 30
0.0
 11
-8.545202566662293
 21
9.33964729347252
 31
0.0
  0
LINE
  5
149
330
1F
100
AcDbEntity
  8
0
  6
Continuous
 62
     7
370
     5
100
AcDbLine
 10
-8.546117988426557
 20
9.249465487569461
 30
0.0
 11
-8.546117988426557
 21
9.338753813767048
 31
0.0
  0
LINE
  5
14A
330
1F
100
AcDbEntity
  8
0
  6
Continuous
 62
     7
370
     5
100
AcDbLine
 10
-8.541755189874709
 20
9.253723712703836
 30
0.0
 11
-8.546117988426557
 21
9.249465487569461
 31
0.0
  0
LINE
  5
14B
330
1F
100
AcDbEntity
  8
0
  6
Continuous
 62
     7
370
     5
100
AcDbLine
 10
-8.455745654483584
 20
9.337671655989771
 30
0.0
 11
-8.460108453035431
 21
9.333413430855397
 31
0.0
  0
LINE
  5
14C
330
1F
100
AcDbEntity
  8
0
  6
Continuous
 62
     7
370
     5
100
AcDbLine
 10
-8.455745654483584
 20
9.37888162368487
 30
0.0
 11
-8.455745654483584
 21
9.337671655989771
 31
0.0
  0
LINE
  5
14D
330
1F
100
AcDbEntity
  8
0
  6
Continuous
 62
     7
370
     5
100
AcDbLine
 10
-8.452200876382217
 20
9.382341435782
 30
0.0
 11
-8.455745654483584
 21
9.37888162368487
 31
0.0
  0
LINE
  5
14E
330
1F
100
AcDbEntity
  8
0
  6
Continuous
 62
     7
370
     5
100
AcDbLine
 10
-8.434340637725654
 20
9.358563608546635
 30
0.0
 11
-8.452200876382217
 21
9.382341435782
 31
0.0
  0
LINE
  5
14F
330
1F
100
AcDbEntity
  8
0
  6
Continuous
 62
     7
370
     5
100
AcDbLine
 10
-8.428945576901723
 20
9.363829353304028
 30
0.0
 11
-8.434340637725654
 21
9.358563608546635
 31
0.0
  0
LINE
  5
150
330
1F
100
AcDbEntity
  8
0
  6
Continuous
 62
     7
370
     5
100
AcDbLine
 10
-8.446805747110417
 20
9.387607247346609
 30
0.0
 11
-8.428945576901723
 21
9.363829353304028
 31
0.0
  0
SPLINE
  5
151
330
1F
100
AcDbEntity
  8
0
  6
Continuous
 62
     7
370
     5
100
AcDbSpline
210
0.0
220
0.0
230
1.0
 70
     8
 71
     3
 72
    11
 73
     7
 74
     0
 42
0.0000000001
 43
0.0000000001
 40
0.0
 40
0.0
 40
0.0
 40
0.0
 40
0.1871194473216325
 40
0.3739780681303479
 40
0.5609127983921887
 40
0.9999999999999998
 40
0.9999999999999998
 40
0.9999999999999998
 40
0.9999999999999998
 10
-8.429568794724632
 20
9.428631200423451
 30
0.0
 10
-8.429696245253268
 20
9.425682956138713
 30
0.0
 10
-8.429950968656754
 20
9.419790577138213
 30
0.0
 10
-8.432354676887895
 20
9.409943841689971
 30
0.0
 10
-8.437833572282404
 20
9.397093580873475
 30
0.0
 10
-8.443107002058155
 20
9.391517952372891
 30
0.0
 10
-8.446805747110417
 20
9.387607247346609
 30
0.0
  0
SPLINE
  5
152
330
1F
100
AcDbEntity
  8
0
  6
Continuous
 62
     7
370
     5
100
AcDbSpline
210
0.0
220
0.0
230
1.0
 70
     8
 71
     3
 72
    11
 73
     7
 74
     0
 42
0.0000000001
 43
0.0000000001
 40
0.0
 40
0.0
 40
0.0
 40
0.0
 40
0.2797977417705304
 40
0.5594975648966083
 40
0.7796245225097721
 40
1.0
 40
1.0
 40
1.0
 40
1.0
 10
-8.439365669384219
 20
9.441731043447173
 30
0.0
 10
-8.437840492723157
 20
9.442290470500868
 30
0.0
 10
-8.434790673155276
 20
9.443409128829909
 30
0.0
 10
-8.431581315042434
 20
9.440524759406333
 30
0.0
 10
-8.429810112827954
 20
9.435324987649973
 30
0.0
 10
-8.429649264341232
 20
9.430863301887505
 30
0.0
 10
-8.429568794724632
 20
9.428631200423451
 30
0.0
  0
SPLINE
  5
153
330
1F
100
AcDbEntity
  8
0
  6
Continuous
 62
     7
370
     5
100
AcDbSpline
210
0.0
220
0.0
230
1.0
 70
     8
 71
     3
 72
     9
 73
     5
 74
     0
 42
0.0000000001
 43
0.0000000001
 40
0.0
 40
0.0
 40
0.0
 40
0.0
 40
0.5602417419969722
 40
1.0
 40
1.0
 40
1.0
 40
1.0
 10
-8.450379752450707
 20
9.432197267070778
 30
0.0
 10
-8.448314372857893
 20
9.434225363358924
 30
0.0
 10
-8.444627786447071
 20
9.437845401167809
 30
0.0
 10
-8.44097292492181
 20
9.44054421692925
 30
0.0
 10
-8.439365669384219
 20
9.441731043447173
 30
0.0
  0
LINE
  5
154
330
1F
100
AcDbEntity
  8
0
  6
Continuous
 62
     7
370
     5
100
AcDbLine
 10
-8.460108453035431
 20
9.422701757052983
 30
0.0
 11
-8.450379752450707
 21
9.432197267070778
 31
0.0
  0
LINE
  5
155
330
1F
100
AcDbEntity
  8
0
  6
Continuous
 62
     7
370
     5
100
AcDbLine
 10
-8.460108453035431
 20
9.333413430855397
 30
0.0
 11
-8.460108453035431
 21
9.422701757052983
 31
0.0
  0
SPLINE
  5
156
330
1F
100
AcDbEntity
  8
0
  6
Continuous
 62
     7
370
     5
100
AcDbSpline
210
0.0
220
0.0
230
1.0
 70
     8
 71
     3
 72
    11
 73
     7
 74
     0
 42
0.0000000001
 43
0.0000000001
 40
0.0
 40
0.0
 40
0.0
 40
0.0
 40
0.4994068681951159
 40
0.7487431818622114
 40
0.8743722885424615
 40
1.0
 40
1.0
 40
1.0
 40
1.0
 10
-8.472573562420194
 20
9.183295018757529
 30
0.0
 10
-8.472845205459206
 20
9.172313728339185
 30
0.0
 10
-8.473252470329429
 20
9.155849865199897
 30
0.0
 10
-8.479861378109109
 20
9.134596503733364
 30
0.0
 10
-8.485063620836955
 20
9.12484449194029
 30
0.0
 10
-8.487923127153051
 20
9.121628210944519
 30
0.0
 10
-8.489352872371716
 20
9.120020079376596
 30
0.0
  0
SPLINE
  5
157
330
1F
100
AcDbEntity
  8
0
  6
Continuous
 62
     7
370
     5
100
AcDbSpline
210
0.0
220
0.0
230
1.0
 70
     8
 71
     3
 72
    11
 73
     7
 74
     0
 42
0.0000000001
 43
0.0000000001
 40
0.0
 40
0.0
 40
0.0
 40
0.0
 40
0.1256001269727872
 40
0.2511979809648308
 40
0.5005824912872567
 40
1.0
 40
1.0
 40
1.0
 40
1.0
 10
-8.489352872371716
 20
9.213887248968166
 30
0.0
 10
-8.487921983823772
 20
9.215073453247413
 30
0.0
 10
-8.485060232622622
 20
9.217445840339214
 30
0.0
 10
-8.479844270565722
 20
9.217876843341169
 30
0.0
 10
-8.473273388860681
 20
9.209394071855921
 30
0.0
 10
-8.472853565712615
 20
9.193737351847508
 30
0.0
 10
-8.472573562420194
 20
9.183295018757529
 30
0.0
  0
SPLINE
  5
158
330
1F
100
AcDbEntity
  8
0
  6
Continuous
 62
     7
370
     5
100
AcDbSpline
210
0.0
220
0.0
230
1.0
 70
     8
 71
     3
 72
    12
 73
     8
 74
     0
 42
0.0000000001
 43
0.0000000001
 40
0.0
 40
0.0
 40
0.0
 40
0.0
 40
0.4987027495083649
 40
0.6241762242933929
 40
0.7494672709206589
 40
0.8747449414933706
 40
1.0
 40
1.0
 40
1.0
 40
1.0
 10
-8.505606228918374
 20
9.151054123592105
 30
0.0
 10
-8.505418110279277
 20
9.161899210604094
 30
0.0
 10
-8.505182661042262
 20
9.175472918529203
 30
0.0
 10
-8.500652343293513
 20
9.193306538100213
 30
0.0
 10
-8.497496469012411
 20
9.201714964627001
 30
0.0
 10
-8.493615838029244
 20
9.20908934617611
 30
0.0
 10
-8.490773775419883
 20
9.212288044271312
 30
0.0
 10
-8.489352872371716
 20
9.213887248968166
 30
0.0
  0
SPLINE
  5
159
330
1F
100
AcDbEntity
  8
0
  6
Continuous
 62
     7
370
     5
100
AcDbSpline
210
0.0
220
0.0
230
1.0
 70
     8
 71
     3
 72
    11
 73
     7
 74
     0
 42
0.0000000001
 43
0.0000000001
 40
0.0
 40
0.0
 40
0.0
 40
0.0
 40
0.1255494131197967
 40
0.2510898867869271
 40
0.5002495871371821
 40
0.9999999999999998
 40
0.9999999999999998
 40
0.9999999999999998
 40
0.9999999999999998
 10
-8.489352872371716
 20
9.120020079376596
 30
0.0
 10
-8.49077165425845
 20
9.118847433112046
 30
0.0
 10
-8.493609117010869
 20
9.116502224078484
 30
0.0
 10
-8.49877146598555
 20
9.116138126056899
 30
0.0
 10
-8.505157141871737
 20
9.124907505324772
 30
0.0
 10
-8.505426491165575
 20
9.140589483282598
 30
0.0
 10
-8.505606228918374
 20
9.151054123592105
 30
0.0
  0
LINE
  5
15A
330
1F
100
AcDbEntity
  8
0
  6
Continuous
 62
     7
370
     5
100
AcDbLine
 10
-8.921614354830646
 20
9.488036614805343
 30
0.0
 11
-8.875625332448397
 21
9.475537783947396
 31
0.0
  0
LINE
  5
15B
330
1F
100
AcDbEntity
  8
0
  6
Continuous
 62
     7
370
     5
100
AcDbLine
 10
-8.921614354830646
 20
9.217707845843154
 30
0.0
 11
-8.875625332448397
 21
9.205209014985209
 31
0.0
  0
LINE
  5
15C
330
1F
100
AcDbEntity
  8
0
  6
Continuous
 62
     7
370
     5
100
AcDbLine
 10
-8.921614354830646
 20
9.217707845843154
 30
0.0
 11
-8.921614354830646
 21
9.488036614805343
 31
0.0
  0
LINE
  5
15D
330
1F
100
AcDbEntity
  8
0
  6
Continuous
 62
     7
370
     5
100
AcDbLine
 10
-8.921614354830646
 20
9.488036614805343
 30
0.0
 11
-8.297502192097477
 21
10.09718921867573
 31
0.0
  0
LINE
  5
15E
330
1F
100
AcDbEntity
  8
0
  6
Continuous
 62
     7
370
     5
100
AcDbLine
 10
-8.297502192097477
 20
10.09718921867573
 30
0.0
 11
-8.251513169715229
 21
10.08469038781779
 31
0.0
  0
LINE
  5
15F
330
1F
100
AcDbEntity
  8
0
  6
Continuous
 62
     7
370
     5
100
AcDbLine
 10
-8.852090902569017
 20
9.118686248201886
 30
0.0
 11
-8.898079924951268
 21
9.131185079059832
 31
0.0
  0
ARC
  5
160
330
1F
100
AcDbEntity
  8
0
  6
Continuous
 62
     7
370
     5
100
AcDbCircle
 10
-8.795695959885875
 20
9.205495896506297
 30
0.0
 40
0.1265091850107072
100
AcDbArc
 50
174.4606048186632
 51
215.9723412550629
  0
ARC
  5
161
330
1F
100
AcDbEntity
  8
0
  6
Continuous
 62
     7
370
     5
100
AcDbCircle
 10
-8.967473003835952
 20
9.395689406246544
 30
0.0
 40
0.1717792557318696
100
AcDbArc
 50
325.6444105554478
 51
3.946558589395259
  0
LINE
  5
162
330
1F
100
AcDbEntity
  8
0
  6
Continuous
 62
     7
370
     5
100
AcDbLine
 10
-8.669798487692352
 20
8.90572037232072
 30
0.0
 11
-8.623809465310102
 21
8.893221541462775
 31
0.0
  0
LINE
  5
163
330
1F
100
AcDbEntity
  8
0
  6
Continuous
 62
     7
370
     5
100
AcDbLine
 10
-8.898079924951268
 20
9.131185079059832
 30
0.0
 11
-8.669798487692352
 21
8.90572037232072
 31
0.0
  0
ARC
  5
164
330
1F
100
AcDbEntity
  8
0
  6
Continuous
 62
     7
370
     5
100
AcDbCircle
 10
-7.34162783787815
 20
8.124714643142702
 30
0.0
 40
0.1194925976047234
100
AcDbArc
 50
128.7665579574182
 51
182.0158606045165
  0
LINE
  5
165
330
1F
100
AcDbEntity
  8
0
  6
Continuous
 62
     7
370
     5
100
AcDbLine
 10
-7.461046484842958
 20
7.423454251007909
 30
0.0
 11
-7.461046484842958
 21
8.120511354023593
 31
0.0
  0
ARC
  5
166
330
1F
100
AcDbEntity
  8
0
  6
Continuous
 62
     7
370
     5
100
AcDbCircle
 10
-7.235209405101271
 20
7.436433550467952
 30
0.0
 40
0.2262097451497764
100
AcDbArc
 50
183.2892823652808
 51
245.2131083619162
  0
LINE
  5
167
330
1F
100
AcDbEntity
  8
0
  6
Continuous
 62
     7
370
     5
100
AcDbLine
 10
-7.177422954460912
 20
7.158142356619115
 30
0.0
 11
-7.330046570913287
 21
7.231063735788503
 31
0.0
  0
LWPOLYLINE
  5
168
330
1F
100
AcDbEntity
  8
0
  6
Continuous
 62
     7
370
     5
100
AcDbPolyline
 90
       11
 70
   128
 43
0.0
 10
-7.034863003766536
 20
6.62118590173324
 10
-6.992126149716475
 20
6.657642761791172
 10
-6.961136119380642
 20
6.705117752448368
 10
-6.943364378839138
 20
6.761361061703332
 10
-6.9396514693648
 20
6.823705504396481
 10
-6.950175876264948
 20
6.889196349488734
 10
-6.97443742559698
 20
6.954728238615355
 10
-7.011286339916075
 20
7.017194828077442
 10
-7.058975123538952
 20
7.073634326660362
 10
-7.115243654376424
 20
7.121371360927803
 10
-7.177422954460912
 20
7.158142356619115
  0
LINE
  5
169
330
1F
100
AcDbEntity
  8
0
  6
Continuous
 62
     7
370
     5
100
AcDbLine
 10
-7.408453506089919
 20
6.385075918516922
 30
0.0
 11
-7.034863003766536
 21
6.62118590173324
 31
0.0
  0
ARC
  5
16A
330
1F
100
AcDbEntity
  8
0
  6
Continuous
 62
     7
370
     5
100
AcDbCircle
 10
-7.343138663365284
 20
6.286801072586591
 30
0.0
 40
0.1179998899269591
100
AcDbArc
 50
123.6085703874208
 51
182.2634999292821
  0
LINE
  5
16B
330
1F
100
AcDbEntity
  8
0
  6
Continuous
 62
     7
370
     5
100
AcDbLine
 10
-7.461046484842958
 20
6.032987793288861
 30
0.0
 11
-7.461046484842958
 21
6.28214063728896
 31
0.0
  0
LINE
  5
16C
330
1F
100
AcDbEntity
  8
0
  6
Continuous
 62
     7
370
     5
100
AcDbLine
 10
-7.461046484842958
 20
6.032987793288861
 30
0.0
 11
-8.182289008433119
 21
6.229006056842793
 31
0.0
  0
LINE
  5
16D
330
1F
100
AcDbEntity
  8
0
  6
Continuous
 62
     7
370
     5
100
AcDbLine
 10
-8.182289008433119
 20
7.514757086644759
 30
0.0
 11
-8.182289008433119
 21
6.229006056842793
 31
0.0
  0
ARC
  5
16E
330
1F
100
AcDbEntity
  8
0
  6
Continuous
 62
     7
370
     5
100
AcDbCircle
 10
-8.253475604442016
 20
7.51197453443003
 30
0.0
 40
0.0712409576589305
100
AcDbArc
 50
2.238446356731631
 51
46.26388249960986
  0
LINE
  5
16F
330
1F
100
AcDbEntity
  8
0
  6
Continuous
 62
     7
370
     5
100
AcDbLine
 10
-8.204224022538358
 20
10.09222042449737
 30
0.0
 11
-8.204224022538358
 21
7.56344836980441
 31
0.0
  0
LINE
  5
170
330
1F
100
AcDbEntity
  8
0
  6
Continuous
 62
     7
370
     5
100
AcDbLine
 10
-8.204224022538358
 20
10.09222042449737
 30
0.0
 11
-7.461046484842958
 21
9.89024069412013
 31
0.0
  0
LINE
  5
171
330
1F
100
AcDbEntity
  8
0
  6
Continuous
 62
     7
370
     5
100
AcDbLine
 10
-7.461046484842958
 20
9.619911925157941
 30
0.0
 11
-7.461046484842958
 21
9.89024069412013
 31
0.0
  0
ARC
  5
172
330
1F
100
AcDbEntity
  8
0
  6
Continuous
 62
     7
370
     5
100
AcDbCircle
 10
-7.256684484073794
 20
9.625871285693635
 30
0.0
 40
0.2044488721817026
100
AcDbArc
 50
181.670317730974
 51
218.6078493714374
  0
LINE
  5
173
330
1F
100
AcDbEntity
  8
0
  6
Continuous
 62
     7
370
     5
100
AcDbLine
 10
-6.983839035389461
 20
8.932449686093553
 30
0.0
 11
-7.416447987529354
 21
9.498297917391409
 31
0.0
  0
ARC
  5
174
330
1F
100
AcDbEntity
  8
0
  6
Continuous
 62
     7
370
     5
100
AcDbCircle
 10
-7.143601724299716
 20
8.804876610342629
 30
0.0
 40
0.2044480531195781
100
AcDbArc
 50
1.670277649807523
 51
38.60792774383481
  0
LINE
  5
175
330
1F
100
AcDbEntity
  8
0
  6
Continuous
 62
     7
370
     5
100
AcDbLine
 10
-6.939240538075859
 20
8.81083580404344
 30
0.0
 11
-6.939240538075859
 21
8.645956081158391
 31
0.0
  0
ARC
  5
176
330
1F
100
AcDbEntity
  8
0
  6
Continuous
 62
     7
370
     5
100
AcDbCircle
 10
-7.058659082053352
 20
8.641752786218422
 30
0.0
 40
0.1194924948859001
100
AcDbArc
 50
308.7665341765863
 51
2.015865130905123
  0
LINE
  5
177
330
1F
100
AcDbEntity
  8
0
  6
Continuous
 62
     7
370
     5
100
AcDbLine
 10
-7.416447987529354
 20
8.217883447409452
 30
0.0
 11
-6.983839035389461
 21
8.54858403098755
 31
0.0
  0
LWPOLYLINE
  5
178
330
1F
100
AcDbEntity
  8
0
  6
Continuous
 62
     7
370
     5
100
AcDbPolyline
 90
        9
 70
   128
 43
0.0
 10
-7.850190113829666
 20
7.410785004726736
 10
-7.834284167372805
 20
7.409528772757228
 10
-7.820798149617499
 20
7.414596704544488
 10
-7.811786717008459
 20
7.425217571984146
 10
-7.808623791329927
 20
7.439775063822247
 10
-7.811786717008459
 20
7.456051786512598
 10
-7.820798149617499
 20
7.471570882535243
 10
-7.834284167372805
 20
7.483969235633479
 10
-7.850190113829666
 20
7.491358731653299
  0
LINE
  5
179
330
1F
100
AcDbEntity
  8
0
  6
Continuous
 62
     7
370
     5
100
AcDbLine
 10
-7.850190113829666
 20
7.491358731653299
 30
0.0
 11
-8.042993678534235
 21
7.543758609259342
 31
0.0
  0
LWPOLYLINE
  5
17A
330
1F
100
AcDbEntity
  8
0
  6
Continuous
 62
     7
370
     5
100
AcDbPolyline
 90
        9
 70
   128
 43
0.0
 10
-8.042993678534235
 20
7.463184882332777
 10
-8.058901700401646
 20
7.470575005262925
 10
-8.072385642746402
 20
7.482972794309044
 10
-8.081397075355443
 20
7.498491890331687
 10
-8.084562076444521
 20
7.514769177074155
 10
-8.081397075355443
 20
7.52932610486014
 10
-8.072385642746402
 20
7.539946972299797
 10
-8.058901700401646
 20
7.545015468139175
 10
-8.042993678534235
 20
7.543758609259342
  0
LINE
  5
17B
330
1F
100
AcDbEntity
  8
0
  6
Continuous
 62
     7
370
     5
100
AcDbLine
 10
-8.042993678534235
 20
7.463184882332777
 30
0.0
 11
-7.850190113829666
 21
7.410785004726736
 31
0.0
  0
LWPOLYLINE
  5
17C
330
1F
100
AcDbEntity
  8
0
  6
Continuous
 62
     7
370
     5
100
AcDbPolyline
 90
       17
 70
   128
 43
0.0
 10
-7.812160290907498
 20
6.839604736198346
 10
-7.806639698843921
 20
6.865002391033198
 10
-7.790918463926031
 20
6.883532643097925
 10
-7.767391609928776
 20
6.89237500107184
 10
-7.739639220051279
 20
6.89018286121913
 10
-7.711884754763233
 20
6.877289427205882
 10
-7.688357900765979
 20
6.855658879638063
 10
-7.672636665848089
 20
6.828583238002603
 10
-7.667116073784513
 20
6.800184825905946
 10
-7.672636665848089
 20
6.774787296787513
 10
-7.688357900765979
 20
6.756257044722785
 10
-7.711884754763233
 20
6.747414686748872
 10
-7.739639220051279
 20
6.749607390653697
 10
-7.767391609928776
 20
6.762500260614831
 10
-7.790918463926031
 20
6.784130808182649
 10
-7.806639698843921
 20
6.811206449818108
 10
-7.812160290907498
 20
6.839604736198346
  0
LWPOLYLINE
  5
17D
330
1F
100
AcDbEntity
  8
0
  6
Continuous
 62
     7
370
     5
100
AcDbPolyline
 90
       17
 70
   128
 43
0.0
 10
-7.287699894046669
 20
8.878815611331125
 10
-7.282179301983093
 20
8.904213203307769
 10
-7.266460142475754
 20
8.922744019424614
 10
-7.242931213067947
 20
8.931585813346408
 10
-7.215178823190453
 20
8.9293936734937
 10
-7.187424357902406
 20
8.916500239480452
 10
-7.163897503905151
 20
8.894869691912631
 10
-7.14817626898726
 20
8.867794050277172
 10
-7.142655676923684
 20
8.839395701038727
 10
-7.14817626898726
 20
8.813998109062083
 10
-7.163897503905151
 20
8.795467856997357
 10
-7.187424357902406
 20
8.786625499023442
 10
-7.215178823190453
 20
8.788818202928267
 10
-7.242931213067947
 20
8.8017110728894
 10
-7.266460142475754
 20
8.823342184509336
 10
-7.282179301983093
 20
8.85041726209268
 10
-7.287699894046669
 20
8.878815611331125
  0
LWPOLYLINE
  5
17E
330
1F
100
AcDbEntity
  8
0
  6
Continuous
 62
     7
370
     5
100
AcDbPolyline
 90
       17
 70
   128
 43
0.0
 10
-7.287699894046669
 20
6.843043257479878
 10
-7.282179301983093
 20
6.868440786598314
 10
-7.266460142475754
 20
6.886971728431577
 10
-7.242931213067947
 20
6.895813522353372
 10
-7.215178823190453
 20
6.893621256784245
 10
-7.187424357902406
 20
6.880727948487415
 10
-7.163897503905151
 20
6.859097400919596
 10
-7.14817626898726
 20
6.832021633567716
 10
-7.142655676923684
 20
6.803623347187481
 10
-7.14817626898726
 20
6.778225818069045
 10
-7.163897503905151
 20
6.75969556600432
 10
-7.187424357902406
 20
6.750853208030405
 10
-7.215178823190453
 20
6.753045911935229
 10
-7.242931213067947
 20
6.765938781896363
 10
-7.266460142475754
 20
6.787569893516298
 10
-7.282179301983093
 20
6.814644971099642
 10
-7.287699894046669
 20
6.843043257479878
  0
LWPOLYLINE
  5
17F
330
1F
100
AcDbEntity
  8
0
  6
Continuous
 62
     7
370
     5
100
AcDbPolyline
 90
       17
 70
   128
 43
0.0
 10
-7.757325868760225
 20
6.327802113925951
 10
-7.751805276696649
 20
6.353199643044386
 10
-7.73608611718931
 20
6.371730459161231
 10
-7.712557187781503
 20
6.380572253083027
 10
-7.684804797904008
 20
6.378380113230319
 10
-7.657050332615962
 20
6.365486679217069
 10
-7.633523478618707
 20
6.34385613164925
 10
-7.617802243700815
 20
6.31678049001379
 10
-7.612281651637239
 20
6.288382203633553
 10
-7.617802243700815
 20
6.2629845487987
 10
-7.633523478618707
 20
6.244454296733974
 10
-7.657050332615962
 20
6.235611938760059
 10
-7.684804797904008
 20
6.237804642664886
 10
-7.712557187781503
 20
6.250697512626017
 10
-7.73608611718931
 20
6.272328624245953
 10
-7.751805276696649
 20
6.299403701829296
 10
-7.757325868760225
 20
6.327802113925951
  0
LWPOLYLINE
  5
180
330
1F
100
AcDbEntity
  8
0
  6
Continuous
 62
     7
370
     5
100
AcDbPolyline
 90
       17
 70
   128
 43
0.0
 10
-7.757325868760225
 20
8.042136678897602
 10
-7.751805276696649
 20
8.067534239445141
 10
-7.73608611718931
 20
8.086065086991089
 10
-7.712557187781503
 20
8.09490689662744
 10
-7.684804797904008
 20
8.092714725345626
 10
-7.657050332615962
 20
8.079821322761482
 10
-7.633523478618707
 20
8.05819075947911
 10
-7.617802243700815
 20
8.031115086414544
 10
-7.612281651637239
 20
8.002716768605203
 10
-7.617802243700815
 20
7.977319192343112
 10
-7.633523478618707
 20
7.95878890884928
 10
-7.657050332615962
 20
7.949946550875368
 10
-7.684804797904008
 20
7.952139286209296
 10
-7.712557187781503
 20
7.965032124741325
 10
-7.73608611718931
 20
7.986663236361259
 10
-7.751805276696649
 20
8.013738345373708
 10
-7.757325868760225
 20
8.042136678897602
  0
LWPOLYLINE
  5
181
330
1F
100
AcDbEntity
  8
0
  6
Continuous
 62
     7
370
     5
100
AcDbPolyline
 90
       17
 70
   128
 43
0.0
 10
-7.757325868760225
 20
9.756471275298356
 10
-7.751805276696649
 20
9.78186880441679
 10
-7.73608611718931
 20
9.800399746250052
 10
-7.712557187781503
 20
9.80924154017185
 10
-7.684804797904008
 20
9.807049274602723
 10
-7.657050332615962
 20
9.794155966305893
 10
-7.633523478618707
 20
9.772525418738073
 10
-7.617802243700815
 20
9.745449651386195
 10
-7.612281651637239
 20
9.717051365005957
 10
-7.617802243700815
 20
9.691653835887523
 10
-7.633523478618707
 20
9.673123458106378
 10
-7.657050332615962
 20
9.664281100132464
 10
-7.684804797904008
 20
9.666473929753708
 10
-7.712557187781503
 20
9.679366673998423
 10
-7.73608611718931
 20
9.700997785618358
 10
-7.751805276696649
 20
9.728072988918119
 10
-7.757325868760225
 20
9.756471275298356
  0
LINE
  5
182
330
1F
100
AcDbEntity
  8
0
  6
Continuous
 62
     7
370
     5
100
AcDbLine
 10
-8.529370588296401
 20
9.639950781950684
 30
0.0
 11
-8.533032480697055
 21
9.635000570790433
 31
0.0
  0
LINE
  5
183
330
1F
100
AcDbEntity
  8
0
  6
Continuous
 62
     7
370
     5
100
AcDbLine
 10
-8.533032480697055
 20
9.635000570790433
 30
0.0
 11
-8.538188795363238
 21
9.631269140249822
 31
0.0
  0
LINE
  5
184
330
1F
100
AcDbEntity
  8
0
  6
Continuous
 62
     7
370
     5
100
AcDbLine
 10
-8.541131618028641
 20
9.66068746618399
 30
0.0
 11
-8.536769105052085
 21
9.659501828634308
 31
0.0
  0
LINE
  5
185
330
1F
100
AcDbEntity
  8
0
  6
Continuous
 62
     7
370
     5
100
AcDbLine
 10
-8.5410551822503
 20
9.6490331279134
 30
0.0
 11
-8.536574370872383
 21
9.647815339393055
 31
0.0
  0
LINE
  5
186
330
1F
100
AcDbEntity
  8
0
  6
Continuous
 62
     7
370
     5
100
AcDbLine
 10
-8.533032480697055
 20
9.635000570790433
 30
0.0
 11
-8.525073281236974
 21
9.632837430922197
 31
0.0
  0
LINE
  5
187
330
1F
100
AcDbEntity
  8
0
  6
Continuous
 62
     7
370
     5
100
AcDbLine
 10
-8.514331540446777
 20
9.686415841929127
 30
0.0
 11
-8.509969027470221
 21
9.685230204379447
 31
0.0
  0
LINE
  5
188
330
1F
100
AcDbEntity
  8
0
  6
Continuous
 62
     7
370
     5
100
AcDbLine
 10
-8.484470156942899
 20
9.765398627033583
 30
0.0
 11
-8.482402552244744
 21
9.763170097704401
 31
0.0
  0
LINE
  5
189
330
1F
100
AcDbEntity
  8
0
  6
Continuous
 62
     7
370
     5
100
AcDbLine
 10
-8.482402552244744
 20
9.763170097704401
 30
0.0
 11
-8.485206519088849
 21
9.756529593878248
 31
0.0
  0
SPLINE
  5
18A
330
1F
100
AcDbEntity
  8
0
  6
Continuous
 62
     7
370
     5
100
AcDbSpline
210
0.0
220
0.0
230
1.0
 70
     8
 71
     3
 72
     9
 73
     5
 74
     0
 42
0.0000000001
 43
0.0000000001
 40
0.0
 40
0.0
 40
0.0
 40
0.0
 40
0.5599077956384287
 40
1.0
 40
1.0
 40
1.0
 40
1.0
 10
-8.499766133183236
 20
9.729338115386077
 30
0.0
 10
-8.498566921743998
 20
9.72879883730579
 30
0.0
 10
-8.496425120096334
 20
9.727835682149731
 30
0.0
 10
-8.494207601724776
 20
9.727134923518985
 30
0.0
 10
-8.493231689176417
 20
9.726826525108451
 30
0.0
  0
SPLINE
  5
18B
330
1F
100
AcDbEntity
  8
0
  6
Continuous
 62
     7
370
     5
100
AcDbSpline
210
0.0
220
0.0
230
1.0
 70
     8
 71
     3
 72
    10
 73
     6
 74
     0
 42
0.0000000001
 43
0.0000000001
 40
0.0
 40
0.0
 40
0.0
 40
0.0
 40
0.5601167907982939
 40
0.7802851181241904
 40
1.0
 40
1.0
 40
1.0
 40
1.0
 10
-8.493231689176417
 20
9.726826525108451
 30
0.0
 10
-8.49018460920683
 20
9.725655431810066
 30
0.0
 10
-8.485939795994552
 20
9.724024010135735
 30
0.0
 10
-8.482325585012098
 20
9.716804694477854
 30
0.0
 10
-8.481961292777286
 20
9.711726181621498
 30
0.0
 10
-8.481779334421833
 20
9.709189542738727
 30
0.0
  0
LINE
  5
18C
330
1F
100
AcDbEntity
  8
0
  6
Continuous
 62
     7
370
     5
100
AcDbLine
 10
-8.491922897524368
 20
9.676185327945828
 30
0.0
 11
-8.495666242885953
 21
9.671471164409044
 31
0.0
  0
LINE
  5
18D
330
1F
100
AcDbEntity
  8
0
  6
Continuous
 62
     7
370
     5
100
AcDbLine
 10
-8.495666242885953
 20
9.671471164409044
 30
0.0
 11
-8.499136960395954
 21
9.669248274620343
 31
0.0
  0
LINE
  5
18E
330
1F
100
AcDbEntity
  8
0
  6
Continuous
 62
     7
370
     5
100
AcDbLine
 10
-8.498754882082801
 20
9.73660203194967
 30
0.0
 11
-8.495010841450211
 21
9.735584481930818
 31
0.0
  0
LINE
  5
18F
330
1F
100
AcDbEntity
  8
0
  6
Continuous
 62
     7
370
     5
100
AcDbLine
 10
-8.493064638555425
 20
9.75525472648392
 30
0.0
 11
-8.487882338411536
 21
9.75384628834807
 31
0.0
  0
LINE
  5
190
330
1F
100
AcDbEntity
  8
0
  6
Continuous
 62
     7
370
     5
100
AcDbLine
 10
-8.499766133183236
 20
9.729338115386077
 30
0.0
 11
-8.491806933723156
 21
9.727174975517842
 31
0.0
  0
LINE
  5
191
330
1F
100
AcDbEntity
  8
0
  6
Continuous
 62
     7
370
     5
100
AcDbLine
 10
-8.482402552244744
 20
9.763170097704401
 30
0.0
 11
-8.474443352784662
 21
9.761006957836166
 31
0.0
  0
LINE
  5
192
330
1F
100
AcDbEntity
  8
0
  6
Continuous
 62
     7
370
     5
100
AcDbLine
 10
-7.436778362284416
 20
9.913927125710957
 30
0.0
 11
-7.461046484842958
 21
9.89024069412013
 31
0.0
  0
LINE
  5
193
330
1F
100
AcDbEntity
  8
0
  6
Continuous
 62
     7
370
     5
100
AcDbLine
 10
-7.461046484842958
 20
9.619911925157941
 30
0.0
 11
-7.436778362284416
 21
9.643598356748769
 31
0.0
  0
LINE
  5
194
330
1F
100
AcDbEntity
  8
0
  6
Continuous
 62
     7
370
     5
100
AcDbLine
 10
-7.436778362284416
 20
9.643598356748769
 30
0.0
 11
-7.436778362284416
 21
9.913927125710957
 31
0.0
  0
LINE
  5
195
330
1F
100
AcDbEntity
  8
0
  6
Continuous
 62
     7
370
     5
100
AcDbLine
 10
-8.179955899979816
 20
10.11590685608819
 30
0.0
 11
-8.204224022538358
 21
10.09222042449737
 31
0.0
  0
LINE
  5
196
330
1F
100
AcDbEntity
  8
0
  6
Continuous
 62
     7
370
     5
100
AcDbLine
 10
-8.179955899979816
 20
10.11590685608819
 30
0.0
 11
-7.436778362284416
 21
9.913927125710957
 31
0.0
  0
LINE
  5
197
330
1F
100
AcDbEntity
  8
0
  6
Continuous
 62
     7
370
     5
100
AcDbLine
 10
-8.493231689176417
 20
9.726826525108451
 30
0.0
 11
-8.485272489716333
 21
9.724663385240218
 31
0.0
  0
LINE
  5
198
330
1F
100
AcDbEntity
  8
0
  6
Continuous
 62
     7
370
     5
100
AcDbLine
 10
-6.983839035389461
 20
8.932449686093553
 30
0.0
 11
-6.959570912830918
 21
8.956136117684382
 31
0.0
  0
LINE
  5
199
330
1F
100
AcDbEntity
  8
0
  6
Continuous
 62
     7
370
     5
100
AcDbLine
 10
-7.392179864970811
 20
9.521984348982238
 30
0.0
 11
-7.416447987529354
 21
9.498297917391409
 31
0.0
  0
LINE
  5
19A
330
1F
100
AcDbEntity
  8
0
  6
Continuous
 62
     7
370
     5
100
AcDbLine
 10
-6.959570912830918
 20
8.956136117684382
 30
0.0
 11
-7.392179864970811
 21
9.521984348982238
 31
0.0
  0
LINE
  5
19B
330
1F
100
AcDbEntity
  8
0
  6
Continuous
 62
     7
370
     5
100
AcDbLine
 10
-8.495666242885953
 20
9.671471164409044
 30
0.0
 11
-8.487707043425871
 21
9.669308024540809
 31
0.0
  0
LINE
  5
19C
330
1F
100
AcDbEntity
  8
0
  6
Continuous
 62
     7
370
     5
100
AcDbLine
 10
-8.479255635192769
 20
9.708503655364602
 30
0.0
 11
-8.473820134961753
 21
9.707026402870493
 31
0.0
  0
LINE
  5
19D
330
1F
100
AcDbEntity
  8
0
  6
Continuous
 62
     7
370
     5
100
AcDbLine
 10
-8.530375334526222
 20
9.52333301419747
 30
0.0
 11
-8.527425710622573
 21
9.515445332040625
 31
0.0
  0
LINE
  5
19E
330
1F
100
AcDbEntity
  8
0
  6
Continuous
 62
     7
370
     5
100
AcDbLine
 10
-8.493925682093109
 20
9.55313332869
 30
0.0
 11
-8.493780298825029
 21
9.551265147401453
 31
0.0
  0
LINE
  5
19F
330
1F
100
AcDbEntity
  8
0
  6
Continuous
 62
     7
370
     5
100
AcDbLine
 10
-8.5130248271302
 20
9.485720544504856
 30
0.0
 11
-8.514028204402695
 21
9.481067783778881
 31
0.0
  0
SPLINE
  5
1A0
330
1F
100
AcDbEntity
  8
0
  6
Continuous
 62
     7
370
     5
100
AcDbSpline
210
0.0
220
0.0
230
1.0
 70
     8
 71
     3
 72
     9
 73
     5
 74
     0
 42
0.0000000001
 43
0.0000000001
 40
0.0
 40
0.0
 40
0.0
 40
0.0
 40
0.5965675869639721
 40
1.0
 40
1.0
 40
1.0
 40
1.0
 10
-8.443720677994962
 20
9.802581483782631
 30
0.0
 10
-8.443154533511323
 20
9.801152892838025
 30
0.0
 10
-8.442205530420968
 20
9.79875820868853
 30
0.0
 10
-8.442083444453128
 20
9.795154793932878
 30
0.0
 10
-8.442034191016517
 20
9.793701059622833
 30
0.0
  0
LINE
  5
1A1
330
1F
100
AcDbEntity
  8
0
  6
Continuous
 62
     7
370
     5
100
AcDbLine
 10
-8.460200665427029
 20
9.74970509809688
 30
0.0
 11
-8.46396776219823
 21
9.745909242714198
 31
0.0
  0
SPLINE
  5
1A2
330
1F
100
AcDbEntity
  8
0
  6
Continuous
 62
     7
370
     5
100
AcDbSpline
210
0.0
220
0.0
230
1.0
 70
     8
 71
     3
 72
     9
 73
     5
 74
     0
 42
0.0000000001
 43
0.0000000001
 40
0.0
 40
0.0
 40
0.0
 40
0.0
 40
0.1348192722340127
 40
1.0
 40
1.0
 40
1.0
 40
1.0
 10
-8.449660652282727
 20
9.795609695430812
 30
0.0
 10
-8.449887417610744
 20
9.795708633680451
 30
0.0
 10
-8.451569412508561
 20
9.796442492037634
 30
0.0
 10
-8.453812914824563
 20
9.794099389624504
 30
0.0
 10
-8.455753949791064
 20
9.792072182573482
 30
0.0
  0
LINE
  5
1A3
330
1F
100
AcDbEntity
  8
0
  6
Continuous
 62
     7
370
     5
100
AcDbLine
 10
-8.516075702955951
 20
9.48654972781162
 30
0.0
 11
-8.508722523376533
 21
9.484551291161514
 31
0.0
  0
SPLINE
  5
1A4
330
1F
100
AcDbEntity
  8
0
  6
Continuous
 62
     7
370
     5
100
AcDbSpline
210
0.0
220
0.0
230
1.0
 70
     8
 71
     3
 72
    11
 73
     7
 74
     0
 42
0.0000000001
 43
0.0000000001
 40
0.0
 40
0.0
 40
0.0
 40
0.0
 40
0.248970858139897
 40
0.3747284986414663
 40
0.5003836352968641
 40
1.0
 40
1.0
 40
1.0
 40
1.0
 10
-8.438294391828328
 20
9.785128474010688
 30
0.0
 10
-8.43851485726412
 20
9.787475331060917
 30
0.0
 10
-8.438846681969932
 20
9.79100760879627
 30
0.0
 10
-8.440637326410735
 20
9.793284759656808
 30
0.0
 10
-8.444070349905706
 20
9.794456083235679
 30
0.0
 10
-8.447696532595115
 20
9.790840458843277
 30
0.0
 10
-8.450593994272312
 20
9.787951433657994
 30
0.0
  0
SPLINE
  5
1A5
330
1F
100
AcDbEntity
  8
0
  6
Continuous
 62
     7
370
     5
100
AcDbSpline
210
0.0
220
0.0
230
1.0
 70
     8
 71
     3
 72
    11
 73
     7
 74
     0
 42
0.0000000001
 43
0.0000000001
 40
0.0
 40
0.0
 40
0.0
 40
0.0
 40
0.4997188879070162
 40
0.6253481466458318
 40
0.7510822038744404
 40
1.0
 40
1.0
 40
1.0
 40
1.0
 10
-8.450973811482562
 20
9.757621240728305
 30
0.0
 10
-8.448011813112705
 20
9.760493401109828
 30
0.0
 10
-8.444305168765687
 20
9.764087622210771
 30
0.0
 10
-8.440716384984373
 20
9.772057469404103
 30
0.0
 10
-8.438845811320845
 20
9.777984874464239
 30
0.0
 10
-8.438514508578611
 20
9.782276877469726
 30
0.0
 10
-8.438294391828327
 20
9.785128474010686
 30
0.0
  0
LINE
  5
1A6
330
1F
100
AcDbEntity
  8
0
  6
Continuous
 62
     7
370
     5
100
AcDbLine
 10
-8.459485166764652
 20
9.749510643240254
 30
0.0
 11
-8.450973811482564
 21
9.757621240728305
 31
0.0
  0
LINE
  5
1A7
330
1F
100
AcDbEntity
  8
0
  6
Continuous
 62
     7
370
     5
100
AcDbLine
 10
-8.459485166764652
 20
9.779273376733975
 30
0.0
 11
-8.459485166764652
 21
9.749510643240254
 31
0.0
  0
LINE
  5
1A8
330
1F
100
AcDbEntity
  8
0
  6
Continuous
 62
     7
370
     5
100
AcDbLine
 10
-8.450593994272312
 20
9.787951433657994
 30
0.0
 11
-8.459485166764652
 21
9.779273376733975
 31
0.0
  0
LINE
  5
1A9
330
1F
100
AcDbEntity
  8
0
  6
Continuous
 62
     7
370
     5
100
AcDbLine
 10
-8.46384767974121
 20
9.750696280789936
 30
0.0
 11
-8.459485166764652
 21
9.749510643240254
 31
0.0
  0
LINE
  5
1AA
330
1F
100
AcDbEntity
  8
0
  6
Continuous
 62
     7
370
     5
100
AcDbLine
 10
-8.46384767974121
 20
9.780459014283657
 30
0.0
 11
-8.459485166764652
 21
9.779273376733975
 31
0.0
  0
LINE
  5
1AB
330
1F
100
AcDbEntity
  8
0
  6
Continuous
 62
     7
370
     5
100
AcDbLine
 10
-8.457932645977878
 20
9.789945921943282
 30
0.0
 11
-8.450593994272312
 21
9.787951433657994
 31
0.0
  0
LINE
  5
1AC
330
1F
100
AcDbEntity
  8
0
  6
Continuous
 62
     7
370
     5
100
AcDbLine
 10
-8.535472665591536
 20
9.447445484024447
 30
0.0
 11
-8.531442218303014
 21
9.446350094813466
 31
0.0
  0
LINE
  5
1AD
330
1F
100
AcDbEntity
  8
0
  6
Continuous
 62
     7
370
     5
100
AcDbLine
 10
-8.530844054427623
 20
9.516374434814881
 30
0.0
 11
-8.526797003854699
 21
9.515274533186966
 31
0.0
  0
LINE
  5
1AE
330
1F
100
AcDbEntity
  8
0
  6
Continuous
 62
     7
370
     5
100
AcDbLine
 10
-8.439317283654293
 20
9.790886243567635
 30
0.0
 11
-8.433931593276479
 21
9.789422528324331
 31
0.0
  0
LINE
  5
1AF
330
1F
100
AcDbEntity
  8
0
  6
Continuous
 62
     7
370
     5
100
AcDbLine
 10
-8.46384767974121
 20
9.700328500590455
 30
0.0
 11
-8.459485166764652
 21
9.699142863040773
 31
0.0
  0
LINE
  5
1B0
330
1F
100
AcDbEntity
  8
0
  6
Continuous
 62
     7
370
     5
100
AcDbLine
 10
-8.46384767974121
 20
9.741538468285552
 30
0.0
 11
-8.459485166764652
 21
9.74035283073587
 31
0.0
  0
LINE
  5
1B1
330
1F
100
AcDbEntity
  8
0
  6
Continuous
 62
     7
370
     5
100
AcDbLine
 10
-8.463847388386316
 20
9.745876527691418
 30
0.0
 11
-8.45600856273815
 21
9.743746102845964
 31
0.0
  0
LINE
  5
1B2
330
1F
100
AcDbEntity
  8
0
  6
Continuous
 62
     7
370
     5
100
AcDbLine
 10
-8.451590266082364
 20
9.759456666110986
 30
0.0
 11
-8.443631066622282
 21
9.757293526242753
 31
0.0
  0
LINE
  5
1B3
330
1F
100
AcDbEntity
  8
0
  6
Continuous
 62
     7
370
     5
100
AcDbLine
 10
-8.898079924951268
 20
7.850770609077874
 30
0.0
 11
-8.852090902569017
 21
7.838271778219929
 31
0.0
  0
LINE
  5
1B4
330
1F
100
AcDbEntity
  8
0
  6
Continuous
 62
     7
370
     5
100
AcDbLine
 10
-8.623809465310102
 20
8.509355886356772
 30
0.0
 11
-8.669798487692352
 21
8.521854717214717
 31
0.0
  0
LINE
  5
1B5
330
1F
100
AcDbEntity
  8
0
  6
Continuous
 62
     7
370
     5
100
AcDbLine
 10
-8.669798487692352
 20
8.521854717214717
 30
0.0
 11
-8.898079924951268
 21
7.850770609077874
 31
0.0
  0
LINE
  5
1B6
330
1F
100
AcDbEntity
  8
0
  6
Continuous
 62
     7
370
     5
100
AcDbLine
 10
-8.509690934015692
 20
9.469444610930086
 30
0.0
 11
-8.508196638419539
 21
9.469038493405932
 31
0.0
  0
LINE
  5
1B7
330
1F
100
AcDbEntity
  8
0
  6
Continuous
 62
     7
370
     5
100
AcDbLine
 10
-8.494298690056195
 20
9.551406129667336
 30
0.0
 11
-8.490648042898364
 21
9.550413961993744
 31
0.0
  0
LINE
  5
1B8
330
1F
100
AcDbEntity
  8
0
  6
Continuous
 62
     7
370
     5
100
AcDbLine
 10
-8.486427830546332
 20
9.496296249097694
 30
0.0
 11
-8.481610802659279
 21
9.494987084134416
 31
0.0
  0
LINE
  5
1B9
330
1F
100
AcDbEntity
  8
0
  6
Continuous
 62
     7
370
     5
100
AcDbLine
 10
-8.521044521388461
 20
9.30288262230163
 30
0.0
 11
-8.513085321928381
 21
9.300719482433397
 31
0.0
  0
LINE
  5
1BA
330
1F
100
AcDbEntity
  8
0
  6
Continuous
 62
     7
370
     5
100
AcDbLine
 10
-8.546117453959281
 20
9.333272310760797
 30
0.0
 11
-8.521044521388461
 21
9.30288262230163
 31
0.0
  0
LINE
  5
1BB
330
1F
100
AcDbEntity
  8
0
  6
Continuous
 62
     7
370
     5
100
AcDbLine
 10
-8.516681722836612
 20
9.301696949366444
 30
0.0
 11
-8.516681722836612
 21
9.293440775015419
 31
0.0
  0
SPLINE
  5
1BC
330
1F
100
AcDbEntity
  8
0
  6
Continuous
 62
     7
370
     5
100
AcDbSpline
210
0.0
220
0.0
230
1.0
 70
     8
 71
     3
 72
     9
 73
     5
 74
     0
 42
0.0000000001
 43
0.0000000001
 40
0.0
 40
0.0
 40
0.0
 40
0.0
 40
0.4951027710932518
 40
1.0
 40
1.0
 40
1.0
 40
1.0
 10
-8.451511414140355
 20
9.612417006488191
 30
0.0
 10
-8.450961951874022
 20
9.610964029978354
 30
0.0
 10
-8.449852157507244
 20
9.608029333194837
 30
0.0
 10
-8.44973877526292
 20
9.603638157580851
 30
0.0
 10
-8.449681528881955
 20
9.601421065181709
 30
0.0
  0
LINE
  5
1BD
330
1F
100
AcDbEntity
  8
0
  6
Continuous
 62
     7
370
     5
100
AcDbLine
 10
-8.467991401572422
 20
9.559540495086023
 30
0.0
 11
-8.471758498343625
 21
9.555744765419758
 31
0.0
  0
SPLINE
  5
1BE
330
1F
100
AcDbEntity
  8
0
  6
Continuous
 62
     7
370
     5
100
AcDbSpline
210
0.0
220
0.0
230
1.0
 70
     8
 71
     3
 72
     9
 73
     5
 74
     0
 42
0.0000000001
 43
0.0000000001
 40
0.0
 40
0.0
 40
0.0
 40
0.0
 40
0.1348192722340127
 40
1.0
 40
1.0
 40
1.0
 40
1.0
 10
-8.45745138842812
 20
9.605445218136374
 30
0.0
 10
-8.457678153756138
 20
9.605544156386011
 30
0.0
 10
-8.459360148653955
 20
9.606278014743196
 30
0.0
 10
-8.461603650969957
 20
9.603934912330068
 30
0.0
 10
-8.463544685936458
 20
9.601907705279044
 30
0.0
  0
LINE
  5
1BF
330
1F
100
AcDbEntity
  8
0
  6
Continuous
 62
     7
370
     5
100
AcDbLine
 10
-8.546117702851267
 20
9.254909350253518
 30
0.0
 11
-8.541755189874709
 21
9.253723712703836
 31
0.0
  0
LINE
  5
1C0
330
1F
100
AcDbEntity
  8
0
  6
Continuous
 62
     7
370
     5
100
AcDbLine
 10
-8.546117702851267
 20
9.32502353402052
 30
0.0
 11
-8.541755189874709
 21
9.323837896470838
 31
0.0
  0
ARC
  5
1C1
330
1F
100
AcDbEntity
  8
0
  6
Continuous
 62
     7
370
     5
100
AcDbCircle
 10
-7.232416361515259
 20
9.64955771728446
 30
0.0
 40
0.2044488721816954
100
AcDbArc
 50
181.6703177309731
 51
218.607849371438
  0
LINE
  5
1C2
330
1F
100
AcDbEntity
  8
0
  6
Continuous
 62
     7
370
     5
100
AcDbLine
 10
-8.471638415886603
 20
9.560531677779078
 30
0.0
 11
-8.467275902910047
 21
9.559346040229396
 31
0.0
  0
LINE
  5
1C3
330
1F
100
AcDbEntity
  8
0
  6
Continuous
 62
     7
370
     5
100
AcDbLine
 10
-8.471638415886603
 20
9.5902944112728
 30
0.0
 11
-8.467275902910047
 21
9.589108773723118
 31
0.0
  0
LINE
  5
1C4
330
1F
100
AcDbEntity
  8
0
  6
Continuous
 62
     7
370
     5
100
AcDbLine
 10
-8.467275902910047
 20
9.589108773723118
 30
0.0
 11
-8.467275902910047
 21
9.559346040229396
 31
0.0
  0
LINE
  5
1C5
330
1F
100
AcDbEntity
  8
0
  6
Continuous
 62
     7
370
     5
100
AcDbLine
 10
-8.465723382123274
 20
9.599781318932423
 30
0.0
 11
-8.458384730417705
 21
9.597786830647136
 31
0.0
  0
LINE
  5
1C6
330
1F
100
AcDbEntity
  8
0
  6
Continuous
 62
     7
370
     5
100
AcDbLine
 10
-8.458384730417705
 20
9.597786830647136
 30
0.0
 11
-8.467275902910047
 21
9.589108773723118
 31
0.0
  0
SPLINE
  5
1C7
330
1F
100
AcDbEntity
  8
0
  6
Continuous
 62
     7
370
     5
100
AcDbSpline
210
0.0
220
0.0
230
1.0
 70
     8
 71
     3
 72
    11
 73
     7
 74
     0
 42
0.0000000001
 43
0.0000000001
 40
0.0
 40
0.0
 40
0.0
 40
0.0
 40
0.2489710110474976
 40
0.3747287287842067
 40
0.5003839426117909
 40
0.9999999999999998
 40
0.9999999999999998
 40
0.9999999999999998
 40
0.9999999999999998
 10
-8.446085127973724
 20
9.594963996716248
 30
0.0
 10
-8.446305593392741
 20
9.597310853974542
 30
0.0
 10
-8.446637418073295
 20
9.600843132023047
 30
0.0
 10
-8.448428062632629
 20
9.603120281413598
 30
0.0
 10
-8.4518610825844
 20
9.604291613159421
 30
0.0
 10
-8.455487267598639
 20
9.600675914478303
 30
0.0
 10
-8.458384730417705
 20
9.597786830647136
 30
0.0
  0
SPLINE
  5
1C8
330
1F
100
AcDbEntity
  8
0
  6
Continuous
 62
     7
370
     5
100
AcDbSpline
210
0.0
220
0.0
230
1.0
 70
     8
 71
     3
 72
    11
 73
     7
 74
     0
 42
0.0000000001
 43
0.0000000001
 40
0.0
 40
0.0
 40
0.0
 40
0.0
 40
0.4997188030008247
 40
0.6253511955516789
 40
0.7510825442210273
 40
1.0
 40
1.0
 40
1.0
 40
1.0
 10
-8.458764547627959
 20
9.567456637717448
 30
0.0
 10
-8.455802574070986
 20
9.570328887611067
 30
0.0
 10
-8.452095942073297
 20
9.573923238862432
 30
0.0
 10
-8.448507057694985
 20
9.581892975363283
 30
0.0
 10
-8.446636575106291
 20
9.587820447118151
 30
0.0
 10
-8.446305256652884
 20
9.592112408513671
 30
0.0
 10
-8.446085127973724
 20
9.594963996716248
 30
0.0
  0
LINE
  5
1C9
330
1F
100
AcDbEntity
  8
0
  6
Continuous
 62
     7
370
     5
100
AcDbLine
 10
-8.467275902910047
 20
9.559346040229396
 30
0.0
 11
-8.458764547627959
 21
9.567456637717448
 31
0.0
  0
LINE
  5
1CA
330
1F
100
AcDbEntity
  8
0
  6
Continuous
 62
     7
370
     5
100
AcDbLine
 10
-7.733057746201683
 20
9.780157706889182
 30
0.0
 11
-7.727773750940832
 21
9.805061357050878
 31
0.0
  0
ARC
  5
1CB
330
1F
100
AcDbEntity
  8
0
  6
Continuous
 62
     7
370
     5
100
AcDbCircle
 10
-7.642218423488327
 20
9.779580600272714
 30
0.0
 40
0.090841155888
100
AcDbArc
 50
179.6360020350498
 51
285.7454677645076
  0
LINE
  5
1CC
330
1F
100
AcDbEntity
  8
0
  6
Continuous
 62
     7
370
     5
100
AcDbLine
 10
-8.447108019799687
 20
9.600721640556777
 30
0.0
 11
-8.441722329421875
 21
9.599257925313473
 31
0.0
  0
LINE
  5
1CD
330
1F
100
AcDbEntity
  8
0
  6
Continuous
 62
     7
370
     5
100
AcDbLine
 10
-8.471638415886603
 20
9.510164023296015
 30
0.0
 11
-8.467275902910047
 21
9.508978385746333
 31
0.0
  0
LINE
  5
1CE
330
1F
100
AcDbEntity
  8
0
  6
Continuous
 62
     7
370
     5
100
AcDbLine
 10
-8.471638415886603
 20
9.551373990991113
 30
0.0
 11
-8.467275902910047
 21
9.550188353441431
 31
0.0
  0
LINE
  5
1CF
330
1F
100
AcDbEntity
  8
0
  6
Continuous
 62
     7
370
     5
100
AcDbLine
 10
-8.471638124531711
 20
9.555712050396978
 30
0.0
 11
-8.463799298883543
 21
9.553581625551524
 31
0.0
  0
LINE
  5
1D0
330
1F
100
AcDbEntity
  8
0
  6
Continuous
 62
     7
370
     5
100
AcDbLine
 10
-8.459381002227758
 20
9.569292188816547
 30
0.0
 11
-8.451421802767676
 21
9.567129048948315
 31
0.0
  0
LINE
  5
1D1
330
1F
100
AcDbEntity
  8
0
  6
Continuous
 62
     7
370
     5
100
AcDbLine
 10
-8.511032455318924
 20
9.286592397875349
 30
0.0
 11
-8.508722523376533
 21
9.285964607869262
 31
0.0
  0
LINE
  5
1D2
330
1F
100
AcDbEntity
  8
0
  6
Continuous
 62
     7
370
     5
100
AcDbLine
 10
-8.492514697776636
 20
9.355215020178944
 30
0.0
 11
-8.496256811076625
 21
9.351562602878367
 31
0.0
  0
LINE
  5
1D3
330
1F
100
AcDbEntity
  8
0
  6
Continuous
 62
     7
370
     5
100
AcDbLine
 10
-8.492514697776636
 20
9.311715505070436
 30
0.0
 11
-8.496256811076625
 21
9.308063087769859
 31
0.0
  0
LINE
  5
1D4
330
1F
100
AcDbEntity
  8
0
  6
Continuous
 62
     7
370
     5
100
AcDbLine
 10
-8.496257059968611
 20
9.383705379948862
 30
0.0
 11
-8.491894546992053
 21
9.382519742399182
 31
0.0
  0
LINE
  5
1D5
330
1F
100
AcDbEntity
  8
0
  6
Continuous
 62
     7
370
     5
100
AcDbLine
 10
-8.476172701844694
 20
9.407021982565137
 30
0.0
 11
-8.468834050139127
 21
9.405027494279849
 31
0.0
  0
LINE
  5
1D6
330
1F
100
AcDbEntity
  8
0
  6
Continuous
 62
     7
370
     5
100
AcDbLine
 10
-8.496257059968611
 20
9.356232068152131
 30
0.0
 11
-8.491894546992053
 21
9.355046430602449
 31
0.0
  0
LINE
  5
1D7
330
1F
100
AcDbEntity
  8
0
  6
Continuous
 62
     7
370
     5
100
AcDbLine
 10
-8.600275035430723
 20
8.806698900395872
 30
0.0
 11
-8.646264057812972
 21
8.819197731253817
 31
0.0
  0
ARC
  5
1D8
330
1F
100
AcDbEntity
  8
0
  6
Continuous
 62
     7
370
     5
100
AcDbCircle
 10
-8.772179710047785
 20
8.831410318643703
 30
0.0
 40
0.126506516703583
100
AcDbArc
 50
354.4601972798154
 51
35.97279096256038
  0
LINE
  5
1D9
330
1F
100
AcDbEntity
  8
0
  6
Continuous
 62
     7
370
     5
100
AcDbLine
 10
-8.496257059968611
 20
9.347074381364166
 30
0.0
 11
-8.491894546992053
 21
9.345888743814484
 31
0.0
  0
LINE
  5
1DA
330
1F
100
AcDbEntity
  8
0
  6
Continuous
 62
     7
370
     5
100
AcDbLine
 10
-8.476172701844694
 20
9.37039098398044
 30
0.0
 11
-8.468834050139127
 21
9.368396495695153
 31
0.0
  0
LINE
  5
1DB
330
1F
100
AcDbEntity
  8
0
  6
Continuous
 62
     7
370
     5
100
AcDbLine
 10
-8.496257059968611
 20
9.312732678760042
 30
0.0
 11
-8.491894546992053
 21
9.31154704121036
 31
0.0
  0
SPLINE
  5
1DC
330
1F
100
AcDbEntity
  8
0
  6
Continuous
 62
     7
370
     5
100
AcDbSpline
210
0.0
220
0.0
230
1.0
 70
     8
 71
     3
 72
     9
 73
     5
 74
     0
 42
0.0000000001
 43
0.0000000001
 40
0.0
 40
0.0
 40
0.0
 40
0.0
 40
0.6896305801832611
 40
0.9999999999999998
 40
0.9999999999999998
 40
0.9999999999999998
 40
0.9999999999999998
 10
-8.521474784676195
 20
9.147647491430113
 30
0.0
 10
-8.52057327079596
 20
9.146057273848329
 30
0.0
 10
-8.519266029055028
 20
9.143751376129346
 30
0.0
 10
-8.519066184560829
 20
9.139717555711253
 30
0.0
 10
-8.519004158941104
 20
9.138465581208443
 30
0.0
  0
LINE
  5
1DD
330
1F
100
AcDbEntity
  8
0
  6
Continuous
 62
     7
370
     5
100
AcDbLine
 10
-8.531701375040585
 20
9.089663599938122
 30
0.0
 11
-8.535506049690399
 21
9.084904725964317
 31
0.0
  0
LINE
  5
1DE
330
1F
100
AcDbEntity
  8
0
  6
Continuous
 62
     7
370
     5
100
AcDbLine
 10
-8.535506049690399
 20
9.084904725964317
 30
0.0
 11
-8.539362402479289
 21
9.082545122673062
 31
0.0
  0
LINE
  5
1DF
330
1F
100
AcDbEntity
  8
0
  6
Continuous
 62
     7
370
     5
100
AcDbLine
 10
-8.534639362806961
 20
9.137263067121836
 30
0.0
 11
-8.53580776788517
 21
9.135794673810567
 31
0.0
  0
LINE
  5
1E0
330
1F
100
AcDbEntity
  8
0
  6
Continuous
 62
     7
370
     5
100
AcDbLine
 10
-8.476172701844694
 20
9.326891468871933
 30
0.0
 11
-8.468834050139127
 21
9.324896980586645
 31
0.0
  0
LINE
  5
1E1
330
1F
100
AcDbEntity
  8
0
  6
Continuous
 62
     7
370
     5
100
AcDbLine
 10
-8.535508908070335
 20
9.138761320280995
 30
0.0
 11
-8.531617513288678
 21
9.137703722561845
 31
0.0
  0
LINE
  5
1E2
330
1F
100
AcDbEntity
  8
0
  6
Continuous
 62
     7
370
     5
100
AcDbLine
 10
-8.532887195919702
 20
9.164802308983404
 30
0.0
 11
-8.528997876548592
 21
9.163745275316371
 31
0.0
  0
LINE
  5
1E3
330
1F
100
AcDbEntity
  8
0
  6
Continuous
 62
     7
370
     5
100
AcDbLine
 10
-6.914972415517316
 20
8.834522235634267
 30
0.0
 11
-6.939240538075859
 21
8.81083580404344
 31
0.0
  0
ARC
  5
1E4
330
1F
100
AcDbEntity
  8
0
  6
Continuous
 62
     7
370
     5
100
AcDbCircle
 10
-7.119333601741192
 20
8.828563041933451
 30
0.0
 40
0.2044480531195969
100
AcDbArc
 50
1.670277649808863
 51
38.60792774383309
  0
LINE
  5
1E5
330
1F
100
AcDbEntity
  8
0
  6
Continuous
 62
     7
370
     5
100
AcDbLine
 10
-8.519800755811035
 20
9.181879184433689
 30
0.0
 11
-8.512462104105468
 21
9.179884696148402
 31
0.0
  0
SPLINE
  5
1E6
330
1F
100
AcDbEntity
  8
0
  6
Continuous
 62
     7
370
     5
100
AcDbSpline
210
0.0
220
0.0
230
1.0
 70
     8
 71
     3
 72
     9
 73
     5
 74
     0
 42
0.0000000001
 43
0.0000000001
 40
0.0
 40
0.0
 40
0.0
 40
0.0
 40
0.4853516903455763
 40
1.0
 40
1.0
 40
1.0
 40
1.0
 10
-8.439467806716436
 20
9.441651434388392
 30
0.0
 10
-8.43889595156839
 20
9.440281469718634
 30
0.0
 10
-8.437717723163249
 20
9.43745884707817
 30
0.0
 10
-8.437592460435707
 20
9.433058811278437
 30
0.0
 10
-8.437527994184714
 20
9.430794340291685
 30
0.0
  0
LINE
  5
1E7
330
1F
100
AcDbEntity
  8
0
  6
Continuous
 62
     7
370
     5
100
AcDbLine
 10
-8.454421269833668
 20
9.389312807078098
 30
0.0
 11
-8.436904776361803
 21
9.365992493172264
 31
0.0
  0
LINE
  5
1E8
330
1F
100
AcDbEntity
  8
0
  6
Continuous
 62
     7
370
     5
100
AcDbLine
 10
-8.436904776361803
 20
9.365992493172264
 30
0.0
 11
-8.43864465267598
 21
9.36429432055125
 31
0.0
  0
SPLINE
  5
1E9
330
1F
100
AcDbEntity
  8
0
  6
Continuous
 62
     7
370
     5
100
AcDbSpline
210
0.0
220
0.0
230
1.0
 70
     8
 71
     3
 72
     9
 73
     5
 74
     0
 42
0.0000000001
 43
0.0000000001
 40
0.0
 40
0.0
 40
0.0
 40
0.0
 40
0.1673103747839267
 40
0.9999999999999998
 40
0.9999999999999998
 40
0.9999999999999998
 40
0.9999999999999998
 10
-8.445316950685583
 20
9.43464610285331
 30
0.0
 10
-8.44561265445518
 20
9.434752476679888
 30
0.0
 10
-8.44738005094795
 20
9.435388264070336
 30
0.0
 10
-8.449669756831486
 20
9.433009467033631
 30
0.0
 10
-8.451576371165495
 20
9.431028667420672
 30
0.0
  0
LINE
  5
1EA
330
1F
100
AcDbEntity
  8
0
  6
Continuous
 62
     7
370
     5
100
AcDbLine
 10
-8.534639362806961
 20
9.137263067121836
 30
0.0
 11
-8.526680163346878
 21
9.1350999272536
 31
0.0
  0
LINE
  5
1EB
330
1F
100
AcDbEntity
  8
0
  6
Continuous
 62
     7
370
     5
100
AcDbLine
 10
-8.460108167460139
 20
9.389225073738934
 30
0.0
 11
-8.455745654483584
 21
9.388039436189252
 31
0.0
  0
LINE
  5
1EC
330
1F
100
AcDbEntity
  8
0
  6
Continuous
 62
     7
370
     5
100
AcDbLine
 10
-8.460108167460139
 20
9.418987807232657
 30
0.0
 11
-8.455745654483584
 21
9.417802169682975
 31
0.0
  0
LINE
  5
1ED
330
1F
100
AcDbEntity
  8
0
  6
Continuous
 62
     7
370
     5
100
AcDbLine
 10
-8.455745654483584
 20
9.417802169682975
 30
0.0
 11
-8.455745654483584
 21
9.388039436189252
 31
0.0
  0
LINE
  5
1EE
330
1F
100
AcDbEntity
  8
0
  6
Continuous
 62
     7
370
     5
100
AcDbLine
 10
-8.453969103830321
 20
9.428693374909929
 30
0.0
 11
-8.446630452124754
 21
9.426698886624642
 31
0.0
  0
LINE
  5
1EF
330
1F
100
AcDbEntity
  8
0
  6
Continuous
 62
     7
370
     5
100
AcDbLine
 10
-8.446630452124754
 20
9.426698886624642
 30
0.0
 11
-8.455745654483584
 21
9.417802169682975
 31
0.0
  0
SPLINE
  5
1F0
330
1F
100
AcDbEntity
  8
0
  6
Continuous
 62
     7
370
     5
100
AcDbSpline
210
0.0
220
0.0
230
1.0
 70
     8
 71
     3
 72
    12
 73
     8
 74
     0
 42
0.0000000001
 43
0.0000000001
 40
0.0
 40
0.0
 40
0.0
 40
0.0
 40
0.1253081949980822
 40
0.2506173511603968
 40
0.375955093463334
 40
0.5012810794455428
 40
1.0
 40
1.0
 40
1.0
 40
1.0
 10
-8.433931593276479
 20
9.4243908270205
 30
0.0
 10
-8.433984161539763
 20
9.425647260376004
 30
0.0
 10
-8.434089298469544
 20
9.428160136724361
 30
0.0
 10
-8.435056133165225
 20
9.430781742322961
 30
0.0
 10
-8.436423909503217
 20
9.432469375991109
 30
0.0
 10
-8.440028729289693
 20
9.433316704619089
 30
0.0
 10
-8.443698041936025
 20
9.42963844610009
 30
0.0
 10
-8.446630452124754
 20
9.426698886624642
 30
0.0
  0
SPLINE
  5
1F1
330
1F
100
AcDbEntity
  8
0
  6
Continuous
 62
     7
370
     5
100
AcDbSpline
210
0.0
220
0.0
230
1.0
 70
     8
 71
     3
 72
    11
 73
     7
 74
     0
 42
0.0000000001
 43
0.0000000001
 40
0.0
 40
0.0
 40
0.0
 40
0.0
 40
0.4998304367322623
 40
0.6254983970271476
 40
0.7512101117157782
 40
1.0
 40
1.0
 40
1.0
 40
1.0
 10
-8.446844762394222
 20
9.396601766185119
 30
0.0
 10
-8.443858725925238
 20
9.399533473454082
 30
0.0
 10
-8.440121936631195
 20
9.403202274036292
 30
0.0
 10
-8.436435766538545
 20
9.411159255740873
 30
0.0
 10
-8.434505551417901
 20
9.41714629487874
 30
0.0
 10
-8.434160691513637
 20
9.421499136106213
 30
0.0
 10
-8.433931593276479
 20
9.4243908270205
 30
0.0
  0
LINE
  5
1F2
330
1F
100
AcDbEntity
  8
0
  6
Continuous
 62
     7
370
     5
100
AcDbLine
 10
-8.455745654483584
 20
9.388039436189252
 30
0.0
 11
-8.446844762394226
 21
9.396601766185119
 31
0.0
  0
LINE
  5
1F3
330
1F
100
AcDbEntity
  8
0
  6
Continuous
 62
     7
370
     5
100
AcDbLine
 10
-8.535506049690399
 20
9.084904725964317
 30
0.0
 11
-8.527546850230317
 21
9.082741586096082
 31
0.0
  0
LINE
  5
1F4
330
1F
100
AcDbEntity
  8
0
  6
Continuous
 62
     7
370
     5
100
AcDbLine
 10
-8.515648013841326
 20
9.132125743895866
 30
0.0
 11
-8.510592313741
 21
9.130751712939146
 31
0.0
  0
LINE
  5
1F5
330
1F
100
AcDbEntity
  8
0
  6
Continuous
 62
     7
370
     5
100
AcDbLine
 10
-8.434942032639144
 20
9.430091531354054
 30
0.0
 11
-8.429568794724632
 21
9.428631200423451
 31
0.0
  0
LINE
  5
1F6
330
1F
100
AcDbEntity
  8
0
  6
Continuous
 62
     7
370
     5
100
AcDbLine
 10
-8.454125720121032
 20
9.389596659162846
 30
0.0
 11
-8.446805747110417
 21
9.387607247346609
 31
0.0
  0
LINE
  5
1F7
330
1F
100
AcDbEntity
  8
0
  6
Continuous
 62
     7
370
     5
100
AcDbLine
 10
-8.460108167460139
 20
9.380067261234552
 30
0.0
 11
-8.455745654483584
 21
9.37888162368487
 31
0.0
  0
LINE
  5
1F8
330
1F
100
AcDbEntity
  8
0
  6
Continuous
 62
     7
370
     5
100
AcDbLine
 10
-8.460108190578541
 20
9.384490474347312
 30
0.0
 11
-8.452200876382217
 21
9.382341435782
 31
0.0
  0
LINE
  5
1F9
330
1F
100
AcDbEntity
  8
0
  6
Continuous
 62
     7
370
     5
100
AcDbLine
 10
-8.460108167460139
 20
9.338857293539453
 30
0.0
 11
-8.455745654483584
 21
9.337671655989771
 31
0.0
  0
SPLINE
  5
1FA
330
1F
100
AcDbEntity
  8
0
  6
Continuous
 62
     7
370
     5
100
AcDbSpline
210
0.0
220
0.0
230
1.0
 70
     8
 71
     3
 72
     9
 73
     5
 74
     0
 42
0.0000000001
 43
0.0000000001
 40
0.0
 40
0.0
 40
0.0
 40
0.0
 40
0.5135074231346922
 40
1.0
 40
1.0
 40
1.0
 40
1.0
 10
-8.486285120566439
 20
9.216075717732005
 30
0.0
 10
-8.485260961466323
 20
9.215362975621337
 30
0.0
 10
-8.483266522722159
 20
9.213974987680837
 30
0.0
 10
-8.483078960622949
 20
9.209228804409532
 30
0.0
 10
-8.482987713053974
 20
9.206919821479599
 30
0.0
  0
LINE
  5
1FB
330
1F
100
AcDbEntity
  8
0
  6
Continuous
 62
     7
370
     5
100
AcDbLine
 10
-8.493266050005313
 20
9.127202547312766
 30
0.0
 11
-8.497312071831798
 21
9.122183219244831
 31
0.0
  0
SPLINE
  5
1FC
330
1F
100
AcDbEntity
  8
0
  6
Continuous
 62
     7
370
     5
100
AcDbSpline
210
0.0
220
0.0
230
1.0
 70
     8
 71
     3
 72
    11
 73
     7
 74
     0
 42
0.0000000001
 43
0.0000000001
 40
0.0
 40
0.0
 40
0.0
 40
0.0
 40
0.5000703935743858
 40
0.7490202249156974
 40
0.8745967811040722
 40
1.0
 40
1.0
 40
1.0
 40
1.0
 10
-8.476936360972043
 20
9.179072559944213
 30
0.0
 10
-8.477116395008836
 20
9.187187261282428
 30
0.0
 10
-8.477386055313598
 20
9.19934170093647
 30
0.0
 10
-8.481935868072723
 20
9.207174935260226
 30
0.0
 10
-8.485868578398459
 20
9.20748489980105
 30
0.0
 10
-8.488094575005398
 20
9.205742567532471
 30
0.0
 10
-8.489206804624974
 20
9.204872003062517
 30
0.0
  0
SPLINE
  5
1FD
330
1F
100
AcDbEntity
  8
0
  6
Continuous
 62
     7
370
     5
100
AcDbSpline
210
0.0
220
0.0
230
1.0
 70
     8
 71
     3
 72
     9
 73
     5
 74
     0
 42
0.0000000001
 43
0.0000000001
 40
0.0
 40
0.0
 40
0.0
 40
0.0
 40
0.5595989781844521
 40
1.0
 40
1.0
 40
1.0
 40
1.0
 10
-8.478776924097589
 20
9.154828818806405
 30
0.0
 10
-8.478157664826502
 20
9.159549249231652
 30
0.0
 10
-8.477051052242801
 20
9.167984629940464
 30
0.0
 10
-8.476971427701426
 20
9.175682437589735
 30
0.0
 10
-8.476936360972043
 20
9.179072559944213
 30
0.0
  0
SPLINE
  5
1FE
330
1F
100
AcDbEntity
  8
0
  6
Continuous
 62
     7
370
     5
100
AcDbSpline
210
0.0
220
0.0
230
1.0
 70
     8
 71
     3
 72
    10
 73
     6
 74
     0
 42
0.0000000001
 43
0.0000000001
 40
0.0
 40
0.0
 40
0.0
 40
0.0
 40
0.2802609941738539
 40
0.5607799207010763
 40
1.0
 40
1.0
 40
1.0
 40
1.0
 10
-8.489206804624974
 20
9.129320395621505
 30
0.0
 10
-8.487878999777899
 20
9.130922542047191
 30
0.0
 10
-8.485222168066295
 20
9.134128309400567
 30
0.0
 10
-8.481118406371974
 20
9.143229975446363
 30
0.0
 10
-8.479664294534932
 20
9.150433111515475
 30
0.0
 10
-8.478776924097589
 20
9.154828818806405
 30
0.0
  0
SPLINE
  5
1FF
330
1F
100
AcDbEntity
  8
0
  6
Continuous
 62
     7
370
     5
100
AcDbSpline
210
0.0
220
0.0
230
1.0
 70
     8
 71
     3
 72
    11
 73
     7
 74
     0
 42
0.0000000001
 43
0.0000000001
 40
0.0
 40
0.0
 40
0.0
 40
0.0
 40
0.5002908988561043
 40
0.7490873009769823
 40
0.8746065355299966
 40
1.0
 40
1.0
 40
1.0
 40
1.0
 10
-8.501243430366526
 20
9.155348115047539
 30
0.0
 10
-8.501207834465981
 20
9.147036145234244
 30
0.0
 10
-8.501154536600415
 20
9.134590603955199
 30
0.0
 10
-8.496485928529864
 20
9.12695901316156
 30
0.0
 10
-8.492543427534052
 20
9.126722948901386
 30
0.0
 10
-8.490318640536234
 20
9.1284548694234
 30
0.0
 10
-8.489206804624974
 20
9.129320395621505
 30
0.0
  0
SPLINE
  5
200
330
1F
100
AcDbEntity
  8
0
  6
Continuous
 62
     7
370
     5
100
AcDbSpline
210
0.0
220
0.0
230
1.0
 70
     8
 71
     3
 72
    12
 73
     8
 74
     0
 42
0.0000000001
 43
0.0000000001
 40
0.0
 40
0.0
 40
0.0
 40
0.0
 40
0.125138798689286
 40
0.2504174052004529
 40
0.3755183799563883
 40
0.5008471466707305
 40
1.0
 40
1.0
 40
1.0
 40
1.0
 10
-8.489206804624974
 20
9.204872003062517
 30
0.0
 10
-8.490321159069994
 20
9.203580118860434
 30
0.0
 10
-8.492551112941368
 20
9.20099490713479
 30
0.0
 10
-8.495507067198929
 20
9.194970055566248
 30
0.0
 10
-8.497866314277668
 20
9.188276941014885
 30
0.0
 10
-8.501082691662411
 20
9.174263420357869
 30
0.0
 10
-8.501172025310253
 20
9.163750873098299
 30
0.0
 10
-8.501243430366526
 20
9.155348115047539
 30
0.0
  0
LINE
  5
201
330
1F
100
AcDbEntity
  8
0
  6
Continuous
 62
     7
370
     5
100
AcDbLine
 10
-8.505153503843136
 20
9.15641078923574
 30
0.0
 11
-8.501243430366526
 21
9.155348115047539
 31
0.0
  0
LINE
  5
202
330
1F
100
AcDbEntity
  8
0
  6
Continuous
 62
     7
370
     5
100
AcDbLine
 10
-8.494773055720655
 20
9.206384790839988
 30
0.0
 11
-8.489206804624974
 21
9.204872003062517
 31
0.0
  0
LINE
  5
203
330
1F
100
AcDbEntity
  8
0
  6
Continuous
 62
     7
370
     5
100
AcDbLine
 10
-8.875625332448397
 20
7.705808443850858
 30
0.0
 11
-8.921614354830646
 21
7.718307274708805
 31
0.0
  0
ARC
  5
204
330
1F
100
AcDbEntity
  8
0
  6
Continuous
 62
     7
370
     5
100
AcDbCircle
 10
-8.497395297626928
 20
7.711259652899013
 30
0.0
 40
0.4242775948220521
100
AcDbArc
 50
160.802830420978
 51
179.0482232340661
  0
SPLINE
  5
205
330
1F
100
AcDbEntity
  8
0
  6
Continuous
 62
     7
370
     5
100
AcDbSpline
210
0.0
220
0.0
230
1.0
 70
     8
 71
     3
 72
    15
 73
    11
 74
     0
 42
0.0000000001
 43
0.0000000001
 40
0.0
 40
0.0
 40
0.0
 40
0.0
 40
0.1553814090369656
 40
0.2885425939944087
 40
0.4025919317711627
 40
0.5021873717148307
 40
0.5910651491364901
 40
0.7018975682042301
 40
0.8376708017496454
 40
0.9999999999999998
 40
0.9999999999999998
 40
0.9999999999999998
 40
0.9999999999999998
 10
-8.204224022538358
 20
7.56344836980441
 30
0.0
 10
-8.206500773123616
 20
7.565701775358105
 30
0.0
 10
-8.210728688958724
 20
7.569886339572155
 30
0.0
 10
-8.21787195207259
 20
7.574112141718052
 30
0.0
 10
-8.224604481090002
 20
7.576222001167523
 30
0.0
 10
-8.230757778257231
 20
7.576266135958542
 30
0.0
 10
-8.23646143593328
 20
7.574093740171487
 30
0.0
 10
-8.241930018781408
 20
7.570096461697162
 30
0.0
 10
-8.247433582088843
 20
7.563999493980819
 30
0.0
 10
-8.250074875416213
 20
7.558767417064945
 30
0.0
 10
-8.251513169715229
 20
7.555918333124832
 30
0.0
  0
ARC
  5
206
330
1F
100
AcDbEntity
  8
0
  6
Continuous
 62
     7
370
     5
100
AcDbCircle
 10
-8.220267979112113
 20
10.04072300963194
 30
0.0
 40
0.0539387827111647
100
AcDbArc
 50
72.69564106241246
 51
125.3993084444164
  0
ARC
  5
207
330
1F
100
AcDbEntity
  8
0
  6
Continuous
 62
     7
370
     5
100
AcDbCircle
 10
-8.219835755592276
 20
9.987898648629814
 30
0.0
 40
0.1340764858592994
100
AcDbArc
 50
72.69602651612652
 51
125.3991887650138
  0
LINE
  5
208
330
1F
100
AcDbEntity
  8
0
  6
Continuous
 62
     7
370
     5
100
AcDbLine
 10
-8.436904776361803
 20
9.365992493172264
 30
0.0
 11
-8.428945576901723
 21
9.363829353304028
 31
0.0
  0
LINE
  5
209
330
1F
100
AcDbEntity
  8
0
  6
Continuous
 62
     7
370
     5
100
AcDbLine
 10
-8.646264057812972
 20
8.654318008368768
 30
0.0
 11
-8.600275035430723
 21
8.641819177510821
 31
0.0
  0
LINE
  5
20A
330
1F
100
AcDbEntity
  8
0
  6
Continuous
 62
     7
370
     5
100
AcDbLine
 10
-8.646264057812972
 20
8.819197731253817
 30
0.0
 11
-8.646264057812972
 21
8.654318008368768
 31
0.0
  0
LINE
  5
20B
330
1F
100
AcDbEntity
  8
0
  6
Continuous
 62
     7
370
     5
100
AcDbLine
 10
-8.477483983782009
 20
9.184629566066069
 30
0.0
 11
-8.472573562420196
 21
9.183295018757531
 31
0.0
  0
LINE
  5
20C
330
1F
100
AcDbEntity
  8
0
  6
Continuous
 62
     7
370
     5
100
AcDbLine
 10
-8.497312071831798
 20
9.122183219244831
 30
0.0
 11
-8.489352872371716
 21
9.120020079376596
 31
0.0
  0
LINE
  5
20D
330
1F
100
AcDbEntity
  8
0
  6
Continuous
 62
     7
370
     5
100
AcDbLine
 10
-6.939240538075859
 20
8.645956081158391
 30
0.0
 11
-6.914972415517316
 21
8.669642512749218
 31
0.0
  0
LINE
  5
20E
330
1F
100
AcDbEntity
  8
0
  6
Continuous
 62
     7
370
     5
100
AcDbLine
 10
-6.914972415517316
 20
8.834522235634267
 30
0.0
 11
-6.914972415517316
 21
8.669642512749218
 31
0.0
  0
ARC
  5
20F
330
1F
100
AcDbEntity
  8
0
  6
Continuous
 62
     7
370
     5
100
AcDbCircle
 10
-8.705191075980318
 20
8.901664367730043
 30
0.0
 40
0.1717801549256234
100
AcDbArc
 50
325.6445147109275
 51
3.946454433913487
  0
SPLINE
  5
210
330
1F
100
AcDbEntity
  8
0
  6
Continuous
 62
     7
370
     5
100
AcDbSpline
210
0.0
220
0.0
230
1.0
 70
     8
 71
     3
 72
     9
 73
     5
 74
     0
 42
0.0000000001
 43
0.0000000001
 40
0.0
 40
0.0
 40
0.0
 40
0.0
 40
0.6896305801832611
 40
0.9999999999999998
 40
0.9999999999999998
 40
0.9999999999999998
 40
0.9999999999999998
 10
-8.446683854576143
 20
9.220645732029717
 30
0.0
 10
-8.44578234069591
 20
9.219055514447932
 30
0.0
 10
-8.444475098954978
 20
9.21674961672895
 30
0.0
 10
-8.444275254460778
 20
9.212715796310856
 30
0.0
 10
-8.444213228841054
 20
9.211463821808047
 30
0.0
  0
LINE
  5
211
330
1F
100
AcDbEntity
  8
0
  6
Continuous
 62
     7
370
     5
100
AcDbLine
 10
-8.456910444940533
 20
9.162661840537726
 30
0.0
 11
-8.460715119590346
 21
9.15790296656392
 31
0.0
  0
LINE
  5
212
330
1F
100
AcDbEntity
  8
0
  6
Continuous
 62
     7
370
     5
100
AcDbLine
 10
-8.460715119590346
 20
9.15790296656392
 30
0.0
 11
-8.464571472379237
 21
9.155543363272666
 31
0.0
  0
LINE
  5
213
330
1F
100
AcDbEntity
  8
0
  6
Continuous
 62
     7
370
     5
100
AcDbLine
 10
-8.459848432706907
 20
9.210261307721438
 30
0.0
 11
-8.46101683778512
 21
9.208792914410169
 31
0.0
  0
LINE
  5
214
330
1F
100
AcDbEntity
  8
0
  6
Continuous
 62
     7
370
     5
100
AcDbLine
 10
-8.921614354830646
 20
6.891449666781226
 30
0.0
 11
-8.875625332448397
 21
6.878950835923281
 31
0.0
  0
LINE
  5
215
330
1F
100
AcDbEntity
  8
0
  6
Continuous
 62
     7
370
     5
100
AcDbLine
 10
-8.921614354830646
 20
6.891449666781226
 30
0.0
 11
-8.921614354830646
 21
7.718307274708805
 31
0.0
  0
LINE
  5
216
330
1F
100
AcDbEntity
  8
0
  6
Continuous
 62
     7
370
     5
100
AcDbLine
 10
-8.460717977970285
 20
9.211759560880599
 30
0.0
 11
-8.456826583188627
 21
9.210701963161449
 31
0.0
  0
LINE
  5
217
330
1F
100
AcDbEntity
  8
0
  6
Continuous
 62
     7
370
     5
100
AcDbLine
 10
-8.458096265819648
 20
9.237800549583008
 30
0.0
 11
-8.454206946448541
 21
9.236743515915975
 31
0.0
  0
ARC
  5
218
330
1F
100
AcDbEntity
  8
0
  6
Continuous
 62
     7
370
     5
100
AcDbCircle
 10
-9.070475950616438
 20
8.661364402811296
 30
0.0
 40
0.4242704110240771
100
AcDbArc
 50
340.8026743260834
 51
359.0483728901918
  0
LINE
  5
219
330
1F
100
AcDbEntity
  8
0
  6
Continuous
 62
     7
370
     5
100
AcDbLine
 10
-8.445009825710984
 20
9.254877425033292
 30
0.0
 11
-8.437671174005416
 21
9.252882936748004
 31
0.0
  0
LINE
  5
21A
330
1F
100
AcDbEntity
  8
0
  6
Continuous
 62
     7
370
     5
100
AcDbLine
 10
-8.459848432706907
 20
9.210261307721438
 30
0.0
 11
-8.451889233246827
 21
9.208098167853204
 31
0.0
  0
LINE
  5
21B
330
1F
100
AcDbEntity
  8
0
  6
Continuous
 62
     7
370
     5
100
AcDbLine
 10
-7.263431771488127
 20
8.902502042921952
 30
0.0
 11
-7.258147776227276
 21
8.927405693083647
 31
0.0
  0
ARC
  5
21C
330
1F
100
AcDbEntity
  8
0
  6
Continuous
 62
     7
370
     5
100
AcDbCircle
 10
-7.172592354891913
 20
8.901925059503019
 30
0.0
 40
0.090841248986386
100
AcDbArc
 50
179.6360801133393
 51
285.7453896862184
  0
LINE
  5
21D
330
1F
100
AcDbEntity
  8
0
  6
Continuous
 62
     7
370
     5
100
AcDbLine
 10
-8.460715119590346
 20
9.15790296656392
 30
0.0
 11
-8.452755920130266
 21
9.155739826695684
 31
0.0
  0
LINE
  5
21E
330
1F
100
AcDbEntity
  8
0
  6
Continuous
 62
     7
370
     5
100
AcDbLine
 10
-8.440857083741276
 20
9.20512398449547
 30
0.0
 11
-8.435801383640948
 21
9.20374995353875
 31
0.0
  0
ARC
  5
21F
330
1F
100
AcDbEntity
  8
0
  6
Continuous
 62
     7
370
     5
100
AcDbCircle
 10
-7.035982833779506
 20
8.665745091476535
 30
0.0
 40
0.1210731647416842
100
AcDbArc
 50
315.4227974115561
 51
1.84470584089681
  0
ARC
  5
220
330
1F
100
AcDbEntity
  8
0
  6
Continuous
 62
     7
370
     5
100
AcDbCircle
 10
-8.967473259206096
 20
7.681354889839842
 30
0.0
 40
0.1717795028276893
100
AcDbArc
 50
325.6444409232733
 51
3.946515650777126
  0
LINE
  5
221
330
1F
100
AcDbEntity
  8
0
  6
Continuous
 62
     7
370
     5
100
AcDbLine
 10
-7.436778362284416
 20
8.144197785614418
 30
0.0
 11
-7.461046484842958
 21
8.120511354023593
 31
0.0
  0
ARC
  5
222
330
1F
100
AcDbEntity
  8
0
  6
Continuous
 62
     7
370
     5
100
AcDbCircle
 10
-7.31083140018422
 20
8.146848502423821
 30
0.0
 40
0.1259748528948211
100
AcDbArc
 50
144.2286588967165
 51
181.2056858310779
  0
LINE
  5
223
330
1F
100
AcDbEntity
  8
0
  6
Continuous
 62
     7
370
     5
100
AcDbLine
 10
-7.461046484842958
 20
7.423454251007909
 30
0.0
 11
-7.436778362284416
 21
7.447140682598735
 31
0.0
  0
LINE
  5
224
330
1F
100
AcDbEntity
  8
0
  6
Continuous
 62
     7
370
     5
100
AcDbLine
 10
-7.436778362284416
 20
7.447140682598735
 30
0.0
 11
-7.436778362284416
 21
8.144197785614418
 31
0.0
  0
LINE
  5
225
330
1F
100
AcDbEntity
  8
0
  6
Continuous
 62
     7
370
     5
100
AcDbLine
 10
-8.696723414182395
 20
6.554309812990848
 30
0.0
 11
-8.650734391800146
 21
6.541810982132902
 31
0.0
  0
LWPOLYLINE
  5
226
330
1F
100
AcDbEntity
  8
0
  6
Continuous
 62
     7
370
     5
100
AcDbPolyline
 90
        9
 70
   128
 43
0.0
 10
-8.69415463420699
 20
6.978604530872114
 10
-8.68428198775938
 20
6.96886958498123
 10
-8.664837523236668
 20
6.935396134326132
 10
-8.652035034318775
 20
6.888953636108142
 10
-8.646481516684293
 20
6.831743502762795
 10
-8.64844022082712
 20
6.766478215542297
 10
-8.65781826299265
 20
6.696251671359761
 10
-8.674171074289082
 20
6.624393409349388
 10
-8.696723414182395
 20
6.554309812990848
  0
LINE
  5
227
330
1F
100
AcDbEntity
  8
0
  6
Continuous
 62
     7
370
     5
100
AcDbLine
 10
-7.733057746201683
 20
8.065823110488429
 30
0.0
 11
-7.727773750940832
 21
8.090726760650122
 31
0.0
  0
ARC
  5
228
330
1F
100
AcDbEntity
  8
0
  6
Continuous
 62
     7
370
     5
100
AcDbCircle
 10
-7.642218386565327
 20
8.065246067935587
 30
0.0
 40
0.0908411924032869
100
AcDbArc
 50
179.6360425886918
 51
285.7454370748707
  0
LINE
  5
229
330
1F
100
AcDbEntity
  8
0
  6
Continuous
 62
     7
370
     5
100
AcDbLine
 10
-8.569006407343536
 20
7.189590665274776
 30
0.0
 11
-8.614995429725786
 21
7.202089496132723
 31
0.0
  0
LINE
  5
22A
330
1F
100
AcDbEntity
  8
0
  6
Continuous
 62
     7
370
     5
100
AcDbLine
 10
-8.690606159920841
 20
7.128291105508261
 30
0.0
 11
-8.614995429725786
 21
7.202089496132723
 31
0.0
  0
LINE
  5
22B
330
1F
100
AcDbEntity
  8
0
  6
Continuous
 62
     7
370
     5
100
AcDbLine
 10
-8.893861619845237
 20
6.024253004041173
 30
0.0
 11
-8.847872597462988
 21
6.011754173183227
 31
0.0
  0
LINE
  5
22C
330
1F
100
AcDbEntity
  8
0
  6
Continuous
 62
     7
370
     5
100
AcDbLine
 10
-8.696723414182395
 20
6.554309812990848
 30
0.0
 11
-8.893861619845237
 21
6.024253004041173
 31
0.0
  0
ARC
  5
22D
330
1F
100
AcDbEntity
  8
0
  6
Continuous
 62
     7
370
     5
100
AcDbCircle
 10
-8.682294206842483
 20
7.259404682846009
 30
0.0
 40
0.0883977150687828
100
AcDbArc
 50
319.5805335021577
 51
350.3992742731362
  0
LINE
  5
22E
330
1F
100
AcDbEntity
  8
0
  6
Continuous
 62
     7
370
     5
100
AcDbLine
 10
-7.153154831902369
 20
7.181828788209942
 30
0.0
 11
-7.177422954460912
 21
7.158142356619115
 31
0.0
  0
LWPOLYLINE
  5
22F
330
1F
100
AcDbEntity
  8
0
  6
Continuous
 62
     7
370
     5
100
AcDbPolyline
 90
       11
 70
   128
 43
0.0
 10
-6.978191496287462
 20
6.670437285018523
 10
-6.967858027157933
 20
6.681329193381999
 10
-6.936867996822099
 20
6.728804184039196
 10
-6.919096256280596
 20
6.785047493294158
 10
-6.915383346806258
 20
6.847391935987308
 10
-6.925907753706405
 20
6.91288278107956
 10
-6.950169303038437
 20
6.978414670206182
 10
-6.987018217357533
 20
7.040881259668268
 10
-7.03470700098041
 20
7.097320758251187
 10
-7.090975531817881
 20
7.14505779251863
 10
-7.153154831902369
 20
7.181828788209942
  0
LINE
  5
230
330
1F
100
AcDbEntity
  8
0
  6
Continuous
 62
     7
370
     5
100
AcDbLine
 10
-8.875625332448397
 20
5.867437727116227
 30
0.0
 11
-8.921614354830646
 21
5.879936557974174
 31
0.0
  0
ARC
  5
231
330
1F
100
AcDbEntity
  8
0
  6
Continuous
 62
     7
370
     5
100
AcDbCircle
 10
-8.492684766847348
 20
5.872278084109744
 30
0.0
 40
0.4289979529898177
100
AcDbArc
 50
159.2521723153633
 51
178.9771010856903
  0
LINE
  5
232
330
1F
100
AcDbEntity
  8
0
  6
Continuous
 62
     7
370
     5
100
AcDbLine
 10
-7.305778448354745
 20
7.254750167379329
 30
0.0
 11
-7.330046570913287
 21
7.231063735788503
 31
0.0
  0
ARC
  5
233
330
1F
100
AcDbEntity
  8
0
  6
Continuous
 62
     7
370
     5
100
AcDbCircle
 10
-7.210941282542722
 20
7.460119982058782
 30
0.0
 40
0.2262097451497834
100
AcDbArc
 50
183.2892823652816
 51
245.2131083619151
  0
LINE
  5
234
330
1F
100
AcDbEntity
  8
0
  6
Continuous
 62
     7
370
     5
100
AcDbLine
 10
-7.153154831902369
 20
7.181828788209942
 30
0.0
 11
-7.305778448354745
 21
7.254750167379329
 31
0.0
  0
LINE
  5
235
330
1F
100
AcDbEntity
  8
0
  6
Continuous
 62
     7
370
     5
100
AcDbLine
 10
-8.921614354830646
 20
5.630783713974073
 30
0.0
 11
-8.875625332448397
 21
5.618284883116128
 31
0.0
  0
LINE
  5
236
330
1F
100
AcDbEntity
  8
0
  6
Continuous
 62
     7
370
     5
100
AcDbLine
 10
-8.921614354830646
 20
5.630783713974073
 30
0.0
 11
-8.921614354830646
 21
5.879936557974174
 31
0.0
  0
ARC
  5
237
330
1F
100
AcDbEntity
  8
0
  6
Continuous
 62
     7
370
     5
100
AcDbCircle
 10
-8.967472830789892
 20
5.967020184178107
 30
0.0
 40
0.1717790786210738
100
AcDbArc
 50
325.644394696482
 51
3.946540926225266
  0
ARC
  5
238
330
1F
100
AcDbEntity
  8
0
  6
Continuous
 62
     7
370
     5
100
AcDbCircle
 10
-8.705191709554258
 20
6.865892186070645
 30
0.0
 40
0.1717807751464096
100
AcDbArc
 50
325.6445865517163
 51
3.946382593125082
  0
LINE
  5
239
330
1F
100
AcDbEntity
  8
0
  6
Continuous
 62
     7
370
     5
100
AcDbLine
 10
-7.263431771488127
 20
6.866729689070705
 30
0.0
 11
-7.258147776227276
 21
6.8916333392324
 31
0.0
  0
ARC
  5
23A
330
1F
100
AcDbEntity
  8
0
  6
Continuous
 62
     7
370
     5
100
AcDbCircle
 10
-7.172592218858297
 20
6.866152884161528
 30
0.0
 40
0.0908413838836185
100
AcDbArc
 50
179.6361932462952
 51
285.745276553262
  0
LINE
  5
23B
330
1F
100
AcDbEntity
  8
0
  6
Continuous
 62
     7
370
     5
100
AcDbLine
 10
-7.850190113829666
 20
7.410785004726736
 30
0.0
 11
-7.825921991271123
 21
7.434471436317561
 31
0.0
  0
LWPOLYLINE
  5
23C
330
1F
100
AcDbEntity
  8
0
  6
Continuous
 62
     7
370
     5
100
AcDbPolyline
 90
        3
 70
   128
 43
0.0
 10
-7.825921991271123
 20
7.434471436317561
 10
-7.810016044814263
 20
7.433215204348054
 10
-7.809183805183627
 20
7.433333231002992
  0
LINE
  5
23D
330
1F
100
AcDbEntity
  8
0
  6
Continuous
 62
     7
370
     5
100
AcDbLine
 10
-8.042993678534235
 20
7.463184882332777
 30
0.0
 11
-8.018725555975693
 21
7.486871313923604
 31
0.0
  0
LINE
  5
23E
330
1F
100
AcDbEntity
  8
0
  6
Continuous
 62
     7
370
     5
100
AcDbLine
 10
-8.018725555975693
 20
7.486871313923604
 30
0.0
 11
-7.825921991271123
 21
7.434471436317561
 31
0.0
  0
ARC
  5
23F
330
1F
100
AcDbEntity
  8
0
  6
Continuous
 62
     7
370
     5
100
AcDbCircle
 10
-8.005913961394798
 20
7.539429063478553
 30
0.0
 40
0.0540967096410307
100
AcDbArc
 50
174.1985204208069
 51
256.3006212099651
  0
LINE
  5
240
330
1F
100
AcDbEntity
  8
0
  6
Continuous
 62
     7
370
     5
100
AcDbLine
 10
-7.787892168348956
 20
6.863291167789173
 30
0.0
 11
-7.782608173088103
 21
6.888194817950867
 31
0.0
  0
ARC
  5
241
330
1F
100
AcDbEntity
  8
0
  6
Continuous
 62
     7
370
     5
100
AcDbCircle
 10
-7.697052883632205
 20
6.862714136203833
 30
0.0
 40
0.0908411174155266
100
AcDbArc
 50
179.6360492058661
 51
285.7454995057693
  0
ARC
  5
242
330
1F
100
AcDbEntity
  8
0
  6
Continuous
 62
     7
370
     5
100
AcDbCircle
 10
-8.646855041687345
 20
6.387101337879215
 30
0.0
 40
0.1717810541303371
100
AcDbArc
 50
325.6446188665225
 51
3.946350278320305
  0
LINE
  5
243
330
1F
100
AcDbEntity
  8
0
  6
Continuous
 62
     7
370
     5
100
AcDbLine
 10
-7.436778362284416
 20
6.305827068879787
 30
0.0
 11
-7.461046484842958
 21
6.28214063728896
 31
0.0
  0
ARC
  5
244
330
1F
100
AcDbEntity
  8
0
  6
Continuous
 62
     7
370
     5
100
AcDbCircle
 10
-7.311411890904228
 20
6.308663813102853
 30
0.0
 40
0.1253985616508681
100
AcDbArc
 50
144.2669526840771
 51
181.2962456288245
  0
LINE
  5
245
330
1F
100
AcDbEntity
  8
0
  6
Continuous
 62
     7
370
     5
100
AcDbLine
 10
-7.436778362284416
 20
6.056674224879688
 30
0.0
 11
-7.461046484842958
 21
6.032987793288861
 31
0.0
  0
LINE
  5
246
330
1F
100
AcDbEntity
  8
0
  6
Continuous
 62
     7
370
     5
100
AcDbLine
 10
-7.436778362284416
 20
6.056674224879688
 30
0.0
 11
-7.436778362284416
 21
6.305827068879787
 31
0.0
  0
LINE
  5
247
330
1F
100
AcDbEntity
  8
0
  6
Continuous
 62
     7
370
     5
100
AcDbLine
 10
-7.733057746201683
 20
6.351488545516779
 30
0.0
 11
-7.727773750940832
 21
6.376392195678474
 31
0.0
  0
ARC
  5
248
330
1F
100
AcDbEntity
  8
0
  6
Continuous
 62
     7
370
     5
100
AcDbCircle
 10
-7.64221846563834
 20
6.350911383589065
 30
0.0
 40
0.0908411140902423
100
AcDbArc
 50
179.6359669806648
 51
285.7455028188919
  0
LINE
  5
249
330
1F
100
AcDbEntity
  8
0
  6
Continuous
 62
     7
370
     5
100
AcDbLine
 10
12.76343372136719
 20
3.42428231784583
 30
0.0
 11
12.76841980618982
 21
3.473793052587002
 31
0.0
  0
SPLINE
  5
24A
330
1F
100
AcDbEntity
  8
0
  6
Continuous
 62
     7
370
     5
100
AcDbSpline
210
0.0
220
0.0
230
1.0
 70
     8
 71
     3
 72
     9
 73
     5
 74
     0
 42
0.0000000001
 43
0.0000000001
 40
0.0
 40
0.0
 40
0.0
 40
0.0
 40
0.5594163250403734
 40
1.0
 40
1.0
 40
1.0
 40
1.0
 10
12.77414594934318
 20
3.439316624142901
 30
0.0
 10
12.77208712386638
 20
3.436915216076698
 30
0.0
 10
12.76840681389929
 20
3.432622513202803
 30
0.0
 10
12.76495467667287
 20
3.426833057510681
 30
0.0
 10
12.76343372136719
 20
3.42428231784583
 30
0.0
  0
SPLINE
  5
24B
330
1F
100
AcDbEntity
  8
0
  6
Continuous
 62
     7
370
     5
100
AcDbSpline
210
0.0
220
0.0
230
1.0
 70
     8
 71
     3
 72
    11
 73
     7
 74
     0
 42
0.0000000001
 43
0.0000000001
 40
0.0
 40
0.0
 40
0.0
 40
0.0
 40
0.2795389507196886
 40
0.5586152440480893
 40
0.779045439128212
 40
1.0
 40
1.0
 40
1.0
 40
1.0
 10
12.78587100039721
 20
3.431049996173231
 30
0.0
 10
12.78569114945718
 20
3.433963868253811
 30
0.0
 10
12.78533174524354
 20
3.439786789743739
 30
0.0
 10
12.78205603842007
 20
3.443293091655127
 30
0.0
 10
12.7780936332635
 20
3.442749569145061
 30
0.0
 10
12.77546288576069
 20
3.440461845083559
 30
0.0
 10
12.77414594934319
 20
3.439316624142899
 30
0.0
  0
SPLINE
  5
24C
330
1F
100
AcDbEntity
  8
0
  6
Continuous
 62
     7
370
     5
100
AcDbSpline
210
0.0
220
0.0
230
1.0
 70
     8
 71
     3
 72
    11
 73
     7
 74
     0
 42
0.0000000001
 43
0.0000000001
 40
0.0
 40
0.0
 40
0.0
 40
0.0
 40
0.2796170595720894
 40
0.5593571018486722
 40
0.7795593550188558
 40
1.0
 40
1.0
 40
1.0
 40
1.0
 10
12.77353245111729
 20
3.39636315252318
 30
0.0
 10
12.77535363591143
 20
3.398533353501162
 30
0.0
 10
12.77899680650321
 20
3.402874709966777
 30
0.0
 10
12.78305734890811
 20
3.412941698206224
 30
0.0
 10
12.78552746210102
 20
3.422818914503508
 30
0.0
 10
12.78575644633762
 20
3.428305312886204
 30
0.0
 10
12.78587100039721
 20
3.431049996173231
 30
0.0
  0
SPLINE
  5
24D
330
1F
100
AcDbEntity
  8
0
  6
Continuous
 62
     7
370
     5
100
AcDbSpline
210
0.0
220
0.0
230
1.0
 70
     8
 71
     3
 72
    11
 73
     7
 74
     0
 42
0.0000000001
 43
0.0000000001
 40
0.0
 40
0.0
 40
0.0
 40
0.0
 40
0.2800510743038228
 40
0.5591651425654737
 40
0.779584589967501
 40
1.0
 40
1.0
 40
1.0
 40
1.0
 10
12.76281043509642
 20
3.401924276641782
 30
0.0
 10
12.76318650836426
 20
3.399768864967115
 30
0.0
 10
12.763937396619
 20
3.395465253280044
 30
0.0
 10
12.76690707106894
 20
3.393260163005998
 30
0.0
 10
12.77021456249394
 20
3.393645471242891
 30
0.0
 10
12.77242649499547
 20
3.395457264294165
 30
0.0
 10
12.77353245111729
 20
3.39636315252318
 30
0.0
  0
LINE
  5
24E
330
1F
100
AcDbEntity
  8
0
  6
Continuous
 62
     7
370
     5
100
AcDbLine
 10
12.75844763654457
 20
3.397666051507408
 30
0.0
 11
12.76281043509642
 21
3.401924276641782
 31
0.0
  0
SPLINE
  5
24F
330
1F
100
AcDbEntity
  8
0
  6
Continuous
 62
     7
370
     5
100
AcDbSpline
210
0.0
220
0.0
230
1.0
 70
     8
 71
     3
 72
    11
 73
     7
 74
     0
 42
0.0000000001
 43
0.0000000001
 40
0.0
 40
0.0
 40
0.0
 40
0.0
 40
0.2796255990230518
 40
0.5590188677844551
 40
0.7793802974543692
 40
1.0
 40
1.0
 40
1.0
 40
1.0
 10
12.77327926245974
 20
3.386958282985384
 30
0.0
 10
12.77119513168364
 20
3.385315676594391
 30
0.0
 10
12.76702860175633
 20
3.382031828591501
 30
0.0
 10
12.76231744896676
 20
3.38426629387161
 30
0.0
 10
12.75940326664553
 20
3.389753800740489
 30
0.0
 10
12.75876630426314
 20
3.395027605001676
 30
0.0
 10
12.75844763654457
 20
3.397666051507408
 30
0.0
  0
SPLINE
  5
250
330
1F
100
AcDbEntity
  8
0
  6
Continuous
 62
     7
370
     5
100
AcDbSpline
210
0.0
220
0.0
230
1.0
 70
     8
 71
     3
 72
    11
 73
     7
 74
     0
 42
0.0000000001
 43
0.0000000001
 40
0.0
 40
0.0
 40
0.0
 40
0.0
 40
0.2798648498736897
 40
0.5592724675381174
 40
0.7794243922078809
 40
1.0
 40
1.0
 40
1.0
 40
1.0
 10
12.79023379894906
 20
3.434968409828448
 30
0.0
 10
12.78994919964656
 20
3.430058386728502
 30
0.0
 10
12.78938046600872
 20
3.420246362331679
 30
0.0
 10
12.78501296615322
 20
3.405214865789969
 30
0.0
 10
12.77923708605204
 20
3.393603671968167
 30
0.0
 10
12.77526647600826
 20
3.389174831833662
 30
0.0
 10
12.77327926245974
 20
3.386958282985384
 30
0.0
  0
SPLINE
  5
251
330
1F
100
AcDbEntity
  8
0
  6
Continuous
 62
     7
370
     5
100
AcDbSpline
210
0.0
220
0.0
230
1.0
 70
     8
 71
     3
 72
    11
 73
     7
 74
     0
 42
0.0000000001
 43
0.0000000001
 40
0.0
 40
0.0
 40
0.0
 40
0.0
 40
0.2796891592404425
 40
0.5590267382024664
 40
0.7792922930940338
 40
1.0
 40
1.0
 40
1.0
 40
1.0
 10
12.77493474255473
 20
3.449244323003339
 30
0.0
 10
12.77725953840614
 20
3.451060428624121
 30
0.0
 10
12.7819062077491
 20
3.454690356949455
 30
0.0
 10
12.78701739236169
 20
3.451642027981629
 30
0.0
 10
12.78986320483984
 20
3.444644361951212
 30
0.0
 10
12.79011018503253
 20
3.438195882441618
 30
0.0
 10
12.79023379894907
 20
3.434968409828446
 30
0.0
  0
SPLINE
  5
252
330
1F
100
AcDbEntity
  8
0
  6
Continuous
 62
     7
370
     5
100
AcDbSpline
210
0.0
220
0.0
230
1.0
 70
     8
 71
     3
 72
     9
 73
     5
 74
     0
 42
0.0000000001
 43
0.0000000001
 40
0.0
 40
0.0
 40
0.0
 40
0.0
 40
0.5600662504053217
 40
1.0
 40
1.0
 40
1.0
 40
1.0
 10
12.76920859940138
 20
3.441920419451148
 30
0.0
 10
12.77025996459032
 20
3.443478289825882
 30
0.0
 10
12.77213718034505
 20
3.446259872136203
 30
0.0
 10
12.77408002126427
 20
3.448332502816593
 30
0.0
 10
12.77493474255473
 20
3.449244323003339
 30
0.0
  0
LINE
  5
253
330
1F
100
AcDbEntity
  8
0
  6
Continuous
 62
     7
370
     5
100
AcDbLine
 10
12.77182823614146
 20
3.467961972205673
 30
0.0
 11
12.76920859940138
 21
3.441920419451148
 31
0.0
  0
LINE
  5
254
330
1F
100
AcDbEntity
  8
0
  6
Continuous
 62
     7
370
     5
100
AcDbLine
 10
12.78836400858459
 20
3.484101393037704
 30
0.0
 11
12.77182823614146
 21
3.467961972205673
 31
0.0
  0
LINE
  5
255
330
1F
100
AcDbEntity
  8
0
  6
Continuous
 62
     7
370
     5
100
AcDbLine
 10
12.78836400858459
 20
3.493259205542086
 30
0.0
 11
12.78836400858459
 21
3.484101393037704
 31
0.0
  0
LINE
  5
256
330
1F
100
AcDbEntity
  8
0
  6
Continuous
 62
     7
370
     5
100
AcDbLine
 10
12.76841980618982
 20
3.473793052587002
 30
0.0
 11
12.78836400858459
 21
3.493259205542086
 31
0.0
  0
LINE
  5
257
330
1F
100
AcDbEntity
  8
0
  6
Continuous
 62
     7
370
     5
100
AcDbLine
 10
12.68864279126715
 20
3.351284077246228
 30
0.0
 11
12.69362887608977
 21
3.400794811987399
 31
0.0
  0
SPLINE
  5
258
330
1F
100
AcDbEntity
  8
0
  6
Continuous
 62
     7
370
     5
100
AcDbSpline
210
0.0
220
0.0
230
1.0
 70
     8
 71
     3
 72
     9
 73
     5
 74
     0
 42
0.0000000001
 43
0.0000000001
 40
0.0
 40
0.0
 40
0.0
 40
0.0
 40
0.5594163250403734
 40
1.0
 40
1.0
 40
1.0
 40
1.0
 10
12.69935501924313
 20
3.366318383543299
 30
0.0
 10
12.69729619376633
 20
3.363916975477094
 30
0.0
 10
12.69361588379924
 20
3.359624272603198
 30
0.0
 10
12.69016374657282
 20
3.353834816911079
 30
0.0
 10
12.68864279126715
 20
3.351284077246228
 30
0.0
  0
SPLINE
  5
259
330
1F
100
AcDbEntity
  8
0
  6
Continuous
 62
     7
370
     5
100
AcDbSpline
210
0.0
220
0.0
230
1.0
 70
     8
 71
     3
 72
    11
 73
     7
 74
     0
 42
0.0000000001
 43
0.0000000001
 40
0.0
 40
0.0
 40
0.0
 40
0.0
 40
0.2795389507196886
 40
0.5586152440480893
 40
0.779045439128212
 40
1.0
 40
1.0
 40
1.0
 40
1.0
 10
12.71108007029716
 20
3.358051755573628
 30
0.0
 10
12.71090021935712
 20
3.360965627654207
 30
0.0
 10
12.71054081514349
 20
3.366788549144134
 30
0.0
 10
12.70726510832002
 20
3.370294851055522
 30
0.0
 10
12.70330270316345
 20
3.369751328545457
 30
0.0
 10
12.70067195566065
 20
3.367463604483957
 30
0.0
 10
12.69935501924314
 20
3.366318383543297
 30
0.0
  0
SPLINE
  5
25A
330
1F
100
AcDbEntity
  8
0
  6
Continuous
 62
     7
370
     5
100
AcDbSpline
210
0.0
220
0.0
230
1.0
 70
     8
 71
     3
 72
    11
 73
     7
 74
     0
 42
0.0000000001
 43
0.0000000001
 40
0.0
 40
0.0
 40
0.0
 40
0.0
 40
0.2796170595720894
 40
0.5593571018486722
 40
0.7795593550188558
 40
1.0
 40
1.0
 40
1.0
 40
1.0
 10
12.69874152101723
 20
3.323364911923578
 30
0.0
 10
12.70056270581138
 20
3.325535112901557
 30
0.0
 10
12.70420587640316
 20
3.329876469367172
 30
0.0
 10
12.70826641880806
 20
3.33994345760662
 30
0.0
 10
12.71073653200098
 20
3.349820673903905
 30
0.0
 10
12.71096551623757
 20
3.3553070722866
 30
0.0
 10
12.71108007029716
 20
3.358051755573628
 30
0.0
  0
SPLINE
  5
25B
330
1F
100
AcDbEntity
  8
0
  6
Continuous
 62
     7
370
     5
100
AcDbSpline
210
0.0
220
0.0
230
1.0
 70
     8
 71
     3
 72
    11
 73
     7
 74
     0
 42
0.0000000001
 43
0.0000000001
 40
0.0
 40
0.0
 40
0.0
 40
0.0
 40
0.2800510743038228
 40
0.5591651425654737
 40
0.779584589967501
 40
1.0
 40
1.0
 40
1.0
 40
1.0
 10
12.68801950499637
 20
3.328926036042179
 30
0.0
 10
12.68839557826421
 20
3.326770624367512
 30
0.0
 10
12.68914646651895
 20
3.322467012680442
 30
0.0
 10
12.69211614096889
 20
3.320261922406393
 30
0.0
 10
12.69542363239389
 20
3.320647230643289
 30
0.0
 10
12.69763556489542
 20
3.322459023694561
 30
0.0
 10
12.69874152101723
 20
3.323364911923578
 30
0.0
  0
LINE
  5
25C
330
1F
100
AcDbEntity
  8
0
  6
Continuous
 62
     7
370
     5
100
AcDbLine
 10
12.68365670644452
 20
3.324667810907804
 30
0.0
 11
12.68801950499637
 21
3.328926036042179
 31
0.0
  0
SPLINE
  5
25D
330
1F
100
AcDbEntity
  8
0
  6
Continuous
 62
     7
370
     5
100
AcDbSpline
210
0.0
220
0.0
230
1.0
 70
     8
 71
     3
 72
    11
 73
     7
 74
     0
 42
0.0000000001
 43
0.0000000001
 40
0.0
 40
0.0
 40
0.0
 40
0.0
 40
0.2796255990230518
 40
0.5590188677844551
 40
0.7793802974543692
 40
1.0
 40
1.0
 40
1.0
 40
1.0
 10
12.69848833235968
 20
3.313960042385782
 30
0.0
 10
12.69640420158359
 20
3.312317435994786
 30
0.0
 10
12.69223767165628
 20
3.309033587991896
 30
0.0
 10
12.6875265188667
 20
3.311268053272008
 30
0.0
 10
12.68461233654548
 20
3.316755560140886
 30
0.0
 10
12.68397537416309
 20
3.322029364402072
 30
0.0
 10
12.68365670644452
 20
3.324667810907804
 30
0.0
  0
SPLINE
  5
25E
330
1F
100
AcDbEntity
  8
0
  6
Continuous
 62
     7
370
     5
100
AcDbSpline
210
0.0
220
0.0
230
1.0
 70
     8
 71
     3
 72
    11
 73
     7
 74
     0
 42
0.0000000001
 43
0.0000000001
 40
0.0
 40
0.0
 40
0.0
 40
0.0
 40
0.2798648498736897
 40
0.5592724675381174
 40
0.7794243922078809
 40
1.0
 40
1.0
 40
1.0
 40
1.0
 10
12.715442868849
 20
3.361970169228845
 30
0.0
 10
12.71515826954651
 20
3.3570601461289
 30
0.0
 10
12.71458953590867
 20
3.347248121732074
 30
0.0
 10
12.71022203605318
 20
3.332216625190366
 30
0.0
 10
12.70444615595199
 20
3.320605431368563
 30
0.0
 10
12.7004755459082
 20
3.31617659123406
 30
0.0
 10
12.69848833235968
 20
3.313960042385782
 30
0.0
  0
SPLINE
  5
25F
330
1F
100
AcDbEntity
  8
0
  6
Continuous
 62
     7
370
     5
100
AcDbSpline
210
0.0
220
0.0
230
1.0
 70
     8
 71
     3
 72
    11
 73
     7
 74
     0
 42
0.0000000001
 43
0.0000000001
 40
0.0
 40
0.0
 40
0.0
 40
0.0
 40
0.2796891592404425
 40
0.5590267382024664
 40
0.7792922930940338
 40
1.0
 40
1.0
 40
1.0
 40
1.0
 10
12.70014381245468
 20
3.376246082403737
 30
0.0
 10
12.70246860830609
 20
3.378062188024516
 30
0.0
 10
12.70711527764905
 20
3.38169211634985
 30
0.0
 10
12.71222646226164
 20
3.378643787382025
 30
0.0
 10
12.71507227473979
 20
3.37164612135161
 30
0.0
 10
12.71531925493248
 20
3.365197641842016
 30
0.0
 10
12.71544286884901
 20
3.361970169228843
 30
0.0
  0
SPLINE
  5
260
330
1F
100
AcDbEntity
  8
0
  6
Continuous
 62
     7
370
     5
100
AcDbSpline
210
0.0
220
0.0
230
1.0
 70
     8
 71
     3
 72
     9
 73
     5
 74
     0
 42
0.0000000001
 43
0.0000000001
 40
0.0
 40
0.0
 40
0.0
 40
0.0
 40
0.5600662504053217
 40
1.0
 40
1.0
 40
1.0
 40
1.0
 10
12.69441766930133
 20
3.368922178851544
 30
0.0
 10
12.69546903449027
 20
3.37048004922628
 30
0.0
 10
12.697346250245
 20
3.373261631536601
 30
0.0
 10
12.69928909116422
 20
3.375334262216989
 30
0.0
 10
12.70014381245468
 20
3.376246082403737
 30
0.0
  0
LINE
  5
261
330
1F
100
AcDbEntity
  8
0
  6
Continuous
 62
     7
370
     5
100
AcDbLine
 10
12.69703730604141
 20
3.394963731606071
 30
0.0
 11
12.69441766930133
 21
3.368922178851544
 31
0.0
  0
LINE
  5
262
330
1F
100
AcDbEntity
  8
0
  6
Continuous
 62
     7
370
     5
100
AcDbLine
 10
12.71357307848454
 20
3.411103152438099
 30
0.0
 11
12.69703730604141
 21
3.394963731606071
 31
0.0
  0
LINE
  5
263
330
1F
100
AcDbEntity
  8
0
  6
Continuous
 62
     7
370
     5
100
AcDbLine
 10
12.71357307848454
 20
3.420260964942483
 30
0.0
 11
12.71357307848454
 21
3.411103152438099
 31
0.0
  0
LINE
  5
264
330
1F
100
AcDbEntity
  8
0
  6
Continuous
 62
     7
370
     5
100
AcDbLine
 10
12.69362887608977
 20
3.400794811987399
 30
0.0
 11
12.71357307848454
 21
3.420260964942483
 31
0.0
  0
LINE
  5
265
330
1F
100
AcDbEntity
  8
0
  6
Continuous
 62
     7
370
     5
100
AcDbLine
 10
12.75720113245088
 20
3.556115436876345
 30
0.0
 11
12.72977776859824
 21
3.529349393054084
 31
0.0
  0
LINE
  5
266
330
1F
100
AcDbEntity
  8
0
  6
Continuous
 62
     7
370
     5
100
AcDbLine
 10
12.75720113245088
 20
3.565273249380727
 30
0.0
 11
12.75720113245088
 21
3.556115436876345
 31
0.0
  0
LINE
  5
267
330
1F
100
AcDbEntity
  8
0
  6
Continuous
 62
     7
370
     5
100
AcDbLine
 10
12.73414063559795
 20
3.542765497500058
 30
0.0
 11
12.75720113245088
 21
3.565273249380727
 31
0.0
  0
LINE
  5
268
330
1F
100
AcDbEntity
  8
0
  6
Continuous
 62
     7
370
     5
100
AcDbLine
 10
12.73414063559795
 20
3.577107200104182
 30
0.0
 11
12.73414063559795
 21
3.542765497500058
 31
0.0
  0
LINE
  5
269
330
1F
100
AcDbEntity
  8
0
  6
Continuous
 62
     7
370
     5
100
AcDbLine
 10
12.75720113245088
 20
3.59961495198485
 30
0.0
 11
12.73414063559795
 21
3.577107200104182
 31
0.0
  0
LINE
  5
26A
330
1F
100
AcDbEntity
  8
0
  6
Continuous
 62
     7
370
     5
100
AcDbLine
 10
12.75720113245088
 20
3.608772638772816
 30
0.0
 11
12.75720113245088
 21
3.59961495198485
 31
0.0
  0
LINE
  5
26B
330
1F
100
AcDbEntity
  8
0
  6
Continuous
 62
     7
370
     5
100
AcDbLine
 10
12.73414063559795
 20
3.586264886892147
 30
0.0
 11
12.75720113245088
 21
3.608772638772816
 31
0.0
  0
LINE
  5
26C
330
1F
100
AcDbEntity
  8
0
  6
Continuous
 62
     7
370
     5
100
AcDbLine
 10
12.73414063559795
 20
3.613738198688879
 30
0.0
 11
12.73414063559795
 21
3.586264886892147
 31
0.0
  0
LINE
  5
26D
330
1F
100
AcDbEntity
  8
0
  6
Continuous
 62
     7
370
     5
100
AcDbLine
 10
12.75720113245088
 20
3.636245950569547
 30
0.0
 11
12.73414063559795
 21
3.613738198688879
 31
0.0
  0
LINE
  5
26E
330
1F
100
AcDbEntity
  8
0
  6
Continuous
 62
     7
370
     5
100
AcDbLine
 10
12.75720113245088
 20
3.645403763073931
 30
0.0
 11
12.75720113245088
 21
3.636245950569547
 31
0.0
  0
LINE
  5
26F
330
1F
100
AcDbEntity
  8
0
  6
Continuous
 62
     7
370
     5
100
AcDbLine
 10
12.72977776859824
 20
3.618637719251671
 30
0.0
 11
12.75720113245088
 21
3.645403763073931
 31
0.0
  0
LINE
  5
270
330
1F
100
AcDbEntity
  8
0
  6
Continuous
 62
     7
370
     5
100
AcDbLine
 10
12.72977776859824
 20
3.529349393054084
 30
0.0
 11
12.72977776859824
 21
3.618637719251671
 31
0.0
  0
LINE
  5
271
330
1F
100
AcDbEntity
  8
0
  6
Continuous
 62
     7
370
     5
100
AcDbLine
 10
12.75875927967996
 20
3.740196842036033
 30
0.0
 11
12.75439648112811
 21
3.735938616901657
 31
0.0
  0
LINE
  5
272
330
1F
100
AcDbEntity
  8
0
  6
Continuous
 62
     7
370
     5
100
AcDbLine
 10
12.75875927967996
 20
3.781406809731131
 30
0.0
 11
12.75875927967996
 21
3.740196842036033
 31
0.0
  0
LINE
  5
273
330
1F
100
AcDbEntity
  8
0
  6
Continuous
 62
     7
370
     5
100
AcDbLine
 10
12.76223588370646
 20
3.784800081841224
 30
0.0
 11
12.75875927967996
 21
3.781406809731131
 31
0.0
  0
SPLINE
  5
274
330
1F
100
AcDbEntity
  8
0
  6
Continuous
 62
     7
370
     5
100
AcDbSpline
210
0.0
220
0.0
230
1.0
 70
     8
 71
     3
 72
     9
 73
     5
 74
     0
 42
0.0000000001
 43
0.0000000001
 40
0.0
 40
0.0
 40
0.0
 40
0.0
 40
0.5596925471784806
 40
1.0
 40
1.0
 40
1.0
 40
1.0
 10
12.77461337982233
 20
3.798347505238012
 30
0.0
 10
12.77231253256462
 20
3.79557023481044
 30
0.0
 10
12.76820161976206
 20
3.790608099006463
 30
0.0
 10
12.76405963185253
 20
3.786575614724121
 30
0.0
 10
12.76223588370646
 20
3.784800081841224
 30
0.0
  0
SPLINE
  5
275
330
1F
100
AcDbEntity
  8
0
  6
Continuous
 62
     7
370
     5
100
AcDbSpline
210
0.0
220
0.0
230
1.0
 70
     8
 71
     3
 72
    11
 73
     7
 74
     0
 42
0.0000000001
 43
0.0000000001
 40
0.0
 40
0.0
 40
0.0
 40
0.0
 40
0.2800966419792823
 40
0.5593221296596632
 40
0.7794550239575059
 40
1.0
 40
1.0
 40
1.0
 40
1.0
 10
12.78431285316814
 20
3.830476381603171
 30
0.0
 10
12.78419735547827
 20
3.827418881979319
 30
0.0
 10
12.78396671931851
 20
3.821313392142086
 30
0.0
 10
12.78152979319635
 20
3.811771099700831
 30
0.0
 10
12.77821854058611
 20
3.803915376941294
 30
0.0
 10
12.77581584900293
 20
3.800204619126504
 30
0.0
 10
12.77461337982234
 20
3.798347505238012
 30
0.0
  0
SPLINE
  5
276
330
1F
100
AcDbEntity
  8
0
  6
Continuous
 62
     7
370
     5
100
AcDbSpline
210
0.0
220
0.0
230
1.0
 70
     8
 71
     3
 72
    11
 73
     7
 74
     0
 42
0.0000000001
 43
0.0000000001
 40
0.0
 40
0.0
 40
0.0
 40
0.0
 40
0.279706035902318
 40
0.5593815042271725
 40
0.7795061490064636
 40
1.0
 40
1.0
 40
1.0
 40
1.0
 10
12.7750029166296
 20
3.84399793596655
 30
0.0
 10
12.77647991440166
 20
3.844460507022894
 30
0.0
 10
12.7794337485326
 20
3.845385598583673
 30
0.0
 10
12.782487392017
 20
3.842326018198054
 30
0.0
 10
12.78409813509728
 20
3.837037683692699
 30
0.0
 10
12.78424124050722
 20
3.832664703712609
 30
0.0
 10
12.78431285316813
 20
3.830476381603173
 30
0.0
  0
SPLINE
  5
277
330
1F
100
AcDbEntity
  8
0
  6
Continuous
 62
     7
370
     5
100
AcDbSpline
210
0.0
220
0.0
230
1.0
 70
     8
 71
     3
 72
     9
 73
     5
 74
     0
 42
0.0000000001
 43
0.0000000001
 40
0.0
 40
0.0
 40
0.0
 40
0.0
 40
0.5603165693421239
 40
1.0
 40
1.0
 40
1.0
 40
1.0
 10
12.76393037908526
 20
3.834532194064164
 30
0.0
 10
12.76600868712636
 20
3.836572818065713
 30
0.0
 10
12.76971785468413
 20
3.84021473071511
 30
0.0
 10
12.77338884362025
 20
3.84284253428003
 30
0.0
 10
12.77500291662961
 20
3.843997935966547
 30
0.0
  0
LINE
  5
278
330
1F
100
AcDbEntity
  8
0
  6
Continuous
 62
     7
370
     5
100
AcDbLine
 10
12.75439648112811
 20
3.825226817382826
 30
0.0
 11
12.76393037908526
 21
3.834532194064164
 31
0.0
  0
LINE
  5
279
330
1F
100
AcDbEntity
  8
0
  6
Continuous
 62
     7
370
     5
100
AcDbLine
 10
12.75439648112811
 20
3.735938616901657
 30
0.0
 11
12.75439648112811
 21
3.825226817382826
 31
0.0
  0
LINE
  5
27A
330
1F
100
AcDbEntity
  8
0
  6
Continuous
 62
     7
370
     5
100
AcDbLine
 10
12.76655001582535
 20
3.93036131933047
 30
0.0
 11
12.76218721727351
 21
3.926103094196097
 31
0.0
  0
LINE
  5
27B
330
1F
100
AcDbEntity
  8
0
  6
Continuous
 62
     7
370
     5
100
AcDbLine
 10
12.76655001582535
 20
3.971571287025568
 30
0.0
 11
12.76655001582535
 21
3.93036131933047
 31
0.0
  0
LINE
  5
27C
330
1F
100
AcDbEntity
  8
0
  6
Continuous
 62
     7
370
     5
100
AcDbLine
 10
12.77002661985186
 20
3.974964559135661
 30
0.0
 11
12.76655001582535
 21
3.971571287025568
 31
0.0
  0
SPLINE
  5
27D
330
1F
100
AcDbEntity
  8
0
  6
Continuous
 62
     7
370
     5
100
AcDbSpline
210
0.0
220
0.0
230
1.0
 70
     8
 71
     3
 72
     9
 73
     5
 74
     0
 42
0.0000000001
 43
0.0000000001
 40
0.0
 40
0.0
 40
0.0
 40
0.0
 40
0.5596925471784806
 40
1.0
 40
1.0
 40
1.0
 40
1.0
 10
12.78240411596772
 20
3.988511982532451
 30
0.0
 10
12.78010326871002
 20
3.98573471210488
 30
0.0
 10
12.77599235590745
 20
3.980772576300902
 30
0.0
 10
12.77185036799792
 20
3.976740092018561
 30
0.0
 10
12.77002661985186
 20
3.974964559135661
 30
0.0
  0
SPLINE
  5
27E
330
1F
100
AcDbEntity
  8
0
  6
Continuous
 62
     7
370
     5
100
AcDbSpline
210
0.0
220
0.0
230
1.0
 70
     8
 71
     3
 72
    11
 73
     7
 74
     0
 42
0.0000000001
 43
0.0000000001
 40
0.0
 40
0.0
 40
0.0
 40
0.0
 40
0.2801006890331639
 40
0.5593235419152318
 40
0.7794592199933646
 40
1.0
 40
1.0
 40
1.0
 40
1.0
 10
12.79210358931353
 20
4.020640984614029
 30
0.0
 10
12.79198806044859
 20
4.017583421316544
 30
0.0
 10
12.79175736478639
 20
4.011477877131416
 30
0.0
 10
12.7893205385779
 20
4.001935497981312
 30
0.0
 10
12.78600922844012
 20
3.994079875911087
 30
0.0
 10
12.78360655636231
 20
3.990369084068797
 30
0.0
 10
12.78240411596773
 20
3.988511982532449
 30
0.0
  0
SPLINE
  5
27F
330
1F
100
AcDbEntity
  8
0
  6
Continuous
 62
     7
370
     5
100
AcDbSpline
210
0.0
220
0.0
230
1.0
 70
     8
 71
     3
 72
    11
 73
     7
 74
     0
 42
0.0000000001
 43
0.0000000001
 40
0.0
 40
0.0
 40
0.0
 40
0.0
 40
0.2797069512904626
 40
0.5593803603300091
 40
0.7795095117358933
 40
0.9999999999999998
 40
0.9999999999999998
 40
0.9999999999999998
 40
0.9999999999999998
 10
12.78279365277499
 20
4.034162413260987
 30
0.0
 10
12.7842706461588
 20
4.034624973519258
 30
0.0
 10
12.78722445580646
 20
4.035550038565919
 30
0.0
 10
12.79027816926411
 20
4.032490628573071
 30
0.0
 10
12.79188884826046
 20
4.02720220508017
 30
0.0
 10
12.79203196983951
 20
4.022829253471299
 30
0.0
 10
12.79210358931353
 20
4.020640984614027
 30
0.0
  0
SPLINE
  5
280
330
1F
100
AcDbEntity
  8
0
  6
Continuous
 62
     7
370
     5
100
AcDbSpline
210
0.0
220
0.0
230
1.0
 70
     8
 71
     3
 72
     9
 73
     5
 74
     0
 42
0.0000000001
 43
0.0000000001
 40
0.0
 40
0.0
 40
0.0
 40
0.0
 40
0.5603165693421239
 40
1.0
 40
1.0
 40
1.0
 40
1.0
 10
12.77172111523066
 20
4.024696671358603
 30
0.0
 10
12.77379942327176
 20
4.026737295360153
 30
0.0
 10
12.77750859082952
 20
4.030379208009549
 30
0.0
 10
12.78117957976565
 20
4.033007011574469
 30
0.0
 10
12.782793652775
 20
4.034162413260987
 30
0.0
  0
LINE
  5
281
330
1F
100
AcDbEntity
  8
0
  6
Continuous
 62
     7
370
     5
100
AcDbLine
 10
12.76218721727351
 20
4.015391294677265
 30
0.0
 11
12.77172111523066
 21
4.024696671358603
 31
0.0
  0
LINE
  5
282
330
1F
100
AcDbEntity
  8
0
  6
Continuous
 62
     7
370
     5
100
AcDbLine
 10
12.76218721727351
 20
3.926103094196097
 30
0.0
 11
12.76218721727351
 21
4.015391294677265
 31
0.0
  0
SPLINE
  5
283
330
1F
100
AcDbEntity
  8
0
  6
Continuous
 62
     7
370
     5
100
AcDbSpline
210
0.0
220
0.0
230
1.0
 70
     8
 71
     3
 72
     9
 73
     5
 74
     0
 42
0.0000000001
 43
0.0000000001
 40
0.0
 40
0.0
 40
0.0
 40
0.0
 40
0.5594975352336889
 40
1.0
 40
1.0
 40
1.0
 40
1.0
 10
12.68576996586951
 20
3.86806229768468
 30
0.0
 10
12.68545897920747
 20
3.871246575714702
 30
0.0
 10
12.68490314715736
 20
3.876937893065527
 30
0.0
 10
12.6849031911565
 20
3.883251508328406
 30
0.0
 10
12.68490321053821
 20
3.886032671413296
 30
0.0
  0
SPLINE
  5
284
330
1F
100
AcDbEntity
  8
0
  6
Continuous
 62
     7
370
     5
100
AcDbSpline
210
0.0
220
0.0
230
1.0
 70
     8
 71
     3
 72
    11
 73
     7
 74
     0
 42
0.0000000001
 43
0.0000000001
 40
0.0
 40
0.0
 40
0.0
 40
0.0
 40
0.2802231809517986
 40
0.559914939423344
 40
0.7799529544467755
 40
1.0
 40
1.0
 40
1.0
 40
1.0
 10
12.70096190135303
 20
3.864055887211896
 30
0.0
 10
12.69911549479701
 20
3.862484930208442
 30
0.0
 10
12.69542618325803
 20
3.859345995404988
 30
0.0
 10
12.69077660555246
 20
3.859244973511854
 30
0.0
 10
12.68736578155473
 20
3.862160701202569
 30
0.0
 10
12.68630191170812
 20
3.866095071946256
 30
0.0
 10
12.68576996586952
 20
3.868062297684678
 30
0.0
  0
SPLINE
  5
285
330
1F
100
AcDbEntity
  8
0
  6
Continuous
 62
     7
370
     5
100
AcDbSpline
210
0.0
220
0.0
230
1.0
 70
     8
 71
     3
 72
    11
 73
     7
 74
     0
 42
0.0000000001
 43
0.0000000001
 40
0.0
 40
0.0
 40
0.0
 40
0.0
 40
0.2816549017334917
 40
0.560111439484346
 40
0.7800817134469346
 40
1.0
 40
1.0
 40
1.0
 40
1.0
 10
12.71606615511978
 20
3.916448660669144
 30
0.0
 10
12.71602508911158
 20
3.911433670077703
 30
0.0
 10
12.71594342342488
 20
3.90146063718573
 30
0.0
 10
12.7130085595959
 20
3.885412501552107
 30
0.0
 10
12.70735141092021
 20
3.871552112031432
 30
0.0
 10
12.70309157006165
 20
3.866554431937904
 30
0.0
 10
12.70096190135304
 20
3.864055887211894
 30
0.0
  0
LINE
  5
286
330
1F
100
AcDbEntity
  8
0
  6
Continuous
 62
     7
370
     5
100
AcDbLine
 10
12.71606615511978
 20
3.970375724108712
 30
0.0
 11
12.71606615511978
 21
3.916448660669144
 31
0.0
  0
LINE
  5
287
330
1F
100
AcDbEntity
  8
0
  6
Continuous
 62
     7
370
     5
100
AcDbLine
 10
12.71170335656793
 20
3.966117498974336
 30
0.0
 11
12.71606615511978
 21
3.970375724108712
 31
0.0
  0
LINE
  5
288
330
1F
100
AcDbEntity
  8
0
  6
Continuous
 62
     7
370
     5
100
AcDbLine
 10
12.71170335656793
 20
3.912619757103888
 30
0.0
 11
12.71170335656793
 21
3.966117498974336
 31
0.0
  0
SPLINE
  5
289
330
1F
100
AcDbEntity
  8
0
  6
Continuous
 62
     7
370
     5
100
AcDbSpline
210
0.0
220
0.0
230
1.0
 70
     8
 71
     3
 72
     9
 73
     5
 74
     0
 42
0.0000000001
 43
0.0000000001
 40
0.0
 40
0.0
 40
0.0
 40
0.0
 40
0.5596258575074693
 40
0.9999999999999998
 40
0.9999999999999998
 40
0.9999999999999998
 40
0.9999999999999998
 10
12.71120669884986
 20
3.89827313449413
 30
0.0
 10
12.71139077685963
 20
3.901028475934976
 30
0.0
 10
12.71171970735363
 20
3.905952017983437
 30
0.0
 10
12.71170835559078
 20
3.910581189615824
 30
0.0
 10
12.71170335656793
 20
3.912619757103888
 30
0.0
  0
SPLINE
  5
28A
330
1F
100
AcDbEntity
  8
0
  6
Continuous
 62
     7
370
     5
100
AcDbSpline
210
0.0
220
0.0
230
1.0
 70
     8
 71
     3
 72
    11
 73
     7
 74
     0
 42
0.0000000001
 43
0.0000000001
 40
0.0
 40
0.0
 40
0.0
 40
0.0
 40
0.2797831476868339
 40
0.5593745983232262
 40
0.7795660883060087
 40
1.0
 40
1.0
 40
1.0
 40
1.0
 10
12.7007184322925
 20
3.872975940732898
 30
0.0
 10
12.70205876402051
 20
3.874548756279941
 30
0.0
 10
12.70473850913087
 20
3.877693309739061
 30
0.0
 10
12.7079807000707
 20
3.88463559752129
 30
0.0
 10
12.71019174822695
 20
3.89176057923835
 30
0.0
 10
12.71086825790901
 20
3.896101486653884
 30
0.0
 10
12.71120669884986
 20
3.89827313449413
 30
0.0
  0
SPLINE
  5
28B
330
1F
100
AcDbEntity
  8
0
  6
Continuous
 62
     7
370
     5
100
AcDbSpline
210
0.0
220
0.0
230
1.0
 70
     8
 71
     3
 72
    10
 73
     6
 74
     0
 42
0.0000000001
 43
0.0000000001
 40
0.0
 40
0.0
 40
0.0
 40
0.0
 40
0.2810536691790415
 40
0.5608216230119471
 40
1.0
 40
1.0
 40
1.0
 40
1.0
 10
12.68946081171762
 20
3.879033795682755
 30
0.0
 10
12.68977016257046
 20
3.876605131935004
 30
0.0
 10
12.69038744911176
 20
3.87175891466717
 30
0.0
 10
12.69455237669726
 20
3.868803906264063
 30
0.0
 10
12.69838017090279
 20
3.871393842264224
 30
0.0
 10
12.7007184322925
 20
3.872975940732898
 30
0.0
  0
SPLINE
  5
28C
330
1F
100
AcDbEntity
  8
0
  6
Continuous
 62
     7
370
     5
100
AcDbSpline
210
0.0
220
0.0
230
1.0
 70
     8
 71
     3
 72
     9
 73
     5
 74
     0
 42
0.0000000001
 43
0.0000000001
 40
0.0
 40
0.0
 40
0.0
 40
0.0
 40
0.5601213699371491
 40
1.0
 40
1.0
 40
1.0
 40
1.0
 10
12.68926607753792
 20
3.890720284924006
 30
0.0
 10
12.68926186163775
 20
3.888496278923327
 30
0.0
 10
12.68925433487588
 20
3.884525700187994
 30
0.0
 10
12.68939773365787
 20
3.880711556141002
 30
0.0
 10
12.68946081171762
 20
3.879033795682755
 30
0.0
  0
LINE
  5
28D
330
1F
100
AcDbEntity
  8
0
  6
Continuous
 62
     7
370
     5
100
AcDbLine
 10
12.68926607753792
 20
3.944218026794456
 30
0.0
 11
12.68926607753792
 21
3.890720284924006
 31
0.0
  0
LINE
  5
28E
330
1F
100
AcDbEntity
  8
0
  6
Continuous
 62
     7
370
     5
100
AcDbLine
 10
12.68490321053821
 20
3.939959734852864
 30
0.0
 11
12.68926607753792
 21
3.944218026794456
 31
0.0
  0
LINE
  5
28F
330
1F
100
AcDbEntity
  8
0
  6
Continuous
 62
     7
370
     5
100
AcDbLine
 10
12.68490321053821
 20
3.886032671413296
 30
0.0
 11
12.68490321053821
 21
3.939959734852864
 31
0.0
  0
LINE
  5
290
330
1F
100
AcDbEntity
  8
0
  6
Continuous
 62
     7
370
     5
100
AcDbLine
 10
12.35040985014161
 20
3.706756240237096
 30
0.0
 11
12.97452201287478
 21
4.315908844107488
 31
0.0
  0
LINE
  5
291
330
1F
100
AcDbEntity
  8
0
  6
Continuous
 62
     7
370
     5
100
AcDbLine
 10
12.97452201287478
 20
4.315908844107488
 30
0.0
 11
12.97452201287478
 21
1.78713678941453
 31
0.0
  0
ARC
  5
292
330
1F
100
AcDbEntity
  8
0
  6
Continuous
 62
     7
370
     5
100
AcDbCircle
 10
13.10773564244009
 20
1.730344634092527
 30
0.0
 40
0.1448144330102564
100
AcDbArc
 50
156.9102892535513
 51
178.9058148785057
  0
LINE
  5
293
330
1F
100
AcDbEntity
  8
0
  6
Continuous
 62
     7
370
     5
100
AcDbLine
 10
12.96294761557453
 20
0.4473589766816294
 30
0.0
 11
12.96294761557453
 21
1.733110006483594
 31
0.0
  0
LINE
  5
294
330
1F
100
AcDbEntity
  8
0
  6
Continuous
 62
     7
370
     5
100
AcDbLine
 10
12.96294761557453
 20
0.4473589766816294
 30
0.0
 11
12.35040985014161
 21
-0.1504966605941729
 31
0.0
  0
LINE
  5
295
330
1F
100
AcDbEntity
  8
0
  6
Continuous
 62
     7
370
     5
100
AcDbLine
 10
12.35040985014161
 20
-0.1504966605941729
 30
0.0
 11
12.35040985014161
 21
0.0986561834059262
 31
0.0
  0
ARC
  5
296
330
1F
100
AcDbEntity
  8
0
  6
Continuous
 62
     7
370
     5
100
AcDbCircle
 10
12.77933943812496
 20
0.0909977095414878
 30
0.0
 40
0.4289979529898711
100
AcDbArc
 50
159.2521723153646
 51
178.9771010856892
  0
LINE
  5
297
330
1F
100
AcDbEntity
  8
0
  6
Continuous
 62
     7
370
     5
100
AcDbLine
 10
12.57530079078986
 20
0.7730294384226026
 30
0.0
 11
12.37816258512701
 21
0.2429726294729266
 31
0.0
  0
LWPOLYLINE
  5
298
330
1F
100
AcDbEntity
  8
0
  6
Continuous
 62
     7
370
     5
100
AcDbPolyline
 90
       11
 70
   128
 43
0.0
 10
12.50007439536423
 20
1.197817885292813
 10
12.53288583835844
 20
1.209970865266858
 10
12.56257756450118
 20
1.206506446949519
 10
12.58774221721287
 20
1.187589210412984
 10
12.60718668173559
 20
1.154115759757885
 10
12.61998917065348
 20
1.107673261539896
 10
12.62554268828796
 20
1.050463128194548
 10
12.62358398414513
 20
0.98519784097405
 10
12.61420594197961
 20
0.9149712967915137
 10
12.59785313068317
 20
0.8431130347811432
 10
12.57530079078986
 20
0.7730294384226026
  0
LINE
  5
299
330
1F
100
AcDbEntity
  8
0
  6
Continuous
 62
     7
370
     5
100
AcDbLine
 10
12.35040985014161
 20
1.110169292212979
 30
0.0
 11
12.50007439536423
 21
1.197817885292813
 31
0.0
  0
LINE
  5
29A
330
1F
100
AcDbEntity
  8
0
  6
Continuous
 62
     7
370
     5
100
AcDbLine
 10
12.35040985014161
 20
1.110169292212979
 30
0.0
 11
12.35040985014161
 21
1.937026900140558
 31
0.0
  0
ARC
  5
29B
330
1F
100
AcDbEntity
  8
0
  6
Continuous
 62
     7
370
     5
100
AcDbCircle
 10
12.77462890734534
 20
1.929979278330752
 30
0.0
 40
0.4242775948220717
100
AcDbArc
 50
160.8028304209769
 51
179.0482232340643
  0
LINE
  5
29C
330
1F
100
AcDbEntity
  8
0
  6
Continuous
 62
     7
370
     5
100
AcDbLine
 10
12.60222571727991
 20
2.740574342646471
 30
0.0
 11
12.37394428002099
 21
2.069490234509627
 31
0.0
  0
ARC
  5
29D
330
1F
100
AcDbEntity
  8
0
  6
Continuous
 62
     7
370
     5
100
AcDbCircle
 10
12.20154825435581
 20
2.88008402824304
 30
0.0
 40
0.4242704110240787
100
AcDbArc
 50
340.8026743260849
 51
359.0483728901931
  0
LINE
  5
29E
330
1F
100
AcDbEntity
  8
0
  6
Continuous
 62
     7
370
     5
100
AcDbLine
 10
12.62576014715928
 20
3.03791735668557
 30
0.0
 11
12.62576014715928
 21
2.873037633800522
 31
0.0
  0
ARC
  5
29F
330
1F
100
AcDbEntity
  8
0
  6
Continuous
 62
     7
370
     5
100
AcDbCircle
 10
12.49984449492447
 20
3.05012994407546
 30
0.0
 40
0.1265065167035852
100
AcDbArc
 50
354.4601972798137
 51
35.97279096255799
  0
LINE
  5
2A0
330
1F
100
AcDbEntity
  8
0
  6
Continuous
 62
     7
370
     5
100
AcDbLine
 10
12.37394428002099
 20
3.349904704491586
 30
0.0
 11
12.60222571727991
 21
3.124439997752474
 31
0.0
  0
ARC
  5
2A1
330
1F
100
AcDbEntity
  8
0
  6
Continuous
 62
     7
370
     5
100
AcDbCircle
 10
12.47632824508639
 20
3.424215521938057
 30
0.0
 40
0.1265091850107201
100
AcDbArc
 50
174.460604818667
 51
215.9723412550625
  0
LINE
  5
2A2
330
1F
100
AcDbEntity
  8
0
  6
Continuous
 62
     7
370
     5
100
AcDbLine
 10
12.35040985014161
 20
3.436427471274907
 30
0.0
 11
12.35040985014161
 21
3.706756240237096
 31
0.0
  0
LWPOLYLINE
  5
2A3
330
1F
100
AcDbEntity
  8
0
  6
Continuous
 62
     7
370
     5
100
AcDbPolyline
 90
        9
 70
   128
 43
0.0
 10
12.65702877524647
 20
1.420809121564475
 10
12.66542281088568
 20
1.432068621133658
 10
12.67253892486055
 20
1.447747308970438
 10
12.67729379279071
 20
1.465458187568651
 10
12.67896344159404
 20
1.482504923250375
 10
12.67729379279071
 20
1.496292402097103
 10
12.67253892486055
 20
1.504721486961194
 10
12.66542281088568
 20
1.506509084009911
 10
12.65702877524647
 20
1.50138284849104
  0
LINE
  5
2A4
330
1F
100
AcDbEntity
  8
0
  6
Continuous
 62
     7
370
     5
100
AcDbLine
 10
12.65702877524647
 20
1.50138284849104
 30
0.0
 11
12.55528909879889
 21
1.40208180530424
 31
0.0
  0
LWPOLYLINE
  5
2A5
330
1F
100
AcDbEntity
  8
0
  6
Continuous
 62
     7
370
     5
100
AcDbPolyline
 90
        9
 70
   128
 43
0.0
 10
12.55528909879889
 20
1.321508078377675
 10
12.54689506315969
 20
1.316381905717014
 10
12.53977894918482
 20
1.318169502765731
 10
12.53502414970251
 20
1.326598654437037
 10
12.53335443245132
 20
1.340386066476552
 10
12.53502414970251
 20
1.35743286896549
 10
12.53977894918482
 20
1.375143680756486
 10
12.54689506315969
 20
1.390822368593269
 10
12.55528909879889
 20
1.40208180530424
  0
LINE
  5
2A6
330
1F
100
AcDbEntity
  8
0
  6
Continuous
 62
     7
370
     5
100
AcDbLine
 10
12.55528909879889
 20
1.321508078377675
 30
0.0
 11
12.65702877524647
 21
1.420809121564475
 31
0.0
  0
LWPOLYLINE
  5
2A7
330
1F
100
AcDbEntity
  8
0
  6
Continuous
 62
     7
370
     5
100
AcDbPolyline
 90
       17
 70
   128
 43
0.0
 10
12.72049931807821
 20
0.5321597788941177
 10
12.72341239082124
 20
0.5619010606614442
 10
12.73170806687654
 20
0.5928008416572091
 10
12.74412341466248
 20
0.6201550544772383
 10
12.75876838324618
 20
0.6397993578314028
 10
12.77341328338201
 20
0.6487428642699279
 10
12.78582863116795
 20
0.6456241715482257
 10
12.79412430722325
 20
0.6309180588438004
 10
12.79703737996628
 20
0.6068632736796178
 10
12.79412430722325
 20
0.5771221176287125
 10
12.78582863116795
 20
0.5462223366329476
 10
12.77341328338201
 20
0.5188681238129184
 10
12.75876838324618
 20
0.4992238872659699
 10
12.74412341466248
 20
0.4902803140202289
 10
12.73170806687654
 20
0.493399006741931
 10
12.72341239082124
 20
0.5081051194463563
 10
12.72049931807821
 20
0.5321597788941177
  0
LWPOLYLINE
  5
2A8
330
1F
100
AcDbEntity
  8
0
  6
Continuous
 62
     7
370
     5
100
AcDbPolyline
 90
       17
 70
   128
 43
0.0
 10
12.6621624336689
 20
3.04672312519827
 10
12.66507543796406
 20
3.076464277300172
 10
12.67337111401935
 20
3.107364058295934
 10
12.68578653025316
 20
3.134718337923179
 10
12.70043143038899
 20
3.154362574470128
 10
12.71507633052482
 20
3.163306080908653
 10
12.72749174675863
 20
3.160187454994167
 10
12.73578742281392
 20
3.145481342289744
 10
12.73870042710909
 20
3.121426553176555
 10
12.73578742281392
 20
3.091685401074653
 10
12.72749174675863
 20
3.060785620078889
 10
12.71507633052482
 20
3.033431340451646
 10
12.70043143038899
 20
3.013787103904695
 10
12.68578653025316
 20
3.004843597466172
 10
12.67337111401935
 20
3.007962223380658
 10
12.66507543796406
 20
3.022668336085079
 10
12.6621624336689
 20
3.04672312519827
  0
LWPOLYLINE
  5
2A9
330
1F
100
AcDbEntity
  8
0
  6
Continuous
 62
     7
370
     5
100
AcDbPolyline
 90
       17
 70
   128
 43
0.0
 10
12.6621624336689
 20
1.010950771347024
 10
12.66507543796406
 20
1.040691860590716
 10
12.67337111401935
 20
1.0715917673029
 10
12.68578653025316
 20
1.098946046930145
 10
12.70043143038899
 20
1.118590157760672
 10
12.71507633052482
 20
1.127533789915618
 10
12.72749174675863
 20
1.12441516400113
 10
12.73578742281392
 20
1.109708925580288
 10
12.73870042710909
 20
1.085654199325308
 10
12.73578742281392
 20
1.055913110081617
 10
12.72749174675863
 20
1.025013329085852
 10
12.71507633052482
 20
0.9976590494586094
 10
12.70043143038899
 20
0.9780148129116588
 10
12.68578653025316
 20
0.9690713064731358
 10
12.67337111401935
 20
0.972189932387622
 10
12.66507543796406
 20
0.9868960450920429
 10
12.6621624336689
 20
1.010950771347024
  0
LWPOLYLINE
  5
2AA
330
1F
100
AcDbEntity
  8
0
  6
Continuous
 62
     7
370
     5
100
AcDbPolyline
 90
       17
 70
   128
 43
0.0
 10
12.39987958725967
 20
1.826413816957242
 10
12.40279259155483
 20
1.856154937630038
 10
12.41108833605799
 20
1.887054816862124
 10
12.42350368384393
 20
1.914409045396704
 10
12.43814865242763
 20
1.934053317321766
 10
12.4527934841156
 20
1.94299678838218
 10
12.46520896879727
 20
1.939878213560354
 10
12.4735045764047
 20
1.925172002619613
 10
12.47641758069986
 20
1.901117244935526
 10
12.4735045764047
 20
1.871376108548181
 10
12.46520896879727
 20
1.840476362930525
 10
12.4527934841156
 20
1.813122016496066
 10
12.43814865242763
 20
1.793477878185436
 10
12.42350368384393
 20
1.78453427351059
 10
12.41108833605799
 20
1.787652966232295
 10
12.40279259155483
 20
1.802359043558606
 10
12.39987958725967
 20
1.826413816957242
  0
LWPOLYLINE
  5
2AB
330
1F
100
AcDbEntity
  8
0
  6
Continuous
 62
     7
370
     5
100
AcDbPolyline
 90
       17
 70
   128
 43
0.0
 10
12.39987958725967
 20
0.1120792519855945
 10
12.40279259155483
 20
0.141820341229284
 10
12.41108833605799
 20
0.1727201890322647
 10
12.42350368384393
 20
0.200074401852294
 10
12.43814865242763
 20
0.2197187052064584
 10
12.4527934841156
 20
0.2286621448377697
 10
12.46520896879727
 20
0.2255435857304951
 10
12.4735045764047
 20
0.2108374062188582
 10
12.47641758069986
 20
0.1867826799638787
 10
12.4735045764047
 20
0.1570414650037681
 10
12.46520896879727
 20
0.1261417508152193
 10
12.4527934841156
 20
0.0987874043807603
 10
12.43814865242763
 20
0.0791432346410256
 10
12.42350368384393
 20
0.0701996613952846
 10
12.41108833605799
 20
0.0733183541169888
 10
12.40279259155483
 20
0.0880244000141939
 10
12.39987958725967
 20
0.1120792519855945
  0
LWPOLYLINE
  5
2AC
330
1F
100
AcDbEntity
  8
0
  6
Continuous
 62
     7
370
     5
100
AcDbPolyline
 90
       17
 70
   128
 43
0.0
 10
12.39987958725967
 20
3.540748413357997
 10
12.40279259155483
 20
3.570489502601688
 10
12.41108833605799
 20
3.601389476121088
 10
12.42350368384393
 20
3.628743688941115
 10
12.43814865242763
 20
3.648387866578863
 10
12.4527934841156
 20
3.657331431926591
 10
12.46520896879727
 20
3.654212872819319
 10
12.4735045764047
 20
3.639506567591263
 10
12.47641758069986
 20
3.615451841336281
 10
12.4735045764047
 20
3.585710752092592
 10
12.46520896879727
 20
3.554810912187624
 10
12.4527934841156
 20
3.527456565753163
 10
12.43814865242763
 20
3.507812521729849
 10
12.42350368384393
 20
3.498868822767689
 10
12.41108833605799
 20
3.501987515489391
 10
12.40279259155483
 20
3.516693687103018
 10
12.39987958725967
 20
3.540748413357997
  0
SPLINE
  5
2AD
330
1F
100
AcDbEntity
  8
0
  6
Continuous
 62
     7
370
     5
100
AcDbSpline
210
0.0
220
0.0
230
1.0
 70
     8
 71
     3
 72
    11
 73
     7
 74
     0
 42
0.0000000001
 43
0.0000000001
 40
0.0
 40
0.0
 40
0.0
 40
0.0
 40
0.279181995123355
 40
0.5590848926584977
 40
0.7794476152803036
 40
1.0
 40
1.0
 40
1.0
 40
1.0
 10
12.75221504762825
 20
3.938244859160193
 30
0.0
 10
12.75194336143789
 20
3.93432758436562
 30
0.0
 10
12.75139928751038
 20
3.926482919608243
 30
0.0
 10
12.74751291865212
 20
3.914909865178106
 30
0.0
 10
12.74302342404949
 20
3.905805924396974
 30
0.0
 10
12.73989368288447
 20
3.902286799943013
 30
0.0
 10
12.73832813916413
 20
3.900526480830508
 30
0.0
  0
SPLINE
  5
2AE
330
1F
100
AcDbEntity
  8
0
  6
Continuous
 62
     7
370
     5
100
AcDbSpline
210
0.0
220
0.0
230
1.0
 70
     8
 71
     3
 72
    10
 73
     6
 74
     0
 42
0.0000000001
 43
0.0000000001
 40
0.0
 40
0.0
 40
0.0
 40
0.0
 40
0.5601167907982939
 40
0.7802851181241904
 40
1.0
 40
1.0
 40
1.0
 40
1.0
 10
12.74076269287367
 20
3.955881841529917
 30
0.0
 10
12.74380977284327
 20
3.954710748231527
 30
0.0
 10
12.74805458605555
 20
3.953079326557197
 30
0.0
 10
12.75166879703798
 20
3.945860010899321
 30
0.0
 10
12.7520330892728
 20
3.94078149804296
 30
0.0
 10
12.75221504762825
 20
3.938244859160193
 30
0.0
  0
SPLINE
  5
2AF
330
1F
100
AcDbEntity
  8
0
  6
Continuous
 62
     7
370
     5
100
AcDbSpline
210
0.0
220
0.0
230
1.0
 70
     8
 71
     3
 72
     9
 73
     5
 74
     0
 42
0.0000000001
 43
0.0000000001
 40
0.0
 40
0.0
 40
0.0
 40
0.0
 40
0.5599077956384287
 40
1.0
 40
1.0
 40
1.0
 40
1.0
 10
12.73422824886685
 20
3.958393431807541
 30
0.0
 10
12.73542746030609
 20
3.957854153727255
 30
0.0
 10
12.73756926195375
 20
3.956890998571197
 30
0.0
 10
12.73978678032532
 20
3.956190239940448
 30
0.0
 10
12.74076269287367
 20
3.955881841529917
 30
0.0
  0
SPLINE
  5
2B0
330
1F
100
AcDbEntity
  8
0
  6
Continuous
 62
     7
370
     5
100
AcDbSpline
210
0.0
220
0.0
230
1.0
 70
     8
 71
     3
 72
    10
 73
     6
 74
     0
 42
0.0000000001
 43
0.0000000001
 40
0.0
 40
0.0
 40
0.0
 40
0.0
 40
0.2799435938969834
 40
0.5597756707178754
 40
0.9999999999999998
 40
0.9999999999999998
 40
0.9999999999999998
 40
0.9999999999999998
 10
12.7310243411398
 20
3.966802938220516
 30
0.0
 10
12.73108130596107
 20
3.965612460112638
 30
0.0
 10
12.73119521291136
 20
3.963231978130414
 30
0.0
 10
12.73224808592635
 20
3.96015185975836
 30
0.0
 10
12.73347695146462
 20
3.95906060031395
 30
0.0
 10
12.73422824886685
 20
3.958393431807541
 30
0.0
  0
SPLINE
  5
2B1
330
1F
100
AcDbEntity
  8
0
  6
Continuous
 62
     7
370
     5
100
AcDbSpline
210
0.0
220
0.0
230
1.0
 70
     8
 71
     3
 72
    11
 73
     7
 74
     0
 42
0.0000000001
 43
0.0000000001
 40
0.0
 40
0.0
 40
0.0
 40
0.0
 40
0.2802764707544076
 40
0.5599326286483985
 40
0.7799218947908616
 40
1.0
 40
1.0
 40
1.0
 40
1.0
 10
12.73815284417847
 20
3.98506474463777
 30
0.0
 10
12.73716580978549
 20
3.983961805525863
 30
0.0
 10
12.73519392552157
 20
3.981758368346472
 30
0.0
 10
12.7328201122302
 20
3.976658315695005
 30
0.0
 10
12.7312626306178
 20
3.971313062904451
 30
0.0
 10
12.73110378165507
 20
3.968306515431812
 30
0.0
 10
12.73102434113979
 20
3.966802938220518
 30
0.0
  0
SPLINE
  5
2B2
330
1F
100
AcDbEntity
  8
0
  6
Continuous
 62
     7
370
     5
100
AcDbSpline
210
0.0
220
0.0
230
1.0
 70
     8
 71
     3
 72
    11
 73
     7
 74
     0
 42
0.0000000001
 43
0.0000000001
 40
0.0
 40
0.0
 40
0.0
 40
0.0
 40
0.3404090499765165
 40
0.5604841002928282
 40
0.7801787755333914
 40
1.0
 40
1.0
 40
1.0
 40
1.0
 10
12.74764779529969
 20
3.982884873811882
 30
0.0
 10
12.74680748345488
 20
3.98398557802994
 30
0.0
 10
12.7454239085225
 20
3.985797889463456
 30
0.0
 10
12.74314234028454
 20
3.987388842259002
 30
0.0
 10
12.74076019919763
 20
3.987239367807153
 30
0.0
 10
12.73902212933156
 20
3.985789758155622
 30
0.0
 10
12.73815284417847
 20
3.98506474463777
 30
0.0
  0
LINE
  5
2B3
330
1F
100
AcDbEntity
  8
0
  6
Continuous
 62
     7
370
     5
100
AcDbLine
 10
12.75159182980534
 20
3.992225414125865
 30
0.0
 11
12.74764779529969
 21
3.982884873811882
 31
0.0
  0
SPLINE
  5
2B4
330
1F
100
AcDbEntity
  8
0
  6
Continuous
 62
     7
370
     5
100
AcDbSpline
210
0.0
220
0.0
230
1.0
 70
     8
 71
     3
 72
    10
 73
     6
 74
     0
 42
0.0000000001
 43
0.0000000001
 40
0.0
 40
0.0
 40
0.0
 40
0.0
 40
0.279750678730383
 40
0.5595040821127415
 40
1.0
 40
1.0
 40
1.0
 40
1.0
 10
12.73863971385166
 20
3.994697756868863
 30
0.0
 10
12.74013650983356
 20
3.995890263212468
 30
0.0
 10
12.74313011637551
 20
3.99827528751418
 30
0.0
 10
12.74781553354457
 20
3.997593831632519
 30
0.0
 10
12.75015874782363
 20
3.994262696655588
 30
0.0
 10
12.75159182980535
 20
3.992225414125862
 30
0.0
  0
SPLINE
  5
2B5
330
1F
100
AcDbEntity
  8
0
  6
Continuous
 62
     7
370
     5
100
AcDbSpline
210
0.0
220
0.0
230
1.0
 70
     8
 71
     3
 72
    11
 73
     7
 74
     0
 42
0.0000000001
 43
0.0000000001
 40
0.0
 40
0.0
 40
0.0
 40
0.0
 40
0.2795552266270402
 40
0.5587984292119863
 40
0.7793803088732223
 40
1.0
 40
1.0
 40
1.0
 40
1.0
 10
12.72666154258795
 20
3.962169072427716
 30
0.0
 10
12.72687211843499
 20
3.965544873470096
 30
0.0
 10
12.72729303509601
 20
3.972292707672925
 30
0.0
 10
12.73061378183205
 20
3.982417056414944
 30
0.0
 10
12.73458319765663
 20
3.990101567776339
 30
0.0
 10
12.73728746453377
 20
3.993165606307515
 30
0.0
 10
12.73863971385166
 20
3.994697756868861
 30
0.0
  0
SPLINE
  5
2B6
330
1F
100
AcDbEntity
  8
0
  6
Continuous
 62
     7
370
     5
100
AcDbSpline
210
0.0
220
0.0
230
1.0
 70
     8
 71
     3
 72
     9
 73
     5
 74
     0
 42
0.0000000001
 43
0.0000000001
 40
0.0
 40
0.0
 40
0.0
 40
0.0
 40
0.5598414372731279
 40
1.0
 40
1.0
 40
1.0
 40
1.0
 10
12.72937851219395
 20
3.951227453158015
 30
0.0
 10
12.72852183239816
 20
3.952707387653586
 30
0.0
 10
12.72699161377062
 20
3.955350876322053
 30
0.0
 10
12.72676242290845
 20
3.960085213416677
 30
0.0
 10
12.72666154258795
 20
3.962169072427716
 30
0.0
  0
SPLINE
  5
2B7
330
1F
100
AcDbEntity
  8
0
  6
Continuous
 62
     7
370
     5
100
AcDbSpline
210
0.0
220
0.0
230
1.0
 70
     8
 71
     3
 72
     9
 73
     5
 74
     0
 42
0.0000000001
 43
0.0000000001
 40
0.0
 40
0.0
 40
0.0
 40
0.0
 40
0.5604105435417183
 40
1.0
 40
1.0
 40
1.0
 40
1.0
 10
12.73734454332501
 20
3.946857709144366
 30
0.0
 10
12.7357595929632
 20
3.947367937392881
 30
0.0
 10
12.73293139784794
 20
3.948278391798833
 30
0.0
 10
12.73046341252195
 20
3.95032693511509
 30
0.0
 10
12.72937851219395
 20
3.951227453158015
 30
0.0
  0
SPLINE
  5
2B8
330
1F
100
AcDbEntity
  8
0
  6
Continuous
 62
     7
370
     5
100
AcDbSpline
210
0.0
220
0.0
230
1.0
 70
     8
 71
     3
 72
     9
 73
     5
 74
     0
 42
0.0000000001
 43
0.0000000001
 40
0.0
 40
0.0
 40
0.0
 40
0.0
 40
0.5594961189934431
 40
1.0
 40
1.0
 40
1.0
 40
1.0
 10
12.74610908726464
 20
3.941174662609363
 30
0.0
 10
12.74461111657641
 20
3.942656096331601
 30
0.0
 10
12.74193375986672
 20
3.94530389614995
 30
0.0
 10
12.73874791871613
 20
3.946382555509984
 30
0.0
 10
12.73734454332501
 20
3.946857709144366
 30
0.0
  0
SPLINE
  5
2B9
330
1F
100
AcDbEntity
  8
0
  6
Continuous
 62
     7
370
     5
100
AcDbSpline
210
0.0
220
0.0
230
1.0
 70
     8
 71
     3
 72
     9
 73
     5
 74
     0
 42
0.0000000001
 43
0.0000000001
 40
0.0
 40
0.0
 40
0.0
 40
0.0
 40
0.5589854750643174
 40
1.0
 40
1.0
 40
1.0
 40
1.0
 10
12.74785224907641
 20
3.934111847578624
 30
0.0
 10
12.74773267576341
 20
3.935774046468286
 30
0.0
 10
12.74751876445743
 20
3.938747645897629
 30
0.0
 10
12.74654051117241
 20
3.940431887568851
 30
0.0
 10
12.74610908726464
 20
3.941174662609363
 30
0.0
  0
SPLINE
  5
2BA
330
1F
100
AcDbEntity
  8
0
  6
Continuous
 62
     7
370
     5
100
AcDbSpline
210
0.0
220
0.0
230
1.0
 70
     8
 71
     3
 72
    11
 73
     7
 74
     0
 42
0.0000000001
 43
0.0000000001
 40
0.0
 40
0.0
 40
0.0
 40
0.0
 40
0.2802771284793814
 40
0.5601458596310062
 40
0.7801510117643231
 40
1.0
 40
1.0
 40
1.0
 40
1.0
 10
12.73832813916413
 20
3.909684167618473
 30
0.0
 10
12.73963500179284
 20
3.911200417405874
 30
0.0
 10
12.74224682279497
 20
3.914230707623226
 30
0.0
 10
12.74543955964962
 20
3.920955506399063
 30
0.0
 10
12.74746738823569
 20
3.928079205425932
 30
0.0
 10
12.74772399249739
 20
3.932101442873613
 30
0.0
 10
12.74785224907641
 20
3.934111847578624
 30
0.0
  0
SPLINE
  5
2BB
330
1F
100
AcDbEntity
  8
0
  6
Continuous
 62
     7
370
     5
100
AcDbSpline
210
0.0
220
0.0
230
1.0
 70
     8
 71
     3
 72
    10
 73
     6
 74
     0
 42
0.0000000001
 43
0.0000000001
 40
0.0
 40
0.0
 40
0.0
 40
0.0
 40
0.5593173366449682
 40
0.77978085288194
 40
1.0
 40
1.0
 40
1.0
 40
1.0
 10
12.7276548580241
 20
3.914148147626301
 30
0.0
 10
12.72909959634213
 20
3.911480387220266
 30
0.0
 10
12.73111380045135
 20
3.907761088088258
 30
0.0
 10
12.7352324713662
 20
3.907254460370602
 30
0.0
 10
12.73729663144026
 20
3.90887456466476
 30
0.0
 10
12.73832813916413
 20
3.909684167618473
 30
0.0
  0
LINE
  5
2BC
330
1F
100
AcDbEntity
  8
0
  6
Continuous
 62
     7
370
     5
100
AcDbLine
 10
12.72354524812979
 20
3.90561175418384
 30
0.0
 11
12.72765485802409
 21
3.914148147626303
 31
0.0
  0
SPLINE
  5
2BD
330
1F
100
AcDbEntity
  8
0
  6
Continuous
 62
     7
370
     5
100
AcDbSpline
210
0.0
220
0.0
230
1.0
 70
     8
 71
     3
 72
    10
 73
     6
 74
     0
 42
0.0000000001
 43
0.0000000001
 40
0.0
 40
0.0
 40
0.0
 40
0.0
 40
0.2798799422186424
 40
0.5596663850305022
 40
1.0
 40
1.0
 40
1.0
 40
1.0
 10
12.73832813916413
 20
3.900526480830508
 30
0.0
 10
12.73652948387854
 20
3.899101798342421
 30
0.0
 10
12.73293277418353
 20
3.896252909309501
 30
0.0
 10
12.72739201232585
 20
3.897574993072055
 30
0.0
 10
12.72500490104327
 20
3.902562208858509
 30
0.0
 10
12.7235452481298
 20
3.905611754183837
 30
0.0
  0
LINE
  5
2BE
330
1F
100
AcDbEntity
  8
0
  6
Continuous
 62
     7
370
     5
100
AcDbLine
 10
12.69923817873531
 20
3.746492989476665
 30
0.0
 11
12.69459296428699
 21
3.677568551103164
 31
0.0
  0
LINE
  5
2BF
330
1F
100
AcDbEntity
  8
0
  6
Continuous
 62
     7
370
     5
100
AcDbLine
 10
12.71685494833134
 20
3.699296930003122
 30
0.0
 11
12.69923817873531
 21
3.746492989476665
 31
0.0
  0
LINE
  5
2C0
330
1F
100
AcDbEntity
  8
0
  6
Continuous
 62
     7
370
     5
100
AcDbLine
 10
12.71783854417047
 20
3.700256949695633
 30
0.0
 11
12.71685494833134
 21
3.699296930003122
 31
0.0
  0
LINE
  5
2C1
330
1F
100
AcDbEntity
  8
0
  6
Continuous
 62
     7
370
     5
100
AcDbLine
 10
12.73538713969164
 20
3.781632418283443
 30
0.0
 11
12.71783854417047
 21
3.700256949695633
 31
0.0
  0
LINE
  5
2C2
330
1F
100
AcDbEntity
  8
0
  6
Continuous
 62
     7
370
     5
100
AcDbLine
 10
12.74004207373697
 20
3.721928275233208
 30
0.0
 11
12.73538713969164
 21
3.781632418283443
 31
0.0
  0
LINE
  5
2C3
330
1F
100
AcDbEntity
  8
0
  6
Continuous
 62
     7
370
     5
100
AcDbLine
 10
12.74442437993072
 20
3.726205540424117
 30
0.0
 11
12.74004207373697
 21
3.721928275233208
 31
0.0
  0
LINE
  5
2C4
330
1F
100
AcDbEntity
  8
0
  6
Continuous
 62
     7
370
     5
100
AcDbLine
 10
12.73796782959579
 20
3.809191949843682
 30
0.0
 11
12.74442437993072
 21
3.726205540424117
 31
0.0
  0
LINE
  5
2C5
330
1F
100
AcDbEntity
  8
0
  6
Continuous
 62
     7
370
     5
100
AcDbLine
 10
12.73733482372799
 20
3.808574116711022
 30
0.0
 11
12.73796782959579
 21
3.809191949843682
 31
0.0
  0
LINE
  5
2C6
330
1F
100
AcDbEntity
  8
0
  6
Continuous
 62
     7
370
     5
100
AcDbLine
 10
12.71731265921347
 20
3.715769747451215
 30
0.0
 11
12.73733482372799
 21
3.808574116711022
 31
0.0
  0
LINE
  5
2C7
330
1F
100
AcDbEntity
  8
0
  6
Continuous
 62
     7
370
     5
100
AcDbLine
 10
12.697241828266
 20
3.769442124032524
 30
0.0
 11
12.71731265921347
 21
3.715769747451215
 31
0.0
  0
LINE
  5
2C8
330
1F
100
AcDbEntity
  8
0
  6
Continuous
 62
     7
370
     5
100
AcDbLine
 10
12.69661854199522
 20
3.76883377752452
 30
0.0
 11
12.697241828266
 21
3.769442124032524
 31
0.0
  0
LINE
  5
2C9
330
1F
100
AcDbEntity
  8
0
  6
Continuous
 62
     7
370
     5
100
AcDbLine
 10
12.69020093849622
 20
3.673281799287601
 30
0.0
 11
12.69661854199522
 21
3.76883377752452
 31
0.0
  0
LINE
  5
2CA
330
1F
100
AcDbEntity
  8
0
  6
Continuous
 62
     7
370
     5
100
AcDbLine
 10
12.69459296428699
 20
3.677568551103164
 30
0.0
 11
12.69020093849622
 21
3.673281799287601
 31
0.0
  0
LINE
  5
2CB
330
1F
100
AcDbEntity
  8
0
  6
Continuous
 62
     7
370
     5
100
AcDbLine
 10
12.68427999271529
 20
3.555056352760536
 30
0.0
 11
12.68427999271529
 21
3.484942168993536
 31
0.0
  0
LINE
  5
2CC
330
1F
100
AcDbEntity
  8
0
  6
Continuous
 62
     7
370
     5
100
AcDbLine
 10
12.71631934377733
 20
3.516213557841791
 30
0.0
 11
12.68427999271529
 21
3.555056352760536
 31
0.0
  0
LINE
  5
2CD
330
1F
100
AcDbEntity
  8
0
  6
Continuous
 62
     7
370
     5
100
AcDbLine
 10
12.71731265921347
 20
3.517183064158961
 30
0.0
 11
12.71631934377733
 21
3.516213557841791
 31
0.0
  0
LINE
  5
2CE
330
1F
100
AcDbEntity
  8
0
  6
Continuous
 62
     7
370
     5
100
AcDbLine
 10
12.71731265921347
 20
3.606471390356548
 30
0.0
 11
12.71731265921347
 21
3.517183064158961
 31
0.0
  0
LINE
  5
2CF
330
1F
100
AcDbEntity
  8
0
  6
Continuous
 62
     7
370
     5
100
AcDbLine
 10
12.71294986066163
 20
3.602213165222172
 30
0.0
 11
12.71731265921347
 21
3.606471390356548
 31
0.0
  0
LINE
  5
2D0
330
1F
100
AcDbEntity
  8
0
  6
Continuous
 62
     7
370
     5
100
AcDbLine
 10
12.71294986066163
 20
3.531937938723096
 30
0.0
 11
12.71294986066163
 21
3.602213165222172
 31
0.0
  0
LINE
  5
2D1
330
1F
100
AcDbEntity
  8
0
  6
Continuous
 62
     7
370
     5
100
AcDbLine
 10
12.68083261592771
 20
3.57086574976222
 30
0.0
 11
12.71294986066163
 21
3.531937938723096
 31
0.0
  0
LINE
  5
2D2
330
1F
100
AcDbEntity
  8
0
  6
Continuous
 62
     7
370
     5
100
AcDbLine
 10
12.67991719416345
 20
3.569972270056747
 30
0.0
 11
12.68083261592771
 21
3.57086574976222
 31
0.0
  0
LINE
  5
2D3
330
1F
100
AcDbEntity
  8
0
  6
Continuous
 62
     7
370
     5
100
AcDbLine
 10
12.67991719416345
 20
3.48068394385916
 30
0.0
 11
12.67991719416345
 21
3.569972270056747
 31
0.0
  0
LINE
  5
2D4
330
1F
100
AcDbEntity
  8
0
  6
Continuous
 62
     7
370
     5
100
AcDbLine
 10
12.68427999271529
 20
3.484942168993536
 30
0.0
 11
12.67991719416345
 21
3.48068394385916
 31
0.0
  0
LINE
  5
2D5
330
1F
100
AcDbEntity
  8
0
  6
Continuous
 62
     7
370
     5
100
AcDbLine
 10
12.77028952810642
 20
3.56889011227947
 30
0.0
 11
12.76592672955457
 21
3.564631887145096
 31
0.0
  0
LINE
  5
2D6
330
1F
100
AcDbEntity
  8
0
  6
Continuous
 62
     7
370
     5
100
AcDbLine
 10
12.77028952810642
 20
3.610100079974567
 30
0.0
 11
12.77028952810642
 21
3.56889011227947
 31
0.0
  0
LINE
  5
2D7
330
1F
100
AcDbEntity
  8
0
  6
Continuous
 62
     7
370
     5
100
AcDbLine
 10
12.77383430620779
 20
3.6135598920717
 30
0.0
 11
12.77028952810642
 21
3.610100079974567
 31
0.0
  0
LINE
  5
2D8
330
1F
100
AcDbEntity
  8
0
  6
Continuous
 62
     7
370
     5
100
AcDbLine
 10
12.79169454486435
 20
3.589782064836335
 30
0.0
 11
12.77383430620779
 21
3.6135598920717
 31
0.0
  0
LINE
  5
2D9
330
1F
100
AcDbEntity
  8
0
  6
Continuous
 62
     7
370
     5
100
AcDbLine
 10
12.79708960568828
 20
3.595047809593728
 30
0.0
 11
12.79169454486435
 21
3.589782064836335
 31
0.0
  0
LINE
  5
2DA
330
1F
100
AcDbEntity
  8
0
  6
Continuous
 62
     7
370
     5
100
AcDbLine
 10
12.77922943547959
 20
3.618825703636309
 30
0.0
 11
12.79708960568828
 21
3.595047809593728
 31
0.0
  0
SPLINE
  5
2DB
330
1F
100
AcDbEntity
  8
0
  6
Continuous
 62
     7
370
     5
100
AcDbSpline
210
0.0
220
0.0
230
1.0
 70
     8
 71
     3
 72
    11
 73
     7
 74
     0
 42
0.0000000001
 43
0.0000000001
 40
0.0
 40
0.0
 40
0.0
 40
0.0
 40
0.1871194473216325
 40
0.3739780681303479
 40
0.5609127983921887
 40
0.9999999999999998
 40
0.9999999999999998
 40
0.9999999999999998
 40
0.9999999999999998
 10
12.79646638786537
 20
3.65984965671315
 30
0.0
 10
12.79633893733673
 20
3.656901412428412
 30
0.0
 10
12.79608421393325
 20
3.651009033427913
 30
0.0
 10
12.7936805057021
 20
3.641162297979672
 30
0.0
 10
12.78820161030761
 20
3.628312037163172
 30
0.0
 10
12.78292818053186
 20
3.62273640866259
 30
0.0
 10
12.77922943547959
 20
3.618825703636309
 30
0.0
  0
SPLINE
  5
2DC
330
1F
100
AcDbEntity
  8
0
  6
Continuous
 62
     7
370
     5
100
AcDbSpline
210
0.0
220
0.0
230
1.0
 70
     8
 71
     3
 72
    11
 73
     7
 74
     0
 42
0.0000000001
 43
0.0000000001
 40
0.0
 40
0.0
 40
0.0
 40
0.0
 40
0.2797977417705304
 40
0.5594975648966083
 40
0.7796245225097721
 40
1.0
 40
1.0
 40
1.0
 40
1.0
 10
12.78666951320579
 20
3.672949499736872
 30
0.0
 10
12.78819468986685
 20
3.673508926790563
 30
0.0
 10
12.79124450943474
 20
3.674627585119605
 30
0.0
 10
12.79445386754757
 20
3.67174321569603
 30
0.0
 10
12.79622506976205
 20
3.666543443939671
 30
0.0
 10
12.79638591824878
 20
3.662081758177203
 30
0.0
 10
12.79646638786537
 20
3.65984965671315
 30
0.0
  0
SPLINE
  5
2DD
330
1F
100
AcDbEntity
  8
0
  6
Continuous
 62
     7
370
     5
100
AcDbSpline
210
0.0
220
0.0
230
1.0
 70
     8
 71
     3
 72
     9
 73
     5
 74
     0
 42
0.0000000001
 43
0.0000000001
 40
0.0
 40
0.0
 40
0.0
 40
0.0
 40
0.5602417419969722
 40
1.0
 40
1.0
 40
1.0
 40
1.0
 10
12.7756554301393
 20
3.663415723360476
 30
0.0
 10
12.77772080973211
 20
3.665443819648625
 30
0.0
 10
12.78140739614293
 20
3.669063857457509
 30
0.0
 10
12.7850622576682
 20
3.671762673218948
 30
0.0
 10
12.78666951320579
 20
3.672949499736872
 30
0.0
  0
LINE
  5
2DE
330
1F
100
AcDbEntity
  8
0
  6
Continuous
 62
     7
370
     5
100
AcDbLine
 10
12.76592672955457
 20
3.653920213342683
 30
0.0
 11
12.7756554301393
 21
3.663415723360476
 31
0.0
  0
LINE
  5
2DF
330
1F
100
AcDbEntity
  8
0
  6
Continuous
 62
     7
370
     5
100
AcDbLine
 10
12.76592672955457
 20
3.564631887145096
 30
0.0
 11
12.76592672955457
 21
3.653920213342683
 31
0.0
  0
SPLINE
  5
2E0
330
1F
100
AcDbEntity
  8
0
  6
Continuous
 62
     7
370
     5
100
AcDbSpline
210
0.0
220
0.0
230
1.0
 70
     8
 71
     3
 72
    11
 73
     7
 74
     0
 42
0.0000000001
 43
0.0000000001
 40
0.0
 40
0.0
 40
0.0
 40
0.0
 40
0.4994068681951159
 40
0.7487431818622114
 40
0.8743722885424615
 40
1.0
 40
1.0
 40
1.0
 40
1.0
 10
12.75346162016982
 20
3.414513475047227
 30
0.0
 10
12.75318997713081
 20
3.403532184628881
 30
0.0
 10
12.75278271226058
 20
3.387068321489596
 30
0.0
 10
12.7461738044809
 20
3.365814960023062
 30
0.0
 10
12.74097156175306
 20
3.356062948229985
 30
0.0
 10
12.73811205543696
 20
3.352846667234216
 30
0.0
 10
12.73668231021829
 20
3.351238535666296
 30
0.0
  0
SPLINE
  5
2E1
330
1F
100
AcDbEntity
  8
0
  6
Continuous
 62
     7
370
     5
100
AcDbSpline
210
0.0
220
0.0
230
1.0
 70
     8
 71
     3
 72
    11
 73
     7
 74
     0
 42
0.0000000001
 43
0.0000000001
 40
0.0
 40
0.0
 40
0.0
 40
0.0
 40
0.1256001269727872
 40
0.2511979809648308
 40
0.5005824912872567
 40
1.0
 40
1.0
 40
1.0
 40
1.0
 10
12.73668231021829
 20
3.445105705257864
 30
0.0
 10
12.73811319876623
 20
3.446291909537113
 30
0.0
 10
12.74097494996738
 20
3.448664296628913
 30
0.0
 10
12.74619091202428
 20
3.449095299630867
 30
0.0
 10
12.75276179372933
 20
3.440612528145622
 30
0.0
 10
12.7531816168774
 20
3.424955808137208
 30
0.0
 10
12.75346162016982
 20
3.414513475047227
 30
0.0
  0
SPLINE
  5
2E2
330
1F
100
AcDbEntity
  8
0
  6
Continuous
 62
     7
370
     5
100
AcDbSpline
210
0.0
220
0.0
230
1.0
 70
     8
 71
     3
 72
    12
 73
     8
 74
     0
 42
0.0000000001
 43
0.0000000001
 40
0.0
 40
0.0
 40
0.0
 40
0.0
 40
0.4987027495083649
 40
0.6241762242933929
 40
0.7494672709206589
 40
0.8747449414933706
 40
1.0
 40
1.0
 40
1.0
 40
1.0
 10
12.72042895367163
 20
3.382272579881804
 30
0.0
 10
12.72061707231072
 20
3.393117666893793
 30
0.0
 10
12.72085252154774
 20
3.406691374818906
 30
0.0
 10
12.72538283929649
 20
3.424524994389911
 30
0.0
 10
12.72853871357759
 20
3.432933420916699
 30
0.0
 10
12.73241934456076
 20
3.44030780246581
 30
0.0
 10
12.73526140717012
 20
3.443506500561011
 30
0.0
 10
12.73668231021829
 20
3.445105705257864
 30
0.0
  0
SPLINE
  5
2E3
330
1F
100
AcDbEntity
  8
0
  6
Continuous
 62
     7
370
     5
100
AcDbSpline
210
0.0
220
0.0
230
1.0
 70
     8
 71
     3
 72
    11
 73
     7
 74
     0
 42
0.0000000001
 43
0.0000000001
 40
0.0
 40
0.0
 40
0.0
 40
0.0
 40
0.1255494131197967
 40
0.2510898867869271
 40
0.5002495871371821
 40
0.9999999999999998
 40
0.9999999999999998
 40
0.9999999999999998
 40
0.9999999999999998
 10
12.73668231021829
 20
3.351238535666296
 30
0.0
 10
12.73526352833157
 20
3.350065889401743
 30
0.0
 10
12.73242606557914
 20
3.347720680368178
 30
0.0
 10
12.72726371660445
 20
3.347356582346599
 30
0.0
 10
12.72087804071827
 20
3.356125961614472
 30
0.0
 10
12.72060869142443
 20
3.371807939572297
 30
0.0
 10
12.72042895367163
 20
3.382272579881804
 30
0.0
  0
LINE
  5
2E4
330
1F
100
AcDbEntity
  8
0
  6
Continuous
 62
     7
370
     5
100
AcDbLine
 10
12.30441875234881
 20
3.71925563514716
 30
0.0
 11
12.35040985014161
 21
3.706756240237096
 31
0.0
  0
LINE
  5
2E5
330
1F
100
AcDbEntity
  8
0
  6
Continuous
 62
     7
370
     5
100
AcDbLine
 10
12.30441875234881
 20
3.448926866184973
 30
0.0
 11
12.35040985014161
 21
3.436427471274907
 31
0.0
  0
LINE
  5
2E6
330
1F
100
AcDbEntity
  8
0
  6
Continuous
 62
     7
370
     5
100
AcDbLine
 10
12.30441875234881
 20
3.448926866184973
 30
0.0
 11
12.30441875234881
 21
3.71925563514716
 31
0.0
  0
LINE
  5
2E7
330
1F
100
AcDbEntity
  8
0
  6
Continuous
 62
     7
370
     5
100
AcDbLine
 10
12.30441875234881
 20
3.71925563514716
 30
0.0
 11
12.92853091508198
 21
4.328408239017552
 31
0.0
  0
LINE
  5
2E8
330
1F
100
AcDbEntity
  8
0
  6
Continuous
 62
     7
370
     5
100
AcDbLine
 10
12.92853091508198
 20
4.328408239017552
 30
0.0
 11
12.97452201287478
 21
4.315908844107488
 31
0.0
  0
LINE
  5
2E9
330
1F
100
AcDbEntity
  8
0
  6
Continuous
 62
     7
370
     5
100
AcDbLine
 10
12.37394428002099
 20
3.349904704491586
 30
0.0
 11
12.32795318222819
 21
3.36240409940165
 31
0.0
  0
ARC
  5
2EA
330
1F
100
AcDbEntity
  8
0
  6
Continuous
 62
     7
370
     5
100
AcDbCircle
 10
12.43033714729358
 20
3.436714916848119
 30
0.0
 40
0.12650918501071
100
AcDbArc
 50
174.4606048186644
 51
215.9723412550642
  0
ARC
  5
2EB
330
1F
100
AcDbEntity
  8
0
  6
Continuous
 62
     7
370
     5
100
AcDbCircle
 10
12.25856010334347
 20
3.626908426588366
 30
0.0
 40
0.1717792557318994
100
AcDbArc
 50
325.6444105554522
 51
3.946558589393384
  0
LINE
  5
2EC
330
1F
100
AcDbEntity
  8
0
  6
Continuous
 62
     7
370
     5
100
AcDbLine
 10
12.55623461948711
 20
3.136939392662538
 30
0.0
 11
12.60222571727991
 21
3.124439997752474
 31
0.0
  0
LINE
  5
2ED
330
1F
100
AcDbEntity
  8
0
  6
Continuous
 62
     7
370
     5
100
AcDbLine
 10
12.32795318222819
 20
3.36240409940165
 30
0.0
 11
12.55623461948711
 21
3.136939392662538
 31
0.0
  0
ARC
  5
2EE
330
1F
100
AcDbEntity
  8
0
  6
Continuous
 62
     7
370
     5
100
AcDbCircle
 10
13.88439857087648
 20
2.355934983821066
 30
0.0
 40
0.1194838955048646
100
AcDbArc
 50
128.7632367004311
 51
182.0169116572903
  0
LINE
  5
2EF
330
1F
100
AcDbEntity
  8
0
  6
Continuous
 62
     7
370
     5
100
AcDbLine
 10
13.76498869774705
 20
1.654672707297608
 30
0.0
 11
13.76498869774705
 21
2.35172981031329
 31
0.0
  0
ARC
  5
2F0
330
1F
100
AcDbEntity
  8
0
  6
Continuous
 62
     7
370
     5
100
AcDbCircle
 10
13.99082088233707
 20
1.667648673618038
 30
0.0
 40
0.2262046668365865
100
AcDbArc
 50
183.2885106414982
 51
245.2138800856967
  0
LINE
  5
2F1
330
1F
100
AcDbEntity
  8
0
  6
Continuous
 62
     7
370
     5
100
AcDbLine
 10
14.04861430353965
 20
1.389360248856699
 30
0.0
 11
13.89598861167671
 21
1.4622821920782
 31
0.0
  0
LWPOLYLINE
  5
2F2
330
1F
100
AcDbEntity
  8
0
  6
Continuous
 62
     7
370
     5
100
AcDbPolyline
 90
       11
 70
   128
 43
0.0
 10
14.19117010341292
 20
0.8524049220750571
 10
14.23391110828408
 20
0.8888606540287556
 10
14.26489698779881
 20
0.9363367727901852
 10
14.28267080375087
 20
0.9925795179930322
 10
14.28638163781466
 20
1.054924524738299
 10
14.27585930632506
 20
1.120414805778434
 10
14.25159775699302
 20
1.185946694905055
 10
14.21474676726338
 20
1.24841384841926
 10
14.1670579836405
 20
1.304853347002178
 10
14.11079360362413
 20
1.352589253165384
 10
14.04861430353965
 20
1.389360248856699
  0
LINE
  5
2F3
330
1F
100
AcDbEntity
  8
0
  6
Continuous
 62
     7
370
     5
100
AcDbLine
 10
13.81757960108953
 20
0.6162949388587364
 30
0.0
 11
14.19117010341292
 21
0.8524049220750571
 31
0.0
  0
ARC
  5
2F4
330
1F
100
AcDbEntity
  8
0
  6
Continuous
 62
     7
370
     5
100
AcDbCircle
 10
13.8829147864239
 20
0.5180120514135714
 30
0.0
 40
0.118017847833433
100
AcDbArc
 50
123.6146345680946
 51
182.2595223120204
  0
LINE
  5
2F5
330
1F
100
AcDbEntity
  8
0
  6
Continuous
 62
     7
370
     5
100
AcDbLine
 10
13.76498869774705
 20
0.2642062495785612
 30
0.0
 11
13.76498869774705
 21
0.5133590935786604
 31
0.0
  0
LINE
  5
2F6
330
1F
100
AcDbEntity
  8
0
  6
Continuous
 62
     7
370
     5
100
AcDbLine
 10
13.76498869774705
 20
0.2642062495785612
 30
0.0
 11
13.04374617415688
 21
0.4602245131324935
 31
0.0
  0
LINE
  5
2F7
330
1F
100
AcDbEntity
  8
0
  6
Continuous
 62
     7
370
     5
100
AcDbLine
 10
13.04374617415688
 20
1.745975542934458
 30
0.0
 11
13.04374617415688
 21
0.4602245131324935
 31
0.0
  0
ARC
  5
2F8
330
1F
100
AcDbEntity
  8
0
  6
Continuous
 62
     7
370
     5
100
AcDbCircle
 10
12.97257013848334
 20
1.743196245515281
 30
0.0
 40
0.0712302783115864
100
AcDbArc
 50
2.236162061071111
 51
46.2697299049073
  0
LINE
  5
2F9
330
1F
100
AcDbEntity
  8
0
  6
Continuous
 62
     7
370
     5
100
AcDbLine
 10
13.0218090846411
 20
4.323439444839184
 30
0.0
 11
13.0218090846411
 21
1.794667390146224
 31
0.0
  0
LINE
  5
2FA
330
1F
100
AcDbEntity
  8
0
  6
Continuous
 62
     7
370
     5
100
AcDbLine
 10
13.0218090846411
 20
4.323439444839184
 30
0.0
 11
13.76498869774705
 21
4.121459150409831
 31
0.0
  0
LINE
  5
2FB
330
1F
100
AcDbEntity
  8
0
  6
Continuous
 62
     7
370
     5
100
AcDbLine
 10
13.76498869774705
 20
3.851130381447641
 30
0.0
 11
13.76498869774705
 21
4.121459150409831
 31
0.0
  0
ARC
  5
2FC
330
1F
100
AcDbEntity
  8
0
  6
Continuous
 62
     7
370
     5
100
AcDbCircle
 10
13.9693382973225
 20
3.857087328737804
 30
0.0
 40
0.2044364059253289
100
AcDbArc
 50
181.6697429848452
 51
218.6099760517817
  0
LINE
  5
2FD
330
1F
100
AcDbEntity
  8
0
  6
Continuous
 62
     7
370
     5
100
AcDbLine
 10
14.24219614720055
 20
3.163668142383254
 30
0.0
 11
13.8095892704712
 21
3.729515809628993
 31
0.0
  0
ARC
  5
2FE
330
1F
100
AcDbEntity
  8
0
  6
Continuous
 62
     7
370
     5
100
AcDbCircle
 10
14.08242633651985
 20
3.036088994907777
 30
0.0
 40
0.204457406995967
100
AcDbArc
 50
1.6717453033417
 51
38.6080120255557
  0
LINE
  5
2FF
330
1F
100
AcDbEntity
  8
0
  6
Continuous
 62
     7
370
     5
100
AcDbLine
 10
14.28679671992469
 20
3.042053696281022
 30
0.0
 11
14.28679671992469
 21
2.877173973395972
 31
0.0
  0
ARC
  5
300
330
1F
100
AcDbEntity
  8
0
  6
Continuous
 62
     7
370
     5
100
AcDbCircle
 10
14.1673749192113
 20
2.872974304613263
 30
0.0
 40
0.1194956221102444
100
AcDbArc
 50
308.7660564951292
 51
2.014072607384619
  0
LINE
  5
301
330
1F
100
AcDbEntity
  8
0
  6
Continuous
 62
     7
370
     5
100
AcDbLine
 10
13.8095892704712
 20
2.449101339647034
 30
0.0
 11
14.24219614720055
 21
2.77980248727725
 31
0.0
  0
LWPOLYLINE
  5
302
330
1F
100
AcDbEntity
  8
0
  6
Continuous
 62
     7
370
     5
100
AcDbPolyline
 90
        9
 70
   128
 43
0.0
 10
13.37584506876034
 20
1.642003461016433
 10
13.3917510152172
 20
1.640747229046926
 10
13.40523703297251
 20
1.645815160834188
 10
13.41424846558155
 20
1.656436028273845
 10
13.41741139126008
 20
1.670993520111948
 10
13.41424846558155
 20
1.687270242802298
 10
13.40523703297251
 20
1.702789338824944
 10
13.3917510152172
 20
1.715187691923178
 10
13.37584506876034
 20
1.722577187942999
  0
LINE
  5
303
330
1F
100
AcDbEntity
  8
0
  6
Continuous
 62
     7
370
     5
100
AcDbLine
 10
13.37584506876034
 20
1.722577187942999
 30
0.0
 11
13.18303942864522
 21
1.774977629601159
 31
0.0
  0
LWPOLYLINE
  5
304
330
1F
100
AcDbEntity
  8
0
  6
Continuous
 62
     7
370
     5
100
AcDbPolyline
 90
        9
 70
   128
 43
0.0
 10
13.18303942864522
 20
1.694403902674593
 10
13.16713348218836
 20
1.701793461552623
 10
13.15364746443306
 20
1.714191814650858
 10
13.14463603182401
 20
1.729710910673504
 10
13.14147310614548
 20
1.745987633363855
 10
13.14463603182401
 20
1.760545125201956
 10
13.15364746443306
 20
1.771165992641613
 10
13.16713348218836
 20
1.776233924428875
 10
13.18303942864522
 20
1.774977629601159
  0
LINE
  5
305
330
1F
100
AcDbEntity
  8
0
  6
Continuous
 62
     7
370
     5
100
AcDbLine
 10
13.18303942864522
 20
1.694403902674593
 30
0.0
 11
13.37584506876034
 21
1.642003461016433
 31
0.0
  0
LWPOLYLINE
  5
306
330
1F
100
AcDbEntity
  8
0
  6
Continuous
 62
     7
370
     5
100
AcDbPolyline
 90
       17
 70
   128
 43
0.0
 10
13.41387489168251
 20
1.070823192488043
 10
13.41939548374609
 20
1.096220847322898
 10
13.43511464325342
 20
1.114751663439742
 10
13.45864149725068
 20
1.123594021413654
 10
13.48639803794928
 20
1.121400753456713
 10
13.51415042782677
 20
1.10850788349558
 10
13.53767728182402
 20
1.086877335927763
 10
13.55339644133137
 20
1.059802258344419
 10
13.55891703339494
 20
1.031403846247762
 10
13.55339644133137
 20
1.006006317129329
 10
13.53767728182402
 20
0.9874755010124854
 10
13.51415042782677
 20
0.9786331430385709
 10
13.48639803794928
 20
0.9808252828912809
 10
13.45864149725068
 20
0.9937192809566452
 10
13.43511464325342
 20
1.015349828524464
 10
13.41939548374609
 20
1.042424906107808
 10
13.41387489168251
 20
1.070823192488043
  0
LWPOLYLINE
  5
307
330
1F
100
AcDbEntity
  8
0
  6
Continuous
 62
     7
370
     5
100
AcDbPolyline
 90
       17
 70
   128
 43
0.0
 10
13.93833528854333
 20
3.110034067620824
 10
13.94385588060691
 20
3.135431659597467
 10
13.95957504011425
 20
3.153962475714311
 10
13.98310189411151
 20
3.162804833688225
 10
14.0108584348101
 20
3.160611565731282
 10
14.0386108246876
 20
3.147718695770151
 10
14.06213767868486
 20
3.12608814820233
 10
14.0778568381922
 20
3.099013070618988
 10
14.08337743025577
 20
3.070614721380543
 10
14.0778568381922
 20
3.045217129403898
 10
14.06213767868486
 20
3.026686313287054
 10
14.0386108246876
 20
3.017843955313142
 10
14.0108584348101
 20
3.02003609516585
 10
13.98310189411151
 20
3.032930093231216
 10
13.95957504011425
 20
3.054560640799035
 10
13.94385588060691
 20
3.081635718382377
 10
13.93833528854333
 20
3.110034067620824
  0
LWPOLYLINE
  5
308
330
1F
100
AcDbEntity
  8
0
  6
Continuous
 62
     7
370
     5
100
AcDbPolyline
 90
       17
 70
   128
 43
0.0
 10
13.93833528854333
 20
1.074261713769578
 10
13.94385588060691
 20
1.099659242888011
 10
13.95957504011425
 20
1.118190184721274
 10
13.98310189411151
 20
1.127032542695189
 10
14.0108584348101
 20
1.124839149021827
 10
14.0386108246876
 20
1.111946404777114
 10
14.06213767868486
 20
1.090315857209293
 10
14.0778568381922
 20
1.063240653909533
 10
14.08337743025577
 20
1.034842367529297
 10
14.0778568381922
 20
1.009444838410861
 10
14.06213767868486
 20
0.9909140222940177
 10
14.0386108246876
 20
0.9820716643201054
 10
14.0108584348101
 20
0.9842638041728132
 10
13.98310189411151
 20
0.9971578022381796
 10
13.95957504011425
 20
1.018788349805998
 10
13.94385588060691
 20
1.04586342738934
 10
13.93833528854333
 20
1.074261713769578
  0
LWPOLYLINE
  5
309
330
1F
100
AcDbEntity
  8
0
  6
Continuous
 62
     7
370
     5
100
AcDbPolyline
 90
       17
 70
   128
 43
0.0
 10
13.46870723841923
 20
0.55902113426777
 10
13.47422783048281
 20
0.5844186633862033
 10
13.48995114081124
 20
0.6029483513988124
 10
13.5134779948085
 20
0.6117907093727269
 10
13.541230384686
 20
0.6095985695200169
 10
13.5689827745635
 20
0.5967056995588856
 10
13.59250962856075
 20
0.5750751519910687
 10
13.60823293888919
 20
0.5479989463034898
 10
13.61375353095277
 20
0.5196006599232542
 10
13.60823293888919
 20
0.4942030050883998
 10
13.59250962856075
 20
0.4756733170757907
 10
13.5689827745635
 20
0.4668309591018761
 10
13.541230384686
 20
0.469023098954584
 10
13.5134779948085
 20
0.4819159689157174
 10
13.48995114081124
 20
0.5035465164835366
 10
13.47422783048281
 20
0.5306227221711133
 10
13.46870723841923
 20
0.55902113426777
  0
LWPOLYLINE
  5
30A
330
1F
100
AcDbEntity
  8
0
  6
Continuous
 62
     7
370
     5
100
AcDbPolyline
 90
       17
 70
   128
 43
0.0
 10
13.46870723841923
 20
2.273355699239417
 10
13.47422783048281
 20
2.298753259786958
 10
13.48995114081124
 20
2.317282979228671
 10
13.5134779948085
 20
2.326125352917137
 10
13.541230384686
 20
2.323933181635323
 10
13.5689827745635
 20
2.311040343103296
 10
13.59250962856075
 20
2.289409779820926
 10
13.60823293888919
 20
2.262333542704244
 10
13.61375353095277
 20
2.233935224894902
 10
13.60823293888919
 20
2.208537648632812
 10
13.59250962856075
 20
2.190007929191096
 10
13.5689827745635
 20
2.181165571217182
 10
13.541230384686
 20
2.183357742498994
 10
13.5134779948085
 20
2.196250581031023
 10
13.48995114081124
 20
2.217881128598842
 10
13.47422783048281
 20
2.244957365715526
 10
13.46870723841923
 20
2.273355699239417
  0
LWPOLYLINE
  5
30B
330
1F
100
AcDbEntity
  8
0
  6
Continuous
 62
     7
370
     5
100
AcDbPolyline
 90
       17
 70
   128
 43
0.0
 10
13.46870723841923
 20
3.987690295640172
 10
13.47422783048281
 20
4.013087824758608
 10
13.48995114081124
 20
4.031617638487636
 10
13.5134779948085
 20
4.040459996461549
 10
13.541230384686
 20
4.038267730892421
 10
13.5689827745635
 20
4.025374986647707
 10
13.59250962856075
 20
4.00374443907989
 10
13.60823293888919
 20
3.976668107675894
 10
13.61375353095277
 20
3.948269821295657
 10
13.60823293888919
 20
3.922872292177223
 10
13.59250962856075
 20
3.904342478448196
 10
13.5689827745635
 20
3.895500120474281
 10
13.541230384686
 20
3.897692386043408
 10
13.5134779948085
 20
3.910585130288122
 10
13.48995114081124
 20
3.932215677855941
 10
13.47422783048281
 20
3.959292009259937
 10
13.46870723841923
 20
3.987690295640172
  0
LINE
  5
30C
330
1F
100
AcDbEntity
  8
0
  6
Continuous
 62
     7
370
     5
100
AcDbLine
 10
12.69666251888305
 20
3.871169802292502
 30
0.0
 11
12.6930006264824
 21
3.866219591132249
 31
0.0
  0
LINE
  5
30D
330
1F
100
AcDbEntity
  8
0
  6
Continuous
 62
     7
370
     5
100
AcDbLine
 10
12.6930006264824
 20
3.866219591132249
 30
0.0
 11
12.68784431181622
 21
3.862488160591638
 31
0.0
  0
LINE
  5
30E
330
1F
100
AcDbEntity
  8
0
  6
Continuous
 62
     7
370
     5
100
AcDbLine
 10
12.68490356456137
 20
3.891905922473689
 30
0.0
 11
12.68926607753792
 21
3.890720284924006
 31
0.0
  0
LINE
  5
30F
330
1F
100
AcDbEntity
  8
0
  6
Continuous
 62
     7
370
     5
100
AcDbLine
 10
12.68497792492915
 20
3.880252148255216
 30
0.0
 11
12.68946081171762
 21
3.879033795682755
 31
0.0
  0
LINE
  5
310
330
1F
100
AcDbEntity
  8
0
  6
Continuous
 62
     7
370
     5
100
AcDbLine
 10
12.6930006264824
 20
3.866219591132249
 30
0.0
 11
12.70096190135303
 21
3.864055887211896
 31
0.0
  0
LINE
  5
311
330
1F
100
AcDbEntity
  8
0
  6
Continuous
 62
     7
370
     5
100
AcDbLine
 10
12.71170364214323
 20
3.917634298218827
 30
0.0
 11
12.71606615511978
 21
3.916448660669144
 31
0.0
  0
LINE
  5
312
330
1F
100
AcDbEntity
  8
0
  6
Continuous
 62
     7
370
     5
100
AcDbLine
 10
12.74156295023656
 20
3.996617647375401
 30
0.0
 11
12.74363055493471
 21
3.994389118046217
 31
0.0
  0
LINE
  5
313
330
1F
100
AcDbEntity
  8
0
  6
Continuous
 62
     7
370
     5
100
AcDbLine
 10
12.74363055493471
 20
3.994389118046217
 30
0.0
 11
12.74082658809061
 21
3.987748614220063
 31
0.0
  0
SPLINE
  5
314
330
1F
100
AcDbEntity
  8
0
  6
Continuous
 62
     7
370
     5
100
AcDbSpline
210
0.0
220
0.0
230
1.0
 70
     8
 71
     3
 72
     9
 73
     5
 74
     0
 42
0.0000000001
 43
0.0000000001
 40
0.0
 40
0.0
 40
0.0
 40
0.0
 40
0.5599077956384287
 40
1.0
 40
1.0
 40
1.0
 40
1.0
 10
12.72626697399622
 20
3.960557135727894
 30
0.0
 10
12.72746618543546
 20
3.960017857647607
 30
0.0
 10
12.72960798708313
 20
3.959054702491547
 30
0.0
 10
12.73182550545468
 20
3.958353943860803
 30
0.0
 10
12.73280141800304
 20
3.958045545450267
 30
0.0
  0
SPLINE
  5
315
330
1F
100
AcDbEntity
  8
0
  6
Continuous
 62
     7
370
     5
100
AcDbSpline
210
0.0
220
0.0
230
1.0
 70
     8
 71
     3
 72
    10
 73
     6
 74
     0
 42
0.0000000001
 43
0.0000000001
 40
0.0
 40
0.0
 40
0.0
 40
0.0
 40
0.5601167907982939
 40
0.7802851181241904
 40
1.0
 40
1.0
 40
1.0
 40
1.0
 10
12.73280141800304
 20
3.958045545450267
 30
0.0
 10
12.73584849797263
 20
3.956874452151882
 30
0.0
 10
12.74009331118491
 20
3.955243030477552
 30
0.0
 10
12.74370752216735
 20
3.948023714819671
 30
0.0
 10
12.74407181440216
 20
3.942945201963315
 30
0.0
 10
12.74425377275762
 20
3.940408563080545
 30
0.0
  0
LINE
  5
316
330
1F
100
AcDbEntity
  8
0
  6
Continuous
 62
     7
370
     5
100
AcDbLine
 10
12.73411020965508
 20
3.907404348287645
 30
0.0
 11
12.73036686429351
 21
3.902690184750862
 31
0.0
  0
LINE
  5
317
330
1F
100
AcDbEntity
  8
0
  6
Continuous
 62
     7
370
     5
100
AcDbLine
 10
12.73036686429351
 20
3.902690184750862
 30
0.0
 11
12.7268961467835
 21
3.900467294962162
 31
0.0
  0
LINE
  5
318
330
1F
100
AcDbEntity
  8
0
  6
Continuous
 62
     7
370
     5
100
AcDbLine
 10
12.7272803005072
 20
3.967820488239369
 30
0.0
 11
12.73102434113979
 21
3.966802938220518
 31
0.0
  0
LINE
  5
319
330
1F
100
AcDbEntity
  8
0
  6
Continuous
 62
     7
370
     5
100
AcDbLine
 10
12.73296846862403
 20
3.986473746825737
 30
0.0
 11
12.73815284417847
 21
3.98506474463777
 31
0.0
  0
LINE
  5
31A
330
1F
100
AcDbEntity
  8
0
  6
Continuous
 62
     7
370
     5
100
AcDbLine
 10
12.72626697399622
 20
3.960557135727894
 30
0.0
 11
12.73422824886685
 21
3.958393431807541
 31
0.0
  0
LINE
  5
31B
330
1F
100
AcDbEntity
  8
0
  6
Continuous
 62
     7
370
     5
100
AcDbLine
 10
12.74363055493471
 20
3.994389118046217
 30
0.0
 11
12.75159182980534
 21
3.992225414125865
 31
0.0
  0
LINE
  5
31C
330
1F
100
AcDbEntity
  8
0
  6
Continuous
 62
     7
370
     5
100
AcDbLine
 10
13.78925682030559
 20
4.145145582000656
 30
0.0
 11
13.76498869774705
 21
4.121459150409831
 31
0.0
  0
LINE
  5
31D
330
1F
100
AcDbEntity
  8
0
  6
Continuous
 62
     7
370
     5
100
AcDbLine
 10
13.04607720719964
 20
4.34712587643001
 30
0.0
 11
13.0218090846411
 21
4.323439444839184
 31
0.0
  0
LINE
  5
31E
330
1F
100
AcDbEntity
  8
0
  6
Continuous
 62
     7
370
     5
100
AcDbLine
 10
13.04607720719964
 20
4.34712587643001
 30
0.0
 11
13.78925682030559
 21
4.145145582000656
 31
0.0
  0
LINE
  5
31F
330
1F
100
AcDbEntity
  8
0
  6
Continuous
 62
     7
370
     5
100
AcDbLine
 10
13.76498869774705
 20
3.851130381447641
 30
0.0
 11
13.78925682030559
 21
3.874816813038469
 31
0.0
  0
LINE
  5
320
330
1F
100
AcDbEntity
  8
0
  6
Continuous
 62
     7
370
     5
100
AcDbLine
 10
13.78925682030559
 20
3.874816813038469
 30
0.0
 11
13.78925682030559
 21
4.145145582000656
 31
0.0
  0
LINE
  5
321
330
1F
100
AcDbEntity
  8
0
  6
Continuous
 62
     7
370
     5
100
AcDbLine
 10
12.73280141800304
 20
3.958045545450267
 30
0.0
 11
12.74076269287367
 21
3.955881841529917
 31
0.0
  0
LINE
  5
322
330
1F
100
AcDbEntity
  8
0
  6
Continuous
 62
     7
370
     5
100
AcDbLine
 10
14.24219614720055
 20
3.163668142383254
 30
0.0
 11
14.26646426975909
 21
3.187354573974082
 31
0.0
  0
LINE
  5
323
330
1F
100
AcDbEntity
  8
0
  6
Continuous
 62
     7
370
     5
100
AcDbLine
 10
13.83385739302975
 20
3.753202241219822
 30
0.0
 11
13.8095892704712
 21
3.729515809628993
 31
0.0
  0
LINE
  5
324
330
1F
100
AcDbEntity
  8
0
  6
Continuous
 62
     7
370
     5
100
AcDbLine
 10
14.26646426975909
 20
3.187354573974082
 30
0.0
 11
13.83385739302975
 21
3.753202241219822
 31
0.0
  0
LINE
  5
325
330
1F
100
AcDbEntity
  8
0
  6
Continuous
 62
     7
370
     5
100
AcDbLine
 10
12.73036686429351
 20
3.902690184750862
 30
0.0
 11
12.73832813916413
 21
3.900526480830508
 31
0.0
  0
LINE
  5
326
330
1F
100
AcDbEntity
  8
0
  6
Continuous
 62
     7
370
     5
100
AcDbLine
 10
12.74678162280779
 20
3.939721547602185
 30
0.0
 11
12.75221504762825
 21
3.938244859160193
 31
0.0
  0
LINE
  5
327
330
1F
100
AcDbEntity
  8
0
  6
Continuous
 62
     7
370
     5
100
AcDbLine
 10
12.69565777265323
 20
3.754552034539287
 30
0.0
 11
12.69860739655688
 21
3.746664352382442
 31
0.0
  0
LINE
  5
328
330
1F
100
AcDbEntity
  8
0
  6
Continuous
 62
     7
370
     5
100
AcDbLine
 10
12.73210742508634
 20
3.784352349031817
 30
0.0
 11
12.73225280835443
 21
3.782484167743268
 31
0.0
  0
LINE
  5
329
330
1F
100
AcDbEntity
  8
0
  6
Continuous
 62
     7
370
     5
100
AcDbLine
 10
12.71300828004925
 20
3.716939564846672
 30
0.0
 11
12.71200490277676
 21
3.712286804120697
 31
0.0
  0
SPLINE
  5
32A
330
1F
100
AcDbEntity
  8
0
  6
Continuous
 62
     7
370
     5
100
AcDbSpline
210
0.0
220
0.0
230
1.0
 70
     8
 71
     3
 72
     9
 73
     5
 74
     0
 42
0.0000000001
 43
0.0000000001
 40
0.0
 40
0.0
 40
0.0
 40
0.0
 40
0.4951074015716981
 40
1.0
 40
1.0
 40
1.0
 40
1.0
 10
12.7823124291845
 20
4.03380050412445
 30
0.0
 10
12.78286189157414
 20
4.032347527967893
 30
0.0
 10
12.78397167581063
 20
4.029412859344597
 30
0.0
 10
12.78408506505345
 20
4.02502173481045
 30
0.0
 10
12.78414231444289
 20
4.022804688534382
 30
0.0
  0
LINE
  5
32B
330
1F
100
AcDbEntity
  8
0
  6
Continuous
 62
     7
370
     5
100
AcDbLine
 10
12.76583244175242
 20
3.980924118438699
 30
0.0
 11
12.76206534498123
 21
3.977128263056013
 31
0.0
  0
SPLINE
  5
32C
330
1F
100
AcDbEntity
  8
0
  6
Continuous
 62
     7
370
     5
100
AcDbSpline
210
0.0
220
0.0
230
1.0
 70
     8
 71
     3
 72
     9
 73
     5
 74
     0
 42
0.0000000001
 43
0.0000000001
 40
0.0
 40
0.0
 40
0.0
 40
0.0
 40
0.1348192722340127
 40
1.0
 40
1.0
 40
1.0
 40
1.0
 10
12.77637245489673
 20
4.026828715772628
 30
0.0
 10
12.7761456895687
 20
4.026927654022267
 30
0.0
 10
12.77446369467089
 20
4.027661512379451
 30
0.0
 10
12.77222019235491
 20
4.025318409966318
 30
0.0
 10
12.77027915738839
 20
4.0232912029153
 30
0.0
  0
LINE
  5
32D
330
1F
100
AcDbEntity
  8
0
  6
Continuous
 62
     7
370
     5
100
AcDbLine
 10
12.70996155504461
 20
3.717767620049204
 30
0.0
 11
12.71731265921347
 21
3.715769747451215
 31
0.0
  0
LINE
  5
32E
330
1F
100
AcDbEntity
  8
0
  6
Continuous
 62
     7
370
     5
100
AcDbLine
 10
12.7621875028488
 20
3.981914737079635
 30
0.0
 11
12.76655001582535
 21
3.980729099529952
 31
0.0
  0
LINE
  5
32F
330
1F
100
AcDbEntity
  8
0
  6
Continuous
 62
     7
370
     5
100
AcDbLine
 10
12.7621875028488
 20
4.011677470573358
 30
0.0
 11
12.76655001582535
 21
4.010491833023675
 31
0.0
  0
LINE
  5
330
330
1F
100
AcDbEntity
  8
0
  6
Continuous
 62
     7
370
     5
100
AcDbLine
 10
12.76655001582535
 20
4.010491833023675
 30
0.0
 11
12.76655001582535
 21
3.980729099529952
 31
0.0
  0
SPLINE
  5
331
330
1F
100
AcDbEntity
  8
0
  6
Continuous
 62
     7
370
     5
100
AcDbSpline
210
0.0
220
0.0
230
1.0
 70
     8
 71
     3
 72
    11
 73
     7
 74
     0
 42
0.0000000001
 43
0.0000000001
 40
0.0
 40
0.0
 40
0.0
 40
0.0
 40
0.248970858139897
 40
0.3747284986414663
 40
0.5003836352968641
 40
1.0
 40
1.0
 40
1.0
 40
1.0
 10
12.78774079076168
 20
4.016346930300389
 30
0.0
 10
12.78752032532588
 20
4.018693787350617
 30
0.0
 10
12.78718850062007
 20
4.02222606508597
 30
0.0
 10
12.78539785617927
 20
4.024503215946508
 30
0.0
 10
12.78196483268431
 20
4.025674539525374
 30
0.0
 10
12.7783386499949
 20
4.022058915132975
 30
0.0
 10
12.77544118831769
 20
4.019169889947693
 30
0.0
  0
SPLINE
  5
332
330
1F
100
AcDbEntity
  8
0
  6
Continuous
 62
     7
370
     5
100
AcDbSpline
210
0.0
220
0.0
230
1.0
 70
     8
 71
     3
 72
    11
 73
     7
 74
     0
 42
0.0000000001
 43
0.0000000001
 40
0.0
 40
0.0
 40
0.0
 40
0.0
 40
0.4997188879070162
 40
0.6253481466458318
 40
0.7510822038744404
 40
1.0
 40
1.0
 40
1.0
 40
1.0
 10
12.77506137110745
 20
3.988839697018002
 30
0.0
 10
12.77802336947731
 20
3.991711857399525
 30
0.0
 10
12.78173001382433
 20
3.995306078500468
 30
0.0
 10
12.78531879760564
 20
4.003275925693802
 30
0.0
 10
12.78718937126916
 20
4.00920333075394
 30
0.0
 10
12.7875206740114
 20
4.013495333759423
 30
0.0
 10
12.78774079076169
 20
4.016346930300386
 30
0.0
  0
LINE
  5
333
330
1F
100
AcDbEntity
  8
0
  6
Continuous
 62
     7
370
     5
100
AcDbLine
 10
12.76655001582535
 20
3.980729099529952
 30
0.0
 11
12.77506137110744
 21
3.988839697018004
 31
0.0
  0
LINE
  5
334
330
1F
100
AcDbEntity
  8
0
  6
Continuous
 62
     7
370
     5
100
AcDbLine
 10
12.77544118831769
 20
4.019169889947693
 30
0.0
 11
12.76655001582535
 21
4.010491833023675
 31
0.0
  0
LINE
  5
335
330
1F
100
AcDbEntity
  8
0
  6
Continuous
 62
     7
370
     5
100
AcDbLine
 10
12.76810253661213
 20
4.021164378232982
 30
0.0
 11
12.77544118831769
 21
4.019169889947693
 31
0.0
  0
LINE
  5
336
330
1F
100
AcDbEntity
  8
0
  6
Continuous
 62
     7
370
     5
100
AcDbLine
 10
12.69056251699847
 20
3.678663940314146
 30
0.0
 11
12.69459296428699
 21
3.677568551103164
 31
0.0
  0
LINE
  5
337
330
1F
100
AcDbEntity
  8
0
  6
Continuous
 62
     7
370
     5
100
AcDbLine
 10
12.69519112816239
 20
3.747592891104581
 30
0.0
 11
12.69923817873531
 21
3.746492989476665
 31
0.0
  0
LINE
  5
338
330
1F
100
AcDbEntity
  8
0
  6
Continuous
 62
     7
370
     5
100
AcDbLine
 10
12.78671997434626
 20
4.022104135805217
 30
0.0
 11
12.79210358931353
 21
4.020640984614029
 31
0.0
  0
LINE
  5
339
330
1F
100
AcDbEntity
  8
0
  6
Continuous
 62
     7
370
     5
100
AcDbLine
 10
12.7621875028488
 20
3.972756924575251
 30
0.0
 11
12.76655001582535
 21
3.971571287025568
 31
0.0
  0
LINE
  5
33A
330
1F
100
AcDbEntity
  8
0
  6
Continuous
 62
     7
370
     5
100
AcDbLine
 10
12.76218571879314
 20
3.977095548033234
 30
0.0
 11
12.77002661985186
 21
3.974964559135661
 31
0.0
  0
LINE
  5
33B
330
1F
100
AcDbEntity
  8
0
  6
Continuous
 62
     7
370
     5
100
AcDbLine
 10
12.7621875028488
 20
3.931546956880154
 30
0.0
 11
12.76655001582535
 21
3.93036131933047
 31
0.0
  0
LINE
  5
33C
330
1F
100
AcDbEntity
  8
0
  6
Continuous
 62
     7
370
     5
100
AcDbLine
 10
12.77444284109709
 20
3.990675686452803
 30
0.0
 11
12.78240411596772
 21
3.988511982532451
 31
0.0
  0
LINE
  5
33D
330
1F
100
AcDbEntity
  8
0
  6
Continuous
 62
     7
370
     5
100
AcDbLine
 10
12.32795318222819
 20
2.081989629419691
 30
0.0
 11
12.37394428002099
 21
2.069490234509627
 31
0.0
  0
LINE
  5
33E
330
1F
100
AcDbEntity
  8
0
  6
Continuous
 62
     7
370
     5
100
AcDbLine
 10
12.60222571727991
 20
2.740574342646471
 30
0.0
 11
12.55623461948711
 21
2.753073737556535
 31
0.0
  0
LINE
  5
33F
330
1F
100
AcDbEntity
  8
0
  6
Continuous
 62
     7
370
     5
100
AcDbLine
 10
12.55623461948711
 20
2.753073737556535
 30
0.0
 11
12.32795318222819
 21
2.081989629419691
 31
0.0
  0
LINE
  5
340
330
1F
100
AcDbEntity
  8
0
  6
Continuous
 62
     7
370
     5
100
AcDbLine
 10
12.71634424857431
 20
3.700663067219787
 30
0.0
 11
12.71783854417047
 21
3.700256949695633
 31
0.0
  0
LINE
  5
341
330
1F
100
AcDbEntity
  8
0
  6
Continuous
 62
     7
370
     5
100
AcDbLine
 10
12.73173441712326
 20
3.782625150009152
 30
0.0
 11
12.73538713969164
 21
3.781632418283443
 31
0.0
  0
LINE
  5
342
330
1F
100
AcDbEntity
  8
0
  6
Continuous
 62
     7
370
     5
100
AcDbLine
 10
12.73960527663312
 20
3.727515269439511
 30
0.0
 11
12.74442437993072
 21
3.726205540424117
 31
0.0
  0
LINE
  5
343
330
1F
100
AcDbEntity
  8
0
  6
Continuous
 62
     7
370
     5
100
AcDbLine
 10
12.704988585791
 20
3.534101642643448
 30
0.0
 11
12.71294986066163
 21
3.531937938723096
 31
0.0
  0
LINE
  5
344
330
1F
100
AcDbEntity
  8
0
  6
Continuous
 62
     7
370
     5
100
AcDbLine
 10
12.67991565322017
 20
3.564491331102613
 30
0.0
 11
12.704988585791
 21
3.534101642643448
 31
0.0
  0
LINE
  5
345
330
1F
100
AcDbEntity
  8
0
  6
Continuous
 62
     7
370
     5
100
AcDbLine
 10
12.70935138434284
 20
3.532915969708261
 30
0.0
 11
12.70935138434284
 21
3.524659795357237
 31
0.0
  0
SPLINE
  5
346
330
1F
100
AcDbEntity
  8
0
  6
Continuous
 62
     7
370
     5
100
AcDbSpline
210
0.0
220
0.0
230
1.0
 70
     8
 71
     3
 72
     9
 73
     5
 74
     0
 42
0.0000000001
 43
0.0000000001
 40
0.0
 40
0.0
 40
0.0
 40
0.0
 40
0.5965675869639721
 40
1.0
 40
1.0
 40
1.0
 40
1.0
 10
12.7745216930391
 20
3.843636026830008
 30
0.0
 10
12.77508783752274
 20
3.842207435885403
 30
0.0
 10
12.7760368406131
 20
3.839812751735903
 30
0.0
 10
12.77615892658093
 20
3.836209336980255
 30
0.0
 10
12.77620818001754
 20
3.834755602670212
 30
0.0
  0
LINE
  5
347
330
1F
100
AcDbEntity
  8
0
  6
Continuous
 62
     7
370
     5
100
AcDbLine
 10
12.75804170560703
 20
3.790759515427841
 30
0.0
 11
12.75427460883583
 21
3.786963785761576
 31
0.0
  0
SPLINE
  5
348
330
1F
100
AcDbEntity
  8
0
  6
Continuous
 62
     7
370
     5
100
AcDbSpline
210
0.0
220
0.0
230
1.0
 70
     8
 71
     3
 72
     9
 73
     5
 74
     0
 42
0.0000000001
 43
0.0000000001
 40
0.0
 40
0.0
 40
0.0
 40
0.0
 40
0.1348192722340127
 40
1.0
 40
1.0
 40
1.0
 40
1.0
 10
12.76858171875133
 20
3.836664238478189
 30
0.0
 10
12.76835495342331
 20
3.83676317672783
 30
0.0
 10
12.7666729585255
 20
3.837497035085013
 30
0.0
 10
12.76442945620951
 20
3.835153932671879
 30
0.0
 10
12.762488421243
 20
3.833126725620861
 30
0.0
  0
LINE
  5
349
330
1F
100
AcDbEntity
  8
0
  6
Continuous
 62
     7
370
     5
100
AcDbLine
 10
12.67991747973874
 20
3.486127806543219
 30
0.0
 11
12.68427999271529
 21
3.484942168993536
 31
0.0
  0
LINE
  5
34A
330
1F
100
AcDbEntity
  8
0
  6
Continuous
 62
     7
370
     5
100
AcDbLine
 10
12.67991747973874
 20
3.556241990310219
 30
0.0
 11
12.68427999271529
 21
3.555056352760536
 31
0.0
  0
ARC
  5
34B
330
1F
100
AcDbEntity
  8
0
  6
Continuous
 62
     7
370
     5
100
AcDbCircle
 10
13.99360641988101
 20
3.880773760328621
 30
0.0
 40
0.2044364059252964
100
AcDbArc
 50
181.6697429848422
 51
218.6099760517847
  0
LINE
  5
34C
330
1F
100
AcDbEntity
  8
0
  6
Continuous
 62
     7
370
     5
100
AcDbLine
 10
12.7543967667034
 20
3.791750134068777
 30
0.0
 11
12.75875927967996
 21
3.790564496519094
 31
0.0
  0
LINE
  5
34D
330
1F
100
AcDbEntity
  8
0
  6
Continuous
 62
     7
370
     5
100
AcDbLine
 10
12.7543967667034
 20
3.8215128675625
 30
0.0
 11
12.75875927967996
 21
3.820327230012818
 31
0.0
  0
LINE
  5
34E
330
1F
100
AcDbEntity
  8
0
  6
Continuous
 62
     7
370
     5
100
AcDbLine
 10
12.75875927967996
 20
3.820327230012818
 30
0.0
 11
12.75875927967996
 21
3.790564496519094
 31
0.0
  0
SPLINE
  5
34F
330
1F
100
AcDbEntity
  8
0
  6
Continuous
 62
     7
370
     5
100
AcDbSpline
210
0.0
220
0.0
230
1.0
 70
     8
 71
     3
 72
    11
 73
     7
 74
     0
 42
0.0000000001
 43
0.0000000001
 40
0.0
 40
0.0
 40
0.0
 40
0.0
 40
0.2489710110474976
 40
0.3747287287842067
 40
0.5003839426117909
 40
0.9999999999999998
 40
0.9999999999999998
 40
0.9999999999999998
 40
0.9999999999999998
 10
12.77995005461628
 20
3.826182453005949
 30
0.0
 10
12.77972958919727
 20
3.828529310264239
 30
0.0
 10
12.77939776451671
 20
3.83206158831275
 30
0.0
 10
12.77760711995738
 20
3.834338737703299
 30
0.0
 10
12.7741741000056
 20
3.835510069449119
 30
0.0
 10
12.77054791499137
 20
3.831894370768002
 30
0.0
 10
12.7676504521723
 20
3.829005286936834
 30
0.0
  0
SPLINE
  5
350
330
1F
100
AcDbEntity
  8
0
  6
Continuous
 62
     7
370
     5
100
AcDbSpline
210
0.0
220
0.0
230
1.0
 70
     8
 71
     3
 72
    11
 73
     7
 74
     0
 42
0.0000000001
 43
0.0000000001
 40
0.0
 40
0.0
 40
0.0
 40
0.0
 40
0.4997188030008247
 40
0.6253511955516789
 40
0.7510825442210273
 40
1.0
 40
1.0
 40
1.0
 40
1.0
 10
12.76727063496205
 20
3.798675094007148
 30
0.0
 10
12.77023260851902
 20
3.801547343900767
 30
0.0
 10
12.77393924051671
 20
3.805141695152133
 30
0.0
 10
12.77752812489502
 20
3.813111431652981
 30
0.0
 10
12.77939860748371
 20
3.81903890340785
 30
0.0
 10
12.77972992593713
 20
3.823330864803369
 30
0.0
 10
12.77995005461628
 20
3.826182453005949
 30
0.0
  0
LINE
  5
351
330
1F
100
AcDbEntity
  8
0
  6
Continuous
 62
     7
370
     5
100
AcDbLine
 10
12.75875927967996
 20
3.790564496519094
 30
0.0
 11
12.76727063496205
 21
3.798675094007148
 31
0.0
  0
LINE
  5
352
330
1F
100
AcDbEntity
  8
0
  6
Continuous
 62
     7
370
     5
100
AcDbLine
 10
12.7676504521723
 20
3.829005286936834
 30
0.0
 11
12.75875927967996
 21
3.820327230012818
 31
0.0
  0
LINE
  5
353
330
1F
100
AcDbEntity
  8
0
  6
Continuous
 62
     7
370
     5
100
AcDbLine
 10
12.76031180046673
 20
3.830999775222124
 30
0.0
 11
12.7676504521723
 21
3.829005286936834
 31
0.0
  0
LINE
  5
354
330
1F
100
AcDbEntity
  8
0
  6
Continuous
 62
     7
370
     5
100
AcDbLine
 10
13.49297536097777
 20
4.011376727231001
 30
0.0
 11
13.49825935623862
 21
4.036280377392696
 31
0.0
  0
ARC
  5
355
330
1F
100
AcDbEntity
  8
0
  6
Continuous
 62
     7
370
     5
100
AcDbCircle
 10
13.58381766214956
 20
4.010802387449506
 30
0.0
 40
0.0908441167515612
100
AcDbArc
 50
179.6377589888157
 51
285.7443494963995
  0
LINE
  5
356
330
1F
100
AcDbEntity
  8
0
  6
Continuous
 62
     7
370
     5
100
AcDbLine
 10
12.77892923820087
 20
3.831939532794361
 30
0.0
 11
12.78431285316813
 21
3.830476381603173
 31
0.0
  0
LINE
  5
357
330
1F
100
AcDbEntity
  8
0
  6
Continuous
 62
     7
370
     5
100
AcDbLine
 10
12.7543967667034
 20
3.741382479585716
 30
0.0
 11
12.75875927967996
 21
3.740196842036033
 31
0.0
  0
LINE
  5
358
330
1F
100
AcDbEntity
  8
0
  6
Continuous
 62
     7
370
     5
100
AcDbLine
 10
12.7543967667034
 20
3.782592447280814
 30
0.0
 11
12.75875927967996
 21
3.781406809731131
 31
0.0
  0
LINE
  5
359
330
1F
100
AcDbEntity
  8
0
  6
Continuous
 62
     7
370
     5
100
AcDbLine
 10
12.75439498264774
 20
3.786931070738796
 30
0.0
 11
12.76223588370646
 21
3.784800081841224
 31
0.0
  0
LINE
  5
35A
330
1F
100
AcDbEntity
  8
0
  6
Continuous
 62
     7
370
     5
100
AcDbLine
 10
12.7666521049517
 20
3.800511209158364
 30
0.0
 11
12.77461337982233
 21
3.798347505238012
 31
0.0
  0
LINE
  5
35B
330
1F
100
AcDbEntity
  8
0
  6
Continuous
 62
     7
370
     5
100
AcDbLine
 10
12.71500065186053
 20
3.517811418217167
 30
0.0
 11
12.71731265921347
 21
3.517183064158961
 31
0.0
  0
LINE
  5
35C
330
1F
100
AcDbEntity
  8
0
  6
Continuous
 62
     7
370
     5
100
AcDbLine
 10
12.73351840940282
 20
3.58643404052076
 30
0.0
 11
12.72977629610283
 21
3.582781623220184
 31
0.0
  0
LINE
  5
35D
330
1F
100
AcDbEntity
  8
0
  6
Continuous
 62
     7
370
     5
100
AcDbLine
 10
12.73351840940282
 20
3.542934525412252
 30
0.0
 11
12.72977629610283
 21
3.539282108111678
 31
0.0
  0
LINE
  5
35E
330
1F
100
AcDbEntity
  8
0
  6
Continuous
 62
     7
370
     5
100
AcDbLine
 10
12.7297781226214
 20
3.58745052444183
 30
0.0
 11
12.73414063559795
 21
3.586264886892147
 31
0.0
  0
LINE
  5
35F
330
1F
100
AcDbEntity
  8
0
  6
Continuous
 62
     7
370
     5
100
AcDbLine
 10
12.7297781226214
 20
3.614923836238562
 30
0.0
 11
12.73414063559795
 21
3.613738198688879
 31
0.0
  0
LINE
  5
360
330
1F
100
AcDbEntity
  8
0
  6
Continuous
 62
     7
370
     5
100
AcDbLine
 10
12.74986248074531
 20
3.638240438854835
 30
0.0
 11
12.75720113245088
 21
3.636245950569547
 31
0.0
  0
LINE
  5
361
330
1F
100
AcDbEntity
  8
0
  6
Continuous
 62
     7
370
     5
100
AcDbLine
 10
12.62576014715928
 20
3.03791735668557
 30
0.0
 11
12.57976904936648
 21
3.050416751595634
 31
0.0
  0
ARC
  5
362
330
1F
100
AcDbEntity
  8
0
  6
Continuous
 62
     7
370
     5
100
AcDbCircle
 10
12.45385339713166
 20
3.062629338985523
 30
0.0
 40
0.1265065167035886
100
AcDbArc
 50
354.4601972798144
 51
35.97279096255737
  0
LINE
  5
363
330
1F
100
AcDbEntity
  8
0
  6
Continuous
 62
     7
370
     5
100
AcDbLine
 10
12.7297781226214
 20
3.578292837653865
 30
0.0
 11
12.73414063559795
 21
3.577107200104182
 31
0.0
  0
LINE
  5
364
330
1F
100
AcDbEntity
  8
0
  6
Continuous
 62
     7
370
     5
100
AcDbLine
 10
12.74986248074531
 20
3.601609440270138
 30
0.0
 11
12.75720113245088
 21
3.59961495198485
 31
0.0
  0
LINE
  5
365
330
1F
100
AcDbEntity
  8
0
  6
Continuous
 62
     7
370
     5
100
AcDbLine
 10
12.7297781226214
 20
3.543951135049741
 30
0.0
 11
12.73414063559795
 21
3.542765497500058
 31
0.0
  0
SPLINE
  5
366
330
1F
100
AcDbEntity
  8
0
  6
Continuous
 62
     7
370
     5
100
AcDbSpline
210
0.0
220
0.0
230
1.0
 70
     8
 71
     3
 72
     9
 73
     5
 74
     0
 42
0.0000000001
 43
0.0000000001
 40
0.0
 40
0.0
 40
0.0
 40
0.0
 40
0.6896305801832611
 40
0.9999999999999998
 40
0.9999999999999998
 40
0.9999999999999998
 40
0.9999999999999998
 10
12.70455832250326
 20
3.378866511771931
 30
0.0
 10
12.70545983638349
 20
3.377276294190145
 30
0.0
 10
12.70676707812441
 20
3.374970396471165
 30
0.0
 10
12.70696692261862
 20
3.370936576053073
 30
0.0
 10
12.70702894823835
 20
3.369684601550261
 30
0.0
  0
LINE
  5
367
330
1F
100
AcDbEntity
  8
0
  6
Continuous
 62
     7
370
     5
100
AcDbLine
 10
12.69433173213887
 20
3.320882620279938
 30
0.0
 11
12.69052705748906
 21
3.316123746306134
 31
0.0
  0
LINE
  5
368
330
1F
100
AcDbEntity
  8
0
  6
Continuous
 62
     7
370
     5
100
AcDbLine
 10
12.69052705748906
 20
3.316123746306134
 30
0.0
 11
12.68667070470017
 21
3.313764143014879
 31
0.0
  0
LINE
  5
369
330
1F
100
AcDbEntity
  8
0
  6
Continuous
 62
     7
370
     5
100
AcDbLine
 10
12.6913937443725
 20
3.368482087463651
 30
0.0
 11
12.69022533929429
 21
3.367013694152384
 31
0.0
  0
LINE
  5
36A
330
1F
100
AcDbEntity
  8
0
  6
Continuous
 62
     7
370
     5
100
AcDbLine
 10
12.74986248074531
 20
3.558109925161632
 30
0.0
 11
12.75720113245088
 21
3.556115436876345
 31
0.0
  0
LINE
  5
36B
330
1F
100
AcDbEntity
  8
0
  6
Continuous
 62
     7
370
     5
100
AcDbLine
 10
12.69052419910912
 20
3.369980340622812
 30
0.0
 11
12.69441766930133
 21
3.368922178851544
 31
0.0
  0
LINE
  5
36C
330
1F
100
AcDbEntity
  8
0
  6
Continuous
 62
     7
370
     5
100
AcDbLine
 10
12.69314798667031
 20
3.396020765273104
 30
0.0
 11
12.69703730604141
 21
3.394963731606071
 31
0.0
  0
LINE
  5
36D
330
1F
100
AcDbEntity
  8
0
  6
Continuous
 62
     7
370
     5
100
AcDbLine
 10
14.31106484248324
 20
3.065740127871851
 30
0.0
 11
14.28679671992469
 21
3.042053696281022
 31
0.0
  0
ARC
  5
36E
330
1F
100
AcDbEntity
  8
0
  6
Continuous
 62
     7
370
     5
100
AcDbCircle
 10
14.10669445907839
 20
3.0597754264986
 30
0.0
 40
0.2044574069959803
100
AcDbArc
 50
1.671745303343216
 51
38.60801202555479
  0
LINE
  5
36F
330
1F
100
AcDbEntity
  8
0
  6
Continuous
 62
     7
370
     5
100
AcDbLine
 10
12.70623442677897
 20
3.413097640723387
 30
0.0
 11
12.71357307848454
 21
3.411103152438099
 31
0.0
  0
SPLINE
  5
370
330
1F
100
AcDbEntity
  8
0
  6
Continuous
 62
     7
370
     5
100
AcDbSpline
210
0.0
220
0.0
230
1.0
 70
     8
 71
     3
 72
     9
 73
     5
 74
     0
 42
0.0000000001
 43
0.0000000001
 40
0.0
 40
0.0
 40
0.0
 40
0.0
 40
0.4853516903455763
 40
1.0
 40
1.0
 40
1.0
 40
1.0
 10
12.78656530046302
 20
3.672870454730208
 30
0.0
 10
12.78713715561106
 20
3.671500490060453
 30
0.0
 10
12.78831538401621
 20
3.668677867419984
 30
0.0
 10
12.78844064674375
 20
3.664277831620255
 30
0.0
 10
12.78850511299474
 20
3.662013360633503
 30
0.0
  0
LINE
  5
371
330
1F
100
AcDbEntity
  8
0
  6
Continuous
 62
     7
370
     5
100
AcDbLine
 10
12.77161183734579
 20
3.620531827419914
 30
0.0
 11
12.78912833081765
 21
3.59721151351408
 31
0.0
  0
LINE
  5
372
330
1F
100
AcDbEntity
  8
0
  6
Continuous
 62
     7
370
     5
100
AcDbLine
 10
12.78912833081765
 20
3.59721151351408
 30
0.0
 11
12.78738845450347
 21
3.595513340893067
 31
0.0
  0
SPLINE
  5
373
330
1F
100
AcDbEntity
  8
0
  6
Continuous
 62
     7
370
     5
100
AcDbSpline
210
0.0
220
0.0
230
1.0
 70
     8
 71
     3
 72
     9
 73
     5
 74
     0
 42
0.0000000001
 43
0.0000000001
 40
0.0
 40
0.0
 40
0.0
 40
0.0
 40
0.1673103747839267
 40
0.9999999999999998
 40
0.9999999999999998
 40
0.9999999999999998
 40
0.9999999999999998
 10
12.78071615649387
 20
3.665865123195126
 30
0.0
 10
12.78042045272428
 20
3.665971497021706
 30
0.0
 10
12.77865305623149
 20
3.666607284412157
 30
0.0
 10
12.77636335034797
 20
3.664228487375449
 30
0.0
 10
12.77445673601396
 20
3.662247687762487
 30
0.0
  0
LINE
  5
374
330
1F
100
AcDbEntity
  8
0
  6
Continuous
 62
     7
370
     5
100
AcDbLine
 10
12.6913937443725
 20
3.368482087463651
 30
0.0
 11
12.69935501924313
 21
3.366318383543299
 31
0.0
  0
LINE
  5
375
330
1F
100
AcDbEntity
  8
0
  6
Continuous
 62
     7
370
     5
100
AcDbLine
 10
12.76592701512986
 20
3.620443530028635
 30
0.0
 11
12.77028952810642
 21
3.619257892478952
 31
0.0
  0
LINE
  5
376
330
1F
100
AcDbEntity
  8
0
  6
Continuous
 62
     7
370
     5
100
AcDbLine
 10
12.76592701512986
 20
3.650206263522358
 30
0.0
 11
12.77028952810642
 21
3.649020625972675
 31
0.0
  0
LINE
  5
377
330
1F
100
AcDbEntity
  8
0
  6
Continuous
 62
     7
370
     5
100
AcDbLine
 10
12.77028952810642
 20
3.649020625972675
 30
0.0
 11
12.77028952810642
 21
3.619257892478952
 31
0.0
  0
LINE
  5
378
330
1F
100
AcDbEntity
  8
0
  6
Continuous
 62
     7
370
     5
100
AcDbLine
 10
12.77206607875969
 20
3.659911831199626
 30
0.0
 11
12.77940473046525
 21
3.657917342914341
 31
0.0
  0
LINE
  5
379
330
1F
100
AcDbEntity
  8
0
  6
Continuous
 62
     7
370
     5
100
AcDbLine
 10
12.77940473046525
 20
3.657917342914341
 30
0.0
 11
12.77028952810642
 21
3.649020625972675
 31
0.0
  0
SPLINE
  5
37A
330
1F
100
AcDbEntity
  8
0
  6
Continuous
 62
     7
370
     5
100
AcDbSpline
210
0.0
220
0.0
230
1.0
 70
     8
 71
     3
 72
    12
 73
     8
 74
     0
 42
0.0000000001
 43
0.0000000001
 40
0.0
 40
0.0
 40
0.0
 40
0.0
 40
0.1253081949980822
 40
0.2506173511603968
 40
0.375955093463334
 40
0.5012810794455428
 40
1.0
 40
1.0
 40
1.0
 40
1.0
 10
12.79210358931353
 20
3.655609283310198
 30
0.0
 10
12.79205102105025
 20
3.656865716665701
 30
0.0
 10
12.79194588412046
 20
3.659378593014062
 30
0.0
 10
12.79097904942479
 20
3.66200019861266
 30
0.0
 10
12.7896112730868
 20
3.663687832280807
 30
0.0
 10
12.78600645330032
 20
3.664535160908788
 30
0.0
 10
12.78233714065399
 20
3.660856902389788
 30
0.0
 10
12.77940473046525
 20
3.657917342914341
 30
0.0
  0
SPLINE
  5
37B
330
1F
100
AcDbEntity
  8
0
  6
Continuous
 62
     7
370
     5
100
AcDbSpline
210
0.0
220
0.0
230
1.0
 70
     8
 71
     3
 72
    11
 73
     7
 74
     0
 42
0.0000000001
 43
0.0000000001
 40
0.0
 40
0.0
 40
0.0
 40
0.0
 40
0.4998304367322623
 40
0.6254983970271476
 40
0.7512101117157782
 40
1.0
 40
1.0
 40
1.0
 40
1.0
 10
12.77919042019579
 20
3.627820222474816
 30
0.0
 10
12.78217645666478
 20
3.630751929743778
 30
0.0
 10
12.78591324595883
 20
3.634420730325985
 30
0.0
 10
12.78959941605146
 20
3.642377712030574
 30
0.0
 10
12.79152963117211
 20
3.64836475116844
 30
0.0
 10
12.79187449107637
 20
3.65271759239591
 30
0.0
 10
12.79210358931353
 20
3.655609283310198
 30
0.0
  0
LINE
  5
37C
330
1F
100
AcDbEntity
  8
0
  6
Continuous
 62
     7
370
     5
100
AcDbLine
 10
12.77028952810642
 20
3.619257892478952
 30
0.0
 11
12.77919042019578
 21
3.627820222474818
 31
0.0
  0
LINE
  5
37D
330
1F
100
AcDbEntity
  8
0
  6
Continuous
 62
     7
370
     5
100
AcDbLine
 10
12.69052705748906
 20
3.316123746306134
 30
0.0
 11
12.69848833235968
 21
3.313960042385782
 31
0.0
  0
LINE
  5
37E
330
1F
100
AcDbEntity
  8
0
  6
Continuous
 62
     7
370
     5
100
AcDbLine
 10
12.71038716874868
 20
3.363344200185567
 30
0.0
 11
12.715442868849
 21
3.361970169228845
 31
0.0
  0
LINE
  5
37F
330
1F
100
AcDbEntity
  8
0
  6
Continuous
 62
     7
370
     5
100
AcDbLine
 10
12.79109107454031
 20
3.66131055169587
 30
0.0
 11
12.79646638786537
 21
3.65984965671315
 31
0.0
  0
LINE
  5
380
330
1F
100
AcDbEntity
  8
0
  6
Continuous
 62
     7
370
     5
100
AcDbLine
 10
12.77190738705842
 20
3.620815679504663
 30
0.0
 11
12.77922943547959
 21
3.618825703636309
 31
0.0
  0
LINE
  5
381
330
1F
100
AcDbEntity
  8
0
  6
Continuous
 62
     7
370
     5
100
AcDbLine
 10
12.76592701512986
 20
3.61128571752425
 30
0.0
 11
12.77028952810642
 21
3.610100079974567
 31
0.0
  0
LINE
  5
382
330
1F
100
AcDbEntity
  8
0
  6
Continuous
 62
     7
370
     5
100
AcDbLine
 10
12.76592699201146
 20
3.615708930637013
 30
0.0
 11
12.77383430620779
 21
3.6135598920717
 31
0.0
  0
LINE
  5
383
330
1F
100
AcDbEntity
  8
0
  6
Continuous
 62
     7
370
     5
100
AcDbLine
 10
12.76592701512986
 20
3.570075749829153
 30
0.0
 11
12.77028952810642
 21
3.56889011227947
 31
0.0
  0
SPLINE
  5
384
330
1F
100
AcDbEntity
  8
0
  6
Continuous
 62
     7
370
     5
100
AcDbSpline
210
0.0
220
0.0
230
1.0
 70
     8
 71
     3
 72
     9
 73
     5
 74
     0
 42
0.0000000001
 43
0.0000000001
 40
0.0
 40
0.0
 40
0.0
 40
0.0
 40
0.5135074231346922
 40
1.0
 40
1.0
 40
1.0
 40
1.0
 10
12.73974798661301
 20
3.447294738073823
 30
0.0
 10
12.74077214571313
 20
3.446581995963155
 30
0.0
 10
12.74276658445729
 20
3.445194008022656
 30
0.0
 10
12.74295414655651
 20
3.440447824751348
 30
0.0
 10
12.74304539412548
 20
3.438138841821414
 30
0.0
  0
LINE
  5
385
330
1F
100
AcDbEntity
  8
0
  6
Continuous
 62
     7
370
     5
100
AcDbLine
 10
12.73276705717414
 20
3.358421567654582
 30
0.0
 11
12.72872103534766
 21
3.353402239586648
 31
0.0
  0
LINE
  5
386
330
1F
100
AcDbEntity
  8
0
  6
Continuous
 62
     7
370
     5
100
AcDbLine
 10
12.72088167874687
 20
3.387629245525439
 30
0.0
 11
12.72479175222348
 21
3.386566571337238
 31
0.0
  0
LINE
  5
387
330
1F
100
AcDbEntity
  8
0
  6
Continuous
 62
     7
370
     5
100
AcDbLine
 10
12.73126212686936
 20
3.437603247129689
 30
0.0
 11
12.73682837796503
 21
3.436090459352217
 31
0.0
  0
SPLINE
  5
388
330
1F
100
AcDbEntity
  8
0
  6
Continuous
 62
     7
370
     5
100
AcDbSpline
210
0.0
220
0.0
230
1.0
 70
     8
 71
     3
 72
    12
 73
     8
 74
     0
 42
0.0000000001
 43
0.0000000001
 40
0.0
 40
0.0
 40
0.0
 40
0.0
 40
0.125138798689286
 40
0.2504174052004529
 40
0.3755183799563883
 40
0.5008471466707305
 40
1.0
 40
1.0
 40
1.0
 40
1.0
 10
12.73682837796503
 20
3.436090459352217
 30
0.0
 10
12.73571402352001
 20
3.434798575150134
 30
0.0
 10
12.73348406964864
 20
3.432213363424489
 30
0.0
 10
12.73052811539107
 20
3.426188511855948
 30
0.0
 10
12.72816886831234
 20
3.419495397304584
 30
0.0
 10
12.72495249092759
 20
3.405481876647568
 30
0.0
 10
12.72486315727974
 20
3.394969329388001
 30
0.0
 10
12.72479175222348
 20
3.386566571337238
 30
0.0
  0
SPLINE
  5
389
330
1F
100
AcDbEntity
  8
0
  6
Continuous
 62
     7
370
     5
100
AcDbSpline
210
0.0
220
0.0
230
1.0
 70
     8
 71
     3
 72
    11
 73
     7
 74
     0
 42
0.0000000001
 43
0.0000000001
 40
0.0
 40
0.0
 40
0.0
 40
0.0
 40
0.5000703935743858
 40
0.7490202249156974
 40
0.8745967811040722
 40
1.0
 40
1.0
 40
1.0
 40
1.0
 10
12.74909882161796
 20
3.410291016233913
 30
0.0
 10
12.74891878758116
 20
3.418405717572129
 30
0.0
 10
12.7486491272764
 20
3.430560157226171
 30
0.0
 10
12.74409931451728
 20
3.438393391549925
 30
0.0
 10
12.74016660419154
 20
3.438703356090751
 30
0.0
 10
12.73794060758462
 20
3.436961023822169
 30
0.0
 10
12.73682837796503
 20
3.436090459352217
 30
0.0
  0
SPLINE
  5
38A
330
1F
100
AcDbEntity
  8
0
  6
Continuous
 62
     7
370
     5
100
AcDbSpline
210
0.0
220
0.0
230
1.0
 70
     8
 71
     3
 72
     9
 73
     5
 74
     0
 42
0.0000000001
 43
0.0000000001
 40
0.0
 40
0.0
 40
0.0
 40
0.0
 40
0.5595989781844521
 40
1.0
 40
1.0
 40
1.0
 40
1.0
 10
12.74725825849241
 20
3.386047275096103
 30
0.0
 10
12.7478775177635
 20
3.390767705521352
 30
0.0
 10
12.74898413034719
 20
3.399203086230166
 30
0.0
 10
12.74906375488857
 20
3.406900893879436
 30
0.0
 10
12.74909882161796
 20
3.410291016233913
 30
0.0
  0
SPLINE
  5
38B
330
1F
100
AcDbEntity
  8
0
  6
Continuous
 62
     7
370
     5
100
AcDbSpline
210
0.0
220
0.0
230
1.0
 70
     8
 71
     3
 72
    10
 73
     6
 74
     0
 42
0.0000000001
 43
0.0000000001
 40
0.0
 40
0.0
 40
0.0
 40
0.0
 40
0.2802609941738539
 40
0.5607799207010763
 40
1.0
 40
1.0
 40
1.0
 40
1.0
 10
12.73682837796503
 20
3.360538851911205
 30
0.0
 10
12.73815618281211
 20
3.36214099833689
 30
0.0
 10
12.74081301452372
 20
3.365346765690268
 30
0.0
 10
12.74491677621803
 20
3.374448431736063
 30
0.0
 10
12.74637088805508
 20
3.381651567805171
 30
0.0
 10
12.74725825849241
 20
3.386047275096103
 30
0.0
  0
SPLINE
  5
38C
330
1F
100
AcDbEntity
  8
0
  6
Continuous
 62
     7
370
     5
100
AcDbSpline
210
0.0
220
0.0
230
1.0
 70
     8
 71
     3
 72
    11
 73
     7
 74
     0
 42
0.0000000001
 43
0.0000000001
 40
0.0
 40
0.0
 40
0.0
 40
0.0
 40
0.5002908988561043
 40
0.7490873009769823
 40
0.8746065355299966
 40
1.0
 40
1.0
 40
1.0
 40
1.0
 10
12.72479175222348
 20
3.386566571337238
 30
0.0
 10
12.72482734812402
 20
3.378254601523943
 30
0.0
 10
12.72488064598958
 20
3.365809060244902
 30
0.0
 10
12.72954925406015
 20
3.358177469451259
 30
0.0
 10
12.73349175505595
 20
3.357941405191087
 30
0.0
 10
12.73571654205378
 20
3.359673325713099
 30
0.0
 10
12.73682837796503
 20
3.360538851911205
 30
0.0
  0
LINE
  5
38D
330
1F
100
AcDbEntity
  8
0
  6
Continuous
 62
     7
370
     5
100
AcDbLine
 10
12.35040985014161
 20
1.937026900140558
 30
0.0
 11
12.30441875234881
 21
1.94952629505062
 31
0.0
  0
ARC
  5
38E
330
1F
100
AcDbEntity
  8
0
  6
Continuous
 62
     7
370
     5
100
AcDbCircle
 10
12.72863780955252
 20
1.94247867324082
 30
0.0
 40
0.4242775948220486
100
AcDbArc
 50
160.8028304209764
 51
179.048223234065
  0
SPLINE
  5
38F
330
1F
100
AcDbEntity
  8
0
  6
Continuous
 62
     7
370
     5
100
AcDbSpline
210
0.0
220
0.0
230
1.0
 70
     8
 71
     3
 72
    15
 73
    11
 74
     0
 42
0.0000000001
 43
0.0000000001
 40
0.0
 40
0.0
 40
0.0
 40
0.0
 40
0.155354677569058
 40
0.2885187223346245
 40
0.4025394145854279
 40
0.502194888249594
 40
0.591074574436108
 40
0.7018911660701824
 40
0.8376673155208321
 40
1.0
 40
1.0
 40
1.0
 40
1.0
 10
13.0218090846411
 20
1.794667390146224
 30
0.0
 10
13.01953309055872
 20
1.796920613052595
 30
0.0
 10
13.01530620202879
 20
1.801105211831674
 30
0.0
 10
13.00816355679166
 20
1.805330494919282
 30
0.0
 10
13.00143137508218
 20
1.807439708002377
 30
0.0
 10
12.9952763031843
 20
1.807485715955218
 30
0.0
 10
12.98957174834397
 20
1.805313169184726
 30
0.0
 10
12.9841054211568
 20
1.801314143823176
 30
0.0
 10
12.97860143330119
 20
1.79521811757579
 30
0.0
 10
12.97596024822598
 20
1.789985932339582
 30
0.0
 10
12.97452201287478
 20
1.78713678941453
 30
0.0
  0
ARC
  5
390
330
1F
100
AcDbEntity
  8
0
  6
Continuous
 62
     7
370
     5
100
AcDbCircle
 10
13.00576784263772
 20
4.271936888298134
 30
0.0
 40
0.0539428843803785
100
AcDbArc
 50
72.70001829661946
 51
125.3970453240787
  0
ARC
  5
391
330
1F
100
AcDbEntity
  8
0
  6
Continuous
 62
     7
370
     5
100
AcDbCircle
 10
13.00619859018409
 20
4.219109890614174
 30
0.0
 40
0.1340835438056181
100
AcDbArc
 50
72.69752046636543
 51
125.3976948147728
  0
LINE
  5
392
330
1F
100
AcDbEntity
  8
0
  6
Continuous
 62
     7
370
     5
100
AcDbLine
 10
12.78912833081765
 20
3.59721151351408
 30
0.0
 11
12.79708960568828
 21
3.595047809593728
 31
0.0
  0
LINE
  5
393
330
1F
100
AcDbEntity
  8
0
  6
Continuous
 62
     7
370
     5
100
AcDbLine
 10
12.57976904936648
 20
2.885537028710586
 30
0.0
 11
12.62576014715928
 21
2.873037633800522
 31
0.0
  0
LINE
  5
394
330
1F
100
AcDbEntity
  8
0
  6
Continuous
 62
     7
370
     5
100
AcDbLine
 10
12.57976904936648
 20
3.050416751595634
 30
0.0
 11
12.57976904936648
 21
2.885537028710586
 31
0.0
  0
LINE
  5
395
330
1F
100
AcDbEntity
  8
0
  6
Continuous
 62
     7
370
     5
100
AcDbLine
 10
12.748551198808
 20
3.415848022355769
 30
0.0
 11
12.75346162016981
 21
3.414513475047229
 31
0.0
  0
LINE
  5
396
330
1F
100
AcDbEntity
  8
0
  6
Continuous
 62
     7
370
     5
100
AcDbLine
 10
12.72872103534766
 20
3.353402239586648
 30
0.0
 11
12.73668231021829
 21
3.351238535666296
 31
0.0
  0
LINE
  5
397
330
1F
100
AcDbEntity
  8
0
  6
Continuous
 62
     7
370
     5
100
AcDbLine
 10
14.28679671992469
 20
2.877173973395972
 30
0.0
 11
14.31106484248324
 21
2.9008604049868
 31
0.0
  0
LINE
  5
398
330
1F
100
AcDbEntity
  8
0
  6
Continuous
 62
     7
370
     5
100
AcDbLine
 10
14.31106484248324
 20
3.065740127871851
 30
0.0
 11
14.31106484248324
 21
2.9008604049868
 31
0.0
  0
ARC
  5
399
330
1F
100
AcDbEntity
  8
0
  6
Continuous
 62
     7
370
     5
100
AcDbCircle
 10
12.52084203119907
 20
3.132883388071872
 30
0.0
 40
0.171780154925685
100
AcDbArc
 50
325.6445147109362
 51
3.946454433908365
  0
SPLINE
  5
39A
330
1F
100
AcDbEntity
  8
0
  6
Continuous
 62
     7
370
     5
100
AcDbSpline
210
0.0
220
0.0
230
1.0
 70
     8
 71
     3
 72
     9
 73
     5
 74
     0
 42
0.0000000001
 43
0.0000000001
 40
0.0
 40
0.0
 40
0.0
 40
0.0
 40
0.6896305801832611
 40
0.9999999999999998
 40
0.9999999999999998
 40
0.9999999999999998
 40
0.9999999999999998
 10
12.77934925260331
 20
3.451864752371534
 30
0.0
 10
12.78025076648355
 20
3.450274534789747
 30
0.0
 10
12.78155800822446
 20
3.44796863707077
 30
0.0
 10
12.78175785271868
 20
3.443934816652675
 30
0.0
 10
12.7818198783384
 20
3.442682842149863
 30
0.0
  0
LINE
  5
39B
330
1F
100
AcDbEntity
  8
0
  6
Continuous
 62
     7
370
     5
100
AcDbLine
 10
12.76912266223892
 20
3.393880860879542
 30
0.0
 11
12.76531798758911
 21
3.389121986905736
 31
0.0
  0
LINE
  5
39C
330
1F
100
AcDbEntity
  8
0
  6
Continuous
 62
     7
370
     5
100
AcDbLine
 10
12.76531798758911
 20
3.389121986905736
 30
0.0
 11
12.76146163480022
 21
3.386762383614483
 31
0.0
  0
LINE
  5
39D
330
1F
100
AcDbEntity
  8
0
  6
Continuous
 62
     7
370
     5
100
AcDbLine
 10
12.76618467447255
 20
3.441480328063254
 30
0.0
 11
12.76501626939434
 21
3.440011934751986
 31
0.0
  0
LINE
  5
39E
330
1F
100
AcDbEntity
  8
0
  6
Continuous
 62
     7
370
     5
100
AcDbLine
 10
12.30441875234881
 20
1.122668687123046
 30
0.0
 11
12.35040985014161
 21
1.110169292212979
 31
0.0
  0
LINE
  5
39F
330
1F
100
AcDbEntity
  8
0
  6
Continuous
 62
     7
370
     5
100
AcDbLine
 10
12.30441875234881
 20
1.122668687123046
 30
0.0
 11
12.30441875234881
 21
1.94952629505062
 31
0.0
  0
LINE
  5
3A0
330
1F
100
AcDbEntity
  8
0
  6
Continuous
 62
     7
370
     5
100
AcDbLine
 10
12.76531512920917
 20
3.442978581222416
 30
0.0
 11
12.76920859940138
 21
3.441920419451148
 31
0.0
  0
LINE
  5
3A1
330
1F
100
AcDbEntity
  8
0
  6
Continuous
 62
     7
370
     5
100
AcDbLine
 10
12.76793891677036
 20
3.469019005872706
 30
0.0
 11
12.77182823614146
 21
3.467961972205673
 31
0.0
  0
ARC
  5
3A2
330
1F
100
AcDbEntity
  8
0
  6
Continuous
 62
     7
370
     5
100
AcDbCircle
 10
12.15555715656302
 20
2.892583423153103
 30
0.0
 40
0.4242704110240717
100
AcDbArc
 50
340.8026743260847
 51
359.0483728901932
  0
LINE
  5
3A3
330
1F
100
AcDbEntity
  8
0
  6
Continuous
 62
     7
370
     5
100
AcDbLine
 10
12.78102535687902
 20
3.486095881322989
 30
0.0
 11
12.78836400858459
 21
3.484101393037704
 31
0.0
  0
LINE
  5
3A4
330
1F
100
AcDbEntity
  8
0
  6
Continuous
 62
     7
370
     5
100
AcDbLine
 10
12.76618467447255
 20
3.441480328063254
 30
0.0
 11
12.77414594934318
 21
3.439316624142901
 31
0.0
  0
LINE
  5
3A5
330
1F
100
AcDbEntity
  8
0
  6
Continuous
 62
     7
370
     5
100
AcDbLine
 10
13.96260341110188
 20
3.133720499211652
 30
0.0
 11
13.96788740636273
 21
3.158624149373348
 31
0.0
  0
ARC
  5
3A6
330
1F
100
AcDbEntity
  8
0
  6
Continuous
 62
     7
370
     5
100
AcDbCircle
 10
14.05344514808534
 20
3.133145419066942
 30
0.0
 40
0.0908435572583235
100
AcDbArc
 50
179.6372897952719
 51
285.7448186899412
  0
LINE
  5
3A7
330
1F
100
AcDbEntity
  8
0
  6
Continuous
 62
     7
370
     5
100
AcDbLine
 10
12.76531798758911
 20
3.389121986905736
 30
0.0
 11
12.77327926245974
 21
3.386958282985384
 31
0.0
  0
LINE
  5
3A8
330
1F
100
AcDbEntity
  8
0
  6
Continuous
 62
     7
370
     5
100
AcDbLine
 10
12.78517809884873
 20
3.436342440785169
 30
0.0
 11
12.79023379894906
 21
3.434968409828448
 31
0.0
  0
ARC
  5
3A9
330
1F
100
AcDbEntity
  8
0
  6
Continuous
 62
     7
370
     5
100
AcDbCircle
 10
14.19005131635644
 20
2.896966752851516
 30
0.0
 40
0.1210761497264996
100
AcDbArc
 50
315.4220599669884
 51
1.842875787233208
  0
ARC
  5
3AA
330
1F
100
AcDbEntity
  8
0
  6
Continuous
 62
     7
370
     5
100
AcDbCircle
 10
12.25855984797335
 20
1.91257391018166
 30
0.0
 40
0.171779502827695
100
AcDbArc
 50
325.6444409232746
 51
3.946515650777152
  0
LINE
  5
3AB
330
1F
100
AcDbEntity
  8
0
  6
Continuous
 62
     7
370
     5
100
AcDbLine
 10
13.78925682030559
 20
2.375416241904118
 30
0.0
 11
13.76498869774705
 21
2.35172981031329
 31
0.0
  0
ARC
  5
3AC
330
1F
100
AcDbEntity
  8
0
  6
Continuous
 62
     7
370
     5
100
AcDbCircle
 10
13.9151827816714
 20
2.378070168407598
 30
0.0
 40
0.1259539244001099
100
AcDbArc
 50
144.2239155490245
 51
181.2073465941586
  0
LINE
  5
3AD
330
1F
100
AcDbEntity
  8
0
  6
Continuous
 62
     7
370
     5
100
AcDbLine
 10
13.76498869774705
 20
1.654672707297608
 30
0.0
 11
13.78925682030559
 21
1.678359138888436
 31
0.0
  0
LINE
  5
3AE
330
1F
100
AcDbEntity
  8
0
  6
Continuous
 62
     7
370
     5
100
AcDbLine
 10
13.78925682030559
 20
1.678359138888436
 30
0.0
 11
13.78925682030559
 21
2.375416241904118
 31
0.0
  0
LINE
  5
3AF
330
1F
100
AcDbEntity
  8
0
  6
Continuous
 62
     7
370
     5
100
AcDbLine
 10
12.52930969299706
 20
0.7855288333326666
 30
0.0
 11
12.57530079078986
 21
0.7730294384226026
 31
0.0
  0
LWPOLYLINE
  5
3B0
330
1F
100
AcDbEntity
  8
0
  6
Continuous
 62
     7
370
     5
100
AcDbPolyline
 90
        9
 70
   128
 43
0.0
 10
12.53187847297247
 20
1.209823551213933
 10
12.54175111942007
 20
1.200088605323048
 10
12.56119558394279
 20
1.166615154667949
 10
12.57399807286068
 20
1.12017265644996
 10
12.57955159049516
 20
1.062962523104612
 10
12.57759288635233
 20
0.9976972358841141
 10
12.56821484418681
 20
0.9274706917015777
 10
12.55186203289037
 20
0.8556124296912074
 10
12.52930969299706
 20
0.7855288333326666
  0
LINE
  5
3B1
330
1F
100
AcDbEntity
  8
0
  6
Continuous
 62
     7
370
     5
100
AcDbLine
 10
13.49297536097777
 20
2.297042130830246
 30
0.0
 11
13.49825935623862
 21
2.321945780991941
 31
0.0
  0
ARC
  5
3B2
330
1F
100
AcDbEntity
  8
0
  6
Continuous
 62
     7
370
     5
100
AcDbCircle
 10
13.58381769907335
 20
2.29646785511447
 30
0.0
 40
0.0908441532695974
100
AcDbArc
 50
179.6377995417518
 51
285.7443188073734
  0
LINE
  5
3B3
330
1F
100
AcDbEntity
  8
0
  6
Continuous
 62
     7
370
     5
100
AcDbLine
 10
12.65702877524647
 20
1.420809121564475
 30
0.0
 11
12.61103767745367
 21
1.433308516474539
 31
0.0
  0
LINE
  5
3B4
330
1F
100
AcDbEntity
  8
0
  6
Continuous
 62
     7
370
     5
100
AcDbLine
 10
12.53542694725861
 20
1.359510125850077
 30
0.0
 11
12.61103767745367
 21
1.433308516474539
 31
0.0
  0
LINE
  5
3B5
330
1F
100
AcDbEntity
  8
0
  6
Continuous
 62
     7
370
     5
100
AcDbLine
 10
12.33217148733422
 20
0.2554720243829884
 30
0.0
 11
12.37816258512701
 21
0.2429726294729266
 31
0.0
  0
LINE
  5
3B6
330
1F
100
AcDbEntity
  8
0
  6
Continuous
 62
     7
370
     5
100
AcDbLine
 10
12.52930969299706
 20
0.7855288333326666
 30
0.0
 11
12.33217148733422
 21
0.2554720243829884
 31
0.0
  0
ARC
  5
3B7
330
1F
100
AcDbEntity
  8
0
  6
Continuous
 62
     7
370
     5
100
AcDbCircle
 10
12.54373890033697
 20
1.490623703187823
 30
0.0
 40
0.0883977150687858
100
AcDbArc
 50
319.5805335021607
 51
350.3992742731384
  0
LINE
  5
3B8
330
1F
100
AcDbEntity
  8
0
  6
Continuous
 62
     7
370
     5
100
AcDbLine
 10
14.07288242609819
 20
1.413046680447527
 30
0.0
 11
14.04861430353965
 21
1.389360248856699
 31
0.0
  0
LWPOLYLINE
  5
3B9
330
1F
100
AcDbEntity
  8
0
  6
Continuous
 62
     7
370
     5
100
AcDbPolyline
 90
       11
 70
   128
 43
0.0
 10
14.24784368630254
 20
0.9016557413082216
 10
14.25817923084262
 20
0.9125470856195839
 10
14.28916511035736
 20
0.9600232043810136
 10
14.30693892630942
 20
1.01626594958386
 10
14.3106497603732
 20
1.078610956329127
 10
14.3001274288836
 20
1.144101237369262
 10
14.27586587955157
 20
1.209633126495883
 10
14.23901488982193
 20
1.272100280010088
 10
14.19132610619905
 20
1.328539778593006
 10
14.13506172618268
 20
1.376275684756213
 10
14.07288242609819
 20
1.413046680447527
  0
LINE
  5
3BA
330
1F
100
AcDbEntity
  8
0
  6
Continuous
 62
     7
370
     5
100
AcDbLine
 10
12.35040985014161
 20
0.0986561834059262
 30
0.0
 11
12.30441875234881
 21
0.1111555783159923
 31
0.0
  0
ARC
  5
3BB
330
1F
100
AcDbEntity
  8
0
  6
Continuous
 62
     7
370
     5
100
AcDbCircle
 10
12.73334834033213
 20
0.1034971044515555
 30
0.0
 40
0.4289979529898408
100
AcDbArc
 50
159.2521723153639
 51
178.9771010856894
  0
LINE
  5
3BC
330
1F
100
AcDbEntity
  8
0
  6
Continuous
 62
     7
370
     5
100
AcDbLine
 10
13.92025673423526
 20
1.485968623669029
 30
0.0
 11
13.89598861167671
 21
1.4622821920782
 31
0.0
  0
ARC
  5
3BD
330
1F
100
AcDbEntity
  8
0
  6
Continuous
 62
     7
370
     5
100
AcDbCircle
 10
14.01508900489561
 20
1.691335105208863
 30
0.0
 40
0.2262046668365836
100
AcDbArc
 50
183.2885106414974
 51
245.2138800856964
  0
LINE
  5
3BE
330
1F
100
AcDbEntity
  8
0
  6
Continuous
 62
     7
370
     5
100
AcDbLine
 10
14.07288242609819
 20
1.413046680447527
 30
0.0
 11
13.92025673423526
 21
1.485968623669029
 31
0.0
  0
LINE
  5
3BF
330
1F
100
AcDbEntity
  8
0
  6
Continuous
 62
     7
370
     5
100
AcDbLine
 10
12.30441875234881
 20
-0.1379972656841068
 30
0.0
 11
12.35040985014161
 21
-0.1504966605941729
 31
0.0
  0
LINE
  5
3C0
330
1F
100
AcDbEntity
  8
0
  6
Continuous
 62
     7
370
     5
100
AcDbLine
 10
12.30441875234881
 20
-0.1379972656841068
 30
0.0
 11
12.30441875234881
 21
0.1111555783159923
 31
0.0
  0
ARC
  5
3C1
330
1F
100
AcDbEntity
  8
0
  6
Continuous
 62
     7
370
     5
100
AcDbCircle
 10
12.25856027638952
 20
0.1982392045199323
 30
0.0
 40
0.1717790786211123
100
AcDbArc
 50
325.6443946964873
 51
3.946540926221839
  0
ARC
  5
3C2
330
1F
100
AcDbEntity
  8
0
  6
Continuous
 62
     7
370
     5
100
AcDbCircle
 10
12.52084139762516
 20
1.097111206412469
 30
0.0
 40
0.1717807751464467
100
AcDbArc
 50
325.6445865517221
 51
3.946382593121935
  0
LINE
  5
3C3
330
1F
100
AcDbEntity
  8
0
  6
Continuous
 62
     7
370
     5
100
AcDbLine
 10
13.96260341110188
 20
1.097948145360406
 30
0.0
 11
13.96788740636273
 21
1.122851795522104
 31
0.0
  0
ARC
  5
3C4
330
1F
100
AcDbEntity
  8
0
  6
Continuous
 62
     7
370
     5
100
AcDbCircle
 10
14.05344528411736
 20
1.097373243725424
 30
0.0
 40
0.0908436921577499
100
AcDbArc
 50
179.6374029235337
 51
285.7447055616813
  0
LINE
  5
3C5
330
1F
100
AcDbEntity
  8
0
  6
Continuous
 62
     7
370
     5
100
AcDbLine
 10
13.37584506876034
 20
1.642003461016433
 30
0.0
 11
13.40011319131888
 21
1.665689892607261
 31
0.0
  0
LWPOLYLINE
  5
3C6
330
1F
100
AcDbEntity
  8
0
  6
Continuous
 62
     7
370
     5
100
AcDbPolyline
 90
        3
 70
   128
 43
0.0
 10
13.40011319131888
 20
1.665689892607261
 10
13.41601913777574
 20
1.664433660637754
 10
13.41684930199583
 20
1.66455225134481
  0
LINE
  5
3C7
330
1F
100
AcDbEntity
  8
0
  6
Continuous
 62
     7
370
     5
100
AcDbLine
 10
13.18303942864522
 20
1.694403902674593
 30
0.0
 11
13.20730755120377
 21
1.718090334265421
 31
0.0
  0
LINE
  5
3C8
330
1F
100
AcDbEntity
  8
0
  6
Continuous
 62
     7
370
     5
100
AcDbLine
 10
13.20730755120377
 20
1.718090334265421
 30
0.0
 11
13.40011319131888
 21
1.665689892607261
 31
0.0
  0
ARC
  5
3C9
330
1F
100
AcDbEntity
  8
0
  6
Continuous
 62
     7
370
     5
100
AcDbCircle
 10
13.22011878186702
 20
1.770645848546021
 30
0.0
 40
0.0540944517710047
100
AcDbArc
 50
174.1964981971262
 51
256.3004349955825
  0
LINE
  5
3CA
330
1F
100
AcDbEntity
  8
0
  6
Continuous
 62
     7
370
     5
100
AcDbLine
 10
13.43814301424105
 20
1.094509624078872
 30
0.0
 11
13.4434270095019
 21
1.119413274240569
 31
0.0
  0
ARC
  5
3CB
330
1F
100
AcDbEntity
  8
0
  6
Continuous
 62
     7
370
     5
100
AcDbCircle
 10
13.52898461934603
 20
1.09393449576976
 30
0.0
 40
0.0908434256873921
100
AcDbArc
 50
179.6372588916051
 51
285.7449285049412
  0
ARC
  5
3CC
330
1F
100
AcDbEntity
  8
0
  6
Continuous
 62
     7
370
     5
100
AcDbCircle
 10
12.57917806549209
 20
0.6183203582210416
 30
0.0
 40
0.1717810541303576
100
AcDbArc
 50
325.644618866523
 51
3.946350278316158
  0
LINE
  5
3CD
330
1F
100
AcDbEntity
  8
0
  6
Continuous
 62
     7
370
     5
100
AcDbLine
 10
13.78925682030559
 20
0.5370455251694886
 30
0.0
 11
13.76498869774705
 21
0.5133590935786604
 31
0.0
  0
ARC
  5
3CE
330
1F
100
AcDbEntity
  8
0
  6
Continuous
 62
     7
370
     5
100
AcDbCircle
 10
13.91468079559454
 20
0.5398677705976503
 30
0.0
 40
0.1254557238492505
100
AcDbArc
 50
144.2772593665756
 51
181.2890316095975
  0
LINE
  5
3CF
330
1F
100
AcDbEntity
  8
0
  6
Continuous
 62
     7
370
     5
100
AcDbLine
 10
13.78925682030559
 20
0.2878926811693895
 30
0.0
 11
13.76498869774705
 21
0.2642062495785612
 31
0.0
  0
LINE
  5
3D0
330
1F
100
AcDbEntity
  8
0
  6
Continuous
 62
     7
370
     5
100
AcDbLine
 10
13.78925682030559
 20
0.2878926811693895
 30
0.0
 11
13.78925682030559
 21
0.5370455251694886
 31
0.0
  0
LINE
  5
3D1
330
1F
100
AcDbEntity
  8
0
  6
Continuous
 62
     7
370
     5
100
AcDbLine
 10
13.49297536097777
 20
0.5827075658585983
 30
0.0
 11
13.49825935623862
 21
0.6076112160202914
 31
0.0
  0
ARC
  5
3D2
330
1F
100
AcDbEntity
  8
0
  6
Continuous
 62
     7
370
     5
100
AcDbCircle
 10
13.58381761999988
 20
0.5821331707656451
 30
0.0
 40
0.0908440749524266
100
AcDbArc
 50
179.6377239362486
 51
285.7443845489645
  0
LINE
  5
3D3
330
1F
100
AcDbEntity
  8
0
  6
Continuous
 62
     8
370
     5
100
AcDbLine
 10
-8.670746083791113
 20
7.090289622087977
 30
0.0
 11
-8.691136992446992
 21
7.095831434136324
 31
0.0
  0
LINE
  5
3D4
330
1F
100
AcDbEntity
  8
0
  6
Continuous
 62
     8
370
     5
100
AcDbLine
 10
12.55528909879889
 20
1.321508078377675
 30
0.0
 11
12.53489611473246
 21
1.327050454478139
 31
0.0
  0
ENDSEC
  0
SECTION
  2
OBJECTS
  0
DICTIONARY
  5
C
330
0
100
AcDbDictionary
281
     1
  3
ACAD_COLOR
350
3D7
  3
ACAD_GROUP
350
D
  3
ACAD_LAYOUT
350
1A
  3
ACAD_MATERIAL
350
3D6
  3
ACAD_MLINESTYLE
350
17
  3
ACAD_PLOTSETTINGS
350
19
  3
ACAD_PLOTSTYLENAME
350
E
  3
ACAD_SCALELIST
350
47
  0
DICTIONARY
  5
3D7
102
{ACAD_REACTORS
330
C
102
}
330
C
100
AcDbDictionary
281
     1
  0
DICTIONARY
  5
D
102
{ACAD_REACTORS
330
C
102
}
330
C
100
AcDbDictionary
281
     1
  0
DICTIONARY
  5
1A
102
{ACAD_REACTORS
330
C
102
}
330
C
100
AcDbDictionary
281
     1
  3
Layout1
350
1E
  3
Layout2
350
26
  3
Model
350
22
  0
DICTIONARY
  5
3D6
102
{ACAD_REACTORS
330
C
102
}
330
C
100
AcDbDictionary
281
     1
  0
DICTIONARY
  5
17
102
{ACAD_REACTORS
330
C
102
}
330
C
100
AcDbDictionary
281
     1
  3
Standard
350
18
  0
DICTIONARY
  5
19
102
{ACAD_REACTORS
330
C
102
}
330
C
100
AcDbDictionary
281
     1
  0
ACDBDICTIONARYWDFLT
  5
E
102
{ACAD_REACTORS
330
C
102
}
330
C
100
AcDbDictionary
281
     1
  3
Normal
350
F
100
AcDbDictionaryWithDefault
340
F
  0
DICTIONARY
  5
47
102
{ACAD_REACTORS
330
C
102
}
330
C
100
AcDbDictionary
281
     1
  3
A0
350
48
  3
A1
350
49
  3
A2
350
4A
  3
A3
350
4B
  3
A4
350
4C
  3
A5
350
4D
  3
A6
350
4E
  3
A7
350
4F
  3
A8
350
50
  3
A9
350
51
  3
B0
350
52
  3
B1
350
53
  3
B2
350
54
  3
B3
350
55
  3
B4
350
56
  3
B5
350
57
  3
B6
350
58
  3
B7
350
59
  3
B8
350
5A
  3
B9
350
5B
  3
C0
350
5C
  3
C1
350
5D
  3
C2
350
5E
  3
C3
350
5F
  3
C4
350
60
  3
C5
350
61
  3
C6
350
62
  3
C7
350
63
  3
C8
350
64
  3
C9
350
65
  3
D0
350
66
  3
D1
350
67
  3
D2
350
68
  0
LAYOUT
  5
1E
102
{ACAD_REACTORS
330
1A
102
}
330
1A
100
AcDbPlotSettings
  1

  2
none_device
  4

  6

 40
0.0
 41
0.0
 42
0.0
 43
0.0
 44
0.0
 45
0.0
 46
0.0
 47
0.0
 48
0.0
 49
0.0
140
0.0
141
0.0
142
1.0
143
1.0
 70
   688
 72
     0
 73
     0
 74
     5
  7

 75
    16
147
1.0
 76
     0
 77
     2
 78
   300
148
0.0
149
0.0
100
AcDbLayout
  1
Layout1
 70
     1
 71
     1
 10
0.0
 20
0.0
 11
12.0
 21
9.0
 12
0.0
 22
0.0
 32
0.0
 14
1.000000000000000E+20
 24
1.000000000000000E+20
 34
1.000000000000000E+20
 15
-1.000000000000000E+20
 25
-1.000000000000000E+20
 35
-1.000000000000000E+20
146
0.0
 13
0.0
 23
0.0
 33
0.0
 16
1.0
 26
0.0
 36
0.0
 17
0.0
 27
1.0
 37
0.0
 76
     0
330
1B
  0
LAYOUT
  5
26
102
{ACAD_REACTORS
330
1A
102
}
330
1A
100
AcDbPlotSettings
  1

  2
none_device
  4

  6

 40
0.0
 41
0.0
 42
0.0
 43
0.0
 44
0.0
 45
0.0
 46
0.0
 47
0.0
 48
0.0
 49
0.0
140
0.0
141
0.0
142
1.0
143
1.0
 70
   688
 72
     0
 73
     0
 74
     5
  7

 75
    16
147
1.0
 76
     0
 77
     2
 78
   300
148
0.0
149
0.0
100
AcDbLayout
  1
Layout2
 70
     1
 71
     2
 10
0.0
 20
0.0
 11
0.0
 21
0.0
 12
0.0
 22
0.0
 32
0.0
 14
0.0
 24
0.0
 34
0.0
 15
0.0
 25
0.0
 35
0.0
146
0.0
 13
0.0
 23
0.0
 33
0.0
 16
1.0
 26
0.0
 36
0.0
 17
0.0
 27
1.0
 37
0.0
 76
     0
330
23
  0
LAYOUT
  5
22
102
{ACAD_REACTORS
330
1A
102
}
330
1A
100
AcDbPlotSettings
  1

  2
none_device
  4
Letter_(8.50_x_11.00_Inches)
  6

 40
6.349999999999999
 41
6.349999999999999
 42
6.350005079999999
 43
6.350005079999999
 44
215.9
 45
279.4
 46
0.0
 47
0.0
 48
0.0
 49
0.0
140
0.0
141
0.0
142
1.0
143
1.0
 70
  1712
 72
     0
 73
     0
 74
     0
  7

 75
     0
147
1.0
 76
     0
 77
     2
 78
   300
148
0.0
149
0.0
100
AcDbLayout
  1
Model
 70
     1
 71
     0
 10
0.0
 20
0.0
 11
11.0
 21
8.5
 12
0.0
 22
0.0
 32
0.0
 14
0.0
 24
0.0
 34
0.0
 15
11.0
 25
8.5
 35
0.0
146
0.0
 13
0.0
 23
0.0
 33
0.0
 16
1.0
 26
0.0
 36
0.0
 17
0.0
 27
1.0
 37
0.0
 76
     0
330
1F
  0
MLINESTYLE
  5
18
102
{ACAD_REACTORS
330
17
102
}
330
17
100
AcDbMlineStyle
  2
STANDARD
 70
     0
  3

 62
   256
 51
90.0
 52
90.0
 71
     2
 49
0.5
 62
   256
  6
BYLAYER
 49
-0.5
 62
   256
  6
BYLAYER
  0
ACDBPLACEHOLDER
  5
F
102
{ACAD_REACTORS
330
E
102
}
330
E
  0
ACAD_PROXY_OBJECT
  5
48
102
{ACAD_REACTORS
330
47
102
}
330
47
100
AcDbProxyObject
 90
      499
 91
      503
 95
   393239
 70
     0
 93
       41
310
903313A31580
 94
        0
  0
ACAD_PROXY_OBJECT
  5
49
102
{ACAD_REACTORS
330
47
102
}
330
47
100
AcDbProxyObject
 90
      499
 91
      503
 95
   393239
 70
     0
 93
      105
310
903313A324000000000000004000
 94
        0
  0
ACAD_PROXY_OBJECT
  5
4A
102
{ACAD_REACTORS
330
47
102
}
330
47
100
AcDbProxyObject
 90
      499
 91
      503
 95
   393239
 70
     0
 93
      105
310
903313A344000000000000104000
 94
        0
  0
ACAD_PROXY_OBJECT
  5
4B
102
{ACAD_REACTORS
330
47
102
}
330
47
100
AcDbProxyObject
 90
      499
 91
      503
 95
   393239
 70
     0
 93
      105
310
903313A354000000000000144000
 94
        0
  0
ACAD_PROXY_OBJECT
  5
4C
102
{ACAD_REACTORS
330
47
102
}
330
47
100
AcDbProxyObject
 90
      499
 91
      503
 95
   393239
 70
     0
 93
      105
310
903313A384000000000000204000
 94
        0
  0
ACAD_PROXY_OBJECT
  5
4D
102
{ACAD_REACTORS
330
47
102
}
330
47
100
AcDbProxyObject
 90
      499
 91
      503
 95
   393239
 70
     0
 93
      113
310
904313A31304000000000000244000
 94
        0
  0
ACAD_PROXY_OBJECT
  5
4E
102
{ACAD_REACTORS
330
47
102
}
330
47
100
AcDbProxyObject
 90
      499
 91
      503
 95
   393239
 70
     0
 93
      113
310
904313A31364000000000000304000
 94
        0
  0
ACAD_PROXY_OBJECT
  5
4F
102
{ACAD_REACTORS
330
47
102
}
330
47
100
AcDbProxyObject
 90
      499
 91
      503
 95
   393239
 70
     0
 93
      113
310
904313A32304000000000000344000
 94
        0
  0
ACAD_PROXY_OBJECT
  5
50
102
{ACAD_REACTORS
330
47
102
}
330
47
100
AcDbProxyObject
 90
      499
 91
      503
 95
   393239
 70
     0
 93
      113
310
904313A333040000000000003E4000
 94
        0
  0
ACAD_PROXY_OBJECT
  5
51
102
{ACAD_REACTORS
330
47
102
}
330
47
100
AcDbProxyObject
 90
      499
 91
      503
 95
   393239
 70
     0
 93
      113
310
904313A34304000000000000444000
 94
        0
  0
ACAD_PROXY_OBJECT
  5
52
102
{ACAD_REACTORS
330
47
102
}
330
47
100
AcDbProxyObject
 90
      499
 91
      503
 95
   393239
 70
     0
 93
      113
310
904313A35304000000000000494000
 94
        0
  0
ACAD_PROXY_OBJECT
  5
53
102
{ACAD_REACTORS
330
47
102
}
330
47
100
AcDbProxyObject
 90
      499
 91
      503
 95
   393239
 70
     0
 93
      121
310
905313A3130304000000000000594000
 94
        0
  0
ACAD_PROXY_OBJECT
  5
54
102
{ACAD_REACTORS
330
47
102
}
330
47
100
AcDbProxyObject
 90
      499
 91
      503
 95
   393239
 70
     0
 93
      105
310
903323A310000000000000010140
 94
        0
  0
ACAD_PROXY_OBJECT
  5
55
102
{ACAD_REACTORS
330
47
102
}
330
47
100
AcDbProxyObject
 90
      499
 91
      503
 95
   393239
 70
     0
 93
      105
310
903343A310000000000000410159
 94
        0
  0
ACAD_PROXY_OBJECT
  5
56
102
{ACAD_REACTORS
330
47
102
}
330
47
100
AcDbProxyObject
 90
      499
 91
      503
 95
   393239
 70
     0
 93
      105
310
903383A310000000000000810140
 94
        0
  0
ACAD_PROXY_OBJECT
  5
57
102
{ACAD_REACTORS
330
47
102
}
330
47
100
AcDbProxyObject
 90
      499
 91
      503
 95
   393239
 70
     0
 93
      113
310
90431303A310000000000000910140
 94
        0
  0
ACAD_PROXY_OBJECT
  5
58
102
{ACAD_REACTORS
330
47
102
}
330
47
100
AcDbProxyObject
 90
      499
 91
      503
 95
   393239
 70
     0
 93
      121
310
9053130303A310000000000001650100
 94
        0
  0
ACAD_PROXY_OBJECT
  5
59
102
{ACAD_REACTORS
330
47
102
}
330
47
100
AcDbProxyObject
 90
      499
 91
      503
 95
   393239
 70
     0
 93
      257
310
90E312F31323822203D2031272D3022000000000000200FC000000000000284000
 94
        0
  0
ACAD_PROXY_OBJECT
  5
5A
102
{ACAD_REACTORS
330
47
102
}
330
47
100
AcDbProxyObject
 90
      499
 91
      503
 95
   393239
 70
     0
 93
      249
310
90D312F363422203D2031272D3022000000000000240FC000000000000284000
 94
        0
  0
ACAD_PROXY_OBJECT
  5
5B
102
{ACAD_REACTORS
330
47
102
}
330
47
100
AcDbProxyObject
 90
      499
 91
      503
 95
   393239
 70
     0
 93
      249
310
90D312F333222203D2031272D3022000000000000280FC000000000000284040
 94
        0
  0
ACAD_PROXY_OBJECT
  5
5C
102
{ACAD_REACTORS
330
47
102
}
330
47
100
AcDbProxyObject
 90
      499
 91
      503
 95
   393239
 70
     0
 93
      249
310
90D312F313622203D2031272D30220000000000002C0FC000000000000284000
 94
        0
  0
ACAD_PROXY_OBJECT
  5
5D
102
{ACAD_REACTORS
330
47
102
}
330
47
100
AcDbProxyObject
 90
      499
 91
      503
 95
   393239
 70
     0
 93
      249
310
90D332F333222203D2031272D30220000000000002E0FC000000000000284040
 94
        0
  0
ACAD_PROXY_OBJECT
  5
5E
102
{ACAD_REACTORS
330
47
102
}
330
47
100
AcDbProxyObject
 90
      499
 91
      503
 95
   393239
 70
     0
 93
      241
310
90C312F3822203D2031272D3022000000000000300FC000000000000284040
 94
        0
  0
ACAD_PROXY_OBJECT
  5
5F
102
{ACAD_REACTORS
330
47
102
}
330
47
100
AcDbProxyObject
 90
      499
 91
      503
 95
   393239
 70
     0
 93
      249
310
90D332F313622203D2031272D3022000000000000320FC000000000000284040
 94
        0
  0
ACAD_PROXY_OBJECT
  5
60
102
{ACAD_REACTORS
330
47
102
}
330
47
100
AcDbProxyObject
 90
      499
 91
      503
 95
   393239
 70
     0
 93
      241
310
90C312F3422203D2031272D3022000000000000340FC000000000000284040
 94
        0
  0
ACAD_PROXY_OBJECT
  5
61
102
{ACAD_REACTORS
330
47
102
}
330
47
100
AcDbProxyObject
 90
      499
 91
      503
 95
   393239
 70
     0
 93
      241
310
90C332F3822203D2031272D3022000000000000360FC000000000000284040
 94
        0
  0
ACAD_PROXY_OBJECT
  5
62
102
{ACAD_REACTORS
330
47
102
}
330
47
100
AcDbProxyObject
 90
      499
 91
      503
 95
   393239
 70
     0
 93
      241
310
90C312F3222203D2031272D3022000000000000380FC000000000000284040
 94
        0
  0
ACAD_PROXY_OBJECT
  5
63
102
{ACAD_REACTORS
330
47
102
}
330
47
100
AcDbProxyObject
 90
      499
 91
      503
 95
   393239
 70
     0
 93
      241
310
90C332F3422203D2031272D30220000000000003A0FC000000000000284040
 94
        0
  0
ACAD_PROXY_OBJECT
  5
64
102
{ACAD_REACTORS
330
47
102
}
330
47
100
AcDbProxyObject
 90
      499
 91
      503
 95
   393239
 70
     0
 93
      161
310
90A3122203D2031272D30224000000000000284000
 94
        0
  0
ACAD_PROXY_OBJECT
  5
65
102
{ACAD_REACTORS
330
47
102
}
330
47
100
AcDbProxyObject
 90
      499
 91
      503
 95
   393239
 70
     0
 93
      257
310
90E312D312F3222203D2031272D30220000000000003E0FC000000000000284000
 94
        0
  0
ACAD_PROXY_OBJECT
  5
66
102
{ACAD_REACTORS
330
47
102
}
330
47
100
AcDbProxyObject
 90
      499
 91
      503
 95
   393239
 70
     0
 93
      225
310
90A3322203D2031272D302200000000000002100000000000000284028
 94
        0
  0
ACAD_PROXY_OBJECT
  5
67
102
{ACAD_REACTORS
330
47
102
}
330
47
100
AcDbProxyObject
 90
      499
 91
      503
 95
   393239
 70
     0
 93
      225
310
90A3622203D2031272D302200000000000006100000000000000284000
 94
        0
  0
ACAD_PROXY_OBJECT
  5
68
102
{ACAD_REACTORS
330
47
102
}
330
47
100
AcDbProxyObject
 90
      499
 91
      503
 95
   393239
 70
     0
 93
      249
310
90D31272D3022203D2031272D30220000000000000A100000000000000284000
 94
        0
  0
ENDSEC
  0
EOF
