  0
SECTION
  2
HEADER
  9
$ACADVER
  1
AC1018
  9
$ACADMAINTVER
 70
     0
  9
$DWGCODEPAGE
  3
ANSI_1252
  9
$INSBASE
 10
0.0
 20
0.0
 30
0.0
  9
$EXTMIN
 10
-18.33583498672927
 20
-7.822100296953334
 30
0.0
  9
$EXTMAX
 10
24.95345796208711
 20
15.96502284620702
 30
0.0
  9
$LIMMIN
 10
-100.0
 20
-100.0
  9
$LIMMAX
 10
100.0
 20
100.0
  9
$ORTHOMODE
 70
     0
  9
$REGENMODE
 70
     1
  9
$FILLMODE
 70
     1
  9
$QTEXTMODE
 70
     0
  9
$MIRRTEXT
 70
     1
  9
$LTSCALE
 40
1.0
  9
$ATTMODE
 70
     1
  9
$TEXTSIZE
 40
0.1377952755905512
  9
$TRACEWID
 40
0.05
  9
$TEXTSTYLE
  7
Standard
  9
$CLAYER
  8
0
  9
$CELTYPE
  6
ByLayer
  9
$CECOLOR
 62
   256
  9
$CELTSCALE
 40
1.0
  9
$DISPSILH
 70
     0
  9
$DIMSCALE
 40
1.0
  9
$DIMASZ
 40
0.13
  9
$DIMEXO
 40
0.0393700787401575
  9
$DIMDLI
 40
0.38
  9
$DIMRND
 40
0.0
  9
$DIMDLE
 40
0.0
  9
$DIMEXE
 40
0.0393700787401575
  9
$DIMTP
 40
0.0
  9
$DIMTM
 40
0.0
  9
$DIMTXT
 40
0.1377952755905512
  9
$DIMCEN
 40
0.09
  9
$DIMTSZ
 40
0.0
  9
$DIMTOL
 70
     0
  9
$DIMLIM
 70
     0
  9
$DIMTIH
 70
     1
  9
$DIMTOH
 70
     1
  9
$DIMSE1
 70
     0
  9
$DIMSE2
 70
     0
  9
$DIMTAD
 70
     1
  9
$DIMZIN
 70
     0
  9
$DIMBLK
  1

  9
$DIMASO
 70
     1
  9
$DIMSHO
 70
     1
  9
$DIMPOST
  1

  9
$DIMAPOST
  1

  9
$DIMALT
 70
     0
  9
$DIMALTD
 70
     2
  9
$DIMALTF
 40
25.4
  9
$DIMLFAC
 40
1.0
  9
$DIMTOFL
 70
     0
  9
$DIMTVP
 40
0.0
  9
$DIMTIX
 70
     0
  9
$DIMSOXD
 70
     0
  9
$DIMSAH
 70
     0
  9
$DIMBLK1
  1

  9
$DIMBLK2
  1

  9
$DIMSTYLE
  2
Standard
  9
$DIMCLRD
 70
     0
  9
$DIMCLRE
 70
     0
  9
$DIMCLRT
 70
     0
  9
$DIMTFAC
 40
1.0
  9
$DIMGAP
 40
0.06
  9
$DIMJUST
 70
     0
  9
$DIMSD1
 70
     0
  9
$DIMSD2
 70
     0
  9
$DIMTOLJ
 70
     1
  9
$DIMTZIN
 70
     0
  9
$DIMALTZ
 70
     0
  9
$DIMALTTZ
 70
     0
  9
$DIMUPT
 70
     0
  9
$DIMDEC
 70
     2
  9
$DIMTDEC
 70
     2
  9
$DIMALTU
 70
     2
  9
$DIMALTTD
 70
     2
  9
$DIMTXSTY
  7
Standard
  9
$DIMAUNIT
 70
     0
  9
$DIMADEC
 70
     2
  9
$DIMALTRND
 40
0.0
  9
$DIMAZIN
 70
     0
  9
$DIMDSEP
 70
    46
  9
$DIMATFIT
 70
     3
  9
$DIMFRAC
 70
     0
  9
$DIMLDRBLK
  1

  9
$DIMLUNIT
 70
     2
  9
$DIMLWD
 70
    -2
  9
$DIMLWE
 70
    -2
  9
$DIMTMOVE
 70
     0
  9
$LUNITS
 70
     2
  9
$LUPREC
 70
     2
  9
$SKETCHINC
 40
0.1
  9
$FILLETRAD
 40
0.5
  9
$AUNITS
 70
     0
  9
$AUPREC
 70
     2
  9
$MENU
  1
.
  9
$ELEVATION
 40
0.0
  9
$PELEVATION
 40
0.0
  9
$THICKNESS
 40
0.0
  9
$LIMCHECK
 70
     0
  9
$CHAMFERA
 40
0.0
  9
$CHAMFERB
 40
0.0
  9
$CHAMFERC
 40
0.0
  9
$CHAMFERD
 40
0.0
  9
$SKPOLY
 70
     0
  9
$TDCREATE
 40
2457060.503908449
  9
$TDUCREATE
 40
2457060.753908449
  9
$TDUPDATE
 40
2457064.332209896
  9
$TDUUPDATE
 40
2457064.582209896
  9
$TDINDWG
 40
0.0004740162
  9
$TDUSRTIMER
 40
0.0004740162
  9
$USRTIMER
 70
     1
  9
$ANGBASE
 50
0.0
  9
$ANGDIR
 70
     0
  9
$PDMODE
 70
     0
  9
$PDSIZE
 40
-1.0
  9
$PLINEWID
 40
0.0
  9
$SPLFRAME
 70
     0
  9
$SPLINETYPE
 70
     6
  9
$SPLINESEGS
 70
     8
  9
$HANDSEED
  5
31E
  9
$SURFTAB1
 70
     6
  9
$SURFTAB2
 70
     6
  9
$SURFTYPE
 70
     6
  9
$SURFU
 70
     6
  9
$SURFV
 70
     6
  9
$UCSBASE
  2

  9
$UCSNAME
  2

  9
$UCSORG
 10
0.0
 20
0.0
 30
0.0
  9
$UCSXDIR
 10
1.0
 20
0.0
 30
0.0
  9
$UCSYDIR
 10
0.0
 20
1.0
 30
0.0
  9
$UCSORTHOREF
  2

  9
$UCSORTHOVIEW
 70
     0
  9
$UCSORGTOP
 10
0.0
 20
0.0
 30
0.0
  9
$UCSORGBOTTOM
 10
0.0
 20
0.0
 30
0.0
  9
$UCSORGLEFT
 10
0.0
 20
0.0
 30
0.0
  9
$UCSORGRIGHT
 10
0.0
 20
0.0
 30
0.0
  9
$UCSORGFRONT
 10
0.0
 20
0.0
 30
0.0
  9
$UCSORGBACK
 10
0.0
 20
0.0
 30
0.0
  9
$PUCSBASE
  2

  9
$PUCSNAME
  2

  9
$PUCSORG
 10
0.0
 20
0.0
 30
0.0
  9
$PUCSXDIR
 10
1.0
 20
0.0
 30
0.0
  9
$PUCSYDIR
 10
0.0
 20
1.0
 30
0.0
  9
$PUCSORTHOREF
  2

  9
$PUCSORTHOVIEW
 70
     0
  9
$PUCSORGTOP
 10
0.0
 20
0.0
 30
0.0
  9
$PUCSORGBOTTOM
 10
0.0
 20
0.0
 30
0.0
  9
$PUCSORGLEFT
 10
0.0
 20
0.0
 30
0.0
  9
$PUCSORGRIGHT
 10
0.0
 20
0.0
 30
0.0
  9
$PUCSORGFRONT
 10
0.0
 20
0.0
 30
0.0
  9
$PUCSORGBACK
 10
0.0
 20
0.0
 30
0.0
  9
$USERI1
 70
     0
  9
$USERI2
 70
     0
  9
$USERI3
 70
     0
  9
$USERI4
 70
     0
  9
$USERI5
 70
     0
  9
$USERR1
 40
0.0
  9
$USERR2
 40
0.0
  9
$USERR3
 40
0.0
  9
$USERR4
 40
0.0
  9
$USERR5
 40
0.0
  9
$WORLDVIEW
 70
     1
  9
$SHADEDGE
 70
     3
  9
$SHADEDIF
 70
    70
  9
$TILEMODE
 70
     1
  9
$MAXACTVP
 70
    64
  9
$PINSBASE
 10
0.0
 20
0.0
 30
0.0
  9
$PLIMCHECK
 70
     0
  9
$PEXTMIN
 10
1.000000000000000E+20
 20
1.000000000000000E+20
 30
1.000000000000000E+20
  9
$PEXTMAX
 10
-1.000000000000000E+20
 20
-1.000000000000000E+20
 30
-1.000000000000000E+20
  9
$PLIMMIN
 10
0.0
 20
0.0
  9
$PLIMMAX
 10
12.0
 20
9.0
  9
$UNITMODE
 70
     0
  9
$VISRETAIN
 70
     1
  9
$PLINEGEN
 70
     0
  9
$PSLTSCALE
 70
     1
  9
$TREEDEPTH
 70
  3020
  9
$CMLSTYLE
  2
Standard
  9
$CMLJUST
 70
     0
  9
$CMLSCALE
 40
1.0
  9
$PROXYGRAPHICS
 70
     1
  9
$MEASUREMENT
 70
     0
  9
$CELWEIGHT
370
    -1
  9
$ENDCAPS
280
     0
  9
$JOINSTYLE
280
     0
  9
$LWDISPLAY
290
     1
  9
$INSUNITS
 70
     1
  9
$HYPERLINKBASE
  1

  9
$STYLESHEET
  1

  9
$XEDIT
290
     1
  9
$CEPSNTYPE
380
     0
  9
$PSTYLEMODE
290
     1
  9
$FINGERPRINTGUID
  2
{B1ED241C-E0E5-4F77-82F1-79CE3FCA7119}
  9
$VERSIONGUID
  2
{EA943D30-F9EC-44E1-ABE5-F4EA4C1094A3}
  9
$EXTNAMES
290
     1
  9
$PSVPSCALE
 40
0.0
  9
$OLESTARTUP
290
     0
  9
$SORTENTS
280
   127
  9
$INDEXCTL
280
     0
  9
$HIDETEXT
280
     0
  9
$XCLIPFRAME
290
     0
  9
$HALOGAP
280
     0
  9
$OBSCOLOR
 70
   257
  9
$OBSLTYPE
280
     0
  9
$INTERSECTIONDISPLAY
280
     0
  9
$INTERSECTIONCOLOR
 70
   257
  9
$DIMASSOC
280
     1
  9
$PROJECTNAME
  1

  0
ENDSEC
  0
SECTION
  2
CLASSES
  0
CLASS
  1
ACDBDICTIONARYWDFLT
  2
AcDbDictionaryWithDefault
  3
ObjectDBX Classes
 90
        0
 91
        1
280
     0
281
     0
  0
CLASS
  1
VISUALSTYLE
  2
AcDbVisualStyle
  3
ObjectDBX Classes
 90
     4095
 91
        0
280
     0
281
     0
  0
CLASS
  1
MATERIAL
  2
AcDbMaterial
  3
ObjectDBX Classes
 90
        0
 91
        0
280
     0
281
     0
  0
CLASS
  1
SCALE
  2
AcDbScale
  3
ObjectDBX Classes
 90
     1153
 91
       33
280
     0
281
     0
  0
CLASS
  1
SUN
  2
AcDbSun
  3
SCENEOE
 90
     1153
 91
        1
280
     0
281
     0
  0
CLASS
  1
ACDBPLACEHOLDER
  2
AcDbPlaceHolder
  3
ObjectDBX Classes
 90
        0
 91
        1
280
     0
281
     0
  0
CLASS
  1
LAYOUT
  2
AcDbLayout
  3
ObjectDBX Classes
 90
        0
 91
        3
280
     0
281
     0
  0
ENDSEC
  0
SECTION
  2
TABLES
  0
TABLE
  2
VPORT
  5
8
330
0
100
AcDbSymbolTable
 70
     5
  0
VPORT
  5
31D
330
8
100
AcDbSymbolTableRecord
100
AcDbViewportTableRecord
  2
*Active
 70
     0
 10
0.0
 20
0.0
 11
1.0
 21
1.0
 12
-1.361696318010515
 22
4.761817765524153
 13
0.0
 23
0.0
 14
0.5
 24
0.5
 15
0.5
 25
0.5
 16
0.0
 26
0.0
 36
1.0
 17
0.0
 27
0.0
 37
0.0
 40
38.96336292739445
 41
2.240490797546012
 42
50.0
 43
0.0
 44
0.0
 50
0.0
 51
0.0
 71
     0
 72
  2000
 73
     1
 74
     3
 75
     0
 76
     0
 77
     0
 78
     0
281
     0
 65
     1
110
0.0
120
0.0
130
0.0
111
1.0
121
0.0
131
0.0
112
0.0
122
1.0
132
0.0
 79
     0
146
0.0
  0
ENDTAB
  0
TABLE
  2
LTYPE
  5
5
330
0
100
AcDbSymbolTable
 70
     6
  0
LTYPE
  5
14
330
5
100
AcDbSymbolTableRecord
100
AcDbLinetypeTableRecord
  2
ByBlock
 70
     0
  3

 72
    65
 73
     0
 40
0.0
  0
LTYPE
  5
15
330
5
100
AcDbSymbolTableRecord
100
AcDbLinetypeTableRecord
  2
ByLayer
 70
     0
  3

 72
    65
 73
     0
 40
0.0
  0
LTYPE
  5
16
330
5
100
AcDbSymbolTableRecord
100
AcDbLinetypeTableRecord
  2
Continuous
 70
     0
  3
Solid line
 72
    65
 73
     0
 40
0.0
  0
LTYPE
  5
6A
330
5
100
AcDbSymbolTableRecord
100
AcDbLinetypeTableRecord
  2
HIDDEN
 70
     0
  3
Hidden __ __ __ __ __ __ __ __ __ __ __ __ __ __
 72
    65
 73
     2
 40
0.075
 49
0.05
 74
     0
 49
-0.025
 74
     0
  0
LTYPE
  5
6B
330
5
100
AcDbSymbolTableRecord
100
AcDbLinetypeTableRecord
  2
PHANTOM
 70
     0
  3
Phantom ______  __  __  ______  __  __  ______
 72
    65
 73
     6
 40
0.5
 49
0.25
 74
     0
 49
-0.05
 74
     0
 49
0.05
 74
     0
 49
-0.05
 74
     0
 49
0.05
 74
     0
 49
-0.05
 74
     0
  0
LTYPE
  5
6C
330
5
100
AcDbSymbolTableRecord
100
AcDbLinetypeTableRecord
  2
CENTER
 70
     0
  3
Center ____ _ ____ _ ____ _ ____ _ ____ _ ____
 72
    65
 73
     4
 40
0.4
 49
0.25
 74
     0
 49
-0.05
 74
     0
 49
0.05
 74
     0
 49
-0.05
 74
     0
  0
LTYPE
  5
6D
330
5
100
AcDbSymbolTableRecord
100
AcDbLinetypeTableRecord
  2
CENTERX2
 70
     0
  3
Center (2x) ________  __  ________  __  _____
 72
    65
 73
     4
 40
0.8
 49
0.5
 74
     0
 49
-0.1
 74
     0
 49
0.1
 74
     0
 49
-0.1
 74
     0
  0
LTYPE
  5
6E
330
5
100
AcDbSymbolTableRecord
100
AcDbLinetypeTableRecord
  2
DOT2
 70
     0
  3
Dot (.5x) ........................................
 72
    65
 73
     2
 40
0.025
 49
0.0
 74
     0
 49
-0.025
 74
     0
  0
ENDTAB
  0
TABLE
  2
LAYER
  5
2
330
0
100
AcDbSymbolTable
 70
     1
  0
LAYER
  5
10
330
2
100
AcDbSymbolTableRecord
100
AcDbLayerTableRecord
  2
0
 70
     0
 62
     7
  6
Continuous
370
    -3
390
F
  0
ENDTAB
  0
TABLE
  2
STYLE
  5
3
330
0
100
AcDbSymbolTable
 70
     1
  0
STYLE
  5
11
330
3
100
AcDbSymbolTableRecord
100
AcDbTextStyleTableRecord
  2
Standard
 70
     0
 40
0.0
 41
1.0
 50
0.0
 71
     0
 42
0.1377952755905512
  3
txt
  4

  0
ENDTAB
  0
TABLE
  2
VIEW
  5
6
330
0
100
AcDbSymbolTable
 70
     0
  0
ENDTAB
  0
TABLE
  2
UCS
  5
7
330
0
100
AcDbSymbolTable
 70
     0
  0
ENDTAB
  0
TABLE
  2
APPID
  5
9
330
0
100
AcDbSymbolTable
 70
     1
  0
APPID
  5
12
330
9
100
AcDbSymbolTableRecord
100
AcDbRegAppTableRecord
  2
ACAD
 70
     0
  0
ENDTAB
  0
TABLE
  2
DIMSTYLE
  5
A
330
0
100
AcDbSymbolTable
 70
     1
100
AcDbDimStyleTable
 71
     0
  0
DIMSTYLE
105
27
330
A
100
AcDbSymbolTableRecord
100
AcDbDimStyleTableRecord
  2
Standard
 70
     0
340
11
  0
ENDTAB
  0
TABLE
  2
BLOCK_RECORD
  5
1
330
0
100
AcDbSymbolTable
 70
     1
  0
BLOCK_RECORD
  5
1F
330
1
100
AcDbSymbolTableRecord
100
AcDbBlockTableRecord
  2
*Model_Space
340
22
  0
BLOCK_RECORD
  5
1B
330
1
100
AcDbSymbolTableRecord
100
AcDbBlockTableRecord
  2
*Paper_Space
340
1E
  0
BLOCK_RECORD
  5
23
330
1
100
AcDbSymbolTableRecord
100
AcDbBlockTableRecord
  2
*Paper_Space0
340
26
  0
ENDTAB
  0
ENDSEC
  0
SECTION
  2
BLOCKS
  0
BLOCK
  5
20
330
1F
100
AcDbEntity
  8
0
100
AcDbBlockBegin
  2
*Model_Space
 70
     0
 10
0.0
 20
0.0
 30
0.0
  3
*Model_Space
  1

  0
ENDBLK
  5
21
330
1F
100
AcDbEntity
  8
0
100
AcDbBlockEnd
  0
BLOCK
  5
1C
330
1B
100
AcDbEntity
 67
     1
  8
0
100
AcDbBlockBegin
  2
*Paper_Space
 70
     0
 10
0.0
 20
0.0
 30
0.0
  3
*Paper_Space
  1

  0
ENDBLK
  5
1D
330
1B
100
AcDbEntity
 67
     1
  8
0
100
AcDbBlockEnd
  0
BLOCK
  5
24
330
23
100
AcDbEntity
  8
0
100
AcDbBlockBegin
  2
*Paper_Space0
 70
     0
 10
0.0
 20
0.0
 30
0.0
  3
*Paper_Space0
  1

  0
ENDBLK
  5
25
330
23
100
AcDbEntity
  8
0
100
AcDbBlockEnd
  0
ENDSEC
  0
SECTION
  2
ENTITIES
  0
LINE
  5
6F
330
1F
100
AcDbEntity
  8
0
  6
Continuous
 62
     7
370
     5
100
AcDbLine
 10
-17.37130234187153
 20
14.28173405385805
 30
0.0
 11
-18.07134543391844
 21
13.59847053520721
 31
0.0
  0
LINE
  5
70
330
1F
100
AcDbEntity
  8
0
  6
Continuous
 62
     7
370
     5
100
AcDbLine
 10
-16.67125924982463
 20
14.96499757250889
 30
0.0
 11
-17.37130234187153
 21
14.28173405385805
 31
0.0
  0
LINE
  5
71
330
1F
100
AcDbEntity
  8
0
  6
Continuous
 62
     7
370
     5
100
AcDbLine
 10
15.80681861266499
 20
3.76273349464382
 30
0.0
 11
15.83108673522354
 21
3.786419926234646
 31
0.0
  0
LINE
  5
72
330
1F
100
AcDbEntity
  8
0
  6
Continuous
 62
     7
370
     5
100
AcDbLine
 10
14.55585908866123
 20
2.510530113276136
 30
0.0
 11
14.56110938224788
 21
2.515654560771895
 31
0.0
  0
LINE
  5
73
330
1F
100
AcDbEntity
  8
0
  6
Continuous
 62
     7
370
     5
100
AcDbLine
 10
14.40891537577939
 20
2.599965297781968
 30
0.0
 11
14.40366508219274
 21
2.594840850286209
 31
0.0
  0
LINE
  5
74
330
1F
100
AcDbEntity
  8
0
  6
Continuous
 62
     7
370
     5
100
AcDbLine
 10
14.45536770981975
 20
2.480848999902167
 30
0.0
 11
14.46061800340639
 21
2.485973447397927
 31
0.0
  0
LINE
  5
75
330
1F
100
AcDbEntity
  8
0
  6
Continuous
 62
     7
370
     5
100
AcDbLine
 10
14.36264666807826
 20
2.506528640419881
 30
0.0
 11
14.36789696166491
 21
2.51165308791564
 31
0.0
  0
LINE
  5
76
330
1F
100
AcDbEntity
  8
0
  6
Continuous
 62
     7
370
     5
100
AcDbLine
 10
15.80681861266499
 20
0.9769397538850833
 30
0.0
 11
15.83108673522354
 21
1.000626185475911
 31
0.0
  0
LINE
  5
77
330
1F
100
AcDbEntity
  8
0
  6
Continuous
 62
     7
370
     5
100
AcDbLine
 10
-5.419216569925014
 20
9.53151503835412
 30
0.0
 11
-5.394948447366471
 21
9.555201469944947
 31
0.0
  0
LINE
  5
78
330
1F
100
AcDbEntity
  8
0
  6
Continuous
 62
     7
370
     5
100
AcDbLine
 10
-6.670176093928776
 20
8.279311656986436
 30
0.0
 11
-6.664925800342128
 21
8.284436104482196
 31
0.0
  0
LINE
  5
79
330
1F
100
AcDbEntity
  8
0
  6
Continuous
 62
     7
370
     5
100
AcDbLine
 10
-6.817117731400058
 20
8.368746277440154
 30
0.0
 11
-6.822368024986708
 21
8.363621829944394
 31
0.0
  0
LINE
  5
7A
330
1F
100
AcDbEntity
  8
0
  6
Continuous
 62
     7
370
     5
100
AcDbLine
 10
-6.770667472770263
 20
8.249630543612468
 30
0.0
 11
-6.765417179183613
 21
8.25475499110823
 31
0.0
  0
LINE
  5
7B
330
1F
100
AcDbEntity
  8
0
  6
Continuous
 62
     7
370
     5
100
AcDbLine
 10
-6.863386439101188
 20
8.275309620078063
 30
0.0
 11
-6.85813614551454
 21
8.280434067573823
 31
0.0
  0
LINE
  5
7C
330
1F
100
AcDbEntity
  8
0
  6
Continuous
 62
     7
370
     5
100
AcDbLine
 10
-5.419216569925014
 20
6.745721297595383
 30
0.0
 11
-5.394948447366471
 21
6.769407729186211
 31
0.0
  0
LINE
  5
7D
330
1F
100
AcDbEntity
  8
0
  6
Continuous
 62
     7
370
     5
100
AcDbLine
 10
-7.43633264161224
 20
11.09566277681183
 30
0.0
 11
-13.47057777999507
 21
2.236389404721006
 31
0.0
  0
LINE
  5
7E
330
1F
100
AcDbEntity
  8
0
  6
Continuous
 62
     7
370
     5
100
AcDbLine
 10
-7.43633264161224
 20
11.09566277681183
 30
0.0
 11
-7.43633264161224
 21
10.43067874112735
 31
0.0
  0
LINE
  5
7F
330
1F
100
AcDbEntity
  8
0
  6
Continuous
 62
     7
370
     5
100
AcDbLine
 10
-7.43633264161224
 20
10.22983959676514
 30
0.0
 11
-7.43633264161224
 21
9.632250687290508
 31
0.0
  0
LINE
  5
80
330
1F
100
AcDbEntity
  8
0
  6
Continuous
 62
     7
370
     5
100
AcDbLine
 10
-7.43633264161224
 20
9.265526402986433
 30
0.0
 11
-7.43633264161224
 21
8.667937446368139
 31
0.0
  0
LINE
  5
81
330
1F
100
AcDbEntity
  8
0
  6
Continuous
 62
     7
370
     5
100
AcDbLine
 10
-7.43633264161224
 20
8.301213177778615
 30
0.0
 11
-7.43633264161224
 21
7.703624236874873
 31
0.0
  0
LINE
  5
82
330
1F
100
AcDbEntity
  8
0
  6
Continuous
 62
     7
370
     5
100
AcDbLine
 10
-7.43633264161224
 20
7.336900015429007
 30
0.0
 11
-7.43633264161224
 21
6.739311043096161
 31
0.0
  0
LINE
  5
83
330
1F
100
AcDbEntity
  8
0
  6
Continuous
 62
     7
370
     5
100
AcDbLine
 10
-7.43633264161224
 20
6.431002086946118
 30
0.0
 11
-7.43633264161224
 21
6.214936044260846
 31
0.0
  0
LINE
  5
84
330
1F
100
AcDbEntity
  8
0
  6
Continuous
 62
     7
370
     5
100
AcDbLine
 10
-13.06802218854987
 20
-2.053319317295152
 30
0.0
 11
-7.43633264161224
 21
6.214936044260846
 31
0.0
  0
SPLINE
  5
85
330
1F
100
AcDbEntity
  8
0
  6
Continuous
 62
     7
370
     5
100
AcDbSpline
210
0.0
220
0.0
230
1.0
 70
     8
 71
     3
 72
    31
 73
    27
 74
     0
 42
0.0000000001
 43
0.0000000001
 40
0.0
 40
0.0
 40
0.0
 40
0.0
 40
0.048863526080244
 40
0.0922064784225131
 40
0.131124625233086
 40
0.1667575893800653
 40
0.2002257133882811
 40
0.232542073087005
 40
0.2645281254466687
 40
0.309794891817456
 40
0.3563640245528536
 40
0.4043479904333496
 40
0.4533790158933633
 40
0.5028136509187203
 40
0.5518933213519032
 40
0.5998821848882355
 40
0.6462152707342561
 40
0.6906852370735761
 40
0.7336905118956612
 40
0.7642074279588812
 40
0.795394822335941
 40
0.828268641838579
 40
0.8639914540637713
 40
0.9037641499546577
 40
0.948743185816493
 40
1.0
 40
1.0
 40
1.0
 40
1.0
 10
-13.06802218854987
 20
-2.053319317295152
 30
0.0
 10
-13.04102097557694
 20
-1.954366107058654
 30
0.0
 10
-12.99006913151062
 20
-1.767639364712515
 30
0.0
 10
-12.93316032357513
 20
-1.499918986730329
 30
0.0
 10
-12.89590946458007
 20
-1.262301329075081
 30
0.0
 10
-12.87754731952092
 20
-1.052319815478565
 30
0.0
 10
-12.87626434661863
 20
-0.868000732825744
 30
0.0
 10
-12.89030609788434
 20
-0.7071569337398538
 30
0.0
 10
-12.92142800521954
 20
-0.5484299906421395
 30
0.0
 10
-12.97400135800485
 20
-0.3981260676905163
 30
0.0
 10
-13.04922162306393
 20
-0.2610118522744749
 30
0.0
 10
-13.13686656727918
 20
-0.1445279029696161
 30
0.0
 10
-13.232363324088
 20
-0.0413587831646072
 30
0.0
 10
-13.3311842835346
 20
0.0555600347661091
 30
0.0
 10
-13.42880683468941
 20
0.1531581413950952
 30
0.0
 10
-13.52071425118477
 20
0.2583895872216009
 30
0.0
 10
-13.60239096160211
 20
0.3784079896608691
 30
0.0
 10
-13.66924483095881
 20
0.5207482912717849
 30
0.0
 10
-13.71185009224265
 20
0.6776622102766354
 30
0.0
 10
-13.73209151869095
 20
0.8431848709273415
 30
0.0
 10
-13.73511271300406
 20
1.01098039757488
 30
0.0
 10
-13.72140683720328
 20
1.202814646546497
 30
0.0
 10
-13.68934746966796
 20
1.420660603458645
 30
0.0
 10
-13.63727702204319
 20
1.6664640156166
 30
0.0
 10
-13.56432024756485
 20
1.94300848805898
 30
0.0
 10
-13.50315526624803
 20
2.134433343319881
 30
0.0
 10
-13.47057777999507
 20
2.236389404721002
 30
0.0
  0
LINE
  5
86
330
1F
100
AcDbEntity
  8
0
  6
Continuous
 62
     7
370
     5
100
AcDbLine
 10
-14.39464951717491
 20
-1.69277043556
 30
0.0
 11
-13.06802218854987
 21
-2.053319317295152
 31
0.0
  0
SPLINE
  5
87
330
1F
100
AcDbEntity
  8
0
  6
Continuous
 62
     7
370
     5
100
AcDbSpline
210
0.0
220
0.0
230
1.0
 70
     8
 71
     3
 72
    31
 73
    27
 74
     0
 42
0.0000000001
 43
0.0000000001
 40
0.0
 40
0.0
 40
0.0
 40
0.0
 40
0.048863526080244
 40
0.0922064784225131
 40
0.131124625233086
 40
0.1667575893800653
 40
0.2002257133882811
 40
0.232542073087005
 40
0.2645281254466687
 40
0.309794891817456
 40
0.3563640245528536
 40
0.4043479904333496
 40
0.4533790158933633
 40
0.5028136509187203
 40
0.5518933213519032
 40
0.5998821848882355
 40
0.6462152707342561
 40
0.6906852370735761
 40
0.7336905118956612
 40
0.7642074279588812
 40
0.795394822335941
 40
0.828268641838579
 40
0.8639914540637713
 40
0.9037641499546577
 40
0.948743185816493
 40
1.0
 40
1.0
 40
1.0
 40
1.0
 10
-14.39464951717491
 20
-1.69277043556
 30
0.0
 10
-14.36764830420197
 20
-1.593817225323504
 30
0.0
 10
-14.31669646013566
 20
-1.407090482977363
 30
0.0
 10
-14.25978765220016
 20
-1.139370104995177
 30
0.0
 10
-14.2225367932051
 20
-0.9017524473399321
 30
0.0
 10
-14.20417464814596
 20
-0.691770933743414
 30
0.0
 10
-14.20289167524367
 20
-0.5074518510905922
 30
0.0
 10
-14.21693342650937
 20
-0.3466080520047017
 30
0.0
 10
-14.24805533384458
 20
-0.1878811089069875
 30
0.0
 10
-14.30062868662988
 20
-0.0375771859553643
 30
0.0
 10
-14.37584895168896
 20
0.0995370294606749
 30
0.0
 10
-14.46349389590421
 20
0.2160209787655359
 30
0.0
 10
-14.55899065271304
 20
0.3191900985705427
 30
0.0
 10
-14.65781161215964
 20
0.4161089165012589
 30
0.0
 10
-14.75543416331445
 20
0.5137070231302451
 30
0.0
 10
-14.84734157980981
 20
0.6189384689567508
 30
0.0
 10
-14.92901829022715
 20
0.7389568713960212
 30
0.0
 10
-14.99587215958384
 20
0.8812971730069325
 30
0.0
 10
-15.03847742086768
 20
1.038211092011787
 30
0.0
 10
-15.05871884731599
 20
1.203733752662491
 30
0.0
 10
-15.06174004162909
 20
1.371529279310029
 30
0.0
 10
-15.04803416582832
 20
1.563363528281648
 30
0.0
 10
-15.015974798293
 20
1.781209485193797
 30
0.0
 10
-14.96390435066823
 20
2.027012897351752
 30
0.0
 10
-14.89094757618989
 20
2.303557369794133
 30
0.0
 10
-14.82978259487306
 20
2.49498222505503
 30
0.0
 10
-14.7972051086201
 20
2.596938286456154
 30
0.0
  0
LINE
  5
88
330
1F
100
AcDbEntity
  8
0
  6
Continuous
 62
     7
370
     5
100
AcDbLine
 10
-14.7972051086201
 20
2.596938286456156
 30
0.0
 11
-13.47057777999507
 21
2.236389404721006
 31
0.0
  0
LINE
  5
89
330
1F
100
AcDbEntity
  8
0
  6
Continuous
 62
     7
370
     5
100
AcDbLine
 10
-7.43633264161224
 20
11.09566277681183
 30
0.0
 11
-8.762959970237275
 21
11.45621165854699
 31
0.0
  0
LINE
  5
8A
330
1F
100
AcDbEntity
  8
0
  6
Continuous
 62
     7
370
     5
100
AcDbLine
 10
-8.762959970237275
 20
11.45621165854699
 30
0.0
 11
-14.7972051086201
 21
2.596938286456156
 31
0.0
  0
LINE
  5
8B
330
1F
100
AcDbEntity
  8
0
  6
Continuous
 62
     7
370
     5
100
AcDbLine
 10
-7.362873786143467
 20
12.82273869584867
 30
0.0
 11
-6.036246457518432
 21
12.46218981411352
 31
0.0
  0
LINE
  5
8C
330
1F
100
AcDbEntity
  8
0
  6
Continuous
 62
     7
370
     5
100
AcDbLine
 10
-6.036246457518432
 20
12.46218981411352
 30
0.0
 11
0.457480446193903
 21
15.60447396447187
 31
0.0
  0
SPLINE
  5
8D
330
1F
100
AcDbEntity
  8
0
  6
Continuous
 62
     7
370
     5
100
AcDbSpline
210
0.0
220
0.0
230
1.0
 70
     8
 71
     3
 72
    32
 73
    28
 74
     0
 42
0.0000000001
 43
0.0000000001
 40
0.0
 40
0.0
 40
0.0
 40
0.0
 40
0.0305368105542527
 40
0.0654366278211773
 40
0.097872752565907
 40
0.1289085033639476
 40
0.159456273407721
 40
0.2005648417811972
 40
0.2429899571824701
 40
0.2870513726986184
 40
0.3325980151682182
 40
0.379178352198384
 40
0.4261688291173574
 40
0.4728717295588313
 40
0.5185986487757873
 40
0.5627570954752787
 40
0.6049618573822638
 40
0.6451897332364699
 40
0.6839852537718679
 40
0.7129289760126873
 40
0.742660735944174
 40
0.7742546491581789
 40
0.8088882705581415
 40
0.8477333886290637
 40
0.8918859826703092
 40
0.9423414262758914
 40
1.0
 40
1.0
 40
1.0
 40
1.0
 10
-0.357985529914508
 20
10.91896066018072
 30
0.0
 10
-0.3648134610241385
 20
10.9606157712032
 30
0.0
 10
-0.3794448772951923
 20
11.04987754895123
 30
0.0
 10
-0.3854293563244915
 20
11.20441882433087
 30
0.0
 10
-0.3782125398363989
 20
11.37208279982196
 30
0.0
 10
-0.357077101521784
 20
11.54197532111822
 30
0.0
 10
-0.3202594376754907
 20
11.73195044963513
 30
0.0
 10
-0.2643972817873399
 20
11.94302140626994
 30
0.0
 10
-0.1886290396881981
 20
12.17265235131103
 30
0.0
 10
-0.10125407127431
 20
12.40222430792321
 30
0.0
 10
-0.0053946963035579
 20
12.63170211093362
 30
0.0
 10
0.0958679216264538
 20
12.86088293665332
 30
0.0
 10
0.1994385029135915
 20
13.08940086138744
 30
0.0
 10
0.3022116375349939
 20
13.31683045489313
 30
0.0
 10
0.4010880117491971
 20
13.54275688140607
 30
0.0
 10
0.4929887209606762
 20
13.76685880507407
 30
0.0
 10
0.5748503196072602
 20
13.9890298558896
 30
0.0
 10
0.6435506124519853
 20
14.20939143777502
 30
0.0
 10
0.6913313831747678
 20
14.41020657730615
 30
0.0
 10
0.7194333960684391
 20
14.58892580017391
 30
0.0
 10
0.7315986238351612
 20
14.74725329195726
 30
0.0
 10
0.7291314659029843
 20
14.90221757829762
 30
0.0
 10
0.7107562913453063
 20
15.0531625402372
 30
0.0
 10
0.6753357206301746
 20
15.19987612792882
 30
0.0
 10
0.6215671099059799
 20
15.34202026711607
 30
0.0
 10
0.5487193649134738
 20
15.48090592363988
 30
0.0
 10
0.4892149198367351
 20
15.56149486312005
 30
0.0
 10
0.457480446193903
 20
15.60447396447187
 30
0.0
  0
LINE
  5
8E
330
1F
100
AcDbEntity
  8
0
  6
Continuous
 62
     7
370
     5
100
AcDbLine
 10
-7.362873786143467
 20
12.82273869584867
 30
0.0
 11
-0.8691468824311346
 21
15.96502284620702
 31
0.0
  0
LINE
  5
8F
330
1F
100
AcDbEntity
  8
0
  6
Continuous
 62
     7
370
     5
100
AcDbLine
 10
-0.8691468824311346
 20
15.96502284620702
 30
0.0
 11
0.457480446193903
 21
15.60447396447187
 31
0.0
  0
LINE
  5
90
330
1F
100
AcDbEntity
  8
0
  6
Continuous
 62
     7
370
     5
100
AcDbLine
 10
13.86315932103599
 20
7.053957716190487
 30
0.0
 11
15.18978664966102
 21
6.693408834455338
 31
0.0
  0
LINE
  5
91
330
1F
100
AcDbEntity
  8
0
  6
Continuous
 62
     7
370
     5
100
AcDbLine
 10
13.86315932103599
 20
7.053957716190487
 30
0.0
 11
20.35688622474832
 21
10.19624186654883
 31
0.0
  0
LINE
  5
92
330
1F
100
AcDbEntity
  8
0
  6
Continuous
 62
     7
370
     5
100
AcDbLine
 10
20.35688622474832
 20
10.19624186654883
 30
0.0
 11
21.68351355337336
 21
9.835692984813686
 31
0.0
  0
LINE
  5
93
330
1F
100
AcDbEntity
  8
0
  6
Continuous
 62
     7
370
     5
100
AcDbLine
 10
15.18978664966102
 20
6.693408834455338
 30
0.0
 11
21.68351355337336
 21
9.835692984813686
 31
0.0
  0
SPLINE
  5
94
330
1F
100
AcDbEntity
  8
0
  6
Continuous
 62
     7
370
     5
100
AcDbSpline
210
0.0
220
0.0
230
1.0
 70
     8
 71
     3
 72
    32
 73
    28
 74
     0
 42
0.0000000001
 43
0.0000000001
 40
0.0
 40
0.0
 40
0.0
 40
0.0
 40
0.0576585737241086
 40
0.1081140173296908
 40
0.1522666113709365
 40
0.1911117294418586
 40
0.2257453508418212
 40
0.2573392640558261
 40
0.2870710239873129
 40
0.3160147462281322
 40
0.3548102667635303
 40
0.3950381426177364
 40
0.4372429045247215
 40
0.4814013512242128
 40
0.5271282704411688
 40
0.5738311708826427
 40
0.6208216478016161
 40
0.6674019848317819
 40
0.7129486273013815
 40
0.75701004281753
 40
0.7994351582188026
 40
0.8405437265922788
 40
0.8710914966360522
 40
0.902127247434093
 40
0.9345633721788226
 40
0.9694631894457474
 40
1.0
 40
1.0
 40
1.0
 40
1.0
 10
21.68351355337336
 20
9.835692984813684
 30
0.0
 10
21.71524802701619
 20
9.792713883461868
 30
0.0
 10
21.77475247209294
 20
9.712124943981701
 30
0.0
 10
21.84760021708544
 20
9.573239287457891
 30
0.0
 10
21.90136882780961
 20
9.431095148270642
 30
0.0
 10
21.93678939852475
 20
9.284381560579014
 30
0.0
 10
21.95516457308245
 20
9.133436598639438
 30
0.0
 10
21.95763173101461
 20
8.978472312299077
 30
0.0
 10
21.9454665032479
 20
8.820144820515723
 30
0.0
 10
21.91736449035424
 20
8.641425597647971
 30
0.0
 10
21.86958371963145
 20
8.440610458116841
 30
0.0
 10
21.80088342678672
 20
8.220248876231419
 30
0.0
 10
21.71902182814013
 20
7.998077825415895
 30
0.0
 10
21.62712111892865
 20
7.773975901747889
 30
0.0
 10
21.52824474471446
 20
7.548049475234956
 30
0.0
 10
21.42547161009305
 20
7.320619881729255
 30
0.0
 10
21.32190102880591
 20
7.092101956995141
 30
0.0
 10
21.2206384108759
 20
6.862921131275437
 30
0.0
 10
21.12477903590515
 20
6.633443328265025
 30
0.0
 10
21.03740406749125
 20
6.403871371652845
 30
0.0
 10
20.96163582539212
 20
6.174240426611755
 30
0.0
 10
20.90577366950396
 20
5.963169469976953
 30
0.0
 10
20.86895600565769
 20
5.773194341460036
 30
0.0
 10
20.84782056734305
 20
5.603301820163778
 30
0.0
 10
20.84060375085497
 20
5.435637844672679
 30
0.0
 10
20.84658822988426
 20
5.281096569293055
 30
0.0
 10
20.86121964615533
 20
5.191834791545012
 30
0.0
 10
20.86804757726496
 20
5.150179680522536
 30
0.0
  0
LINE
  5
95
330
1F
100
AcDbEntity
  8
0
  6
Continuous
 62
     7
370
     5
100
AcDbLine
 10
13.78970046556722
 20
5.326881797153654
 30
0.0
 11
7.755455327184389
 21
-3.532391574937174
 31
0.0
  0
LINE
  5
96
330
1F
100
AcDbEntity
  8
0
  6
Continuous
 62
     7
370
     5
100
AcDbLine
 10
13.78970046556722
 20
5.326881797153654
 30
0.0
 11
13.78970046556722
 21
4.661897761469172
 31
0.0
  0
LINE
  5
97
330
1F
100
AcDbEntity
  8
0
  6
Continuous
 62
     7
370
     5
100
AcDbLine
 10
13.78970046556722
 20
4.461058617106962
 30
0.0
 11
13.78970046556722
 21
3.863469707632324
 31
0.0
  0
LINE
  5
98
330
1F
100
AcDbEntity
  8
0
  6
Continuous
 62
     7
370
     5
100
AcDbLine
 10
13.78970046556722
 20
3.496745423328251
 30
0.0
 11
13.78970046556722
 21
2.899156466709955
 31
0.0
  0
LINE
  5
99
330
1F
100
AcDbEntity
  8
0
  6
Continuous
 62
     7
370
     5
100
AcDbLine
 10
13.78970046556722
 20
2.532432198120433
 30
0.0
 11
13.78970046556722
 21
1.934843257216691
 31
0.0
  0
LINE
  5
9A
330
1F
100
AcDbEntity
  8
0
  6
Continuous
 62
     7
370
     5
100
AcDbLine
 10
13.78970046556722
 20
1.568119035770824
 30
0.0
 11
13.78970046556722
 21
0.9705300634379801
 31
0.0
  0
LINE
  5
9B
330
1F
100
AcDbEntity
  8
0
  6
Continuous
 62
     7
370
     5
100
AcDbLine
 10
13.78970046556722
 20
0.6622211072879367
 30
0.0
 11
13.78970046556722
 21
0.4461550646026659
 31
0.0
  0
LINE
  5
9C
330
1F
100
AcDbEntity
  8
0
  6
Continuous
 62
     7
370
     5
100
AcDbLine
 10
8.158010918629582
 20
-7.822100296953334
 30
0.0
 11
13.78970046556722
 21
0.4461550646026659
 31
0.0
  0
SPLINE
  5
9D
330
1F
100
AcDbEntity
  8
0
  6
Continuous
 62
     7
370
     5
100
AcDbSpline
210
0.0
220
0.0
230
1.0
 70
     8
 71
     3
 72
    31
 73
    27
 74
     0
 42
0.0000000001
 43
0.0000000001
 40
0.0
 40
0.0
 40
0.0
 40
0.0
 40
0.048863526080244
 40
0.0922064784225131
 40
0.131124625233086
 40
0.1667575893800653
 40
0.2002257133882811
 40
0.232542073087005
 40
0.2645281254466687
 40
0.309794891817456
 40
0.3563640245528536
 40
0.4043479904333496
 40
0.4533790158933633
 40
0.5028136509187203
 40
0.5518933213519032
 40
0.5998821848882355
 40
0.6462152707342561
 40
0.6906852370735761
 40
0.7336905118956612
 40
0.7642074279588812
 40
0.795394822335941
 40
0.828268641838579
 40
0.8639914540637713
 40
0.9037641499546577
 40
0.948743185816493
 40
1.0
 40
1.0
 40
1.0
 40
1.0
 10
8.158010918629582
 20
-7.822100296953334
 30
0.0
 10
8.18501213160251
 20
-7.723147086716839
 30
0.0
 10
8.235963975668836
 20
-7.536420344370696
 30
0.0
 10
8.292872783604323
 20
-7.268699966388511
 30
0.0
 10
8.330123642599376
 20
-7.031082308733266
 30
0.0
 10
8.348485787658537
 20
-6.821100795136751
 30
0.0
 10
8.349768760560815
 20
-6.636781712483929
 30
0.0
 10
8.335727009295119
 20
-6.475937913398039
 30
0.0
 10
8.304605101959905
 20
-6.317210970300321
 30
0.0
 10
8.252031749174612
 20
-6.1669070473487
 30
0.0
 10
8.176811484115527
 20
-6.029792831932658
 30
0.0
 10
8.089166539900277
 20
-5.913308882627797
 30
0.0
 10
7.993669783091445
 20
-5.810139762822788
 30
0.0
 10
7.894848823644855
 20
-5.713220944892074
 30
0.0
 10
7.797226272490036
 20
-5.615622838263091
 30
0.0
 10
7.705318855994681
 20
-5.510391392436584
 30
0.0
 10
7.623642145577343
 20
-5.390372989997312
 30
0.0
 10
7.556788276220638
 20
-5.2480326883864
 30
0.0
 10
7.51418301493681
 20
-5.091118769381548
 30
0.0
 10
7.493941588488495
 20
-4.925596108730844
 30
0.0
 10
7.490920394175399
 20
-4.757800582083305
 30
0.0
 10
7.504626269976172
 20
-4.565966333111687
 30
0.0
 10
7.536685637511485
 20
-4.348120376199536
 30
0.0
 10
7.588756085136262
 20
-4.102316964041582
 30
0.0
 10
7.661712859614602
 20
-3.825772491599204
 30
0.0
 10
7.722877840931422
 20
-3.634347636338302
 30
0.0
 10
7.755455327184393
 20
-3.532391574937179
 30
0.0
  0
SPLINE
  5
9E
330
1F
100
AcDbEntity
  8
0
  6
Continuous
 62
     7
370
     5
100
AcDbSpline
210
0.0
220
0.0
230
1.0
 70
     8
 71
     3
 72
    31
 73
    27
 74
     0
 42
0.0000000001
 43
0.0000000001
 40
0.0
 40
0.0
 40
0.0
 40
0.0
 40
0.048863526080244
 40
0.0922064784225131
 40
0.131124625233086
 40
0.1667575893800653
 40
0.2002257133882811
 40
0.232542073087005
 40
0.2645281254466687
 40
0.309794891817456
 40
0.3563640245528536
 40
0.4043479904333496
 40
0.4533790158933633
 40
0.5028136509187203
 40
0.5518933213519032
 40
0.5998821848882355
 40
0.6462152707342561
 40
0.6906852370735761
 40
0.7336905118956612
 40
0.7642074279588812
 40
0.795394822335941
 40
0.828268641838579
 40
0.8639914540637713
 40
0.9037641499546577
 40
0.948743185816493
 40
1.0
 40
1.0
 40
1.0
 40
1.0
 10
6.831383590004545
 20
-7.461551415218186
 30
0.0
 10
6.85838480297748
 20
-7.362598204981687
 30
0.0
 10
6.909336647043797
 20
-7.175871462635549
 30
0.0
 10
6.966245454979294
 20
-6.908151084653363
 30
0.0
 10
7.003496313974342
 20
-6.670533426998114
 30
0.0
 10
7.021858459033512
 20
-6.460551913401603
 30
0.0
 10
7.023141431935782
 20
-6.276232830748778
 30
0.0
 10
7.009099680670086
 20
-6.115389031662887
 30
0.0
 10
6.977977773334871
 20
-5.956662088565169
 30
0.0
 10
6.925404420549569
 20
-5.806358165613548
 30
0.0
 10
6.850184155490492
 20
-5.66924395019751
 30
0.0
 10
6.762539211275244
 20
-5.552760000892649
 30
0.0
 10
6.667042454466415
 20
-5.44959088108764
 30
0.0
 10
6.568221495019813
 20
-5.352672063156922
 30
0.0
 10
6.470598943865007
 20
-5.255073956527938
 30
0.0
 10
6.378691527369639
 20
-5.149842510701432
 30
0.0
 10
6.297014816952305
 20
-5.029824108262162
 30
0.0
 10
6.230160947595609
 20
-4.887483806651249
 30
0.0
 10
6.187555686311777
 20
-4.730569887646396
 30
0.0
 10
6.167314259863466
 20
-4.565047226995692
 30
0.0
 10
6.164293065550356
 20
-4.397251700348153
 30
0.0
 10
6.17799894135113
 20
-4.205417451376534
 30
0.0
 10
6.210058308886456
 20
-3.987571494464386
 30
0.0
 10
6.262128756511233
 20
-3.741768082306433
 30
0.0
 10
6.335085530989569
 20
-3.465223609864052
 30
0.0
 10
6.396250512306393
 20
-3.273798754603152
 30
0.0
 10
6.428827998559356
 20
-3.171842693202029
 30
0.0
  0
LINE
  5
9F
330
1F
100
AcDbEntity
  8
0
  6
Continuous
 62
     7
370
     5
100
AcDbLine
 10
6.428827998559351
 20
-3.171842693202027
 30
0.0
 11
7.755455327184389
 21
-3.532391574937174
 31
0.0
  0
LINE
  5
A0
330
1F
100
AcDbEntity
  8
0
  6
Continuous
 62
     7
370
     5
100
AcDbLine
 10
6.831383590004545
 20
-7.461551415218186
 30
0.0
 11
8.158010918629582
 21
-7.822100296953334
 31
0.0
  0
LINE
  5
A1
330
1F
100
AcDbEntity
  8
0
  6
Continuous
 62
     7
370
     5
100
AcDbLine
 10
13.78970046556722
 20
5.326881797153654
 30
0.0
 11
12.46307313694218
 21
5.687430678888803
 31
0.0
  0
LINE
  5
A2
330
1F
100
AcDbEntity
  8
0
  6
Continuous
 62
     7
370
     5
100
AcDbLine
 10
12.46307313694218
 20
5.687430678888803
 30
0.0
 11
6.428827998559351
 21
-3.171842693202027
 31
0.0
  0
SPLINE
  5
A3
330
1F
100
AcDbEntity
  8
0
  6
Continuous
 62
     7
370
     5
100
AcDbSpline
210
0.0
220
0.0
230
1.0
 70
     8
 71
     3
 72
    31
 73
    27
 74
     0
 42
0.0000000001
 43
0.0000000001
 40
0.0
 40
0.0
 40
0.0
 40
0.0
 40
0.0520504229108936
 40
0.0983467238561033
 40
0.1398156251976877
 40
0.1774461034652659
 40
0.2122568113639561
 40
0.2452401621853162
 40
0.2772886349445965
 40
0.3191050555803248
 40
0.3616641664165381
 40
0.4055080665961704
 40
0.450725628249207
 40
0.4970921927796402
 40
0.5441893186505821
 40
0.591499531845813
 40
0.638483391857117
 40
0.6846554267296592
 40
0.7296654051736836
 40
0.7734006466320663
 40
0.8161111320269485
 40
0.8500390605945732
 40
0.8844311744436948
 40
0.9201685788846599
 40
0.9583086763410832
 40
1.0
 40
1.0
 40
1.0
 40
1.0
 10
23.33170644276599
 20
3.607089263967139
 30
0.0
 10
23.41248750487114
 20
3.537090233749792
 30
0.0
 10
23.56511936381412
 20
3.404830495788285
 30
0.0
 10
23.76491103736033
 20
3.196874394261092
 30
0.0
 10
23.92713435076813
 20
2.996551651563876
 30
0.0
 10
24.0536086125384
 20
2.802167321844771
 30
0.0
 10
24.14708466687323
 20
2.613609549568721
 30
0.0
 10
24.21017324437928
 20
2.430607140395091
 30
0.0
 10
24.24944856887635
 20
2.234731881538991
 30
0.0
 10
24.25843112590939
 20
2.026148540905893
 30
0.0
 10
24.23305936798096
 20
1.807624801012932
 30
0.0
 10
24.17983857723049
 20
1.595400839686454
 30
0.0
 10
24.10547786751478
 20
1.387731896858278
 30
0.0
 10
24.0164630221392
 20
1.183012352813709
 30
0.0
 10
23.91917200889204
 20
0.9797941843175578
 30
0.0
 10
23.81994453638831
 20
0.7767141711728283
 30
0.0
 10
23.72514202484464
 20
0.5724088225043037
 30
0.0
 10
23.64111285826591
 20
0.3654945293713629
 30
0.0
 10
23.57427529909455
 20
0.1544640842801833
 30
0.0
 10
23.53117560164813
 20
-0.0623108468189276
 30
0.0
 10
23.51956527774024
 20
-0.2719245312847659
 30
0.0
 10
23.53832233746013
 20
-0.4725810589295423
 30
0.0
 10
23.58335125215037
 20
-0.6638450565363252
 30
0.0
 10
23.66004427640629
 20
-0.8612944011916287
 30
0.0
 10
23.77007609556593
 20
-1.066168322235668
 30
0.0
 10
23.86685407365462
 20
-1.197776946651876
 30
0.0
 10
23.9173956016793
 20
-1.266508502224631
 30
0.0
  0
LINE
  5
A4
330
1F
100
AcDbEntity
  8
0
  6
Continuous
 62
     7
370
     5
100
AcDbLine
 10
23.9173956016793
 20
-1.266508502224631
 30
0.0
 11
23.2173525096324
 21
-1.949772020875472
 31
0.0
  0
SPLINE
  5
A5
330
1F
100
AcDbEntity
  8
0
  6
Continuous
 62
     7
370
     5
100
AcDbSpline
210
0.0
220
0.0
230
1.0
 70
     8
 71
     3
 72
    31
 73
    27
 74
     0
 42
0.0000000001
 43
0.0000000001
 40
0.0
 40
0.0
 40
0.0
 40
0.0
 40
0.0520504229108936
 40
0.0983467238561033
 40
0.1398156251976877
 40
0.1774461034652659
 40
0.2122568113639561
 40
0.2452401621853162
 40
0.2772886349445965
 40
0.3191050555803248
 40
0.3616641664165381
 40
0.4055080665961704
 40
0.450725628249207
 40
0.4970921927796402
 40
0.5441893186505821
 40
0.591499531845813
 40
0.638483391857117
 40
0.6846554267296592
 40
0.7296654051736836
 40
0.7734006466320663
 40
0.8161111320269485
 40
0.8500390605945732
 40
0.8844311744436948
 40
0.9201685788846599
 40
0.9583086763410832
 40
1.0
 40
1.0
 40
1.0
 40
1.0
 10
22.63166335071908
 20
2.923825745316298
 30
0.0
 10
22.71244441282425
 20
2.853826715098951
 30
0.0
 10
22.86507627176721
 20
2.721566977137443
 30
0.0
 10
23.06486794531343
 20
2.513610875610251
 30
0.0
 10
23.22709125872123
 20
2.313288132913035
 30
0.0
 10
23.3535655204915
 20
2.118903803193927
 30
0.0
 10
23.44704157482633
 20
1.93034603091788
 30
0.0
 10
23.51013015233238
 20
1.747343621744248
 30
0.0
 10
23.54940547682946
 20
1.55146836288815
 30
0.0
 10
23.55838803386249
 20
1.342885022255051
 30
0.0
 10
23.53301627593406
 20
1.124361282362091
 30
0.0
 10
23.47979548518359
 20
0.9121373210356138
 30
0.0
 10
23.40543477546788
 20
0.7044683782074371
 30
0.0
 10
23.31641993009229
 20
0.4997488341628663
 30
0.0
 10
23.21912891684514
 20
0.2965306656667168
 30
0.0
 10
23.11990144434141
 20
0.0934506525219872
 30
0.0
 10
23.02509893279774
 20
-0.1108546961465373
 30
0.0
 10
22.941069766219
 20
-0.3177689892794781
 30
0.0
 10
22.87423220704765
 20
-0.5287994343706579
 30
0.0
 10
22.83113250960123
 20
-0.7455743654697708
 30
0.0
 10
22.81952218569335
 20
-0.9551880499356069
 30
0.0
 10
22.83827924541323
 20
-1.155844577580383
 30
0.0
 10
22.88330816010347
 20
-1.347108575187168
 30
0.0
 10
22.96000118435939
 20
-1.544557919842471
 30
0.0
 10
23.07003300351904
 20
-1.749431840886509
 30
0.0
 10
23.16681098160772
 20
-1.881040465302717
 30
0.0
 10
23.2173525096324
 20
-1.949772020875472
 30
0.0
  0
LINE
  5
A6
330
1F
100
AcDbEntity
  8
0
  6
Continuous
 62
     7
370
     5
100
AcDbLine
 10
23.33170644276599
 20
3.607089263967139
 30
0.0
 11
22.63166335071908
 21
2.923825745316298
 31
0.0
  0
LINE
  5
A7
330
1F
100
AcDbEntity
  8
0
  6
Continuous
 62
     7
370
     5
100
AcDbLine
 10
22.63166335071908
 20
2.923825745316298
 30
0.0
 11
-17.65071315721121
 21
13.8717125332521
 31
0.0
  0
LINE
  5
A8
330
1F
100
AcDbEntity
  8
0
  6
Continuous
 62
     7
370
     5
100
AcDbLine
 10
-18.1062486508467
 20
9.28109731687757
 30
0.0
 11
-11.47248315832482
 21
7.4781820004104
 31
0.0
  0
LINE
  5
A9
330
1F
100
AcDbEntity
  8
0
  6
Continuous
 62
     7
370
     5
100
AcDbLine
 10
-7.43633264161224
 20
6.381242774212094
 30
0.0
 11
9.75354994885464
 21
1.709401020752216
 31
0.0
  0
LINE
  5
AA
330
1F
100
AcDbEntity
  8
0
  6
Continuous
 62
     7
370
     5
100
AcDbLine
 10
13.78970046556722
 20
0.6124617945539121
 30
0.0
 11
23.2173525096324
 21
-1.949772020875472
 31
0.0
  0
SPLINE
  5
AB
330
1F
100
AcDbEntity
  8
0
  6
Continuous
 62
     7
370
     5
100
AcDbSpline
210
0.0
220
0.0
230
1.0
 70
     8
 71
     3
 72
    31
 73
    27
 74
     0
 42
0.0000000001
 43
0.0000000001
 40
0.0
 40
0.0
 40
0.0
 40
0.0
 40
0.0491280496755899
 40
0.0927689131192972
 40
0.1319747645061744
 40
0.1678434078102658
 40
0.2014626096413518
 40
0.2338290571327486
 40
0.2657672640647649
 40
0.3108411657345563
 40
0.3571469059956913
 40
0.4048875649617772
 40
0.4537793233495631
 40
0.5032509640040828
 40
0.5526005892069428
 40
0.6011283674074842
 40
0.6482708973562269
 40
0.6937650922602742
 40
0.7378599000703126
 40
0.7690438586878811
 40
0.8006601015661766
 40
0.8335857053736866
 40
0.8688667407469498
 40
0.9076273999257596
 40
0.9509857372218018
 40
1.0
 40
1.0
 40
1.0
 40
1.0
 10
-18.1062486508467
 20
9.28109731687757
 30
0.0
 10
-18.03723045856966
 20
9.318590248009156
 30
0.0
 10
-17.90690282038169
 20
9.389388468042346
 30
0.0
 10
-17.7441953386309
 20
9.51985463490274
 30
0.0
 10
-17.61941295159579
 20
9.659587183218643
 30
0.0
 10
-17.53076288382151
 20
9.809397285608792
 30
0.0
 10
-17.47504291697272
 20
9.967824387842886
 30
0.0
 10
-17.44911048971422
 20
10.13368419883734
 30
0.0
 10
-17.44950211729785
 20
10.32878772577712
 30
0.0
 10
-17.48482413770435
 20
10.55587390494755
 30
0.0
 10
-17.55870317462033
 20
10.81315490015325
 30
0.0
 10
-17.65812842315992
 20
11.07550365851778
 30
0.0
 10
-17.77432998539104
 20
11.34114495473305
 30
0.0
 10
-17.89870062032142
 20
11.60817252471705
 30
0.0
 10
-18.02267663598908
 20
11.8745632742205
 30
0.0
 10
-18.13770171830986
 20
12.13829908938021
 30
0.0
 10
-18.23517182482844
 20
12.39749718377922
 30
0.0
 10
-18.30632331630014
 20
12.65042332557212
 30
0.0
 10
-18.33841890989604
 20
12.87259351848131
 30
0.0
 10
-18.33525547635919
 20
13.0623305801079
 30
0.0
 10
-18.30569652516958
 20
13.22273456932686
 30
0.0
 10
-18.24586460048827
 20
13.37497472420411
 30
0.0
 10
-18.1526671150829
 20
13.5178449514503
 30
0.0
 10
-18.02298492145072
 20
13.64993100271629
 30
0.0
 10
-17.85496513770178
 20
13.77206127591122
 30
0.0
 10
-17.7215207276089
 20
13.83716665809125
 30
0.0
 10
-17.65071315721121
 20
13.8717125332521
 30
0.0
  0
LINE
  5
AC
330
1F
100
AcDbEntity
  8
0
  6
Continuous
 62
     7
370
     5
100
AcDbLine
 10
-16.95067006516431
 20
14.55497605190294
 30
0.0
 11
-17.65071315721121
 21
13.8717125332521
 31
0.0
  0
LINE
  5
AD
330
1F
100
AcDbEntity
  8
0
  6
Continuous
 62
     7
370
     5
100
AcDbLine
 10
23.33170644276599
 20
3.607089263967139
 30
0.0
 11
-16.95067006516431
 21
14.55497605190294
 31
0.0
  0
LINE
  5
AE
330
1F
100
AcDbEntity
  8
0
  6
Continuous
 62
     7
370
     5
100
AcDbLine
 10
-17.52117521531442
 20
9.852146926212395
 30
0.0
 11
-18.1062486508467
 21
9.28109731687757
 31
0.0
  0
SPLINE
  5
AF
330
1F
100
AcDbEntity
  8
0
  6
Continuous
 62
     7
370
     5
100
AcDbSpline
210
0.0
220
0.0
230
1.0
 70
     8
 71
     3
 72
    10
 73
     6
 74
     0
 42
0.0000000001
 43
0.0000000001
 40
0.0
 40
0.0
 40
0.0
 40
0.0
 40
0.1265176620312676
 40
0.5365174000633836
 40
1.0
 40
1.0
 40
1.0
 40
1.0
 10
-17.36860742127208
 20
14.27906635363816
 30
0.0
 10
-17.35426304692061
 20
14.29447687136025
 30
0.0
 10
-17.29343354446994
 20
14.35982751702619
 30
0.0
 10
-17.15370782604254
 20
14.45411780728441
 30
0.0
 10
-17.02105670480543
 20
14.52001175320258
 30
0.0
 10
-16.95067006516431
 20
14.55497605190294
 30
0.0
  0
SPLINE
  5
B0
330
1F
100
AcDbEntity
  8
0
  6
Continuous
 62
     7
370
     5
100
AcDbSpline
210
0.0
220
0.0
230
1.0
 70
     8
 71
     3
 72
    31
 73
    27
 74
     0
 42
0.0000000001
 43
0.0000000001
 40
0.0
 40
0.0
 40
0.0
 40
0.0
 40
0.0520504229108936
 40
0.0983467238561033
 40
0.1398156251976877
 40
0.1774461034652659
 40
0.2122568113639561
 40
0.2452401621853162
 40
0.2772886349445965
 40
0.3191050555803248
 40
0.3616641664165381
 40
0.4055080665961704
 40
0.450725628249207
 40
0.4970921927796402
 40
0.5441893186505821
 40
0.591499531845813
 40
0.638483391857117
 40
0.6846554267296592
 40
0.7296654051736836
 40
0.7734006466320663
 40
0.8161111320269485
 40
0.8500390605945732
 40
0.8844311744436948
 40
0.9201685788846599
 40
0.9583086763410832
 40
1.0
 40
1.0
 40
1.0
 40
1.0
 10
23.33170644276599
 20
3.607089263967139
 30
0.0
 10
23.41248750487114
 20
3.537090233749792
 30
0.0
 10
23.56511936381412
 20
3.404830495788285
 30
0.0
 10
23.76491103736033
 20
3.196874394261092
 30
0.0
 10
23.92713435076813
 20
2.996551651563876
 30
0.0
 10
24.0536086125384
 20
2.802167321844771
 30
0.0
 10
24.14708466687323
 20
2.613609549568721
 30
0.0
 10
24.21017324437928
 20
2.430607140395091
 30
0.0
 10
24.24944856887635
 20
2.234731881538991
 30
0.0
 10
24.25843112590939
 20
2.026148540905893
 30
0.0
 10
24.23305936798096
 20
1.807624801012932
 30
0.0
 10
24.17983857723049
 20
1.595400839686454
 30
0.0
 10
24.10547786751478
 20
1.387731896858278
 30
0.0
 10
24.0164630221392
 20
1.183012352813709
 30
0.0
 10
23.91917200889204
 20
0.9797941843175578
 30
0.0
 10
23.81994453638831
 20
0.7767141711728283
 30
0.0
 10
23.72514202484464
 20
0.5724088225043037
 30
0.0
 10
23.64111285826591
 20
0.3654945293713629
 30
0.0
 10
23.57427529909455
 20
0.1544640842801833
 30
0.0
 10
23.53117560164813
 20
-0.0623108468189276
 30
0.0
 10
23.51956527774024
 20
-0.2719245312847659
 30
0.0
 10
23.53832233746013
 20
-0.4725810589295423
 30
0.0
 10
23.58335125215037
 20
-0.6638450565363252
 30
0.0
 10
23.66004427640629
 20
-0.8612944011916287
 30
0.0
 10
23.77007609556593
 20
-1.066168322235668
 30
0.0
 10
23.86685407365462
 20
-1.197776946651876
 30
0.0
 10
23.9173956016793
 20
-1.266508502224631
 30
0.0
  0
LINE
  5
B1
330
1F
100
AcDbEntity
  8
0
  6
Continuous
 62
     7
370
     5
100
AcDbLine
 10
24.03174953481288
 20
4.29035278261798
 30
0.0
 11
23.33170644276599
 21
3.607089263967139
 31
0.0
  0
SPLINE
  5
B2
330
1F
100
AcDbEntity
  8
0
  6
Continuous
 62
     7
370
     5
100
AcDbSpline
210
0.0
220
0.0
230
1.0
 70
     8
 71
     3
 72
    31
 73
    27
 74
     0
 42
0.0000000001
 43
0.0000000001
 40
0.0
 40
0.0
 40
0.0
 40
0.0
 40
0.0520504229108936
 40
0.0983467238561033
 40
0.1398156251976877
 40
0.1774461034652659
 40
0.2122568113639561
 40
0.2452401621853162
 40
0.2772886349445965
 40
0.3191050555803248
 40
0.3616641664165381
 40
0.4055080665961704
 40
0.450725628249207
 40
0.4970921927796402
 40
0.5441893186505821
 40
0.591499531845813
 40
0.638483391857117
 40
0.6846554267296592
 40
0.7296654051736836
 40
0.7734006466320663
 40
0.8161111320269485
 40
0.8500390605945732
 40
0.8844311744436948
 40
0.9201685788846599
 40
0.9583086763410832
 40
1.0
 40
1.0
 40
1.0
 40
1.0
 10
24.03174953481288
 20
4.29035278261798
 30
0.0
 10
24.11253059691805
 20
4.220353752400633
 30
0.0
 10
24.26516245586102
 20
4.088094014439126
 30
0.0
 10
24.46495412940723
 20
3.880137912911933
 30
0.0
 10
24.62717744281503
 20
3.679815170214717
 30
0.0
 10
24.7536517045853
 20
3.485430840495614
 30
0.0
 10
24.84712775892013
 20
3.296873068219563
 30
0.0
 10
24.91021633642618
 20
3.113870659045935
 30
0.0
 10
24.94949166092326
 20
2.917995400189832
 30
0.0
 10
24.95847421795629
 20
2.709412059556733
 30
0.0
 10
24.93310246002786
 20
2.490888319663773
 30
0.0
 10
24.87988166927739
 20
2.278664358337295
 30
0.0
 10
24.80552095956168
 20
2.070995415509119
 30
0.0
 10
24.71650611418609
 20
1.866275871464552
 30
0.0
 10
24.61921510093894
 20
1.663057702968398
 30
0.0
 10
24.51998762843521
 20
1.459977689823669
 30
0.0
 10
24.42518511689154
 20
1.255672341155144
 30
0.0
 10
24.34115595031281
 20
1.048758048022203
 30
0.0
 10
24.27431839114146
 20
0.8377276029310243
 30
0.0
 10
24.23121869369503
 20
0.6209526718319156
 30
0.0
 10
24.21960836978715
 20
0.4113389873660751
 30
0.0
 10
24.23836542950703
 20
0.2106824597212987
 30
0.0
 10
24.28339434419727
 20
0.019418462114518
 30
0.0
 10
24.3600873684532
 20
-0.1780308825407855
 30
0.0
 10
24.47011918761284
 20
-0.3829048035848275
 30
0.0
 10
24.56689716570152
 20
-0.5145134280010354
 30
0.0
 10
24.6174386937262
 20
-0.5832449835737901
 30
0.0
  0
LINE
  5
B3
330
1F
100
AcDbEntity
  8
0
  6
Continuous
 62
     7
370
     5
100
AcDbLine
 10
24.6174386937262
 20
-0.5832449835737901
 30
0.0
 11
23.9173956016793
 21
-1.266508502224631
 31
0.0
  0
LINE
  5
B4
330
1F
100
AcDbEntity
  8
0
  6
Continuous
 62
     7
370
     5
100
AcDbLine
 10
-16.2506269731174
 20
15.23823957055378
 30
0.0
 11
-16.95067006516431
 21
14.55497605190294
 31
0.0
  0
LINE
  5
B5
330
1F
100
AcDbEntity
  8
0
  6
Continuous
 62
     7
370
     5
100
AcDbLine
 10
24.03174953481288
 20
4.29035278261798
 30
0.0
 11
-16.2506269731174
 21
15.23823957055378
 31
0.0
  0
SPLINE
  5
B6
330
1F
100
AcDbEntity
  8
0
  6
Continuous
 62
     7
370
     5
100
AcDbSpline
210
0.0
220
0.0
230
1.0
 70
     8
 71
     3
 72
    10
 73
     6
 74
     0
 42
0.0000000001
 43
0.0000000001
 40
0.0
 40
0.0
 40
0.0
 40
0.0
 40
0.1265176620312676
 40
0.5365174000633836
 40
1.0
 40
1.0
 40
1.0
 40
1.0
 10
-16.66856432922517
 20
14.962329872289
 30
0.0
 10
-16.65421995487371
 20
14.97774039001109
 30
0.0
 10
-16.59339045242304
 20
15.04309103567703
 30
0.0
 10
-16.45366473399564
 20
15.13738132593526
 30
0.0
 10
-16.32101361275852
 20
15.20327527185342
 30
0.0
 10
-16.2506269731174
 20
15.23823957055378
 30
0.0
  0
LINE
  5
B7
330
1F
100
AcDbEntity
  8
0
  6
Continuous
 62
     7
370
     5
100
AcDbLine
 10
13.87548963607097
 20
4.660690718236629
 30
0.0
 11
15.85432718256486
 21
4.122885074459212
 31
0.0
  0
LINE
  5
B8
330
1F
100
AcDbEntity
  8
0
  6
Continuous
 62
     7
370
     5
100
AcDbLine
 10
15.85432718256486
 20
4.122885074459212
 30
0.0
 11
15.83005906000631
 21
4.099198642868385
 31
0.0
  0
LINE
  5
B9
330
1F
100
AcDbEntity
  8
0
  6
Continuous
 62
     7
370
     5
100
AcDbLine
 10
13.85122151351242
 20
4.637004286645804
 30
0.0
 11
15.83005906000631
 21
4.099198642868385
 31
0.0
  0
ARC
  5
BA
330
1F
100
AcDbEntity
  8
0
  6
Continuous
 62
     7
370
     5
100
AcDbCircle
 10
13.8305945450748
 20
4.570792208411952
 30
0.0
 40
0.0693506390091126
100
AcDbArc
 50
72.69668501356225
 51
125.398881093652
  0
LINE
  5
BB
330
1F
100
AcDbEntity
  8
0
  6
Continuous
 62
     7
370
     5
100
AcDbLine
 10
13.09623755883907
 20
3.949777204207045
 30
0.0
 11
13.79042212955914
 21
4.627322626441621
 31
0.0
  0
LINE
  5
BC
330
1F
100
AcDbEntity
  8
0
  6
Continuous
 62
     7
370
     5
100
AcDbLine
 10
13.05024646104627
 20
3.962276599117108
 30
0.0
 11
13.09623755883907
 21
3.949777204207045
 31
0.0
  0
LINE
  5
BD
330
1F
100
AcDbEntity
  8
0
  6
Continuous
 62
     7
370
     5
100
AcDbLine
 10
13.74443103176634
 20
4.639822021351685
 30
0.0
 11
13.05024646104627
 21
3.962276599117108
 31
0.0
  0
ARC
  5
BE
330
1F
100
AcDbEntity
  8
0
  6
Continuous
 62
     7
370
     5
100
AcDbCircle
 10
13.8310270861044
 20
4.517953947945913
 30
0.0
 40
0.1495015181948142
100
AcDbArc
 50
72.69817166519477
 51
125.3965394688324
  0
LINE
  5
BF
330
1F
100
AcDbEntity
  8
0
  6
Continuous
 62
     7
370
     5
100
AcDbLine
 10
12.99216449462839
 20
2.331012594094202
 30
0.0
 11
12.96696294851674
 21
2.30641511250012
 31
0.0
  0
LWPOLYLINE
  5
C0
330
1F
100
AcDbEntity
  8
0
  6
Continuous
 62
     7
370
     5
100
AcDbPolyline
 90
        9
 70
   128
 43
0.0
 10
12.99216449462839
 20
2.471588048945081
 10
13.00680932631635
 20
2.480531520005497
 10
13.0192246741023
 20
2.477412795854688
 10
13.02752041860546
 20
2.462706718528376
 10
13.03043342290062
 20
2.438651960844292
 10
13.02752041860546
 20
2.408910840171496
 10
13.0192246741023
 20
2.37801096093941
 10
13.00680932631635
 20
2.350656732404829
 10
12.99216449462839
 20
2.331012594094202
  0
LINE
  5
C1
330
1F
100
AcDbEntity
  8
0
  6
Continuous
 62
     7
370
     5
100
AcDbLine
 10
12.96696294851674
 20
2.446990567350999
 30
0.0
 11
12.99216449462839
 21
2.471588048945081
 31
0.0
  0
LWPOLYLINE
  5
C2
330
1F
100
AcDbEntity
  8
0
  6
Continuous
 62
     7
370
     5
100
AcDbPolyline
 90
        9
 70
   128
 43
0.0
 10
12.96696294851674
 20
2.446990567350999
 10
12.95231797993305
 20
2.42734629542594
 10
12.9399026321471
 20
2.399992051176806
 10
12.93160688764394
 20
2.36909217194472
 10
12.92869388334878
 20
2.339351051271926
 10
12.93160688764394
 20
2.31529629358784
 10
12.9399026321471
 20
2.30059021626153
 10
12.95231797993305
 20
2.297471507825272
 10
12.96696294851674
 20
2.30641511250012
  0
LINE
  5
C3
330
1F
100
AcDbEntity
  8
0
  6
Continuous
 62
     7
370
     5
100
AcDbLine
 10
13.34218593798004
 20
1.280604595943409
 30
0.0
 11
13.3169843918684
 21
1.256007114349328
 31
0.0
  0
LWPOLYLINE
  5
C4
330
1F
100
AcDbEntity
  8
0
  6
Continuous
 62
     7
370
     5
100
AcDbPolyline
 90
        9
 70
   128
 43
0.0
 10
13.34218593798004
 20
1.421180003650633
 10
13.35683090656374
 20
1.430123639754583
 10
13.36924625434968
 20
1.427004947032879
 10
13.37754199885284
 20
1.412298775419255
 10
13.38045500314801
 20
1.388244049164273
 10
13.37754199885284
 20
1.358502959920584
 10
13.36924625434968
 20
1.327603112117601
 10
13.35683090656374
 20
1.300248899297574
 10
13.34218593798004
 20
1.280604595943409
  0
LINE
  5
C5
330
1F
100
AcDbEntity
  8
0
  6
Continuous
 62
     7
370
     5
100
AcDbLine
 10
13.3169843918684
 20
1.396582522056551
 30
0.0
 11
13.34218593798004
 21
1.421180003650633
 31
0.0
  0
LWPOLYLINE
  5
C6
330
1F
100
AcDbEntity
  8
0
  6
Continuous
 62
     7
370
     5
100
AcDbPolyline
 90
        9
 70
   128
 43
0.0
 10
13.3169843918684
 20
1.396582522056551
 10
13.30233956018043
 20
1.376938415175026
 10
13.28992407549876
 20
1.349584068740567
 10
13.28162846789133
 20
1.318684228835599
 10
13.27871546359616
 20
1.288943139591907
 10
13.28162846789133
 20
1.264888413336928
 10
13.28992407549876
 20
1.250182233825289
 10
13.30233956018043
 20
1.247063674718017
 10
13.3169843918684
 20
1.256007114349328
  0
LINE
  5
C7
330
1F
100
AcDbEntity
  8
0
  6
Continuous
 62
     7
370
     5
100
AcDbLine
 10
13.34218593798004
 20
3.696959143482722
 30
0.0
 11
13.3169843918684
 21
3.67236166188864
 31
0.0
  0
LWPOLYLINE
  5
C8
330
1F
100
AcDbEntity
  8
0
  6
Continuous
 62
     7
370
     5
100
AcDbPolyline
 90
        9
 70
   128
 43
0.0
 10
13.34218593798004
 20
3.837534614048155
 10
13.35683090656374
 20
3.846478187293898
 10
13.36924625434968
 20
3.843359494572194
 10
13.37754199885284
 20
3.828653448674987
 10
13.38045500314801
 20
3.804598722420007
 10
13.37754199885284
 20
3.774857507459896
 10
13.36924625434968
 20
3.743957659656916
 10
13.35683090656374
 20
3.716603446836886
 10
13.34218593798004
 20
3.696959143482722
  0
LINE
  5
C9
330
1F
100
AcDbEntity
  8
0
  6
Continuous
 62
     7
370
     5
100
AcDbLine
 10
13.3169843918684
 20
3.812937132454073
 30
0.0
 11
13.34218593798004
 21
3.837534614048155
 31
0.0
  0
LWPOLYLINE
  5
CA
330
1F
100
AcDbEntity
  8
0
  6
Continuous
 62
     7
370
     5
100
AcDbPolyline
 90
        9
 70
   128
 43
0.0
 10
13.3169843918684
 20
3.812937132454073
 10
13.30233956018043
 20
3.793292962714341
 10
13.28992407549876
 20
3.765938616279879
 10
13.28162846789133
 20
3.735038902091331
 10
13.27871546359616
 20
3.705297812847639
 10
13.28162846789133
 20
3.68124296087624
 10
13.28992407549876
 20
3.666536781364603
 10
13.30233956018043
 20
3.663418222257331
 10
13.3169843918684
 20
3.67236166188864
  0
LINE
  5
CB
330
1F
100
AcDbEntity
  8
0
  6
Continuous
 62
     7
370
     5
100
AcDbLine
 10
13.06216872854043
 20
0.2262547877094555
 30
0.0
 11
13.03696718242878
 21
0.201657306115374
 31
0.0
  0
LWPOLYLINE
  5
CC
330
1F
100
AcDbEntity
  8
0
  6
Continuous
 62
     7
370
     5
100
AcDbPolyline
 90
        9
 70
   128
 43
0.0
 10
13.06216872854043
 20
0.3668302582748883
 10
13.07681369712412
 20
0.3757738315206293
 10
13.08922904491007
 20
0.3726551387989272
 10
13.09752465251749
 20
0.357948959287286
 10
13.10043779370839
 20
0.3338943666467405
 10
13.09752465251749
 20
0.3041530180721981
 10
13.08922904491007
 20
0.2732533038836492
 10
13.07681369712412
 20
0.2458990910636199
 10
13.06216872854043
 20
0.2262547877094555
  0
LINE
  5
CD
330
1F
100
AcDbEntity
  8
0
  6
Continuous
 62
     7
370
     5
100
AcDbLine
 10
13.03696718242878
 20
0.3422327766808046
 30
0.0
 11
13.06216872854043
 21
0.3668302582748883
 31
0.0
  0
LWPOLYLINE
  5
CE
330
1F
100
AcDbEntity
  8
0
  6
Continuous
 62
     7
370
     5
100
AcDbPolyline
 90
        9
 70
   128
 43
0.0
 10
13.03696718242878
 20
0.3422327766808046
 10
13.02232221384509
 20
0.3225884733266424
 10
13.00990686605914
 20
0.2952342605066131
 10
13.00161125845171
 20
0.2643345463180642
 10
12.99869811726082
 20
0.2345933234599407
 10
13.00161125845171
 20
0.2105386051029763
 10
13.00990686605914
 20
0.195832425591335
 10
13.02232221384509
 20
0.192713732869633
 10
13.03696718242878
 20
0.201657306115374
  0
LINE
  5
CF
330
1F
100
AcDbEntity
  8
0
  6
Continuous
 62
     7
370
     5
100
AcDbLine
 10
13.79042212955914
 20
4.462510664706134
 30
0.0
 11
13.79042212955914
 21
4.627322626441621
 31
0.0
  0
ARC
  5
D0
330
1F
100
AcDbEntity
  8
0
  6
Continuous
 62
     7
370
     5
100
AcDbCircle
 10
13.9856714270314
 20
4.365774363915646
 30
0.0
 40
0.2178995182510516
100
AcDbArc
 50
153.6438762329847
 51
178.8987468684388
  0
LINE
  5
D1
330
1F
100
AcDbEntity
  8
0
  6
Continuous
 62
     7
370
     5
100
AcDbLine
 10
13.76781215656238
 20
3.887377015208317
 30
0.0
 11
13.76781215656238
 21
4.36996224222649
 31
0.0
  0
LWPOLYLINE
  5
D2
330
1F
100
AcDbEntity
  8
0
  6
Continuous
 62
     7
370
     5
100
AcDbPolyline
 90
        9
 70
   128
 43
0.0
 10
13.79042212955914
 20
3.838964646299877
 10
13.78551729235385
 20
3.83998302188652
 10
13.78107536806852
 20
3.842597422657133
 10
13.77717493485372
 20
3.846761655496499
 10
13.77388498815869
 20
3.852402008256712
 10
13.77126377711768
 20
3.859418691221073
 10
13.76935757248832
 20
3.867687463193629
 10
13.76820025596446
 20
3.87706224784991
 10
13.76781215656238
 20
3.887377015208317
  0
LINE
  5
D3
330
1F
100
AcDbEntity
  8
0
  6
Continuous
 62
     7
370
     5
100
AcDbLine
 10
13.79042212955914
 20
3.498197408069211
 30
0.0
 11
13.79042212955914
 21
3.838964646299877
 31
0.0
  0
ARC
  5
D4
330
1F
100
AcDbEntity
  8
0
  6
Continuous
 62
     7
370
     5
100
AcDbCircle
 10
13.98567056060761
 20
3.40146131894974
 30
0.0
 40
0.2178986479192118
100
AcDbArc
 50
153.6438249636327
 51
178.8987981377906
  0
LINE
  5
D5
330
1F
100
AcDbEntity
  8
0
  6
Continuous
 62
     7
370
     5
100
AcDbLine
 10
13.76781215656238
 20
2.92306379196482
 30
0.0
 11
13.76781215656238
 21
3.40564898558957
 31
0.0
  0
LWPOLYLINE
  5
D6
330
1F
100
AcDbEntity
  8
0
  6
Continuous
 62
     7
370
     5
100
AcDbPolyline
 90
        9
 70
   128
 43
0.0
 10
13.79042212955914
 20
2.874651421092059
 10
13.78551729235385
 20
2.875669796678705
 10
13.78107536806852
 20
2.87828422887842
 10
13.77717493485372
 20
2.882448449931872
 10
13.77388498815869
 20
2.888088779120256
 10
13.77126377711768
 20
2.895105465829099
 10
13.76935757248832
 20
2.903374267450597
 10
13.76820025596446
 20
2.912749044249602
 10
13.76781215656238
 20
2.92306379196482
  0
LINE
  5
D7
330
1F
100
AcDbEntity
  8
0
  6
Continuous
 62
     7
370
     5
100
AcDbLine
 10
13.79042212955914
 20
2.533884182861394
 30
0.0
 11
13.79042212955914
 21
2.874651421092059
 31
0.0
  0
ARC
  5
D8
330
1F
100
AcDbEntity
  8
0
  6
Continuous
 62
     7
370
     5
100
AcDbCircle
 10
13.98567082555823
 20
2.437148029013359
 30
0.0
 40
0.2178989140648878
100
AcDbArc
 50
153.6438406417391
 51
178.8987824596842
  0
LINE
  5
D9
330
1F
100
AcDbEntity
  8
0
  6
Continuous
 62
     7
370
     5
100
AcDbLine
 10
13.76781215656238
 20
1.958750564792683
 30
0.0
 11
13.76781215656238
 21
2.441335760381752
 31
0.0
  0
LWPOLYLINE
  5
DA
330
1F
100
AcDbEntity
  8
0
  6
Continuous
 62
     7
370
     5
100
AcDbPolyline
 90
        9
 70
   128
 43
0.0
 10
13.79042212955914
 20
1.910338195884243
 10
13.78551729235385
 20
1.911356571470886
 10
13.78107536806852
 20
1.913971035099707
 10
13.77717493485372
 20
1.918135267939074
 10
13.77388498815869
 20
1.923775557841076
 10
13.77126377711768
 20
1.930792240805439
 10
13.76935757248832
 20
1.939061075636203
 10
13.76820025596446
 20
1.948435860292486
 10
13.76781215656238
 20
1.958750564792683
  0
LINE
  5
DB
330
1F
100
AcDbEntity
  8
0
  6
Continuous
 62
     7
370
     5
100
AcDbLine
 10
13.79042212955914
 20
1.569570957653578
 30
0.0
 11
13.79042212955914
 21
1.910338195884243
 31
0.0
  0
ARC
  5
DC
330
1F
100
AcDbEntity
  8
0
  6
Continuous
 62
     7
370
     5
100
AcDbCircle
 10
13.98567075398966
 20
1.47283482129005
 30
0.0
 40
0.2178988421735024
100
AcDbArc
 50
153.6438364067661
 51
178.8987866946578
  0
LINE
  5
DD
330
1F
100
AcDbEntity
  8
0
  6
Continuous
 62
     7
370
     5
100
AcDbLine
 10
13.76781215656238
 20
0.9944373081557605
 30
0.0
 11
13.76781215656238
 21
1.477022535173934
 31
0.0
  0
LWPOLYLINE
  5
DE
330
1F
100
AcDbEntity
  8
0
  6
Continuous
 62
     7
370
     5
100
AcDbPolyline
 90
        9
 70
   128
 43
0.0
 10
13.79042212955914
 20
0.946024939247321
 10
13.78551729235385
 20
0.9470433776921737
 10
13.78107536806852
 20
0.9496577784627863
 10
13.77717493485372
 20
0.9538220113021521
 10
13.77388498815869
 20
0.959462364062363
 10
13.77126377711768
 20
0.9664790470267259
 10
13.76935757248832
 20
0.9747478818574901
 10
13.76820025596446
 20
0.984122666513773
 10
13.76781215656238
 20
0.9944373081557605
  0
LINE
  5
DF
330
1F
100
AcDbEntity
  8
0
  6
Continuous
 62
     7
370
     5
100
AcDbLine
 10
13.79042212955914
 20
0.6629238850329489
 30
0.0
 11
13.79042212955914
 21
0.946024939247321
 31
0.0
  0
LINE
  5
E0
330
1F
100
AcDbEntity
  8
0
  6
Continuous
 62
     7
370
     5
100
AcDbLine
 10
12.74621597859169
 20
-0.3562533299306552
 30
0.0
 11
13.79042212955914
 21
0.6629238850329489
 31
0.0
  0
LINE
  5
E1
330
1F
100
AcDbEntity
  8
0
  6
Continuous
 62
     7
370
     5
100
AcDbLine
 10
12.74621597859169
 20
-0.1863428131271775
 30
0.0
 11
12.74621597859169
 21
-0.3562533299306552
 31
0.0
  0
ARC
  5
E2
330
1F
100
AcDbEntity
  8
0
  6
Continuous
 62
     7
370
     5
100
AcDbCircle
 10
13.03144469969096
 20
-0.1912644283427146
 30
0.0
 40
0.285271179119545
100
AcDbArc
 50
160.0440865143031
 51
179.0114607030381
  0
LINE
  5
E3
330
1F
100
AcDbEntity
  8
0
  6
Continuous
 62
     7
370
     5
100
AcDbLine
 10
12.76330248256728
 20
-0.0939022332552188
 30
0.0
 11
13.07915105486348
 21
0.794486526195469
 31
0.0
  0
ARC
  5
E4
330
1F
100
AcDbEntity
  8
0
  6
Continuous
 62
     7
370
     5
100
AcDbCircle
 10
12.81100533199121
 20
0.8918493692774642
 30
0.0
 40
0.2852746955264349
100
AcDbArc
 50
340.0442044933127
 51
359.0113427240301
  0
LINE
  5
E5
330
1F
100
AcDbEntity
  8
0
  6
Continuous
 62
     7
370
     5
100
AcDbLine
 10
13.09623755883907
 20
0.8869271060674275
 30
0.0
 11
13.09623755883907
 21
1.333894043109993
 31
0.0
  0
ARC
  5
E6
330
1F
100
AcDbEntity
  8
0
  6
Continuous
 62
     7
370
     5
100
AcDbCircle
 10
13.01603577790961
 20
1.342715334152621
 30
0.0
 40
0.0806854437920314
100
AcDbArc
 50
353.7233402104271
 51
38.53399152280435
  0
LINE
  5
E7
330
1F
100
AcDbEntity
  8
0
  6
Continuous
 62
     7
370
     5
100
AcDbLine
 10
13.07915105486348
 20
1.392980656741392
 30
0.0
 11
12.76330248256728
 21
1.664813653213281
 31
0.0
  0
ARC
  5
E8
330
1F
100
AcDbEntity
  8
0
  6
Continuous
 62
     7
370
     5
100
AcDbCircle
 10
12.82641672280589
 20
1.715078680699939
 30
0.0
 40
0.080684448991927
100
AcDbArc
 50
173.7230292358367
 51
218.5342862313852
  0
LINE
  5
E9
330
1F
100
AcDbEntity
  8
0
  6
Continuous
 62
     7
370
     5
100
AcDbLine
 10
12.74621597859169
 20
2.599450927631556
 30
0.0
 11
12.74621597859169
 21
1.723900298273784
 31
0.0
  0
ARC
  5
EA
330
1F
100
AcDbEntity
  8
0
  6
Continuous
 62
     7
370
     5
100
AcDbCircle
 10
13.03144496847095
 20
2.594529262735343
 30
0.0
 40
0.2852714487166521
100
AcDbArc
 50
160.0440955596631
 51
179.011451657678
  0
LINE
  5
EB
330
1F
100
AcDbEntity
  8
0
  6
Continuous
 62
     7
370
     5
100
AcDbLine
 10
12.76330248256728
 20
2.691891507503515
 30
0.0
 11
13.07915105486348
 21
3.580280266954205
 31
0.0
  0
ARC
  5
EC
330
1F
100
AcDbEntity
  8
0
  6
Continuous
 62
     7
370
     5
100
AcDbCircle
 10
12.81100524791996
 20
3.677643132269982
 30
0.0
 40
0.2852747821380049
100
AcDbArc
 50
340.0442060587564
 51
359.0113133048626
  0
LINE
  5
ED
330
1F
100
AcDbEntity
  8
0
  6
Continuous
 62
     7
370
     5
100
AcDbLine
 10
13.09623755883907
 20
3.672720721109745
 30
0.0
 11
13.09623755883907
 21
3.949777204207045
 31
0.0
  0
LINE
  5
EE
330
1F
100
AcDbEntity
  8
0
  6
Continuous
 62
     7
370
     5
100
AcDbLine
 10
13.07915105486348
 20
3.580280266954205
 30
0.0
 11
13.03315995707068
 21
3.592779661864269
 31
0.0
  0
LINE
  5
EF
330
1F
100
AcDbEntity
  8
0
  6
Continuous
 62
     7
370
     5
100
AcDbLine
 10
12.71731138477449
 20
2.704390902413579
 30
0.0
 11
12.76330248256728
 21
2.691891507503515
 31
0.0
  0
LINE
  5
F0
330
1F
100
AcDbEntity
  8
0
  6
Continuous
 62
     7
370
     5
100
AcDbLine
 10
12.71731138477449
 20
2.704390902413579
 30
0.0
 11
13.03315995707068
 21
3.592779661864269
 31
0.0
  0
LINE
  5
F1
330
1F
100
AcDbEntity
  8
0
  6
Continuous
 62
     7
370
     5
100
AcDbLine
 10
12.74621597859169
 20
2.599450927631556
 30
0.0
 11
12.70022488079889
 21
2.611950322541621
 31
0.0
  0
ARC
  5
F2
330
1F
100
AcDbEntity
  8
0
  6
Continuous
 62
     7
370
     5
100
AcDbCircle
 10
12.98545387067816
 20
2.607028657645407
 30
0.0
 40
0.2852714487166523
100
AcDbArc
 50
160.0440955596629
 51
179.0114516576778
  0
LINE
  5
F3
330
1F
100
AcDbEntity
  8
0
  6
Continuous
 62
     7
370
     5
100
AcDbLine
 10
13.05024646104627
 20
3.685220116019809
 30
0.0
 11
13.09623755883907
 21
3.672720721109745
 31
0.0
  0
LINE
  5
F4
330
1F
100
AcDbEntity
  8
0
  6
Continuous
 62
     7
370
     5
100
AcDbLine
 10
13.05024646104627
 20
3.685220116019809
 30
0.0
 11
13.05024646104627
 21
3.962276599117108
 31
0.0
  0
LINE
  5
F5
330
1F
100
AcDbEntity
  8
0
  6
Continuous
 62
     7
370
     5
100
AcDbLine
 10
12.70022488079889
 20
1.736399693183849
 30
0.0
 11
12.74621597859169
 21
1.723900298273784
 31
0.0
  0
LINE
  5
F6
330
1F
100
AcDbEntity
  8
0
  6
Continuous
 62
     7
370
     5
100
AcDbLine
 10
12.70022488079889
 20
2.611950322541621
 30
0.0
 11
12.70022488079889
 21
1.736399693183849
 31
0.0
  0
ARC
  5
F7
330
1F
100
AcDbEntity
  8
0
  6
Continuous
 62
     7
370
     5
100
AcDbCircle
 10
12.76501415012716
 20
3.690142527180046
 30
0.0
 40
0.2852747821380049
100
AcDbArc
 50
340.0442060587564
 51
359.0113133048626
  0
SPLINE
  5
F8
330
1F
100
AcDbEntity
  8
0
  6
Continuous
 62
     7
370
     5
100
AcDbSpline
210
0.0
220
0.0
230
1.0
 70
     8
 71
     3
 72
     9
 73
     5
 74
     0
 42
0.0000000001
 43
0.0000000001
 40
0.0
 40
0.0
 40
0.0
 40
0.0
 40
0.7196422128168195
 40
1.0
 40
1.0
 40
1.0
 40
1.0
 10
14.46669281382135
 20
2.502309162291354
 30
0.0
 10
14.46627621926457
 20
2.497422395943166
 30
0.0
 10
14.46569732804704
 20
2.490631846054408
 30
0.0
 10
14.46087927522869
 20
2.487075471867576
 30
0.0
 10
14.459528496602
 20
2.486078414670161
 30
0.0
  0
SPLINE
  5
F9
330
1F
100
AcDbEntity
  8
0
  6
Continuous
 62
     7
370
     5
100
AcDbSpline
210
0.0
220
0.0
230
1.0
 70
     8
 71
     3
 72
    10
 73
     6
 74
     0
 42
0.0000000001
 43
0.0000000001
 40
0.0
 40
0.0
 40
0.0
 40
0.0
 40
0.5601042881524075
 40
0.7802842055010851
 40
1.0
 40
1.0
 40
1.0
 40
1.0
 10
14.43798573509075
 20
2.548228317826935
 30
0.0
 10
14.44562328404798
 20
2.540668994615501
 30
0.0
 10
14.45626319334008
 20
2.530138062017906
 30
0.0
 10
14.46532530672451
 20
2.513460067938691
 30
0.0
 10
14.46623729886236
 20
2.506023515467598
 30
0.0
 10
14.46669281382135
 20
2.502309162291354
 30
0.0
  0
SPLINE
  5
FA
330
1F
100
AcDbEntity
  8
0
  6
Continuous
 62
     7
370
     5
100
AcDbSpline
210
0.0
220
0.0
230
1.0
 70
     8
 71
     3
 72
     9
 73
     5
 74
     0
 42
0.0000000001
 43
0.0000000001
 40
0.0
 40
0.0
 40
0.0
 40
0.0
 40
0.5598347809866735
 40
1.0
 40
1.0
 40
1.0
 40
1.0
 10
14.42160244420734
 20
2.564440254733292
 30
0.0
 10
14.4246084476153
 20
2.561361451383394
 30
0.0
 10
14.42997789501308
 20
2.555861965723582
 30
0.0
 10
14.43553825709653
 20
2.550561429510187
 30
0.0
 10
14.43798573509076
 20
2.548228317826934
 30
0.0
  0
SPLINE
  5
FB
330
1F
100
AcDbEntity
  8
0
  6
Continuous
 62
     7
370
     5
100
AcDbSpline
210
0.0
220
0.0
230
1.0
 70
     8
 71
     3
 72
    10
 73
     6
 74
     0
 42
0.0000000001
 43
0.0000000001
 40
0.0
 40
0.0
 40
0.0
 40
0.0
 40
0.2799436831039776
 40
0.5597704290033545
 40
1.0
 40
1.0
 40
1.0
 40
1.0
 10
14.413570605378
 20
2.581884213899956
 30
0.0
 10
14.41371335233995
 20
2.58019704061453
 30
0.0
 10
14.41399878663606
 20
2.576823398804449
 30
0.0
 10
14.41663834622075
 20
2.570672141769042
 30
0.0
 10
14.41971899224966
 20
2.566804724546184
 30
0.0
 10
14.42160244420734
 20
2.564440254733292
 30
0.0
  0
LINE
  5
FC
330
1F
100
AcDbEntity
  8
0
  6
Continuous
 62
     7
370
     5
100
AcDbLine
 10
14.41464151722191
 20
2.586957199722366
 30
0.0
 11
14.413570605378
 21
2.581884213899956
 31
0.0
  0
SPLINE
  5
FD
330
1F
100
AcDbEntity
  8
0
  6
Continuous
 62
     7
370
     5
100
AcDbSpline
210
0.0
220
0.0
230
1.0
 70
     8
 71
     3
 72
    10
 73
     6
 74
     0
 42
0.0000000001
 43
0.0000000001
 40
0.0
 40
0.0
 40
0.0
 40
0.0
 40
0.2796878769283343
 40
0.5594470143426371
 40
1.0
 40
1.0
 40
1.0
 40
1.0
 10
14.43266438244
 20
2.603762637911707
 30
0.0
 10
14.43641556884251
 20
2.602387945157173
 30
0.0
 10
14.44391889739639
 20
2.599638209395975
 30
0.0
 10
14.45566366327194
 20
2.589495436977655
 30
0.0
 10
14.46153879327208
 20
2.580467211115892
 30
0.0
 10
14.46513210508759
 20
2.574945421698233
 30
0.0
  0
SPLINE
  5
FE
330
1F
100
AcDbEntity
  8
0
  6
Continuous
 62
     7
370
     5
100
AcDbSpline
210
0.0
220
0.0
230
1.0
 70
     8
 71
     3
 72
    10
 73
     6
 74
     0
 42
0.0000000001
 43
0.0000000001
 40
0.0
 40
0.0
 40
0.0
 40
0.0
 40
0.2657136004270238
 40
0.6328195788304284
 40
1.0
 40
1.0
 40
1.0
 40
1.0
 10
14.40896319395653
 20
2.598833125892914
 30
0.0
 10
14.4104038727391
 20
2.600382379347343
 30
0.0
 10
14.41383497200898
 20
2.60407205844904
 30
0.0
 10
14.42259598404563
 20
2.605589384928335
 30
0.0
 10
14.42930802281725
 20
2.604371594737551
 30
0.0
 10
14.43266438244001
 20
2.603762637911704
 30
0.0
  0
SPLINE
  5
FF
330
1F
100
AcDbEntity
  8
0
  6
Continuous
 62
     7
370
     5
100
AcDbSpline
210
0.0
220
0.0
230
1.0
 70
     8
 71
     3
 72
     9
 73
     5
 74
     0
 42
0.0000000001
 43
0.0000000001
 40
0.0
 40
0.0
 40
0.0
 40
0.0
 40
0.5265005220779436
 40
1.0
 40
1.0
 40
1.0
 40
1.0
 10
14.43187987725201
 20
2.491919337153918
 30
0.0
 10
14.43520424072558
 20
2.491275992686258
 30
0.0
 10
14.44151831513609
 20
2.490054067083757
 30
0.0
 10
14.44659435923803
 20
2.492319911595048
 30
0.0
 10
14.4489978634702
 20
2.4933927877882
 30
0.0
  0
SPLINE
  5
100
330
1F
100
AcDbEntity
  8
0
  6
Continuous
 62
     7
370
     5
100
AcDbSpline
210
0.0
220
0.0
230
1.0
 70
     8
 71
     3
 72
    10
 73
     6
 74
     0
 42
0.0000000001
 43
0.0000000001
 40
0.0
 40
0.0
 40
0.0
 40
0.0
 40
0.5593521925264234
 40
0.7798163935251015
 40
1.0
 40
1.0
 40
1.0
 40
1.0
 10
14.40512368443862
 20
2.518876716723921
 30
0.0
 10
14.40874592209958
 20
2.512497931633105
 30
0.0
 10
14.41379583581585
 20
2.503604999324886
 30
0.0
 10
14.42412051236749
 20
2.494811212219327
 30
0.0
 10
14.42929452052083
 20
2.492882886204306
 30
0.0
 10
14.43187987725201
 20
2.491919337153918
 30
0.0
  0
LINE
  5
101
330
1F
100
AcDbEntity
  8
0
  6
Continuous
 62
     7
370
     5
100
AcDbLine
 10
14.39482134646735
 20
2.515690542735081
 30
0.0
 11
14.40512368443862
 21
2.518876716723921
 31
0.0
  0
SPLINE
  5
102
330
1F
100
AcDbEntity
  8
0
  6
Continuous
 62
     7
370
     5
100
AcDbSpline
210
0.0
220
0.0
230
1.0
 70
     8
 71
     3
 72
     9
 73
     5
 74
     0
 42
0.0000000001
 43
0.0000000001
 40
0.0
 40
0.0
 40
0.0
 40
0.0
 40
0.5250449151783093
 40
1.0
 40
1.0
 40
1.0
 40
1.0
 10
14.37607208755669
 20
2.544778005149556
 30
0.0
 10
14.3761314338086
 20
2.53808231788515
 30
0.0
 10
14.37624446461833
 20
2.525329718877248
 30
0.0
 10
14.36994479413012
 20
2.515911107159163
 30
0.0
 10
14.36695273359904
 20
2.511437689631696
 30
0.0
  0
LINE
  5
103
330
1F
100
AcDbEntity
  8
0
  6
Continuous
 62
     7
370
     5
100
AcDbLine
 10
14.37607208755669
 20
2.616114655369886
 30
0.0
 11
14.37607208755669
 21
2.544778005149556
 31
0.0
  0
LINE
  5
104
330
1F
100
AcDbEntity
  8
0
  6
Continuous
 62
     7
370
     5
100
AcDbLine
 10
14.36513882477815
 20
2.61908608192161
 30
0.0
 11
14.37607208755669
 21
2.616114655369886
 31
0.0
  0
SPLINE
  5
105
330
1F
100
AcDbEntity
  8
0
  6
Continuous
 62
     7
370
     5
100
AcDbSpline
210
0.0
220
0.0
230
1.0
 70
     8
 71
     3
 72
     9
 73
     5
 74
     0
 42
0.0000000001
 43
0.0000000001
 40
0.0
 40
0.0
 40
0.0
 40
0.0
 40
0.5000988604598528
 40
1.0
 40
1.0
 40
1.0
 40
1.0
 10
14.33759812677678
 20
2.517543096719546
 30
0.0
 10
14.34099358440608
 20
2.516935099596439
 30
0.0
 10
14.34778315722414
 20
2.515719345730192
 30
0.0
 10
14.35326055788359
 20
2.518169637525529
 30
0.0
 10
14.355998716715
 20
2.519394541186217
 30
0.0
  0
SPLINE
  5
106
330
1F
100
AcDbEntity
  8
0
  6
Continuous
 62
     7
370
     5
100
AcDbSpline
210
0.0
220
0.0
230
1.0
 70
     8
 71
     3
 72
    10
 73
     6
 74
     0
 42
0.0000000001
 43
0.0000000001
 40
0.0
 40
0.0
 40
0.0
 40
0.0
 40
0.2810975963257453
 40
0.5608694483811347
 40
1.0
 40
1.0
 40
1.0
 40
1.0
 10
14.30937669411493
 20
2.547761621367623
 30
0.0
 10
14.31015360029181
 20
2.54393837680329
 30
0.0
 10
14.31170374851279
 20
2.53630991929298
 30
0.0
 10
14.32214254094403
 20
2.524186275377724
 30
0.0
 10
14.33173730917111
 20
2.520062215623141
 30
0.0
 10
14.33759812677678
 20
2.517543096719546
 30
0.0
  0
SPLINE
  5
107
330
1F
100
AcDbEntity
  8
0
  6
Continuous
 62
     7
370
     5
100
AcDbSpline
210
0.0
220
0.0
230
1.0
 70
     8
 71
     3
 72
     9
 73
     5
 74
     0
 42
0.0000000001
 43
0.0000000001
 40
0.0
 40
0.0
 40
0.0
 40
0.0
 40
0.5601297000731825
 40
1.0
 40
1.0
 40
1.0
 40
1.0
 10
14.30889104804618
 20
2.56360423323525
 30
0.0
 10
14.30888087094103
 20
2.560670469478063
 30
0.0
 10
14.30886270174707
 20
2.555432818703955
 30
0.0
 10
14.30921967304364
 20
2.550105118468231
 30
0.0
 10
14.30937669411493
 20
2.547761621367623
 30
0.0
  0
LINE
  5
108
330
1F
100
AcDbEntity
  8
0
  6
Continuous
 62
     7
370
     5
100
AcDbLine
 10
14.30889104804618
 20
2.634373022393293
 30
0.0
 11
14.30889104804618
 21
2.56360423323525
 31
0.0
  0
LINE
  5
109
330
1F
100
AcDbEntity
  8
0
  6
Continuous
 62
     7
370
     5
100
AcDbLine
 10
14.29795363444654
 20
2.637345577049252
 30
0.0
 11
14.30889104804618
 21
2.634373022393293
 31
0.0
  0
LINE
  5
10A
330
1F
100
AcDbEntity
  8
0
  6
Continuous
 62
     7
370
     5
100
AcDbLine
 10
15.83005906000631
 20
3.822142159771086
 30
0.0
 11
15.83005906000631
 21
4.099198642868385
 31
0.0
  0
ARC
  5
10B
330
1F
100
AcDbEntity
  8
0
  6
Continuous
 62
     7
370
     5
100
AcDbCircle
 10
15.75076318020865
 20
3.819171795527977
 30
0.0
 40
0.0793514941045369
100
AcDbArc
 50
306.2483625452063
 51
2.145253942136847
  0
LINE
  5
10C
330
1F
100
AcDbEntity
  8
0
  6
Continuous
 62
     7
370
     5
100
AcDbLine
 10
15.79768265542294
 20
3.75517787033005
 30
0.0
 11
15.19912595109828
 21
3.33774188694272
 31
0.0
  0
ARC
  5
10D
330
1F
100
AcDbEntity
  8
0
  6
Continuous
 62
     7
370
     5
100
AcDbCircle
 10
15.24606277133747
 20
3.273734703491644
 30
0.0
 40
0.0793724424942692
100
AcDbArc
 50
126.2528010213541
 51
182.1343861253208
  0
LINE
  5
10E
330
1F
100
AcDbEntity
  8
0
  6
Continuous
 62
     7
370
     5
100
AcDbLine
 10
15.1667453956938
 20
3.270778599889501
 30
0.0
 11
15.1667453956938
 21
2.395227970531728
 31
0.0
  0
ARC
  5
10F
330
1F
100
AcDbEntity
  8
0
  6
Continuous
 62
     7
370
     5
100
AcDbCircle
 10
15.30458544110869
 20
2.399527170139229
 30
0.0
 40
0.1379070746453718
100
AcDbArc
 50
181.7864631659037
 51
220.1184326392954
  0
LINE
  5
110
330
1F
100
AcDbEntity
  8
0
  6
Continuous
 62
     7
370
     5
100
AcDbLine
 10
15.19912595109828
 20
2.310664032652484
 30
0.0
 11
15.79768265542294
 21
1.567878260117236
 31
0.0
  0
ARC
  5
111
330
1F
100
AcDbEntity
  8
0
  6
Continuous
 62
     7
370
     5
100
AcDbCircle
 10
15.69226437963612
 20
1.479037609159815
 30
0.0
 40
0.1378610682259667
100
AcDbArc
 50
1.778191627719044
 51
40.12232329809579
  0
LINE
  5
112
330
1F
100
AcDbEntity
  8
0
  6
Continuous
 62
     7
370
     5
100
AcDbLine
 10
15.83005906000631
 20
1.036348544728768
 30
0.0
 11
15.83005906000631
 21
1.483315481771334
 31
0.0
  0
ARC
  5
113
330
1F
100
AcDbEntity
  8
0
  6
Continuous
 62
     7
370
     5
100
AcDbCircle
 10
15.7507631641908
 20
1.033378068090221
 30
0.0
 40
0.0793515143185322
100
AcDbArc
 50
306.2483661852478
 51
2.145334607472442
  0
LINE
  5
114
330
1F
100
AcDbEntity
  8
0
  6
Continuous
 62
     7
370
     5
100
AcDbLine
 10
15.79768265542294
 20
0.9693841295713136
 30
0.0
 11
15.19912595109828
 21
0.5519481461839843
 31
0.0
  0
ARC
  5
115
330
1F
100
AcDbEntity
  8
0
  6
Continuous
 62
     7
370
     5
100
AcDbCircle
 10
15.24606269887783
 20
0.4879409977712638
 30
0.0
 40
0.0793723713898561
100
AcDbArc
 50
126.2527737980507
 51
182.1344133486236
  0
LINE
  5
116
330
1F
100
AcDbEntity
  8
0
  6
Continuous
 62
     7
370
     5
100
AcDbLine
 10
15.1667453956938
 20
0.4849848591307668
 30
0.0
 11
15.1667453956938
 21
0.315074342327289
 31
0.0
  0
LINE
  5
117
330
1F
100
AcDbEntity
  8
0
  6
Continuous
 62
     7
370
     5
100
AcDbLine
 10
13.85122151351242
 20
0.6726055452371313
 30
0.0
 11
15.1667453956938
 21
0.315074342327289
 31
0.0
  0
LINE
  5
118
330
1F
100
AcDbEntity
  8
0
  6
Continuous
 62
     7
370
     5
100
AcDbLine
 10
13.85122151351242
 20
0.6726055452371313
 30
0.0
 11
13.85122151351242
 21
0.9557065994515035
 31
0.0
  0
ARC
  5
119
330
1F
100
AcDbEntity
  8
0
  6
Continuous
 62
     7
370
     5
100
AcDbCircle
 10
13.83614161554417
 20
1.011709849527043
 30
0.0
 40
0.0579979942908044
100
AcDbArc
 50
285.0704912778705
 51
2.798552931029224
  0
LINE
  5
11A
330
1F
100
AcDbEntity
  8
0
  6
Continuous
 62
     7
370
     5
100
AcDbLine
 10
13.8940704397322
 20
1.497126802158611
 30
0.0
 11
13.8940704397322
 21
1.014541575140437
 31
0.0
  0
ARC
  5
11B
330
1F
100
AcDbEntity
  8
0
  6
Continuous
 62
     7
370
     5
100
AcDbCircle
 10
13.7841283863674
 20
1.492005892390117
 30
0.0
 40
0.1100612502878492
100
AcDbArc
 50
2.666810366196995
 51
52.43955260821763
  0
LINE
  5
11C
330
1F
100
AcDbEntity
  8
0
  6
Continuous
 62
     7
370
     5
100
AcDbLine
 10
13.85122151351242
 20
1.57925261785776
 30
0.0
 11
13.85122151351242
 21
1.920019856088424
 31
0.0
  0
ARC
  5
11D
330
1F
100
AcDbEntity
  8
0
  6
Continuous
 62
     7
370
     5
100
AcDbCircle
 10
13.83614169343441
 20
1.976023049437279
 30
0.0
 40
0.057997919263147
100
AcDbArc
 50
285.0704315478573
 51
2.798612661046121
  0
LINE
  5
11E
330
1F
100
AcDbEntity
  8
0
  6
Continuous
 62
     7
370
     5
100
AcDbLine
 10
13.8940704397322
 20
2.461440027366429
 30
0.0
 11
13.8940704397322
 21
1.97885483177736
 31
0.0
  0
ARC
  5
11F
330
1F
100
AcDbEntity
  8
0
  6
Continuous
 62
     7
370
     5
100
AcDbCircle
 10
13.78412835357742
 20
2.456319100489847
 30
0.0
 40
0.1100612838383211
100
AcDbArc
 50
2.666818468469746
 51
52.43954450594624
  0
LINE
  5
120
330
1F
100
AcDbEntity
  8
0
  6
Continuous
 62
     7
370
     5
100
AcDbLine
 10
13.85122151351242
 20
2.543565843065576
 30
0.0
 11
13.85122151351242
 21
2.884333081296242
 31
0.0
  0
ARC
  5
121
330
1F
100
AcDbEntity
  8
0
  6
Continuous
 62
     7
370
     5
100
AcDbCircle
 10
13.83614175503085
 20
2.940336229879569
 30
0.0
 40
0.0579978600218034
100
AcDbArc
 50
285.07038428832
 51
2.798661741231861
  0
LINE
  5
122
330
1F
100
AcDbEntity
  8
0
  6
Continuous
 62
     7
370
     5
100
AcDbLine
 10
13.8940704397322
 20
3.425753252574247
 30
0.0
 11
13.8940704397322
 21
2.943168058949497
 31
0.0
  0
ARC
  5
123
330
1F
100
AcDbEntity
  8
0
  6
Continuous
 62
     7
370
     5
100
AcDbCircle
 10
13.78412847200326
 20
3.420632387486035
 30
0.0
 40
0.1100611626658619
100
AcDbArc
 50
2.666789205899315
 51
52.43957376851605
  0
LINE
  5
124
330
1F
100
AcDbEntity
  8
0
  6
Continuous
 62
     7
370
     5
100
AcDbLine
 10
13.85122151351242
 20
3.507879068273394
 30
0.0
 11
13.85122151351242
 21
3.848646306504059
 31
0.0
  0
ARC
  5
125
330
1F
100
AcDbEntity
  8
0
  6
Continuous
 62
     7
370
     5
100
AcDbCircle
 10
13.83614180920066
 20
3.904649415541512
 30
0.0
 40
0.057997807751596
100
AcDbArc
 50
285.0703427723954
 51
2.798701436505603
  0
LINE
  5
126
330
1F
100
AcDbEntity
  8
0
  6
Continuous
 62
     7
370
     5
100
AcDbLine
 10
13.8940704397322
 20
4.390066509211167
 30
0.0
 11
13.8940704397322
 21
3.907481282192994
 31
0.0
  0
ARC
  5
127
330
1F
100
AcDbEntity
  8
0
  6
Continuous
 62
     7
370
     5
100
AcDbCircle
 10
13.78412808393426
 20
4.384945441648986
 30
0.0
 40
0.1100615597353418
100
AcDbArc
 50
2.666885096014544
 51
52.43947787839958
  0
LINE
  5
128
330
1F
100
AcDbEntity
  8
0
  6
Continuous
 62
     7
370
     5
100
AcDbLine
 10
13.85122151351242
 20
4.472192324910317
 30
0.0
 11
13.85122151351242
 21
4.637004286645804
 31
0.0
  0
LINE
  5
129
330
1F
100
AcDbEntity
  8
0
  6
Continuous
 62
     7
370
     5
100
AcDbLine
 10
14.74841734354995
 20
2.87597957568683
 30
0.0
 11
14.70065799596836
 21
2.888959543000476
 31
0.0
  0
LWPOLYLINE
  5
12A
330
1F
100
AcDbEntity
  8
0
  6
Continuous
 62
     7
370
     5
100
AcDbPolyline
 90
        9
 70
   128
 43
0.0
 10
14.74841734354995
 20
3.016555030537709
 10
14.77616973342744
 20
3.003662192005685
 10
14.79969658742469
 20
2.982031613008759
 10
14.81541989775314
 20
2.954955375892077
 10
14.82094048981672
 20
2.926557058082737
 10
14.81541989775314
 20
2.901159497535197
 10
14.79969658742469
 20
2.882629778093483
 10
14.77616973342744
 20
2.873787404405017
 10
14.74841734354995
 20
2.87597957568683
  0
LINE
  5
12B
330
1F
100
AcDbEntity
  8
0
  6
Continuous
 62
     7
370
     5
100
AcDbLine
 10
14.70065799596836
 20
3.029534997851355
 30
0.0
 11
14.74841734354995
 21
3.016555030537709
 31
0.0
  0
LWPOLYLINE
  5
12C
330
1F
100
AcDbEntity
  8
0
  6
Continuous
 62
     7
370
     5
100
AcDbPolyline
 90
        9
 70
   128
 43
0.0
 10
14.70065799596836
 20
3.029534997851355
 10
14.67290560609086
 20
3.03172716913317
 10
14.64937875209361
 20
3.022884779730149
 10
14.63365544176517
 20
3.004355060288435
 10
14.62813484970159
 20
2.978957499740897
 10
14.63365544176517
 20
2.950559181931554
 10
14.64937875209361
 20
2.923482944814873
 10
14.67290560609086
 20
2.901852381532502
 10
14.70065799596836
 20
2.888959543000476
  0
LINE
  5
12D
330
1F
100
AcDbEntity
  8
0
  6
Continuous
 62
     7
370
     5
100
AcDbLine
 10
15.41173100786246
 20
1.303665477553866
 30
0.0
 11
15.36397166028088
 21
1.31664544486751
 31
0.0
  0
LWPOLYLINE
  5
12E
330
1F
100
AcDbEntity
  8
0
  6
Continuous
 62
     7
370
     5
100
AcDbPolyline
 90
        9
 70
   128
 43
0.0
 10
15.41173100786246
 20
1.444240885261089
 10
15.43948339773996
 20
1.431348078158165
 10
15.46301025173722
 20
1.409717530590346
 10
15.47873356206566
 20
1.38264119918635
 10
15.48425415412923
 20
1.354242912806113
 10
15.47873356206566
 20
1.328845383687679
 10
15.46301025173722
 20
1.310315695675068
 10
15.43948339773996
 20
1.301473337701156
 10
15.41173100786246
 20
1.303665477553866
  0
LINE
  5
12F
330
1F
100
AcDbEntity
  8
0
  6
Continuous
 62
     7
370
     5
100
AcDbLine
 10
15.36397166028088
 20
1.457220852574733
 30
0.0
 11
15.41173100786246
 21
1.444240885261089
 31
0.0
  0
LWPOLYLINE
  5
130
330
1F
100
AcDbEntity
  8
0
  6
Continuous
 62
     7
370
     5
100
AcDbPolyline
 90
        9
 70
   128
 43
0.0
 10
15.36397166028088
 20
1.457220852574733
 10
15.33621927040339
 20
1.459413055285651
 10
15.31269241640613
 20
1.450570697311736
 10
15.29696910607769
 20
1.432040883582708
 10
15.29144851401411
 20
1.406643354464272
 10
15.29696910607769
 20
1.378245068084037
 10
15.31269241640613
 20
1.351168862396458
 10
15.33621927040339
 20
1.329538314828641
 10
15.36397166028088
 20
1.31664544486751
  0
LINE
  5
131
330
1F
100
AcDbEntity
  8
0
  6
Continuous
 62
     7
370
     5
100
AcDbLine
 10
15.41173100786246
 20
3.720020025093178
 30
0.0
 11
15.36397166028088
 21
3.732999992406822
 31
0.0
  0
LWPOLYLINE
  5
132
330
1F
100
AcDbEntity
  8
0
  6
Continuous
 62
     7
370
     5
100
AcDbPolyline
 90
        9
 70
   128
 43
0.0
 10
15.41173100786246
 20
3.860595495658611
 10
15.43948339773996
 20
3.84770262569748
 10
15.46301025173722
 20
3.826072078129661
 10
15.47873356206566
 20
3.798995872442082
 10
15.48425415412923
 20
3.770597586061846
 10
15.47873356206566
 20
3.745199931226992
 10
15.46301025173722
 20
3.726670243214383
 10
15.43948339773996
 20
3.71782788524047
 10
15.41173100786246
 20
3.720020025093178
  0
LINE
  5
133
330
1F
100
AcDbEntity
  8
0
  6
Continuous
 62
     7
370
     5
100
AcDbLine
 10
15.36397166028088
 20
3.873575462972255
 30
0.0
 11
15.41173100786246
 21
3.860595495658611
 31
0.0
  0
LWPOLYLINE
  5
134
330
1F
100
AcDbEntity
  8
0
  6
Continuous
 62
     7
370
     5
100
AcDbPolyline
 90
        9
 70
   128
 43
0.0
 10
15.36397166028088
 20
3.873575462972255
 10
15.33621927040339
 20
3.875767602824965
 10
15.31269241640613
 20
3.866925244851051
 10
15.29696910607769
 20
3.848395556838439
 10
15.29144851401411
 20
3.822998027720006
 10
15.29696910607769
 20
3.794599615623349
 10
15.31269241640613
 20
3.767523409935773
 10
15.33621927040339
 20
3.745892862367956
 10
15.36397166028088
 20
3.732999992406822
  0
LINE
  5
135
330
1F
100
AcDbEntity
  8
0
  6
Continuous
 62
     7
370
     5
100
AcDbLine
 10
14.88108173674089
 20
0.6668401515097271
 30
0.0
 11
14.83332238915931
 21
0.6798201188233732
 31
0.0
  0
LWPOLYLINE
  5
136
330
1F
100
AcDbEntity
  8
0
  6
Continuous
 62
     7
370
     5
100
AcDbPolyline
 90
        9
 70
   128
 43
0.0
 10
14.88108173674089
 20
0.8074156220751598
 10
14.90883412661839
 20
0.7945227521140286
 10
14.93236098061564
 20
0.7728922045462117
 10
14.94808014012298
 20
0.7458171269628658
 10
14.95360073218656
 20
0.7174188405826301
 10
14.94808014012298
 20
0.6920211857477778
 10
14.93236098061564
 20
0.6734903696309336
 10
14.90883412661839
 20
0.6646480116570192
 10
14.88108173674089
 20
0.6668401515097271
  0
LINE
  5
137
330
1F
100
AcDbEntity
  8
0
  6
Continuous
 62
     7
370
     5
100
AcDbLine
 10
14.83332238915931
 20
0.8203955893888059
 30
0.0
 11
14.88108173674089
 21
0.8074156220751598
 31
0.0
  0
LWPOLYLINE
  5
138
330
1F
100
AcDbEntity
  8
0
  6
Continuous
 62
     7
370
     5
100
AcDbPolyline
 90
        9
 70
   128
 43
0.0
 10
14.83332238915931
 20
0.8203955893888059
 10
14.80556999928181
 20
0.8225877292415159
 10
14.78203899446345
 20
0.8137464993718367
 10
14.76631983495612
 20
0.7952156832549903
 10
14.76079924289254
 20
0.769818154136557
 10
14.76631983495612
 20
0.7414197420399002
 10
14.78203899446345
 20
0.7143446644565587
 10
14.80556999928181
 20
0.6927129887845066
 10
14.83332238915931
 20
0.6798201188233732
  0
LINE
  5
139
330
1F
100
AcDbEntity
  8
0
  6
Continuous
 62
     7
370
     5
100
AcDbLine
 10
14.5026306229089
 20
2.512878002262005
 30
0.0
 11
14.5026306229089
 21
2.463605149209302
 31
0.0
  0
SPLINE
  5
13A
330
1F
100
AcDbEntity
  8
0
  6
Continuous
 62
     7
370
     5
100
AcDbSpline
210
0.0
220
0.0
230
1.0
 70
     8
 71
     3
 72
     9
 73
     5
 74
     0
 42
0.0000000001
 43
0.0000000001
 40
0.0
 40
0.0
 40
0.0
 40
0.0
 40
0.5698581850736894
 40
0.9999999999999998
 40
0.9999999999999998
 40
0.9999999999999998
 40
0.9999999999999998
 10
14.56669024495188
 20
2.532627212882993
 30
0.0
 10
14.56649995268979
 20
2.52871763522214
 30
0.0
 10
14.56616602353498
 20
2.521857020137102
 30
0.0
 10
14.56197873467512
 20
2.517407500675435
 30
0.0
 10
14.56017760664531
 20
2.515493576298647
 30
0.0
  0
SPLINE
  5
13B
330
1F
100
AcDbEntity
  8
0
  6
Continuous
 62
     7
370
     5
100
AcDbSpline
210
0.0
220
0.0
230
1.0
 70
     8
 71
     3
 72
    11
 73
     7
 74
     0
 42
0.0000000001
 43
0.0000000001
 40
0.0
 40
0.0
 40
0.0
 40
0.0
 40
0.2797090930449318
 40
0.5593626076084167
 40
0.7795129366159368
 40
1.0
 40
1.0
 40
1.0
 40
1.0
 10
14.54335017790415
 20
2.568877504644255
 30
0.0
 10
14.54705308801277
 20
2.566576202765082
 30
0.0
 10
14.55445817245801
 20
2.561974056277761
 30
0.0
 10
14.56211105795367
 20
2.551902657737547
 30
0.0
 10
14.56615331088752
 20
2.541730533470111
 30
0.0
 10
14.56651117577051
 20
2.535663198627829
 30
0.0
 10
14.56669024495188
 20
2.532627212882993
 30
0.0
  0
SPLINE
  5
13C
330
1F
100
AcDbEntity
  8
0
  6
Continuous
 62
     7
370
     5
100
AcDbSpline
210
0.0
220
0.0
230
1.0
 70
     8
 71
     3
 72
     9
 73
     5
 74
     0
 42
0.0000000001
 43
0.0000000001
 40
0.0
 40
0.0
 40
0.0
 40
0.0
 40
0.5602869730457307
 40
1.0
 40
1.0
 40
1.0
 40
1.0
 10
14.51559363720555
 20
2.578195687760504
 30
0.0
 10
14.52080324720663
 20
2.576795841682177
 30
0.0
 10
14.53010135737463
 20
2.574297396875006
 30
0.0
 10
14.53930376110472
 20
2.570532832597768
 30
0.0
 10
14.54335017790415
 20
2.568877504644255
 30
0.0
  0
LINE
  5
13D
330
1F
100
AcDbEntity
  8
0
  6
Continuous
 62
     7
370
     5
100
AcDbLine
 10
14.49169320930926
 20
2.584691311938495
 30
0.0
 11
14.51559363720555
 21
2.578195687760504
 31
0.0
  0
LINE
  5
13E
330
1F
100
AcDbEntity
  8
0
  6
Continuous
 62
     7
370
     5
100
AcDbLine
 10
15.85432718256486
 20
3.845828591361914
 30
0.0
 11
15.85432718256486
 21
4.122885074459212
 31
0.0
  0
LINE
  5
13F
330
1F
100
AcDbEntity
  8
0
  6
Continuous
 62
     7
370
     5
100
AcDbLine
 10
15.83005906000631
 20
3.822142159771086
 30
0.0
 11
15.85432718256486
 21
3.845828591361914
 31
0.0
  0
ARC
  5
140
330
1F
100
AcDbEntity
  8
0
  6
Continuous
 62
     7
370
     5
100
AcDbCircle
 10
15.7736830401643
 20
3.843126157344516
 30
0.0
 40
0.0806894097954598
100
AcDbArc
 50
315.3501995345077
 51
1.919298029641989
  0
LINE
  5
141
330
1F
100
AcDbEntity
  8
0
  6
Continuous
 62
     7
370
     5
100
AcDbLine
 10
12.76330248256728
 20
1.664813653213281
 30
0.0
 11
12.71731138477449
 21
1.677313048123345
 31
0.0
  0
ARC
  5
142
330
1F
100
AcDbEntity
  8
0
  6
Continuous
 62
     7
370
     5
100
AcDbCircle
 10
12.78042562501309
 20
1.727578075610003
 30
0.0
 40
0.0806844489919255
100
AcDbArc
 50
173.7230292358365
 51
218.534286231386
  0
LINE
  5
143
330
1F
100
AcDbEntity
  8
0
  6
Continuous
 62
     7
370
     5
100
AcDbLine
 10
13.29619484018724
 20
3.709458538392786
 30
0.0
 11
13.34218593798004
 21
3.696959143482722
 31
0.0
  0
ARC
  5
144
330
1F
100
AcDbEntity
  8
0
  6
Continuous
 62
     7
370
     5
100
AcDbCircle
 10
13.17145507944336
 20
3.81444828198588
 30
0.0
 40
0.1630424919160197
100
AcDbArc
 50
319.9136791284131
 51
5.249265546196202
  0
LINE
  5
145
330
1F
100
AcDbEntity
  8
0
  6
Continuous
 62
     7
370
     5
100
AcDbLine
 10
15.43599913042101
 20
3.743706456684007
 30
0.0
 11
15.41173100786246
 21
3.720020025093178
 31
0.0
  0
LWPOLYLINE
  5
146
330
1F
100
AcDbEntity
  8
0
  6
Continuous
 62
     7
370
     5
100
AcDbPolyline
 90
        3
 70
   128
 43
0.0
 10
15.47896843045269
 20
3.745694324927299
 10
15.46375152029851
 20
3.741514316831297
 10
15.43599913042101
 20
3.743706456684007
  0
LINE
  5
147
330
1F
100
AcDbEntity
  8
0
  6
Continuous
 62
     7
370
     5
100
AcDbLine
 10
13.03315995707068
 20
1.405480051651456
 30
0.0
 11
13.07915105486348
 21
1.392980656741392
 31
0.0
  0
LINE
  5
148
330
1F
100
AcDbEntity
  8
0
  6
Continuous
 62
     7
370
     5
100
AcDbLine
 10
13.03315995707068
 20
1.405480051651456
 30
0.0
 11
12.71731138477449
 21
1.677313048123345
 31
0.0
  0
LINE
  5
149
330
1F
100
AcDbEntity
  8
0
  6
Continuous
 62
     7
370
     5
100
AcDbLine
 10
13.29619484018724
 20
3.709458538392786
 30
0.0
 11
13.27936419433598
 21
3.693031312074652
 31
0.0
  0
LINE
  5
14A
330
1F
100
AcDbEntity
  8
0
  6
Continuous
 62
     7
370
     5
100
AcDbLine
 10
12.94617339683559
 20
2.343511989004266
 30
0.0
 11
12.99216449462839
 21
2.331012594094202
 31
0.0
  0
ARC
  5
14B
330
1F
100
AcDbEntity
  8
0
  6
Continuous
 62
     7
370
     5
100
AcDbCircle
 10
12.82143350937696
 20
2.448501564502358
 30
0.0
 40
0.1630424806191983
100
AcDbArc
 50
319.9137529968602
 51
5.249261442170458
  0
LINE
  5
14C
330
1F
100
AcDbEntity
  8
0
  6
Continuous
 62
     7
370
     5
100
AcDbLine
 10
15.38823978283943
 20
3.75668642399765
 30
0.0
 11
15.36397166028088
 21
3.732999992406822
 31
0.0
  0
ARC
  5
14D
330
1F
100
AcDbEntity
  8
0
  6
Continuous
 62
     7
370
     5
100
AcDbCircle
 10
15.40936547126221
 20
3.846170126838292
 30
0.0
 40
0.0919436119880487
100
AcDbArc
 50
163.952177206371
 51
256.7165939828801
  0
LINE
  5
14E
330
1F
100
AcDbEntity
  8
0
  6
Continuous
 62
     7
370
     5
100
AcDbLine
 10
12.94617339683559
 20
2.343511989004266
 30
0.0
 11
12.92934261408859
 21
2.3270846290717
 31
0.0
  0
LINE
  5
14F
330
1F
100
AcDbEntity
  8
0
  6
Continuous
 62
     7
370
     5
100
AcDbLine
 10
15.43599913042101
 20
3.743706456684007
 30
0.0
 11
15.38823978283943
 21
3.75668642399765
 31
0.0
  0
LINE
  5
150
330
1F
100
AcDbEntity
  8
0
  6
Continuous
 62
     7
370
     5
100
AcDbLine
 10
15.19101351825234
 20
3.294465031480329
 30
0.0
 11
15.1667453956938
 21
3.270778599889501
 31
0.0
  0
ARC
  5
151
330
1F
100
AcDbEntity
  8
0
  6
Continuous
 62
     7
370
     5
100
AcDbCircle
 10
15.27719485956338
 20
3.295813417950649
 30
0.0
 40
0.0861918890397661
100
AcDbArc
 50
148.3860601335183
 51
180.8963721105508
  0
SPLINE
  5
152
330
1F
100
AcDbEntity
  8
0
  6
Continuous
 62
     7
370
     5
100
AcDbSpline
210
0.0
220
0.0
230
1.0
 70
     8
 71
     3
 72
    15
 73
    11
 74
     0
 42
0.0000000001
 43
0.0000000001
 40
0.0
 40
0.0
 40
0.0
 40
0.0
 40
0.1587309374131107
 40
0.2939575824939386
 40
0.406566222481242
 40
0.4982782539740145
 40
0.603625069090352
 40
0.7205485060256423
 40
0.8519986418326613
 40
1.0
 40
1.0
 40
1.0
 40
1.0
 10
13.85122151351243
 20
4.472192324910313
 30
0.0
 10
13.84794673881778
 20
4.474465525293099
 30
0.0
 10
13.84188210599863
 20
4.478675318922095
 30
0.0
 10
13.83236784898475
 20
4.482569376201059
 30
0.0
 10
13.82415665413504
 20
4.484430924467488
 30
0.0
 10
13.81657338815795
 20
4.484463465585056
 30
0.0
 10
13.80921047089295
 20
4.482279214897495
 30
0.0
 10
13.80196928132568
 20
4.477867916812674
 30
0.0
 10
13.79524909488245
 20
4.471246853700313
 30
0.0
 10
13.79209341896591
 20
4.465535484472495
 30
0.0
 10
13.79042212955914
 20
4.462510664706134
 30
0.0
  0
LINE
  5
153
330
1F
100
AcDbEntity
  8
0
  6
Continuous
 62
     7
370
     5
100
AcDbLine
 10
15.1667453956938
 20
2.395227970531728
 30
0.0
 11
15.19101351825234
 21
2.418914402122557
 31
0.0
  0
LINE
  5
154
330
1F
100
AcDbEntity
  8
0
  6
Continuous
 62
     7
370
     5
100
AcDbLine
 10
15.19101351825234
 20
3.294465031480329
 30
0.0
 11
15.19101351825234
 21
2.418914402122557
 31
0.0
  0
LINE
  5
155
330
1F
100
AcDbEntity
  8
0
  6
Continuous
 62
     7
370
     5
100
AcDbLine
 10
13.07915105486348
 20
0.794486526195469
 30
0.0
 11
13.03315995707068
 21
0.8069859211055328
 31
0.0
  0
LINE
  5
156
330
1F
100
AcDbEntity
  8
0
  6
Continuous
 62
     7
370
     5
100
AcDbLine
 10
12.71731138477449
 20
-0.0814028383451548
 30
0.0
 11
12.76330248256728
 21
-0.0939022332552188
 31
0.0
  0
LINE
  5
157
330
1F
100
AcDbEntity
  8
0
  6
Continuous
 62
     7
370
     5
100
AcDbLine
 10
12.71731138477449
 20
-0.0814028383451548
 30
0.0
 11
13.03315995707068
 21
0.8069859211055328
 31
0.0
  0
LINE
  5
158
330
1F
100
AcDbEntity
  8
0
  6
Continuous
 62
     7
370
     5
100
AcDbLine
 10
15.79768265542294
 20
1.567878260117236
 30
0.0
 11
15.82195077798149
 21
1.591564691708065
 31
0.0
  0
LINE
  5
159
330
1F
100
AcDbEntity
  8
0
  6
Continuous
 62
     7
370
     5
100
AcDbLine
 10
15.22339407365683
 20
2.334350464243312
 30
0.0
 11
15.19912595109828
 21
2.310664032652484
 31
0.0
  0
LINE
  5
15A
330
1F
100
AcDbEntity
  8
0
  6
Continuous
 62
     7
370
     5
100
AcDbLine
 10
15.22339407365683
 20
2.334350464243312
 30
0.0
 11
15.82195077798149
 21
1.591564691708065
 31
0.0
  0
LINE
  5
15B
330
1F
100
AcDbEntity
  8
0
  6
Continuous
 62
     7
370
     5
100
AcDbLine
 10
13.09623755883907
 20
1.333894043109993
 30
0.0
 11
13.05024646104627
 21
1.346393438020059
 31
0.0
  0
ARC
  5
15C
330
1F
100
AcDbEntity
  8
0
  6
Continuous
 62
     7
370
     5
100
AcDbCircle
 10
12.97004468011681
 20
1.355214729062686
 30
0.0
 40
0.0806854437920313
100
AcDbArc
 50
353.7233402104283
 51
38.53399152280397
  0
LINE
  5
15D
330
1F
100
AcDbEntity
  8
0
  6
Continuous
 62
     7
370
     5
100
AcDbLine
 10
13.79042212955914
 20
3.838964646299877
 30
0.0
 11
13.78129862478038
 21
3.841444219405683
 31
0.0
  0
LINE
  5
15E
330
1F
100
AcDbEntity
  8
0
  6
Continuous
 62
     7
370
     5
100
AcDbLine
 10
14.77268546610849
 20
2.899666007277658
 30
0.0
 11
14.74841734354995
 21
2.87597957568683
 31
0.0
  0
LWPOLYLINE
  5
15F
330
1F
100
AcDbEntity
  8
0
  6
Continuous
 62
     7
370
     5
100
AcDbPolyline
 90
        3
 70
   128
 43
0.0
 10
14.81565476614018
 20
2.901653828377295
 10
14.80043785598598
 20
2.897473835995846
 10
14.77268546610849
 20
2.899666007277658
  0
LINE
  5
160
330
1F
100
AcDbEntity
  8
0
  6
Continuous
 62
     7
370
     5
100
AcDbLine
 10
13.85122151351242
 20
3.848646306504059
 30
0.0
 11
13.87548963607097
 21
3.872332738094888
 31
0.0
  0
LWPOLYLINE
  5
161
330
1F
100
AcDbEntity
  8
0
  6
Continuous
 62
     7
370
     5
100
AcDbPolyline
 90
        3
 70
   128
 43
0.0
 10
13.88683798095955
 20
3.876582168391982
 10
13.88478332451484
 20
3.875612559779245
 10
13.87548963607097
 20
3.872332738094888
  0
LINE
  5
162
330
1F
100
AcDbEntity
  8
0
  6
Continuous
 62
     7
370
     5
100
AcDbLine
 10
13.05024646104627
 20
0.8994265009774938
 30
0.0
 11
13.09623755883907
 21
0.8869271060674275
 31
0.0
  0
LINE
  5
163
330
1F
100
AcDbEntity
  8
0
  6
Continuous
 62
     7
370
     5
100
AcDbLine
 10
13.05024646104627
 20
0.8994265009774938
 30
0.0
 11
13.05024646104627
 21
1.346393438020059
 31
0.0
  0
SPLINE
  5
164
330
1F
100
AcDbEntity
  8
0
  6
Continuous
 62
     7
370
     5
100
AcDbSpline
210
0.0
220
0.0
230
1.0
 70
     8
 71
     3
 72
    12
 73
     8
 74
     0
 42
0.0000000001
 43
0.0000000001
 40
0.0
 40
0.0
 40
0.0
 40
0.0
 40
0.1474367889553388
 40
0.3020579591907431
 40
0.5960004236238344
 40
0.784193223617646
 40
1.0
 40
1.0
 40
1.0
 40
1.0
 10
13.77225481523525
 20
3.859975094209858
 30
0.0
 10
13.7766750003844
 20
3.860929518985131
 30
0.0
 10
13.78573075990586
 20
3.862884876273252
 30
0.0
 10
13.80629132812341
 20
3.8663512887746
 30
0.0
 10
13.82981113724649
 20
3.870328492428957
 30
0.0
 10
13.85508847545251
 20
3.872588022141456
 30
0.0
 10
13.86838627437109
 20
3.872421623965299
 30
0.0
 10
13.87548963607097
 20
3.872332738094888
 30
0.0
  0
SPLINE
  5
165
330
1F
100
AcDbEntity
  8
0
  6
Continuous
 62
     7
370
     5
100
AcDbSpline
210
0.0
220
0.0
230
1.0
 70
     8
 71
     3
 72
    15
 73
    11
 74
     0
 42
0.0000000001
 43
0.0000000001
 40
0.0
 40
0.0
 40
0.0
 40
0.0
 40
0.148001704676175
 40
0.2794517296356778
 40
0.3963750679733326
 40
0.5017217942542139
 40
0.5934338686938745
 40
0.7060418871636985
 40
0.8412687751118868
 40
1.0
 40
1.0
 40
1.0
 40
1.0
 10
13.79042212955914
 20
3.838964646299877
 30
0.0
 10
13.79209341657425
 20
3.838779631874918
 30
0.0
 10
13.79524908324791
 20
3.838430293999543
 30
0.0
 10
13.80196928279705
 20
3.83842083627113
 30
0.0
 10
13.80921046849482
 20
3.838860857621007
 30
0.0
 10
13.81657339803439
 20
3.839768781210767
 30
0.0
 10
13.82415662252889
 20
3.841568446404093
 30
0.0
 10
13.83236789457655
 20
3.843856643536609
 30
0.0
 10
13.8418820975735
 20
3.846441914454358
 30
0.0
 10
13.84794673584883
 20
3.847873357328935
 30
0.0
 10
13.85122151351242
 20
3.848646306504059
 30
0.0
  0
SPLINE
  5
166
330
1F
100
AcDbEntity
  8
0
  6
Continuous
 62
     7
370
     5
100
AcDbSpline
210
0.0
220
0.0
230
1.0
 70
     8
 71
     3
 72
    15
 73
    11
 74
     0
 42
0.0000000001
 43
0.0000000001
 40
0.0
 40
0.0
 40
0.0
 40
0.0
 40
0.1587312664081166
 40
0.2939578328286044
 40
0.4065661440291352
 40
0.4982782424583144
 40
0.6036250736986489
 40
0.7205481972669415
 40
0.8519982566103879
 40
1.0
 40
1.0
 40
1.0
 40
1.0
 10
13.85122151351243
 20
3.507879068273392
 30
0.0
 10
13.84794674058473
 20
3.510152290064785
 30
0.0
 10
13.84188211844307
 20
3.51436211820046
 30
0.0
 10
13.832367863742
 20
3.518256217359381
 30
0.0
 10
13.82415663655542
 20
3.52011761731511
 30
0.0
 10
13.81657339158776
 20
3.520150325105482
 30
0.0
 10
13.80921048336485
 20
3.517965909222494
 30
0.0
 10
13.8019692711526
 20
3.513554751168848
 30
0.0
 10
13.7952490854987
 20
3.506933649620886
 30
0.0
 10
13.79209341735357
 20
3.501222248995315
 30
0.0
 10
13.79042212955914
 20
3.498197408069211
 30
0.0
  0
LINE
  5
167
330
1F
100
AcDbEntity
  8
0
  6
Continuous
 62
     7
370
     5
100
AcDbLine
 10
14.72492611852691
 20
2.912645974591304
 30
0.0
 11
14.70065799596836
 21
2.888959543000476
 31
0.0
  0
ARC
  5
168
330
1F
100
AcDbEntity
  8
0
  6
Continuous
 62
     7
370
     5
100
AcDbCircle
 10
14.74605172268492
 20
3.002129610742825
 30
0.0
 40
0.0919435277218505
100
AcDbArc
 50
163.9521698072059
 51
256.7166355399168
  0
LINE
  5
169
330
1F
100
AcDbEntity
  8
0
  6
Continuous
 62
     7
370
     5
100
AcDbLine
 10
14.77268546610849
 20
2.899666007277658
 30
0.0
 11
14.72492611852691
 21
2.912645974591304
 31
0.0
  0
LINE
  5
16A
330
1F
100
AcDbEntity
  8
0
  6
Continuous
 62
     7
370
     5
100
AcDbLine
 10
12.74621597859169
 20
-0.1863428131271775
 30
0.0
 11
12.70022488079889
 21
-0.1738434182171135
 31
0.0
  0
ARC
  5
16B
330
1F
100
AcDbEntity
  8
0
  6
Continuous
 62
     7
370
     5
100
AcDbCircle
 10
12.98545360189816
 20
-0.1787650334326507
 30
0.0
 40
0.2852711791195468
100
AcDbArc
 50
160.0440865143032
 51
179.0114607030381
  0
ARC
  5
16C
330
1F
100
AcDbEntity
  8
0
  6
Continuous
 62
     7
370
     5
100
AcDbCircle
 10
15.32885356366723
 20
2.423213601730057
 30
0.0
 40
0.1379070746453701
100
AcDbArc
 50
181.7864631659035
 51
220.1184326392957
  0
LINE
  5
16D
330
1F
100
AcDbEntity
  8
0
  6
Continuous
 62
     7
370
     5
100
AcDbLine
 10
12.70022488079889
 20
-0.3437539350205911
 30
0.0
 11
12.74621597859169
 21
-0.3562533299306552
 31
0.0
  0
LINE
  5
16E
330
1F
100
AcDbEntity
  8
0
  6
Continuous
 62
     7
370
     5
100
AcDbLine
 10
12.70022488079889
 20
-0.1738434182171135
 30
0.0
 11
12.70022488079889
 21
-0.3437539350205911
 31
0.0
  0
LINE
  5
16F
330
1F
100
AcDbEntity
  8
0
  6
Continuous
 62
     7
370
     5
100
AcDbLine
 10
15.85432718256486
 20
1.507001913362162
 30
0.0
 11
15.83005906000631
 21
1.483315481771334
 31
0.0
  0
ARC
  5
170
330
1F
100
AcDbEntity
  8
0
  6
Continuous
 62
     7
370
     5
100
AcDbCircle
 10
15.71653250219468
 20
1.502724040750647
 30
0.0
 40
0.1378610682259525
100
AcDbArc
 50
1.778191627717936
 51
40.12232329809909
  0
ARC
  5
171
330
1F
100
AcDbEntity
  8
0
  6
Continuous
 62
     7
370
     5
100
AcDbCircle
 10
12.76501423419842
 20
0.9043487641875261
 30
0.0
 40
0.2852746955264225
100
AcDbArc
 50
340.0442044933123
 51
359.0113427240309
  0
LINE
  5
172
330
1F
100
AcDbEntity
  8
0
  6
Continuous
 62
     7
370
     5
100
AcDbLine
 10
15.83005906000631
 20
1.036348544728768
 30
0.0
 11
15.85432718256486
 21
1.060034976319596
 31
0.0
  0
LINE
  5
173
330
1F
100
AcDbEntity
  8
0
  6
Continuous
 62
     7
370
     5
100
AcDbLine
 10
15.85432718256486
 20
1.060034976319596
 30
0.0
 11
15.85432718256486
 21
1.507001913362162
 31
0.0
  0
LINE
  5
174
330
1F
100
AcDbEntity
  8
0
  6
Continuous
 62
     7
370
     5
100
AcDbLine
 10
14.49843031959171
 20
2.526133717604369
 30
0.0
 11
14.51976554004794
 21
2.520074997427476
 31
0.0
  0
SPLINE
  5
175
330
1F
100
AcDbEntity
  8
0
  6
Continuous
 62
     7
370
     5
100
AcDbSpline
210
0.0
220
0.0
230
1.0
 70
     8
 71
     3
 72
    11
 73
     7
 74
     0
 42
0.0000000001
 43
0.0000000001
 40
0.0
 40
0.0
 40
0.0
 40
0.0
 40
0.499756579604903
 40
0.6253258107555955
 40
0.7510876106808193
 40
1.0
 40
1.0
 40
1.0
 40
1.0
 10
14.51976554004794
 20
2.520074997427476
 30
0.0
 10
14.52719252594511
 20
2.518030264284055
 30
0.0
 10
14.53648562215865
 20
2.515471769883247
 30
0.0
 10
14.54547891783813
 20
2.518941331694178
 30
0.0
 10
14.55017081327248
 20
2.52308926278661
 30
0.0
 10
14.55100099929032
 20
2.528114395731707
 30
0.0
 10
14.55155252803506
 20
2.531452810503572
 30
0.0
  0
SPLINE
  5
176
330
1F
100
AcDbEntity
  8
0
  6
Continuous
 62
     7
370
     5
100
AcDbSpline
210
0.0
220
0.0
230
1.0
 70
     8
 71
     3
 72
    11
 73
     7
 74
     0
 42
0.0000000001
 43
0.0000000001
 40
0.0
 40
0.0
 40
0.0
 40
0.0
 40
0.2489963937307306
 40
0.3747338354081195
 40
0.500414651588206
 40
1.0
 40
1.0
 40
1.0
 40
1.0
 10
14.55155252803507
 20
2.531452810503569
 30
0.0
 10
14.55099861847753
 20
2.534992184555329
 30
0.0
 10
14.55016499735612
 20
2.540318860952078
 30
0.0
 10
14.54567885434135
 20
2.546864451106023
 30
0.0
 10
14.53707164123879
 20
2.555183330320077
 30
0.0
 10
14.52798245501296
 20
2.557553351746692
 30
0.0
 10
14.52072022890105
 20
2.559446990083785
 30
0.0
  0
LINE
  5
177
330
1F
100
AcDbEntity
  8
0
  6
Continuous
 62
     7
370
     5
100
AcDbLine
 10
14.52072022890104
 20
2.559446990083788
 30
0.0
 11
14.49843031959171
 21
2.565504909819079
 31
0.0
  0
LINE
  5
178
330
1F
100
AcDbEntity
  8
0
  6
Continuous
 62
     7
370
     5
100
AcDbLine
 10
14.49843031959171
 20
2.565504909819079
 30
0.0
 11
14.49843031959171
 21
2.526133717604369
 31
0.0
  0
LINE
  5
179
330
1F
100
AcDbEntity
  8
0
  6
Continuous
 62
     7
370
     5
100
AcDbLine
 10
14.48749290599208
 20
2.580591687134671
 30
0.0
 11
14.51139333388836
 21
2.574096062956681
 31
0.0
  0
SPLINE
  5
17A
330
1F
100
AcDbEntity
  8
0
  6
Continuous
 62
     7
370
     5
100
AcDbSpline
210
0.0
220
0.0
230
1.0
 70
     8
 71
     3
 72
     9
 73
     5
 74
     0
 42
0.0000000001
 43
0.0000000001
 40
0.0
 40
0.0
 40
0.0
 40
0.0
 40
0.5602869730457307
 40
1.0
 40
1.0
 40
1.0
 40
1.0
 10
14.51139333388836
 20
2.574096062956681
 30
0.0
 10
14.51660294388944
 20
2.572696216878353
 30
0.0
 10
14.52590105405745
 20
2.570197772071182
 30
0.0
 10
14.53510345778753
 20
2.566433207793945
 30
0.0
 10
14.53914987458697
 20
2.564777879840431
 30
0.0
  0
SPLINE
  5
17B
330
1F
100
AcDbEntity
  8
0
  6
Continuous
 62
     7
370
     5
100
AcDbSpline
210
0.0
220
0.0
230
1.0
 70
     8
 71
     3
 72
    11
 73
     7
 74
     0
 42
0.0000000001
 43
0.0000000001
 40
0.0
 40
0.0
 40
0.0
 40
0.0
 40
0.2797090930449318
 40
0.5593626076084167
 40
0.7795129366159368
 40
1.0
 40
1.0
 40
1.0
 40
1.0
 10
14.53914987458697
 20
2.564777879840431
 30
0.0
 10
14.54285278469558
 20
2.562476577961259
 30
0.0
 10
14.55025786914082
 20
2.557874431473937
 30
0.0
 10
14.55791075463649
 20
2.547803032933724
 30
0.0
 10
14.56195300757033
 20
2.537630908666287
 30
0.0
 10
14.56231087245333
 20
2.531563573824005
 30
0.0
 10
14.5624899416347
 20
2.52852758807917
 30
0.0
  0
SPLINE
  5
17C
330
1F
100
AcDbEntity
  8
0
  6
Continuous
 62
     7
370
     5
100
AcDbSpline
210
0.0
220
0.0
230
1.0
 70
     8
 71
     3
 72
    11
 73
     7
 74
     0
 42
0.0000000001
 43
0.0000000001
 40
0.0
 40
0.0
 40
0.0
 40
0.0
 40
0.2800967501950151
 40
0.5593689325865851
 40
0.7794383811273721
 40
1.0
 40
1.0
 40
1.0
 40
1.0
 10
14.56248994163471
 20
2.528527588079167
 30
0.0
 10
14.5622010466675
 20
2.524710393984193
 30
0.0
 10
14.5616241072017
 20
2.517087243109016
 30
0.0
 10
14.55551004160195
 20
2.509275977388574
 30
0.0
 10
14.54721233755331
 20
2.505411318463286
 30
0.0
 10
14.54118930944441
 20
2.505242544111804
 30
0.0
 10
14.53817443162837
 20
2.505158062678372
 30
0.0
  0
SPLINE
  5
17D
330
1F
100
AcDbEntity
  8
0
  6
Continuous
 62
     7
370
     5
100
AcDbSpline
210
0.0
220
0.0
230
1.0
 70
     8
 71
     3
 72
     9
 73
     5
 74
     0
 42
0.0000000001
 43
0.0000000001
 40
0.0
 40
0.0
 40
0.0
 40
0.0
 40
0.5597655113449543
 40
0.9999999999999998
 40
0.9999999999999998
 40
0.9999999999999998
 40
0.9999999999999998
 10
14.53817443162837
 20
2.505158062678372
 30
0.0
 10
14.53240600646578
 20
2.506022619109196
 30
0.0
 10
14.52210093220581
 20
2.507567116605568
 30
0.0
 10
14.51171797830423
 20
2.51040232120623
 30
0.0
 10
14.50714704390263
 20
2.511650476053838
 30
0.0
  0
LINE
  5
17E
330
1F
100
AcDbEntity
  8
0
  6
Continuous
 62
     7
370
     5
100
AcDbLine
 10
14.50714704390263
 20
2.511650476053838
 30
0.0
 11
14.49843031959171
 21
2.514019494944733
 31
0.0
  0
LINE
  5
17F
330
1F
100
AcDbEntity
  8
0
  6
Continuous
 62
     7
370
     5
100
AcDbLine
 10
14.49843031959171
 20
2.514019494944733
 30
0.0
 11
14.49843031959171
 21
2.459505524405478
 31
0.0
  0
LINE
  5
180
330
1F
100
AcDbEntity
  8
0
  6
Continuous
 62
     7
370
     5
100
AcDbLine
 10
14.49843031959171
 20
2.459505524405478
 30
0.0
 11
14.48749290599208
 21
2.462478079061435
 31
0.0
  0
LINE
  5
181
330
1F
100
AcDbEntity
  8
0
  6
Continuous
 62
     7
370
     5
100
AcDbLine
 10
14.48749290599208
 20
2.462478079061435
 30
0.0
 11
14.48749290599208
 21
2.580591687134671
 31
0.0
  0
LINE
  5
182
330
1F
100
AcDbEntity
  8
0
  6
Continuous
 62
     7
370
     5
100
AcDbLine
 10
14.5624899416347
 20
2.52852758807917
 30
0.0
 11
14.56669024495188
 21
2.532627212882993
 31
0.0
  0
LINE
  5
183
330
1F
100
AcDbEntity
  8
0
  6
Continuous
 62
     7
370
     5
100
AcDbLine
 10
14.53914987458697
 20
2.564777879840431
 30
0.0
 11
14.54335017790415
 21
2.568877504644255
 31
0.0
  0
LINE
  5
184
330
1F
100
AcDbEntity
  8
0
  6
Continuous
 62
     7
370
     5
100
AcDbLine
 10
14.51139333388836
 20
2.574096062956681
 30
0.0
 11
14.51559363720555
 21
2.578195687760504
 31
0.0
  0
SPLINE
  5
185
330
1F
100
AcDbEntity
  8
0
  6
Continuous
 62
     7
370
     5
100
AcDbSpline
210
0.0
220
0.0
230
1.0
 70
     8
 71
     3
 72
     9
 73
     5
 74
     0
 42
0.0000000001
 43
0.0000000001
 40
0.0
 40
0.0
 40
0.0
 40
0.0
 40
0.8202557375751297
 40
0.9999999999999998
 40
0.9999999999999998
 40
0.9999999999999998
 40
0.9999999999999998
 10
14.52396584336513
 20
2.5241746222313
 30
0.0
 10
14.53149105027848
 20
2.521974760158653
 30
0.0
 10
14.54066527066934
 20
2.519292837958198
 30
0.0
 10
14.54768744078125
 20
2.522473584995085
 30
0.0
 10
14.54894963556863
 20
2.52304530602519
 30
0.0
  0
LINE
  5
186
330
1F
100
AcDbEntity
  8
0
  6
Continuous
 62
     7
370
     5
100
AcDbLine
 10
14.5026306229089
 20
2.530233342408192
 30
0.0
 11
14.52396584336513
 21
2.5241746222313
 31
0.0
  0
LINE
  5
187
330
1F
100
AcDbEntity
  8
0
  6
Continuous
 62
     7
370
     5
100
AcDbLine
 10
14.5026306229089
 20
2.564363417136351
 30
0.0
 11
14.5026306229089
 21
2.530233342408192
 31
0.0
  0
LINE
  5
188
330
1F
100
AcDbEntity
  8
0
  6
Continuous
 62
     7
370
     5
100
AcDbLine
 10
14.48749290599208
 20
2.580591687134671
 30
0.0
 11
14.49169320930926
 21
2.584691311938495
 31
0.0
  0
LINE
  5
189
330
1F
100
AcDbEntity
  8
0
  6
Continuous
 62
     7
370
     5
100
AcDbLine
 10
14.51976554004794
 20
2.520074997427476
 30
0.0
 11
14.52396584336513
 21
2.5241746222313
 31
0.0
  0
LINE
  5
18A
330
1F
100
AcDbEntity
  8
0
  6
Continuous
 62
     7
370
     5
100
AcDbLine
 10
14.49843031959171
 20
2.526133717604369
 30
0.0
 11
14.5026306229089
 21
2.530233342408192
 31
0.0
  0
LINE
  5
18B
330
1F
100
AcDbEntity
  8
0
  6
Continuous
 62
     7
370
     5
100
AcDbLine
 10
14.39062104315016
 20
2.511590917931257
 30
0.0
 11
14.40092338112143
 21
2.514777091920097
 31
0.0
  0
SPLINE
  5
18C
330
1F
100
AcDbEntity
  8
0
  6
Continuous
 62
     7
370
     5
100
AcDbSpline
210
0.0
220
0.0
230
1.0
 70
     8
 71
     3
 72
    10
 73
     6
 74
     0
 42
0.0000000001
 43
0.0000000001
 40
0.0
 40
0.0
 40
0.0
 40
0.0
 40
0.5593521925264234
 40
0.7798163935251015
 40
1.0
 40
1.0
 40
1.0
 40
1.0
 10
14.40092338112143
 20
2.514777091920097
 30
0.0
 10
14.4045456187824
 20
2.508398306829282
 30
0.0
 10
14.40959553249866
 20
2.499505374521063
 30
0.0
 10
14.41992020905031
 20
2.490711587415503
 30
0.0
 10
14.42509421720364
 20
2.488783261400483
 30
0.0
 10
14.42767957393483
 20
2.487819712350094
 30
0.0
  0
SPLINE
  5
18D
330
1F
100
AcDbEntity
  8
0
  6
Continuous
 62
     7
370
     5
100
AcDbSpline
210
0.0
220
0.0
230
1.0
 70
     8
 71
     3
 72
    11
 73
     7
 74
     0
 42
0.0000000001
 43
0.0000000001
 40
0.0
 40
0.0
 40
0.0
 40
0.0
 40
0.2803176815987824
 40
0.5602019457068552
 40
0.7801815250962929
 40
1.0
 40
1.0
 40
1.0
 40
1.0
 10
14.42767957393483
 20
2.487819712350094
 30
0.0
 10
14.43095635638025
 20
2.487247538289951
 30
0.0
 10
14.43750485482356
 20
2.486104074845375
 30
0.0
 10
14.44550992969408
 20
2.488701578782667
 30
0.0
 10
14.45059343477628
 20
2.49412579963208
 30
0.0
 10
14.45123462115377
 20
2.498941003520552
 30
0.0
 10
14.45155509690453
 20
2.501347723524838
 30
0.0
  0
SPLINE
  5
18E
330
1F
100
AcDbEntity
  8
0
  6
Continuous
 62
     7
370
     5
100
AcDbSpline
210
0.0
220
0.0
230
1.0
 70
     8
 71
     3
 72
     9
 73
     5
 74
     0
 42
0.0000000001
 43
0.0000000001
 40
0.0
 40
0.0
 40
0.0
 40
0.0
 40
0.5589519026591347
 40
1.0
 40
1.0
 40
1.0
 40
1.0
 10
14.45155509690453
 20
2.501347723524836
 30
0.0
 10
14.45125691054721
 20
2.503782074328197
 30
0.0
 10
14.45072343645774
 20
2.508137280548585
 30
0.0
 10
14.44827035848111
 20
2.512294592685199
 30
0.0
 10
14.44718843310687
 20
2.514128167293109
 30
0.0
  0
SPLINE
  5
18F
330
1F
100
AcDbEntity
  8
0
  6
Continuous
 62
     7
370
     5
100
AcDbSpline
210
0.0
220
0.0
230
1.0
 70
     8
 71
     3
 72
     9
 73
     5
 74
     0
 42
0.0000000001
 43
0.0000000001
 40
0.0
 40
0.0
 40
0.0
 40
0.0
 40
0.5594282525979121
 40
1.0
 40
1.0
 40
1.0
 40
1.0
 10
14.44718843310686
 20
2.514128167293111
 30
0.0
 10
14.44343367992885
 20
2.519042572373627
 30
0.0
 10
14.43672191097441
 20
2.527827264704944
 30
0.0
 10
14.42873346833419
 20
2.535537327596934
 30
0.0
 10
14.42521398620117
 20
2.538934163477836
 30
0.0
  0
SPLINE
  5
190
330
1F
100
AcDbEntity
  8
0
  6
Continuous
 62
     7
370
     5
100
AcDbSpline
210
0.0
220
0.0
230
1.0
 70
     8
 71
     3
 72
     9
 73
     5
 74
     0
 42
0.0000000001
 43
0.0000000001
 40
0.0
 40
0.0
 40
0.0
 40
0.0
 40
0.5603726139482207
 40
1.0
 40
1.0
 40
1.0
 40
1.0
 10
14.42521398620117
 20
2.538934163477836
 30
0.0
 10
14.4212413402784
 20
2.542735316866201
 30
0.0
 10
14.41415204679063
 20
2.549518577314247
 30
0.0
 10
14.40796457009358
 20
2.557095838329219
 30
0.0
 10
14.40524438588699
 20
2.560427009782665
 30
0.0
  0
SPLINE
  5
191
330
1F
100
AcDbEntity
  8
0
  6
Continuous
 62
     7
370
     5
100
AcDbSpline
210
0.0
220
0.0
230
1.0
 70
     8
 71
     3
 72
     9
 73
     5
 74
     0
 42
0.0000000001
 43
0.0000000001
 40
0.0
 40
0.0
 40
0.0
 40
0.0
 40
0.5597839111657482
 40
1.0
 40
1.0
 40
1.0
 40
1.0
 10
14.40524438588699
 20
2.560427009782665
 30
0.0
 10
14.40309886528371
 20
2.564074174401489
 30
0.0
 10
14.39926609953161
 20
2.570589482444609
 30
0.0
 10
14.39868756754819
 20
2.57730429625134
 30
0.0
 10
14.39843288846118
 20
2.580260265322588
 30
0.0
  0
SPLINE
  5
192
330
1F
100
AcDbEntity
  8
0
  6
Continuous
 62
     7
370
     5
100
AcDbSpline
210
0.0
220
0.0
230
1.0
 70
     8
 71
     3
 72
    11
 73
     7
 74
     0
 42
0.0000000001
 43
0.0000000001
 40
0.0
 40
0.0
 40
0.0
 40
0.0
 40
0.2795416989979207
 40
0.5587857755949621
 40
0.7793705224047977
 40
1.0
 40
1.0
 40
1.0
 40
1.0
 10
14.39843288846118
 20
2.580260265322588
 30
0.0
 10
14.39896109669377
 20
2.584310428590665
 30
0.0
 10
14.40001695078631
 20
2.592406442999786
 30
0.0
 10
14.40834246176296
 20
2.599248932029339
 30
0.0
 10
14.41829406981382
 20
2.601584653343111
 30
0.0
 10
14.42507384690605
 20
2.600303603144389
 30
0.0
 10
14.42846407912282
 20
2.599663013107883
 30
0.0
  0
SPLINE
  5
193
330
1F
100
AcDbEntity
  8
0
  6
Continuous
 62
     7
370
     5
100
AcDbSpline
210
0.0
220
0.0
230
1.0
 70
     8
 71
     3
 72
    10
 73
     6
 74
     0
 42
0.0000000001
 43
0.0000000001
 40
0.0
 40
0.0
 40
0.0
 40
0.0
 40
0.2796878769283343
 40
0.5594470143426371
 40
1.0
 40
1.0
 40
1.0
 40
1.0
 10
14.42846407912282
 20
2.599663013107883
 30
0.0
 10
14.43221526552532
 20
2.598288320353349
 30
0.0
 10
14.4397185940792
 20
2.595538584592151
 30
0.0
 10
14.45146335995476
 20
2.585395812173831
 30
0.0
 10
14.45733848995489
 20
2.576367586312068
 30
0.0
 10
14.4609318017704
 20
2.570845796894409
 30
0.0
  0
LINE
  5
194
330
1F
100
AcDbEntity
  8
0
  6
Continuous
 62
     7
370
     5
100
AcDbLine
 10
14.4609318017704
 20
2.570845796894409
 30
0.0
 11
14.45104454590917
 21
2.566269140806602
 31
0.0
  0
SPLINE
  5
195
330
1F
100
AcDbEntity
  8
0
  6
Continuous
 62
     7
370
     5
100
AcDbSpline
210
0.0
220
0.0
230
1.0
 70
     8
 71
     3
 72
    10
 73
     6
 74
     0
 42
0.0000000001
 43
0.0000000001
 40
0.0
 40
0.0
 40
0.0
 40
0.0
 40
0.5598028996063869
 40
0.7798688572643832
 40
1.0
 40
1.0
 40
1.0
 40
1.0
 10
14.45104454590917
 20
2.566269140806602
 30
0.0
 10
14.44759992326953
 20
2.571486880291014
 30
0.0
 10
14.44280117370328
 20
2.578755782492257
 30
0.0
 10
14.4337824126334
 20
2.585621139397443
 30
0.0
 10
14.42942351118165
 20
2.587127274184196
 30
0.0
 10
14.42724373771929
 20
2.587880453092973
 30
0.0
  0
SPLINE
  5
196
330
1F
100
AcDbEntity
  8
0
  6
Continuous
 62
     7
370
     5
100
AcDbSpline
210
0.0
220
0.0
230
1.0
 70
     8
 71
     3
 72
    11
 73
     7
 74
     0
 42
0.0000000001
 43
0.0000000001
 40
0.0
 40
0.0
 40
0.0
 40
0.0
 40
0.2802744168811016
 40
0.5599917115282858
 40
0.7799361772434861
 40
0.9999999999999998
 40
0.9999999999999998
 40
0.9999999999999998
 40
0.9999999999999998
 10
14.42724373771929
 20
2.587880453092973
 30
0.0
 10
14.42476928184452
 20
2.588368213014455
 30
0.0
 10
14.41982528875436
 20
2.589342763300863
 30
0.0
 10
14.4138720637876
 20
2.587280738797224
 30
0.0
 10
14.40996896324962
 20
2.583279903904628
 30
0.0
 10
14.40956989187459
 20
2.57961669192768
 30
0.0
 10
14.40937030206083
 20
2.577784589096131
 30
0.0
  0
SPLINE
  5
197
330
1F
100
AcDbEntity
  8
0
  6
Continuous
 62
     7
370
     5
100
AcDbSpline
210
0.0
220
0.0
230
1.0
 70
     8
 71
     3
 72
    10
 73
     6
 74
     0
 42
0.0000000001
 43
0.0000000001
 40
0.0
 40
0.0
 40
0.0
 40
0.0
 40
0.2799436831039776
 40
0.5597704290033545
 40
1.0
 40
1.0
 40
1.0
 40
1.0
 10
14.40937030206082
 20
2.577784589096133
 30
0.0
 10
14.40951304902277
 20
2.576097415810707
 30
0.0
 10
14.40979848331887
 20
2.572723774000626
 30
0.0
 10
14.41243804290357
 20
2.566572516965219
 30
0.0
 10
14.41551868893248
 20
2.562705099742361
 30
0.0
 10
14.41740214089016
 20
2.560340629929469
 30
0.0
  0
SPLINE
  5
198
330
1F
100
AcDbEntity
  8
0
  6
Continuous
 62
     7
370
     5
100
AcDbSpline
210
0.0
220
0.0
230
1.0
 70
     8
 71
     3
 72
     9
 73
     5
 74
     0
 42
0.0000000001
 43
0.0000000001
 40
0.0
 40
0.0
 40
0.0
 40
0.0
 40
0.5598347809866735
 40
1.0
 40
1.0
 40
1.0
 40
1.0
 10
14.41740214089016
 20
2.560340629929469
 30
0.0
 10
14.42040814429811
 20
2.557261826579571
 30
0.0
 10
14.4257775916959
 20
2.551762340919759
 30
0.0
 10
14.43133795377934
 20
2.546461804706363
 30
0.0
 10
14.43378543177358
 20
2.54412869302311
 30
0.0
  0
SPLINE
  5
199
330
1F
100
AcDbEntity
  8
0
  6
Continuous
 62
     7
370
     5
100
AcDbSpline
210
0.0
220
0.0
230
1.0
 70
     8
 71
     3
 72
    10
 73
     6
 74
     0
 42
0.0000000001
 43
0.0000000001
 40
0.0
 40
0.0
 40
0.0
 40
0.0
 40
0.5601042881524075
 40
0.7802842055010851
 40
1.0
 40
1.0
 40
1.0
 40
1.0
 10
14.43378543177357
 20
2.544128693023112
 30
0.0
 10
14.4414229807308
 20
2.536569369811678
 30
0.0
 10
14.45206289002289
 20
2.526038437214083
 30
0.0
 10
14.46112500340732
 20
2.509360443134867
 30
0.0
 10
14.46203699554518
 20
2.501923890663774
 30
0.0
 10
14.46249251050416
 20
2.498209537487531
 30
0.0
  0
SPLINE
  5
19A
330
1F
100
AcDbEntity
  8
0
  6
Continuous
 62
     7
370
     5
100
AcDbSpline
210
0.0
220
0.0
230
1.0
 70
     8
 71
     3
 72
    11
 73
     7
 74
     0
 42
0.0000000001
 43
0.0000000001
 40
0.0
 40
0.0
 40
0.0
 40
0.0
 40
0.279173369412294
 40
0.5590432604231723
 40
0.7794172141087326
 40
0.9999999999999998
 40
0.9999999999999998
 40
0.9999999999999998
 40
0.9999999999999998
 10
14.46249251050416
 20
2.498209537487531
 30
0.0
 10
14.46181151955205
 20
2.493563575599014
 30
0.0
 10
14.46044783861432
 20
2.484260060412645
 30
0.0
 10
14.45070724643871
 20
2.476614368956013
 30
0.0
 10
14.43945150665979
 20
2.473427684767845
 30
0.0
 10
14.43160479021568
 20
2.474946002649505
 30
0.0
 10
14.42767957393483
 20
2.475705521119564
 30
0.0
  0
SPLINE
  5
19B
330
1F
100
AcDbEntity
  8
0
  6
Continuous
 62
     7
370
     5
100
AcDbSpline
210
0.0
220
0.0
230
1.0
 70
     8
 71
     3
 72
    10
 73
     6
 74
     0
 42
0.0000000001
 43
0.0000000001
 40
0.0
 40
0.0
 40
0.0
 40
0.0
 40
0.2798841128377618
 40
0.5596402853630464
 40
1.0
 40
1.0
 40
1.0
 40
1.0
 10
14.42767957393483
 20
2.475705521119564
 30
0.0
 10
14.42317049787336
 20
2.477368564284136
 30
0.0
 10
14.41415440693425
 20
2.480693890404854
 30
0.0
 10
14.40026583501385
 20
2.493372730794734
 30
0.0
 10
14.39428090276828
 20
2.504677756055035
 30
0.0
 10
14.39062104315016
 20
2.511590917931257
 30
0.0
  0
LINE
  5
19C
330
1F
100
AcDbEntity
  8
0
  6
Continuous
 62
     7
370
     5
100
AcDbLine
 10
14.4609318017704
 20
2.570845796894409
 30
0.0
 11
14.46513210508759
 21
2.574945421698233
 31
0.0
  0
LINE
  5
19D
330
1F
100
AcDbEntity
  8
0
  6
Continuous
 62
     7
370
     5
100
AcDbLine
 10
14.42846407912282
 20
2.599663013107883
 30
0.0
 11
14.43266438244
 21
2.603762637911707
 31
0.0
  0
LINE
  5
19E
330
1F
100
AcDbEntity
  8
0
  6
Continuous
 62
     7
370
     5
100
AcDbLine
 10
14.40937030206082
 20
2.577784589096133
 30
0.0
 11
14.413570605378
 21
2.581884213899956
 31
0.0
  0
LINE
  5
19F
330
1F
100
AcDbEntity
  8
0
  6
Continuous
 62
     7
370
     5
100
AcDbLine
 10
14.49843031959171
 20
2.459505524405478
 30
0.0
 11
14.5026306229089
 21
2.463605149209302
 31
0.0
  0
LINE
  5
1A0
330
1F
100
AcDbEntity
  8
0
  6
Continuous
 62
     7
370
     5
100
AcDbLine
 10
14.46249251050416
 20
2.498209537487531
 30
0.0
 11
14.46669281382135
 21
2.502309162291354
 31
0.0
  0
LINE
  5
1A1
330
1F
100
AcDbEntity
  8
0
  6
Continuous
 62
     7
370
     5
100
AcDbLine
 10
14.43378543177357
 20
2.544128693023112
 30
0.0
 11
14.43798573509075
 21
2.548228317826935
 31
0.0
  0
LINE
  5
1A2
330
1F
100
AcDbEntity
  8
0
  6
Continuous
 62
     7
370
     5
100
AcDbLine
 10
14.41740214089016
 20
2.560340629929469
 30
0.0
 11
14.42160244420734
 21
2.564440254733292
 31
0.0
  0
LINE
  5
1A3
330
1F
100
AcDbEntity
  8
0
  6
Continuous
 62
     7
370
     5
100
AcDbLine
 10
14.37187178423951
 20
2.612015030566062
 30
0.0
 11
14.37607208755669
 21
2.616114655369886
 31
0.0
  0
LINE
  5
1A4
330
1F
100
AcDbEntity
  8
0
  6
Continuous
 62
     7
370
     5
100
AcDbLine
 10
14.36093852146096
 20
2.614986457117786
 30
0.0
 11
14.37187178423951
 21
2.612015030566062
 31
0.0
  0
LINE
  5
1A5
330
1F
100
AcDbEntity
  8
0
  6
Continuous
 62
     7
370
     5
100
AcDbLine
 10
14.36093852146096
 20
2.614986457117786
 30
0.0
 11
14.36513882477815
 21
2.61908608192161
 31
0.0
  0
LINE
  5
1A6
330
1F
100
AcDbEntity
  8
0
  6
Continuous
 62
     7
370
     5
100
AcDbLine
 10
14.37187178423951
 20
2.540678380345732
 30
0.0
 11
14.37607208755669
 21
2.544778005149556
 31
0.0
  0
LINE
  5
1A7
330
1F
100
AcDbEntity
  8
0
  6
Continuous
 62
     7
370
     5
100
AcDbLine
 10
14.37187178423951
 20
2.612015030566062
 30
0.0
 11
14.37187178423951
 21
2.540678380345732
 31
0.0
  0
LINE
  5
1A8
330
1F
100
AcDbEntity
  8
0
  6
Continuous
 62
     7
370
     5
100
AcDbLine
 10
14.29375333112935
 20
2.633245952245429
 30
0.0
 11
14.304690744729
 21
2.63027339758947
 31
0.0
  0
LINE
  5
1A9
330
1F
100
AcDbEntity
  8
0
  6
Continuous
 62
     7
370
     5
100
AcDbLine
 10
14.304690744729
 20
2.63027339758947
 30
0.0
 11
14.304690744729
 21
2.559504608431427
 31
0.0
  0
SPLINE
  5
1AA
330
1F
100
AcDbEntity
  8
0
  6
Continuous
 62
     7
370
     5
100
AcDbSpline
210
0.0
220
0.0
230
1.0
 70
     8
 71
     3
 72
     9
 73
     5
 74
     0
 42
0.0000000001
 43
0.0000000001
 40
0.0
 40
0.0
 40
0.0
 40
0.0
 40
0.5601297000731825
 40
1.0
 40
1.0
 40
1.0
 40
1.0
 10
14.304690744729
 20
2.559504608431427
 30
0.0
 10
14.30468056762384
 20
2.55657084467424
 30
0.0
 10
14.30466239842989
 20
2.551333193900132
 30
0.0
 10
14.30501936972645
 20
2.546005493664408
 30
0.0
 10
14.30517639079774
 20
2.543661996563799
 30
0.0
  0
SPLINE
  5
1AB
330
1F
100
AcDbEntity
  8
0
  6
Continuous
 62
     7
370
     5
100
AcDbSpline
210
0.0
220
0.0
230
1.0
 70
     8
 71
     3
 72
    10
 73
     6
 74
     0
 42
0.0000000001
 43
0.0000000001
 40
0.0
 40
0.0
 40
0.0
 40
0.0
 40
0.2810975963257453
 40
0.5608694483811347
 40
1.0
 40
1.0
 40
1.0
 40
1.0
 10
14.30517639079774
 20
2.543661996563799
 30
0.0
 10
14.30595329697462
 20
2.539838751999467
 30
0.0
 10
14.30750344519561
 20
2.532210294489156
 30
0.0
 10
14.31794223762684
 20
2.520086650573901
 30
0.0
 10
14.32753700585393
 20
2.515962590819317
 30
0.0
 10
14.33339782345959
 20
2.513443471915723
 30
0.0
  0
SPLINE
  5
1AC
330
1F
100
AcDbEntity
  8
0
  6
Continuous
 62
     7
370
     5
100
AcDbSpline
210
0.0
220
0.0
230
1.0
 70
     8
 71
     3
 72
    11
 73
     7
 74
     0
 42
0.0000000001
 43
0.0000000001
 40
0.0
 40
0.0
 40
0.0
 40
0.0
 40
0.2797625809998761
 40
0.5594145540396307
 40
0.779553467381933
 40
1.0
 40
1.0
 40
1.0
 40
1.0
 10
14.33339782345959
 20
2.513443471915723
 30
0.0
 10
14.33675755072608
 20
2.512880674517901
 30
0.0
 10
14.34347567694495
 20
2.511755302231906
 30
0.0
 10
14.3516062177094
 20
2.514540232747743
 30
0.0
 10
14.35714573325934
 20
2.519608356940834
 30
0.0
 10
14.35884369933047
 20
2.524014526558424
 30
0.0
 10
14.35969327513084
 20
2.526219149573619
 30
0.0
  0
SPLINE
  5
1AD
330
1F
100
AcDbEntity
  8
0
  6
Continuous
 62
     7
370
     5
100
AcDbSpline
210
0.0
220
0.0
230
1.0
 70
     8
 71
     3
 72
     9
 73
     5
 74
     0
 42
0.0000000001
 43
0.0000000001
 40
0.0
 40
0.0
 40
0.0
 40
0.0
 40
0.5596221718417409
 40
1.0
 40
1.0
 40
1.0
 40
1.0
 10
14.35969327513084
 20
2.526219149573619
 30
0.0
 10
14.36015435702325
 20
2.529501025239943
 30
0.0
 10
14.36097827343617
 20
2.535365474204715
 30
0.0
 10
14.36095067513908
 20
2.541511218454577
 30
0.0
 10
14.36093852146096
 20
2.544217667959743
 30
0.0
  0
LINE
  5
1AE
330
1F
100
AcDbEntity
  8
0
  6
Continuous
 62
     7
370
     5
100
AcDbLine
 10
14.36093852146096
 20
2.544217667959743
 30
0.0
 11
14.36093852146096
 21
2.614986457117786
 31
0.0
  0
SPLINE
  5
1AF
330
1F
100
AcDbEntity
  8
0
  6
Continuous
 62
     7
370
     5
100
AcDbSpline
210
0.0
220
0.0
230
1.0
 70
     8
 71
     3
 72
    11
 73
     7
 74
     0
 42
0.0000000001
 43
0.0000000001
 40
0.0
 40
0.0
 40
0.0
 40
0.0
 40
0.2816416534315868
 40
0.5600847457955705
 40
0.7800609051740626
 40
1.0
 40
1.0
 40
1.0
 40
1.0
 10
14.37187178423951
 20
2.540678380345732
 30
0.0
 10
14.37177004526271
 20
2.534125084288288
 30
0.0
 10
14.37156772274305
 20
2.52109291695176
 30
0.0
 10
14.3642107378086
 20
2.505651726594646
 30
0.0
 10
14.35002721407256
 20
2.498476341007829
 30
0.0
 10
14.33934743419424
 20
2.500267796890179
 30
0.0
 10
14.33400799416135
 20
2.501163449362828
 30
0.0
  0
SPLINE
  5
1B0
330
1F
100
AcDbEntity
  8
0
  6
Continuous
 62
     7
370
     5
100
AcDbSpline
210
0.0
220
0.0
230
1.0
 70
     8
 71
     3
 72
    11
 73
     7
 74
     0
 42
0.0000000001
 43
0.0000000001
 40
0.0
 40
0.0
 40
0.0
 40
0.0
 40
0.2802097521940965
 40
0.559880596447775
 40
0.7799519867948688
 40
0.9999999999999998
 40
0.9999999999999998
 40
0.9999999999999998
 40
0.9999999999999998
 10
14.33400799416135
 20
2.501163449362828
 30
0.0
 10
14.32937952671007
 20
2.502727147485623
 30
0.0
 10
14.32013149341721
 20
2.505851536379307
 30
0.0
 10
14.30847689527538
 20
2.51488979058657
 30
0.0
 10
14.29992437300967
 20
2.525473191037877
 30
0.0
 10
14.29725755082999
 20
2.532776779530317
 30
0.0
 10
14.29592421056488
 20
2.536428379809823
 30
0.0
  0
SPLINE
  5
1B1
330
1F
100
AcDbEntity
  8
0
  6
Continuous
 62
     7
370
     5
100
AcDbSpline
210
0.0
220
0.0
230
1.0
 70
     8
 71
     3
 72
     9
 73
     5
 74
     0
 42
0.0000000001
 43
0.0000000001
 40
0.0
 40
0.0
 40
0.0
 40
0.0
 40
0.5594955443363851
 40
1.0
 40
1.0
 40
1.0
 40
1.0
 10
14.29592421056488
 20
2.536428379809823
 30
0.0
 10
14.2951451996314
 20
2.541253921215293
 30
0.0
 10
14.29375285443516
 20
2.549878728784026
 30
0.0
 10
14.29375318535686
 20
2.558230367818375
 30
0.0
 10
14.29375333112935
 20
2.561909302025099
 30
0.0
  0
LINE
  5
1B2
330
1F
100
AcDbEntity
  8
0
  6
Continuous
 62
     7
370
     5
100
AcDbLine
 10
14.29375333112935
 20
2.561909302025099
 30
0.0
 11
14.29375333112935
 21
2.633245952245429
 31
0.0
  0
LINE
  5
1B3
330
1F
100
AcDbEntity
  8
0
  6
Continuous
 62
     7
370
     5
100
AcDbLine
 10
14.42767957393483
 20
2.487819712350094
 30
0.0
 11
14.43187987725201
 21
2.491919337153918
 31
0.0
  0
LINE
  5
1B4
330
1F
100
AcDbEntity
  8
0
  6
Continuous
 62
     7
370
     5
100
AcDbLine
 10
14.40092338112143
 20
2.514777091920097
 30
0.0
 11
14.40512368443862
 21
2.518876716723921
 31
0.0
  0
LINE
  5
1B5
330
1F
100
AcDbEntity
  8
0
  6
Continuous
 62
     7
370
     5
100
AcDbLine
 10
14.304690744729
 20
2.559504608431427
 30
0.0
 11
14.30889104804618
 21
2.56360423323525
 31
0.0
  0
LINE
  5
1B6
330
1F
100
AcDbEntity
  8
0
  6
Continuous
 62
     7
370
     5
100
AcDbLine
 10
14.304690744729
 20
2.63027339758947
 30
0.0
 11
14.30889104804618
 21
2.634373022393293
 31
0.0
  0
LINE
  5
1B7
330
1F
100
AcDbEntity
  8
0
  6
Continuous
 62
     7
370
     5
100
AcDbLine
 10
14.29375333112935
 20
2.633245952245429
 30
0.0
 11
14.29795363444654
 21
2.637345577049252
 31
0.0
  0
LINE
  5
1B8
330
1F
100
AcDbEntity
  8
0
  6
Continuous
 62
     7
370
     5
100
AcDbLine
 10
13.29619484018724
 20
1.293103990853473
 30
0.0
 11
13.34218593798004
 21
1.280604595943409
 31
0.0
  0
ARC
  5
1B9
330
1F
100
AcDbEntity
  8
0
  6
Continuous
 62
     7
370
     5
100
AcDbCircle
 10
13.17145521052699
 20
1.398093677681538
 30
0.0
 40
0.1630423550738663
100
AcDbArc
 50
319.9136647271493
 51
5.2492456315885
  0
LINE
  5
1BA
330
1F
100
AcDbEntity
  8
0
  6
Continuous
 62
     7
370
     5
100
AcDbLine
 10
14.39062104315016
 20
2.511590917931257
 30
0.0
 11
14.39482134646735
 21
2.515690542735081
 31
0.0
  0
LINE
  5
1BB
330
1F
100
AcDbEntity
  8
0
  6
Continuous
 62
     7
370
     5
100
AcDbLine
 10
15.43599913042101
 20
1.327351909144694
 30
0.0
 11
15.41173100786246
 21
1.303665477553866
 31
0.0
  0
LWPOLYLINE
  5
1BC
330
1F
100
AcDbEntity
  8
0
  6
Continuous
 62
     7
370
     5
100
AcDbPolyline
 90
        3
 70
   128
 43
0.0
 10
15.47896843045269
 20
1.329339651671568
 10
15.46375152029851
 20
1.325159769291984
 10
15.43599913042101
 20
1.327351909144694
  0
LINE
  5
1BD
330
1F
100
AcDbEntity
  8
0
  6
Continuous
 62
     7
370
     5
100
AcDbLine
 10
13.01617763074763
 20
0.2387541826195195
 30
0.0
 11
13.06216872854043
 21
0.2262547877094555
 31
0.0
  0
ARC
  5
1BE
330
1F
100
AcDbEntity
  8
0
  6
Continuous
 62
     7
370
     5
100
AcDbCircle
 10
12.89143989917852
 20
0.343743087603577
 30
0.0
 40
0.1630403994314318
100
AcDbArc
 50
319.9134454090622
 51
5.249581898401214
  0
LINE
  5
1BF
330
1F
100
AcDbEntity
  8
0
  6
Continuous
 62
     7
370
     5
100
AcDbLine
 10
14.33339782345959
 20
2.513443471915723
 30
0.0
 11
14.33759812677678
 21
2.517543096719546
 31
0.0
  0
ARC
  5
1C0
330
1F
100
AcDbEntity
  8
0
  6
Continuous
 62
     7
370
     5
100
AcDbCircle
 10
15.77368302186068
 20
1.057332429464896
 30
0.0
 40
0.080689431868016
100
AcDbArc
 50
315.3502021624102
 51
1.919377672669784
  0
LINE
  5
1C1
330
1F
100
AcDbEntity
  8
0
  6
Continuous
 62
     7
370
     5
100
AcDbLine
 10
14.30517639079774
 20
2.543661996563799
 30
0.0
 11
14.30937669411493
 21
2.547761621367623
 31
0.0
  0
LINE
  5
1C2
330
1F
100
AcDbEntity
  8
0
  6
Continuous
 62
     7
370
     5
100
AcDbLine
 10
13.79042212955914
 20
2.874651421092059
 30
0.0
 11
13.78129862478038
 21
2.877130994197865
 31
0.0
  0
LINE
  5
1C3
330
1F
100
AcDbEntity
  8
0
  6
Continuous
 62
     7
370
     5
100
AcDbLine
 10
13.29619484018724
 20
1.293103990853473
 30
0.0
 11
13.27936419433598
 21
1.276676764535339
 31
0.0
  0
LINE
  5
1C4
330
1F
100
AcDbEntity
  8
0
  6
Continuous
 62
     7
370
     5
100
AcDbLine
 10
13.01617763074763
 20
0.2387541826195195
 30
0.0
 11
12.99934698489636
 21
0.2223269563013834
 31
0.0
  0
LINE
  5
1C5
330
1F
100
AcDbEntity
  8
0
  6
Continuous
 62
     7
370
     5
100
AcDbLine
 10
15.38823978283943
 20
1.340331876458338
 30
0.0
 11
15.36397166028088
 21
1.31664544486751
 31
0.0
  0
ARC
  5
1C6
330
1F
100
AcDbEntity
  8
0
  6
Continuous
 62
     7
370
     5
100
AcDbCircle
 10
15.4093654176576
 20
1.429815520122401
 30
0.0
 40
0.0919435420781022
100
AcDbArc
 50
163.9522078213737
 51
256.7166180204888
  0
LINE
  5
1C7
330
1F
100
AcDbEntity
  8
0
  6
Continuous
 62
     7
370
     5
100
AcDbLine
 10
13.85122151351242
 20
2.884333081296242
 30
0.0
 11
13.87548963607097
 21
2.90801951288707
 31
0.0
  0
LWPOLYLINE
  5
1C8
330
1F
100
AcDbEntity
  8
0
  6
Continuous
 62
     7
370
     5
100
AcDbPolyline
 90
        3
 70
   128
 43
0.0
 10
13.88683798095955
 20
2.912268951041442
 10
13.88478332451484
 20
2.911299334571429
 10
13.87548963607097
 20
2.90801951288707
  0
SPLINE
  5
1C9
330
1F
100
AcDbEntity
  8
0
  6
Continuous
 62
     7
370
     5
100
AcDbSpline
210
0.0
220
0.0
230
1.0
 70
     8
 71
     3
 72
    12
 73
     8
 74
     0
 42
0.0000000001
 43
0.0000000001
 40
0.0
 40
0.0
 40
0.0
 40
0.0
 40
0.1474367823982706
 40
0.302057969732106
 40
0.5960004769570428
 40
0.7841932491887453
 40
1.0
 40
1.0
 40
1.0
 40
1.0
 10
13.77225481523525
 20
2.895661888645231
 30
0.0
 10
13.77667500055498
 20
2.896616321072509
 30
0.0
 10
13.78573076114474
 20
2.898571694192709
 30
0.0
 10
13.80629132878144
 20
2.902038078087495
 30
0.0
 10
13.82981113233644
 20
2.906015327122038
 30
0.0
 10
13.85508847622966
 20
2.90827481094385
 30
0.0
 10
13.86838627457906
 20
2.908108403636402
 30
0.0
 10
13.87548963607097
 20
2.90801951288707
 30
0.0
  0
SPLINE
  5
1CA
330
1F
100
AcDbEntity
  8
0
  6
Continuous
 62
     7
370
     5
100
AcDbSpline
210
0.0
220
0.0
230
1.0
 70
     8
 71
     3
 72
    15
 73
    11
 74
     0
 42
0.0000000001
 43
0.0000000001
 40
0.0
 40
0.0
 40
0.0
 40
0.0
 40
0.1480018095759382
 40
0.2794516881506577
 40
0.3963750168128921
 40
0.50172178550072
 40
0.5934338433280694
 40
0.706042061332218
 40
0.8412688574583366
 40
1.0
 40
1.0
 40
1.0
 40
1.0
 10
13.79042212955914
 20
2.874651421092059
 30
0.0
 10
13.79209341505944
 20
2.874466399483292
 30
0.0
 10
13.79524907616776
 20
2.874117048343183
 30
0.0
 10
13.80196928708621
 20
2.87410764021557
 30
0.0
 10
13.80921047106302
 20
2.874547668770885
 30
0.0
 10
13.81657339404204
 20
2.875455593089199
 30
0.0
 10
13.82415663299338
 20
2.877255205845829
 30
0.0
 10
13.83236787923556
 20
2.879543484520348
 30
0.0
 10
13.84188210136567
 20
2.882128697642956
 30
0.0
 10
13.84794673702177
 20
2.883560135028238
 30
0.0
 10
13.85122151351242
 20
2.884333081296242
 30
0.0
  0
SPLINE
  5
1CB
330
1F
100
AcDbEntity
  8
0
  6
Continuous
 62
     7
370
     5
100
AcDbSpline
210
0.0
220
0.0
230
1.0
 70
     8
 71
     3
 72
    15
 73
    11
 74
     0
 42
0.0000000001
 43
0.0000000001
 40
0.0
 40
0.0
 40
0.0
 40
0.0
 40
0.1587312379611471
 40
0.2939579585960479
 40
0.4065661179768922
 40
0.4982781999699191
 40
0.603624973627715
 40
0.7205481989174471
 40
0.8519980474758853
 40
0.9999999999999998
 40
0.9999999999999998
 40
0.9999999999999998
 40
0.9999999999999998
 10
13.85122151351243
 20
2.543565843065574
 30
0.0
 10
13.84794673821486
 20
2.545839059525704
 30
0.0
 10
13.84188210800279
 20
2.550048880343903
 30
0.0
 10
13.83236787917632
 20
2.553943040990549
 30
0.0
 10
13.82415662949383
 20
2.555804386174879
 30
0.0
 10
13.81657339496418
 20
2.555837091040215
 30
0.0
 10
13.80921047522637
 20
2.553652736245643
 30
0.0
 10
13.80196928389902
 20
2.549241507575774
 30
0.0
 10
13.79524907253823
 20
2.542620465515168
 30
0.0
 10
13.79209341441651
 20
2.536909040824746
 30
0.0
 10
13.79042212955914
 20
2.533884182861394
 30
0.0
  0
LINE
  5
1CC
330
1F
100
AcDbEntity
  8
0
  6
Continuous
 62
     7
370
     5
100
AcDbLine
 10
15.43599913042101
 20
1.327351909144694
 30
0.0
 11
15.38823978283943
 21
1.340331876458338
 31
0.0
  0
LINE
  5
1CD
330
1F
100
AcDbEntity
  8
0
  6
Continuous
 62
     7
370
     5
100
AcDbLine
 10
13.79042212955914
 20
1.910338195884243
 30
0.0
 11
13.78129862478038
 21
1.912817768990047
 31
0.0
  0
LINE
  5
1CE
330
1F
100
AcDbEntity
  8
0
  6
Continuous
 62
     7
370
     5
100
AcDbLine
 10
13.85122151351242
 20
1.920019856088424
 30
0.0
 11
13.87548963607097
 21
1.943706287679252
 31
0.0
  0
LWPOLYLINE
  5
1CF
330
1F
100
AcDbEntity
  8
0
  6
Continuous
 62
     7
370
     5
100
AcDbPolyline
 90
        3
 70
   128
 43
0.0
 10
13.88683798095955
 20
1.947955717976348
 10
13.88478332451484
 20
1.946986109363611
 10
13.87548963607097
 20
1.943706287679252
  0
SPLINE
  5
1D0
330
1F
100
AcDbEntity
  8
0
  6
Continuous
 62
     7
370
     5
100
AcDbSpline
210
0.0
220
0.0
230
1.0
 70
     8
 71
     3
 72
    15
 73
    11
 74
     0
 42
0.0000000001
 43
0.0000000001
 40
0.0
 40
0.0
 40
0.0
 40
0.0
 40
0.1587316581622788
 40
0.2939581993844316
 40
0.4065662263260511
 40
0.4982781873808557
 40
0.6036249215872465
 40
0.7205477780220454
 40
0.8519978128708771
 40
1.0
 40
1.0
 40
1.0
 40
1.0
 10
13.85122151351242
 20
1.57925261785776
 30
0.0
 10
13.84794674262266
 20
1.581525863790135
 30
0.0
 10
13.84188213166039
 20
1.585735731492498
 30
0.0
 10
13.83236787610986
 20
1.589629840647559
 30
0.0
 10
13.8241566315677
 20
1.591491183375638
 30
0.0
 10
13.81657338914644
 20
1.591523774812379
 30
0.0
 10
13.80921049037979
 20
1.589339475174317
 30
0.0
 10
13.80196926170236
 20
1.584928370478536
 30
0.0
 10
13.79524907589754
 20
1.578307258158156
 30
0.0
 10
13.79209341566596
 20
1.572595821953832
 30
0.0
 10
13.79042212955914
 20
1.569570957653578
 30
0.0
  0
SPLINE
  5
1D1
330
1F
100
AcDbEntity
  8
0
  6
Continuous
 62
     7
370
     5
100
AcDbSpline
210
0.0
220
0.0
230
1.0
 70
     8
 71
     3
 72
    15
 73
    11
 74
     0
 42
0.0000000001
 43
0.0000000001
 40
0.0
 40
0.0
 40
0.0
 40
0.0
 40
0.1480018012902278
 40
0.2794515376058732
 40
0.3963749522699299
 40
0.5017217473201149
 40
0.5934337613438485
 40
0.7060421165985261
 40
0.841269092821493
 40
0.9999999999999998
 40
0.9999999999999998
 40
0.9999999999999998
 40
0.9999999999999998
 10
13.79042212955914
 20
1.910338195884243
 30
0.0
 10
13.79209341385113
 20
1.910153172510185
 30
0.0
 10
13.79524907115462
 20
1.909803818205561
 30
0.0
 10
13.80196929536628
 20
1.909794471629815
 30
0.0
 10
13.8092104688776
 20
1.910234456304609
 30
0.0
 10
13.8165733903848
 20
1.911142423692234
 30
0.0
 10
13.82415664084107
 20
1.91294195507972
 30
0.0
 10
13.8323678795612
 20
1.915230287466514
 30
0.0
 10
13.84188208521266
 20
1.917815525518195
 30
0.0
 10
13.84794673411121
 20
1.919246929083349
 30
0.0
 10
13.85122151351242
 20
1.920019856088424
 30
0.0
  0
SPLINE
  5
1D2
330
1F
100
AcDbEntity
  8
0
  6
Continuous
 62
     7
370
     5
100
AcDbSpline
210
0.0
220
0.0
230
1.0
 70
     8
 71
     3
 72
    12
 73
     8
 74
     0
 42
0.0000000001
 43
0.0000000001
 40
0.0
 40
0.0
 40
0.0
 40
0.0
 40
0.1474367422870073
 40
0.3020579471870678
 40
0.5960004775193788
 40
0.7841933197042997
 40
1.0
 40
1.0
 40
1.0
 40
1.0
 10
13.77225481523525
 20
1.931348643794224
 30
0.0
 10
13.77667500111182
 20
1.932303094965434
 30
0.0
 10
13.78573076463012
 20
1.93425850687291
 30
0.0
 10
13.8062913268278
 20
1.937724892141101
 30
0.0
 10
13.82981113880515
 20
1.941702100867203
 30
0.0
 10
13.85508846699105
 20
1.943961647985951
 30
0.0
 10
13.86838627286878
 20
1.943795200084162
 30
0.0
 10
13.87548963607097
 20
1.943706287679252
 30
0.0
  0
LINE
  5
1D3
330
1F
100
AcDbEntity
  8
0
  6
Continuous
 62
     7
370
     5
100
AcDbLine
 10
15.19101351825234
 20
0.508671290721595
 30
0.0
 11
15.1667453956938
 21
0.4849848591307668
 31
0.0
  0
ARC
  5
1D4
330
1F
100
AcDbEntity
  8
0
  6
Continuous
 62
     7
370
     5
100
AcDbCircle
 10
15.27719404213787
 20
0.5100198406795366
 30
0.0
 40
0.0861910742720622
100
AcDbArc
 50
148.3859034293893
 51
180.8964892768821
  0
LINE
  5
1D5
330
1F
100
AcDbEntity
  8
0
  6
Continuous
 62
     7
370
     5
100
AcDbLine
 10
14.90534985929943
 20
0.6905265831005555
 30
0.0
 11
14.88108173674089
 21
0.6668401515097271
 31
0.0
  0
LWPOLYLINE
  5
1D6
330
1F
100
AcDbEntity
  8
0
  6
Continuous
 62
     7
370
     5
100
AcDbPolyline
 90
        3
 70
   128
 43
0.0
 10
14.94831915933112
 20
0.6925144513438501
 10
14.93310224917693
 20
0.6883344432478475
 10
14.90534985929943
 20
0.6905265831005555
  0
LINE
  5
1D7
330
1F
100
AcDbEntity
  8
0
  6
Continuous
 62
     7
370
     5
100
AcDbLine
 10
15.1667453956938
 20
0.315074342327289
 30
0.0
 11
15.19101351825234
 21
0.3387607739181173
 31
0.0
  0
LINE
  5
1D8
330
1F
100
AcDbEntity
  8
0
  6
Continuous
 62
     7
370
     5
100
AcDbLine
 10
15.19101351825234
 20
0.508671290721595
 30
0.0
 11
15.19101351825234
 21
0.3387607739181173
 31
0.0
  0
LINE
  5
1D9
330
1F
100
AcDbEntity
  8
0
  6
Continuous
 62
     7
370
     5
100
AcDbLine
 10
14.85759051171785
 20
0.7035065504142014
 30
0.0
 11
14.83332238915931
 21
0.6798201188233732
 31
0.0
  0
ARC
  5
1DA
330
1F
100
AcDbEntity
  8
0
  6
Continuous
 62
     7
370
     5
100
AcDbCircle
 10
14.87872043292407
 20
0.7929961718824483
 30
0.0
 40
0.0919503448645585
100
AcDbArc
 50
163.9564900470338
 51
256.7148744138366
  0
LINE
  5
1DB
330
1F
100
AcDbEntity
  8
0
  6
Continuous
 62
     7
370
     5
100
AcDbLine
 10
14.90534985929943
 20
0.6905265831005555
 30
0.0
 11
14.85759051171785
 21
0.7035065504142014
 31
0.0
  0
LINE
  5
1DC
330
1F
100
AcDbEntity
  8
0
  6
Continuous
 62
     7
370
     5
100
AcDbLine
 10
13.79042212955914
 20
0.946024939247321
 30
0.0
 11
13.78129862478038
 21
0.9485045123531266
 31
0.0
  0
LINE
  5
1DD
330
1F
100
AcDbEntity
  8
0
  6
Continuous
 62
     7
370
     5
100
AcDbLine
 10
13.85122151351242
 20
0.9557065994515035
 30
0.0
 11
13.87548963607097
 21
0.9793930310423316
 31
0.0
  0
LWPOLYLINE
  5
1DE
330
1F
100
AcDbEntity
  8
0
  6
Continuous
 62
     7
370
     5
100
AcDbPolyline
 90
        3
 70
   128
 43
0.0
 10
13.88683798095955
 20
0.9836425870558446
 10
13.88478332451484
 20
0.9826729155848981
 10
13.87548963607097
 20
0.9793930310423316
  0
SPLINE
  5
1DF
330
1F
100
AcDbEntity
  8
0
  6
Continuous
 62
     7
370
     5
100
AcDbSpline
210
0.0
220
0.0
230
1.0
 70
     8
 71
     3
 72
    15
 73
    11
 74
     0
 42
0.0000000001
 43
0.0000000001
 40
0.0
 40
0.0
 40
0.0
 40
0.0
 40
0.1480013581673387
 40
0.2794514939743578
 40
0.396374930909648
 40
0.5017217460259857
 40
0.5934337775187581
 40
0.7060424175060615
 40
0.8412690625868894
 40
1.0
 40
1.0
 40
1.0
 40
1.0
 10
13.79042212955914
 20
0.946024939247321
 30
0.0
 10
13.79209341896591
 20
0.9458399513634102
 30
0.0
 10
13.79524909488245
 20
0.945490663078719
 30
0.0
 10
13.80196928132568
 20
0.9454811923633194
 30
0.0
 10
13.80921047089296
 20
0.9459212030789299
 30
0.0
 10
13.81657338815796
 20
0.9468291714816485
 30
0.0
 10
13.82415665413502
 20
0.9486286808194318
 30
0.0
 10
13.83236784898476
 20
0.9509171319831331
 30
0.0
 10
13.84188210599864
 20
0.9535022388928522
 30
0.0
 10
13.84794673881779
 20
0.9549336613218962
 30
0.0
 10
13.85122151351242
 20
0.9557065994515035
 30
0.0
  0
SPLINE
  5
1E0
330
1F
100
AcDbEntity
  8
0
  6
Continuous
 62
     7
370
     5
100
AcDbSpline
210
0.0
220
0.0
230
1.0
 70
     8
 71
     3
 72
    12
 73
     8
 74
     0
 42
0.0000000001
 43
0.0000000001
 40
0.0
 40
0.0
 40
0.0
 40
0.0
 40
0.1474368863407657
 40
0.3020580750968868
 40
0.5960006392542756
 40
0.7841933422365904
 40
1.0
 40
1.0
 40
1.0
 40
1.0
 10
13.77225481523525
 20
0.967035512873721
 30
0.0
 10
13.77667499953799
 20
0.9679899121358744
 30
0.0
 10
13.78573075481877
 20
0.9699452166132925
 30
0.0
 10
13.80629133375687
 20
0.9734116383576704
 30
0.0
 10
13.82981112253766
 20
0.9773889529811002
 30
0.0
 10
13.85508847637582
 20
0.9796483656050266
 30
0.0
 10
13.86838627476625
 20
0.9794819345007391
 30
0.0
 10
13.87548963607097
 20
0.9793930310423316
 30
0.0
  0
ARC
  5
1E1
330
1F
100
AcDbEntity
  8
0
  6
Continuous
 62
     7
370
     5
100
AcDbCircle
 10
13.8305945450748
 20
0.6063934670032906
 30
0.0
 40
0.0693506390091032
100
AcDbArc
 50
72.69668501355678
 51
125.3988810936548
  0
LINE
  5
1E2
330
1F
100
AcDbEntity
  8
0
  6
Continuous
 62
     7
370
     5
100
AcDbLine
 10
-7.350545546519039
 20
10.42947226194693
 30
0.0
 11
-5.371705924614597
 21
9.891666054117393
 31
0.0
  0
LINE
  5
1E3
330
1F
100
AcDbEntity
  8
0
  6
Continuous
 62
     7
370
     5
100
AcDbLine
 10
-5.371705924614597
 20
9.891666054117393
 30
0.0
 11
-5.39597404717314
 21
9.867979622526567
 31
0.0
  0
LINE
  5
1E4
330
1F
100
AcDbEntity
  8
0
  6
Continuous
 62
     7
370
     5
100
AcDbLine
 10
-7.374813669077581
 20
10.4057858303561
 30
0.0
 11
-5.39597404717314
 21
9.867979622526567
 31
0.0
  0
ARC
  5
1E5
330
1F
100
AcDbEntity
  8
0
  6
Continuous
 62
     7
370
     5
100
AcDbCircle
 10
-7.395440131134996
 20
10.33957057212997
 30
0.0
 40
0.0693535244883664
100
AcDbArc
 50
72.69786580735592
 51
125.3977002998543
  0
LINE
  5
1E6
330
1F
100
AcDbEntity
  8
0
  6
Continuous
 62
     7
370
     5
100
AcDbLine
 10
-8.129797623750933
 20
9.718558747917345
 30
0.0
 11
-7.435613053030865
 21
10.39610417015192
 31
0.0
  0
LINE
  5
1E7
330
1F
100
AcDbEntity
  8
0
  6
Continuous
 62
     7
370
     5
100
AcDbLine
 10
-8.175786646133181
 20
9.731057578775292
 30
0.0
 11
-8.129797623750933
 21
9.718558747917345
 31
0.0
  0
LINE
  5
1E8
330
1F
100
AcDbEntity
  8
0
  6
Continuous
 62
     7
370
     5
100
AcDbLine
 10
-7.481602075413112
 20
10.40860300100987
 30
0.0
 11
-8.175786646133181
 21
9.731057578775292
 31
0.0
  0
ARC
  5
1E9
330
1F
100
AcDbEntity
  8
0
  6
Continuous
 62
     7
370
     5
100
AcDbCircle
 10
-7.395008832190487
 20
10.28675201734564
 30
0.0
 40
0.1494859591792893
100
AcDbArc
 50
72.69601865800526
 51
125.399455276735
  0
LINE
  5
1EA
330
1F
100
AcDbEntity
  8
0
  6
Continuous
 62
     7
370
     5
100
AcDbLine
 10
-8.233870687961612
 20
8.099794137804503
 30
0.0
 11
-8.259072234073265
 21
8.075196656210421
 31
0.0
  0
LWPOLYLINE
  5
1EB
330
1F
100
AcDbEntity
  8
0
  6
Continuous
 62
     7
370
     5
100
AcDbPolyline
 90
        9
 70
   128
 43
0.0
 10
-8.233870687961612
 20
8.240369592655383
 10
-8.21922585627365
 20
8.249313063715797
 10
-8.206810508487706
 20
8.246194339564988
 10
-8.198514763984547
 20
8.231488262238677
 10
-8.195601759689383
 20
8.207433504554593
 10
-8.198514763984547
 20
8.177692383881797
 10
-8.206810508487706
 20
8.146792504649711
 10
-8.21922585627365
 20
8.119438276115131
 10
-8.233870687961612
 20
8.099794137804503
  0
LINE
  5
1EC
330
1F
100
AcDbEntity
  8
0
  6
Continuous
 62
     7
370
     5
100
AcDbLine
 10
-8.259072234073265
 20
8.215772111061301
 30
0.0
 11
-8.233870687961612
 21
8.240369592655383
 31
0.0
  0
LWPOLYLINE
  5
1ED
330
1F
100
AcDbEntity
  8
0
  6
Continuous
 62
     7
370
     5
100
AcDbPolyline
 90
        9
 70
   128
 43
0.0
 10
-8.259072234073265
 20
8.215772111061301
 10
-8.273717202656959
 20
8.19612783913624
 10
-8.286132550442905
 20
8.168773594887108
 10
-8.294428294946062
 20
8.137873715655022
 10
-8.297341299241228
 20
8.108132594982226
 10
-8.294428294946062
 20
8.084077837298142
 10
-8.286132550442905
 20
8.069371759971831
 10
-8.273717202656959
 20
8.066253051535575
 10
-8.259072234073265
 20
8.075196656210421
  0
LINE
  5
1EE
330
1F
100
AcDbEntity
  8
0
  6
Continuous
 62
     7
370
     5
100
AcDbLine
 10
-7.883849244609962
 20
7.04938613965371
 30
0.0
 11
-7.909050790721612
 21
7.024788658059628
 31
0.0
  0
LWPOLYLINE
  5
1EF
330
1F
100
AcDbEntity
  8
0
  6
Continuous
 62
     7
370
     5
100
AcDbPolyline
 90
        9
 70
   128
 43
0.0
 10
-7.883849244609962
 20
7.189961547360933
 10
-7.869204276026265
 20
7.198905183464884
 10
-7.856788928240321
 20
7.195786490743179
 10
-7.848493183737162
 20
7.181080319129554
 10
-7.845580179441999
 20
7.157025592874575
 10
-7.848493183737162
 20
7.127284503630883
 10
-7.856788928240321
 20
7.096384655827903
 10
-7.869204276026265
 20
7.069030443007874
 10
-7.883849244609962
 20
7.04938613965371
  0
LINE
  5
1F0
330
1F
100
AcDbEntity
  8
0
  6
Continuous
 62
     7
370
     5
100
AcDbLine
 10
-7.909050790721612
 20
7.165364065766851
 30
0.0
 11
-7.883849244609962
 21
7.189961547360933
 31
0.0
  0
LWPOLYLINE
  5
1F1
330
1F
100
AcDbEntity
  8
0
  6
Continuous
 62
     7
370
     5
100
AcDbPolyline
 90
        9
 70
   128
 43
0.0
 10
-7.909050790721612
 20
7.165364065766851
 10
-7.923695622409575
 20
7.145719958885327
 10
-7.936111107091252
 20
7.118365612450866
 10
-7.944406714698678
 20
7.0874657725459
 10
-7.947319718993842
 20
7.057724683302208
 10
-7.944406714698678
 20
7.033669957047228
 10
-7.936111107091252
 20
7.018963777535589
 10
-7.923695622409575
 20
7.015845218428318
 10
-7.909050790721612
 20
7.024788658059628
  0
LINE
  5
1F2
330
1F
100
AcDbEntity
  8
0
  6
Continuous
 62
     7
370
     5
100
AcDbLine
 10
-7.883849244609962
 20
9.465740687193024
 30
0.0
 11
-7.909050790721612
 21
9.44114320559894
 31
0.0
  0
LWPOLYLINE
  5
1F3
330
1F
100
AcDbEntity
  8
0
  6
Continuous
 62
     7
370
     5
100
AcDbPolyline
 90
        9
 70
   128
 43
0.0
 10
-7.883849244609962
 20
9.606316157758456
 10
-7.869204276026265
 20
9.615259731004199
 10
-7.856788928240321
 20
9.612141038282494
 10
-7.848493183737162
 20
9.597434992385286
 10
-7.845580179441999
 20
9.573380266130307
 10
-7.848493183737162
 20
9.543639051170197
 10
-7.856788928240321
 20
9.512739203367218
 10
-7.869204276026265
 20
9.485384990547188
 10
-7.883849244609962
 20
9.465740687193024
  0
LINE
  5
1F4
330
1F
100
AcDbEntity
  8
0
  6
Continuous
 62
     7
370
     5
100
AcDbLine
 10
-7.909050790721612
 20
9.581718676164374
 30
0.0
 11
-7.883849244609962
 21
9.606316157758456
 31
0.0
  0
LWPOLYLINE
  5
1F5
330
1F
100
AcDbEntity
  8
0
  6
Continuous
 62
     7
370
     5
100
AcDbPolyline
 90
        9
 70
   128
 43
0.0
 10
-7.909050790721612
 20
9.581718676164374
 10
-7.923695622409575
 20
9.562074506424641
 10
-7.936111107091252
 20
9.534720159990179
 10
-7.944406714698678
 20
9.503820445801633
 10
-7.947319718993842
 20
9.47407935655794
 10
-7.944406714698678
 20
9.450024504586542
 10
-7.936111107091252
 20
9.435318325074904
 10
-7.923695622409575
 20
9.432199765967631
 10
-7.909050790721612
 20
9.44114320559894
  0
LINE
  5
1F6
330
1F
100
AcDbEntity
  8
0
  6
Continuous
 62
     7
370
     5
100
AcDbLine
 10
-8.163866454049577
 20
5.995036331419755
 30
0.0
 11
-8.189068000161228
 21
5.970438849825674
 31
0.0
  0
LWPOLYLINE
  5
1F7
330
1F
100
AcDbEntity
  8
0
  6
Continuous
 62
     7
370
     5
100
AcDbPolyline
 90
        9
 70
   128
 43
0.0
 10
-8.163866454049577
 20
6.135611801985188
 10
-8.149221485465881
 20
6.14455537523093
 10
-8.136806137679936
 20
6.141436682509227
 10
-8.12851053007251
 20
6.126730502997588
 10
-8.125597388881613
 20
6.10267591035704
 10
-8.12851053007251
 20
6.072934561782499
 10
-8.136806137679936
 20
6.04203484759395
 10
-8.149221485465881
 20
6.01468063477392
 10
-8.163866454049577
 20
5.995036331419755
  0
LINE
  5
1F8
330
1F
100
AcDbEntity
  8
0
  6
Continuous
 62
     7
370
     5
100
AcDbLine
 10
-8.189068000161228
 20
6.111014320391107
 30
0.0
 11
-8.163866454049577
 21
6.135611801985188
 31
0.0
  0
LWPOLYLINE
  5
1F9
330
1F
100
AcDbEntity
  8
0
  6
Continuous
 62
     7
370
     5
100
AcDbPolyline
 90
        9
 70
   128
 43
0.0
 10
-8.189068000161228
 20
6.111014320391107
 10
-8.203712968744921
 20
6.091370017036942
 10
-8.216128316530866
 20
6.064015804216912
 10
-8.224423924138291
 20
6.033116090028364
 10
-8.227337065329191
 20
6.003374867170241
 10
-8.224423924138291
 20
5.979320148813276
 10
-8.216128316530866
 20
5.964613969301637
 10
-8.203712968744921
 20
5.961495276579933
 10
-8.189068000161228
 20
5.970438849825674
  0
LINE
  5
1FA
330
1F
100
AcDbEntity
  8
0
  6
Continuous
 62
     7
370
     5
100
AcDbLine
 10
-7.435613053030865
 20
10.23129220841643
 30
0.0
 11
-7.435613053030865
 21
10.39610417015192
 31
0.0
  0
ARC
  5
1FB
330
1F
100
AcDbEntity
  8
0
  6
Continuous
 62
     7
370
     5
100
AcDbCircle
 10
-7.240363755558509
 20
10.13455590762591
 30
0.0
 40
0.2178995182511478
100
AcDbArc
 50
153.6438762329883
 51
178.8987468684306
  0
LINE
  5
1FC
330
1F
100
AcDbEntity
  8
0
  6
Continuous
 62
     7
370
     5
100
AcDbLine
 10
-7.458223026027624
 20
9.656158558918619
 30
0.0
 11
-7.458223026027624
 21
10.13874378593679
 31
0.0
  0
LWPOLYLINE
  5
1FD
330
1F
100
AcDbEntity
  8
0
  6
Continuous
 62
     7
370
     5
100
AcDbPolyline
 90
        9
 70
   128
 43
0.0
 10
-7.435613053030865
 20
9.607746190010178
 10
-7.440517890236158
 20
9.608764565596823
 10
-7.444959814521482
 20
9.611378966367434
 10
-7.448860247736286
 20
9.615543199206799
 10
-7.452150194431317
 20
9.621183551967012
 10
-7.454771405472327
 20
9.628200234931373
 10
-7.456677610101682
 20
9.636469006903929
 10
-7.457834926625547
 20
9.645843791560212
 10
-7.458223026027624
 20
9.656158558918619
  0
LINE
  5
1FE
330
1F
100
AcDbEntity
  8
0
  6
Continuous
 62
     7
370
     5
100
AcDbLine
 10
-7.435613053030865
 20
9.266978951779513
 30
0.0
 11
-7.435613053030865
 21
9.607746190010178
 31
0.0
  0
ARC
  5
1FF
330
1F
100
AcDbEntity
  8
0
  6
Continuous
 62
     7
370
     5
100
AcDbCircle
 10
-7.240364621982288
 20
9.17024286266001
 30
0.0
 40
0.2178986479193197
100
AcDbArc
 50
153.6438249636375
 51
178.8987981377833
  0
LINE
  5
200
330
1F
100
AcDbEntity
  8
0
  6
Continuous
 62
     7
370
     5
100
AcDbLine
 10
-7.458223026027624
 20
8.69184533567512
 30
0.0
 11
-7.458223026027624
 21
9.17443052929987
 31
0.0
  0
LWPOLYLINE
  5
201
330
1F
100
AcDbEntity
  8
0
  6
Continuous
 62
     7
370
     5
100
AcDbPolyline
 90
        9
 70
   128
 43
0.0
 10
-7.435613053030865
 20
8.643432964802361
 10
-7.440517890236158
 20
8.644451340389005
 10
-7.444959814521482
 20
8.647065772588721
 10
-7.448860247736286
 20
8.651229993642171
 10
-7.452150194431317
 20
8.656870322830558
 10
-7.454771405472327
 20
8.663887009539402
 10
-7.456677610101682
 20
8.672155811160898
 10
-7.457834926625547
 20
8.681530587959905
 10
-7.458223026027624
 20
8.69184533567512
  0
LINE
  5
202
330
1F
100
AcDbEntity
  8
0
  6
Continuous
 62
     7
370
     5
100
AcDbLine
 10
-7.435613053030865
 20
8.302665726571696
 30
0.0
 11
-7.435613053030865
 21
8.643432964802361
 31
0.0
  0
ARC
  5
203
330
1F
100
AcDbEntity
  8
0
  6
Continuous
 62
     7
370
     5
100
AcDbCircle
 10
-7.240364357031658
 20
8.205929572723627
 30
0.0
 40
0.2178989140650047
100
AcDbArc
 50
153.6438406417444
 51
178.8987824596763
  0
LINE
  5
204
330
1F
100
AcDbEntity
  8
0
  6
Continuous
 62
     7
370
     5
100
AcDbLine
 10
-7.458223026027624
 20
7.727532108502983
 30
0.0
 11
-7.458223026027624
 21
8.210117304092053
 31
0.0
  0
LWPOLYLINE
  5
205
330
1F
100
AcDbEntity
  8
0
  6
Continuous
 62
     7
370
     5
100
AcDbPolyline
 90
        9
 70
   128
 43
0.0
 10
-7.435613053030865
 20
7.679119739594544
 10
-7.440517890236158
 20
7.680138115181188
 10
-7.444959814521482
 20
7.682752578810008
 10
-7.448860247736286
 20
7.686916811649375
 10
-7.452150194431317
 20
7.692557101551378
 10
-7.454771405472327
 20
7.69957378451574
 10
-7.456677610101682
 20
7.707842619346505
 10
-7.457834926625547
 20
7.717217404002787
 10
-7.458223026027624
 20
7.727532108502983
  0
LINE
  5
206
330
1F
100
AcDbEntity
  8
0
  6
Continuous
 62
     7
370
     5
100
AcDbLine
 10
-7.435613053030865
 20
7.338352501363879
 30
0.0
 11
-7.435613053030865
 21
7.679119739594544
 31
0.0
  0
ARC
  5
207
330
1F
100
AcDbEntity
  8
0
  6
Continuous
 62
     7
370
     5
100
AcDbCircle
 10
-7.240364428600229
 20
7.241616365000317
 30
0.0
 40
0.2178988421736228
100
AcDbArc
 50
153.6438364067716
 51
178.8987866946493
  0
LINE
  5
208
330
1F
100
AcDbEntity
  8
0
  6
Continuous
 62
     7
370
     5
100
AcDbLine
 10
-7.458223026027624
 20
6.763218851866062
 30
0.0
 11
-7.458223026027624
 21
7.245804078884235
 31
0.0
  0
LWPOLYLINE
  5
209
330
1F
100
AcDbEntity
  8
0
  6
Continuous
 62
     7
370
     5
100
AcDbPolyline
 90
        9
 70
   128
 43
0.0
 10
-7.435613053030865
 20
6.714806482957622
 10
-7.440517890236158
 20
6.715824921402475
 10
-7.444959814521482
 20
6.718439322173086
 10
-7.448860247736286
 20
6.722603555012452
 10
-7.452150194431317
 20
6.728243907772665
 10
-7.454771405472327
 20
6.735260590737027
 10
-7.456677610101682
 20
6.743529425567792
 10
-7.457834926625547
 20
6.752904210224075
 10
-7.458223026027624
 20
6.763218851866062
  0
LINE
  5
20A
330
1F
100
AcDbEntity
  8
0
  6
Continuous
 62
     7
370
     5
100
AcDbLine
 10
-7.435613053030865
 20
6.431705428743251
 30
0.0
 11
-7.435613053030865
 21
6.714806482957622
 31
0.0
  0
LINE
  5
20B
330
1F
100
AcDbEntity
  8
0
  6
Continuous
 62
     7
370
     5
100
AcDbLine
 10
-8.479819203998319
 20
5.412528213779644
 30
0.0
 11
-7.435613053030865
 21
6.431705428743251
 31
0.0
  0
LINE
  5
20C
330
1F
100
AcDbEntity
  8
0
  6
Continuous
 62
     7
370
     5
100
AcDbLine
 10
-8.479819203998319
 20
5.582438730583122
 30
0.0
 11
-8.479819203998319
 21
5.412528213779644
 31
0.0
  0
ARC
  5
20D
330
1F
100
AcDbEntity
  8
0
  6
Continuous
 62
     7
370
     5
100
AcDbCircle
 10
-8.194590482899071
 20
5.577517115367583
 30
0.0
 40
0.2852711791195225
100
AcDbArc
 50
160.0440865143009
 51
179.0114607030376
  0
LINE
  5
20E
330
1F
100
AcDbEntity
  8
0
  6
Continuous
 62
     7
370
     5
100
AcDbLine
 10
-8.462732700022721
 20
5.674879310455081
 30
0.0
 11
-8.146884127726529
 21
6.56326806990577
 31
0.0
  0
ARC
  5
20F
330
1F
100
AcDbEntity
  8
0
  6
Continuous
 62
     7
370
     5
100
AcDbCircle
 10
-8.415029850598612
 20
6.660630912987731
 30
0.0
 40
0.2852746955262495
100
AcDbArc
 50
340.0442044933066
 51
359.0113427240366
  0
LINE
  5
210
330
1F
100
AcDbEntity
  8
0
  6
Continuous
 62
     7
370
     5
100
AcDbLine
 10
-8.129797623750933
 20
6.65570864977773
 30
0.0
 11
-8.129797623750933
 21
7.102675586820296
 31
0.0
  0
ARC
  5
211
330
1F
100
AcDbEntity
  8
0
  6
Continuous
 62
     7
370
     5
100
AcDbCircle
 10
-8.209999404680376
 20
7.111496877862929
 30
0.0
 40
0.0806854437920078
100
AcDbArc
 50
353.7233402104222
 51
38.5339915228119
  0
LINE
  5
212
330
1F
100
AcDbEntity
  8
0
  6
Continuous
 62
     7
370
     5
100
AcDbLine
 10
-8.146884127726529
 20
7.161762200451693
 30
0.0
 11
-8.462732700022721
 21
7.433595196923581
 31
0.0
  0
ARC
  5
213
330
1F
100
AcDbEntity
  8
0
  6
Continuous
 62
     7
370
     5
100
AcDbCircle
 10
-8.399618459784116
 20
7.483860224410243
 30
0.0
 40
0.0806844489919286
100
AcDbArc
 50
173.723029235839
 51
218.5342862313868
  0
LINE
  5
214
330
1F
100
AcDbEntity
  8
0
  6
Continuous
 62
     7
370
     5
100
AcDbLine
 10
-8.479819203998319
 20
8.368232471341856
 30
0.0
 11
-8.479819203998319
 21
7.492681841984085
 31
0.0
  0
ARC
  5
215
330
1F
100
AcDbEntity
  8
0
  6
Continuous
 62
     7
370
     5
100
AcDbCircle
 10
-8.194590214119022
 20
8.363310806445637
 30
0.0
 40
0.2852714487166823
100
AcDbArc
 50
160.0440955596633
 51
179.0114516576768
  0
LINE
  5
216
330
1F
100
AcDbEntity
  8
0
  6
Continuous
 62
     7
370
     5
100
AcDbLine
 10
-8.462732700022721
 20
8.460673051213818
 30
0.0
 11
-8.146884127726529
 21
9.349061810664506
 31
0.0
  0
ARC
  5
217
330
1F
100
AcDbEntity
  8
0
  6
Continuous
 62
     7
370
     5
100
AcDbCircle
 10
-8.415029934669853
 20
9.446424675980248
 30
0.0
 40
0.2852747821378141
100
AcDbArc
 50
340.0442060587502
 51
359.0113133048695
  0
LINE
  5
218
330
1F
100
AcDbEntity
  8
0
  6
Continuous
 62
     7
370
     5
100
AcDbLine
 10
-8.129797623750933
 20
9.441502264820048
 30
0.0
 11
-8.129797623750933
 21
9.718558747917345
 31
0.0
  0
LINE
  5
219
330
1F
100
AcDbEntity
  8
0
  6
Continuous
 62
     7
370
     5
100
AcDbLine
 10
-8.146884127726529
 20
9.349061810664506
 30
0.0
 11
-8.192873150108777
 21
9.361560641522451
 31
0.0
  0
LINE
  5
21A
330
1F
100
AcDbEntity
  8
0
  6
Continuous
 62
     7
370
     5
100
AcDbLine
 10
-8.508721722404969
 20
8.473171882071763
 30
0.0
 11
-8.462732700022721
 21
8.460673051213818
 31
0.0
  0
LINE
  5
21B
330
1F
100
AcDbEntity
  8
0
  6
Continuous
 62
     7
370
     5
100
AcDbLine
 10
-8.508721722404969
 20
8.473171882071763
 30
0.0
 11
-8.192873150108777
 21
9.361560641522451
 31
0.0
  0
LINE
  5
21C
330
1F
100
AcDbEntity
  8
0
  6
Continuous
 62
     7
370
     5
100
AcDbLine
 10
-8.479819203998319
 20
8.368232471341856
 30
0.0
 11
-8.525808226380565
 21
8.380731302199803
 31
0.0
  0
ARC
  5
21D
330
1F
100
AcDbEntity
  8
0
  6
Continuous
 62
     7
370
     5
100
AcDbCircle
 10
-8.240579236501446
 20
8.375809637303618
 30
0.0
 40
0.2852714487165045
100
AcDbArc
 50
160.044095559658
 51
179.011451657683
  0
LINE
  5
21E
330
1F
100
AcDbEntity
  8
0
  6
Continuous
 62
     7
370
     5
100
AcDbLine
 10
-8.175786646133181
 20
9.454001095677993
 30
0.0
 11
-8.129797623750933
 21
9.441502264820048
 31
0.0
  0
LINE
  5
21F
330
1F
100
AcDbEntity
  8
0
  6
Continuous
 62
     7
370
     5
100
AcDbLine
 10
-8.175786646133181
 20
9.454001095677993
 30
0.0
 11
-8.175786646133181
 21
9.731057578775292
 31
0.0
  0
LINE
  5
220
330
1F
100
AcDbEntity
  8
0
  6
Continuous
 62
     7
370
     5
100
AcDbLine
 10
-8.525808226380565
 20
7.50518067284203
 30
0.0
 11
-8.479819203998319
 21
7.492681841984085
 31
0.0
  0
LINE
  5
221
330
1F
100
AcDbEntity
  8
0
  6
Continuous
 62
     7
370
     5
100
AcDbLine
 10
-8.525808226380565
 20
8.380731302199803
 30
0.0
 11
-8.525808226380565
 21
7.50518067284203
 31
0.0
  0
ARC
  5
222
330
1F
100
AcDbEntity
  8
0
  6
Continuous
 62
     7
370
     5
100
AcDbCircle
 10
-8.461018957052244
 20
9.458923506838219
 30
0.0
 40
0.2852747821379584
100
AcDbArc
 50
340.044206058755
 51
359.0113133048646
  0
SPLINE
  5
223
330
1F
100
AcDbEntity
  8
0
  6
Continuous
 62
     7
370
     5
100
AcDbSpline
210
0.0
220
0.0
230
1.0
 70
     8
 71
     3
 72
     9
 73
     5
 74
     0
 42
0.0000000001
 43
0.0000000001
 40
0.0
 40
0.0
 40
0.0
 40
0.0
 40
0.7195951837264622
 40
1.0
 40
1.0
 40
1.0
 40
1.0
 10
-6.759340293358107
 20
8.271090141949537
 30
0.0
 10
-6.759756563807388
 20
8.266203005636413
 30
0.0
 10
-6.760335042455781
 20
8.259411497822505
 30
0.0
 10
-6.765155114556252
 20
8.255856731873336
 30
0.0
 10
-6.766506685988005
 20
8.254859958380464
 30
0.0
  0
SPLINE
  5
224
330
1F
100
AcDbEntity
  8
0
  6
Continuous
 62
     7
370
     5
100
AcDbSpline
210
0.0
220
0.0
230
1.0
 70
     8
 71
     3
 72
    10
 73
     6
 74
     0
 42
0.0000000001
 43
0.0000000001
 40
0.0
 40
0.0
 40
0.0
 40
0.0
 40
0.5601247686015651
 40
0.7802802879345433
 40
1.0
 40
1.0
 40
1.0
 40
1.0
 10
-6.788049447499253
 20
8.317009861537236
 30
0.0
 10
-6.780410244248431
 20
8.309450643746734
 30
0.0
 10
-6.769768472903413
 20
8.298920295930017
 30
0.0
 10
-6.760710728461448
 20
8.28224104281177
 30
0.0
 10
-6.759796803234797
 20
8.274804653030919
 30
0.0
 10
-6.759340293358107
 20
8.271090141949537
 30
0.0
  0
SPLINE
  5
225
330
1F
100
AcDbEntity
  8
0
  6
Continuous
 62
     7
370
     5
100
AcDbSpline
210
0.0
220
0.0
230
1.0
 70
     8
 71
     3
 72
     9
 73
     5
 74
     0
 42
0.0000000001
 43
0.0000000001
 40
0.0
 40
0.0
 40
0.0
 40
0.0
 40
0.5598811684969928
 40
1.0
 40
1.0
 40
1.0
 40
1.0
 10
-6.80443066297211
 20
8.333221234391476
 30
0.0
 10
-6.801424578086844
 20
8.33014251961741
 30
0.0
 10
-6.79605543003471
 20
8.324643647808006
 30
0.0
 10
-6.790496178700498
 20
8.319342844774411
 30
0.0
 10
-6.788049447499253
 20
8.317009861537236
 30
0.0
  0
SPLINE
  5
226
330
1F
100
AcDbEntity
  8
0
  6
Continuous
 62
     7
370
     5
100
AcDbSpline
210
0.0
220
0.0
230
1.0
 70
     8
 71
     3
 72
    10
 73
     6
 74
     0
 42
0.0000000001
 43
0.0000000001
 40
0.0
 40
0.0
 40
0.0
 40
0.0
 40
0.2799436831039776
 40
0.5597704290033545
 40
1.0
 40
1.0
 40
1.0
 40
1.0
 10
-6.812462501801449
 20
8.350665193558137
 30
0.0
 10
-6.812319754839492
 20
8.348978020272712
 30
0.0
 10
-6.812034320543399
 20
8.345604378462633
 30
0.0
 10
-6.809394760958716
 20
8.339453121427228
 30
0.0
 10
-6.806314114929794
 20
8.335585704204367
 30
0.0
 10
-6.80443066297211
 20
8.333221234391476
 30
0.0
  0
LINE
  5
227
330
1F
100
AcDbEntity
  8
0
  6
Continuous
 62
     7
370
     5
100
AcDbLine
 10
-6.811393665368089
 20
8.355738743432667
 30
0.0
 11
-6.812462501801449
 21
8.350665193558137
 31
0.0
  0
SPLINE
  5
228
330
1F
100
AcDbEntity
  8
0
  6
Continuous
 62
     7
370
     5
100
AcDbSpline
210
0.0
220
0.0
230
1.0
 70
     8
 71
     3
 72
    10
 73
     6
 74
     0
 42
0.0000000001
 43
0.0000000001
 40
0.0
 40
0.0
 40
0.0
 40
0.0
 40
0.2797711939965786
 40
0.5595114065519857
 40
1.0
 40
1.0
 40
1.0
 40
1.0
 10
-6.793372875560558
 20
8.372544745674126
 30
0.0
 10
-6.789620267059093
 20
8.371169856374718
 30
0.0
 10
-6.782115465614383
 20
8.368420230029078
 30
0.0
 10
-6.770369635172035
 20
8.358276881523181
 30
0.0
 10
-6.764495606290782
 20
8.349248612699387
 30
0.0
 10
-6.760903077502421
 20
8.343726965408535
 30
0.0
  0
SPLINE
  5
229
330
1F
100
AcDbEntity
  8
0
  6
Continuous
 62
     7
370
     5
100
AcDbSpline
210
0.0
220
0.0
230
1.0
 70
     8
 71
     3
 72
    10
 73
     6
 74
     0
 42
0.0000000001
 43
0.0000000001
 40
0.0
 40
0.0
 40
0.0
 40
0.0
 40
0.2656979107978594
 40
0.6328489776198622
 40
1.0
 40
1.0
 40
1.0
 40
1.0
 10
-6.817069913222931
 20
8.367614105551098
 30
0.0
 10
-6.815629983731903
 20
8.369163602634834
 30
0.0
 10
-6.812200307136004
 20
8.372854251320498
 30
0.0
 10
-6.803439699469243
 20
8.374370633633262
 30
0.0
 10
-6.796728483394727
 20
8.373153374969282
 30
0.0
 10
-6.793372875560558
 20
8.372544745674126
 30
0.0
  0
SPLINE
  5
22A
330
1F
100
AcDbEntity
  8
0
  6
Continuous
 62
     7
370
     5
100
AcDbSpline
210
0.0
220
0.0
230
1.0
 70
     8
 71
     3
 72
     9
 73
     5
 74
     0
 42
0.0000000001
 43
0.0000000001
 40
0.0
 40
0.0
 40
0.0
 40
0.0
 40
0.5263983452470172
 40
1.0
 40
1.0
 40
1.0
 40
1.0
 10
-6.79415322992744
 20
8.260700316812101
 30
0.0
 10
-6.790829665588128
 20
8.260057424797809
 30
0.0
 10
-6.784515883697803
 20
8.258836121539351
 30
0.0
 10
-6.77943945075242
 20
8.261101079573474
 30
0.0
 10
-6.77703524370925
 20
8.262173767446382
 30
0.0
  0
SPLINE
  5
22B
330
1F
100
AcDbEntity
  8
0
  6
Continuous
 62
     7
370
     5
100
AcDbSpline
210
0.0
220
0.0
230
1.0
 70
     8
 71
     3
 72
    10
 73
     6
 74
     0
 42
0.0000000001
 43
0.0000000001
 40
0.0
 40
0.0
 40
0.0
 40
0.0
 40
0.5593030871431637
 40
0.7797626983485279
 40
1.0
 40
1.0
 40
1.0
 40
1.0
 10
-6.820909422740832
 20
8.287657696382105
 30
0.0
 10
-6.817287989245354
 20
8.281279054143809
 30
0.0
 10
-6.812239101049964
 20
8.272386152606397
 30
0.0
 10
-6.801914042680765
 20
8.263592236013186
 30
0.0
 10
-6.796739297378471
 20
8.261663965640471
 30
0.0
 10
-6.794153229927435
 20
8.260700316812101
 30
0.0
  0
LINE
  5
22C
330
1F
100
AcDbEntity
  8
0
  6
Continuous
 62
     7
370
     5
100
AcDbLine
 10
-6.831211760712108
 20
8.284471522393264
 30
0.0
 11
-6.820909422740832
 21
8.287657696382105
 31
0.0
  0
SPLINE
  5
22D
330
1F
100
AcDbEntity
  8
0
  6
Continuous
 62
     7
370
     5
100
AcDbSpline
210
0.0
220
0.0
230
1.0
 70
     8
 71
     3
 72
     9
 73
     5
 74
     0
 42
0.0000000001
 43
0.0000000001
 40
0.0
 40
0.0
 40
0.0
 40
0.0
 40
0.5250584876554467
 40
1.0
 40
1.0
 40
1.0
 40
1.0
 10
-6.849961019622764
 20
8.313558984807739
 30
0.0
 10
-6.849902692698353
 20
8.306863656191497
 30
0.0
 10
-6.849791606170309
 20
8.294112069894618
 30
0.0
 10
-6.856089325322122
 20
8.284692441734138
 30
0.0
 10
-6.859080373580416
 20
8.28021866928988
 30
0.0
  0
LINE
  5
22E
330
1F
100
AcDbEntity
  8
0
  6
Continuous
 62
     7
370
     5
100
AcDbLine
 10
-6.849961019622764
 20
8.384895635028067
 30
0.0
 11
-6.849961019622764
 21
8.313558984807739
 31
0.0
  0
LINE
  5
22F
330
1F
100
AcDbEntity
  8
0
  6
Continuous
 62
     7
370
     5
100
AcDbLine
 10
-6.860898433222405
 20
8.387868189684025
 30
0.0
 11
-6.849961019622764
 21
8.384895635028067
 31
0.0
  0
SPLINE
  5
230
330
1F
100
AcDbEntity
  8
0
  6
Continuous
 62
     7
370
     5
100
AcDbSpline
210
0.0
220
0.0
230
1.0
 70
     8
 71
     3
 72
     9
 73
     5
 74
     0
 42
0.0000000001
 43
0.0000000001
 40
0.0
 40
0.0
 40
0.0
 40
0.0
 40
0.5001871196927591
 40
1.0
 40
1.0
 40
1.0
 40
1.0
 10
-6.888434980402678
 20
8.286324076377731
 30
0.0
 10
-6.885039408730198
 20
8.285715849969596
 30
0.0
 10
-6.878250805947772
 20
8.284499852227579
 30
0.0
 10
-6.872775279787114
 20
8.28695135585802
 30
0.0
 10
-6.870038541285554
 20
8.288176648948635
 30
0.0
  0
SPLINE
  5
231
330
1F
100
AcDbEntity
  8
0
  6
Continuous
 62
     7
370
     5
100
AcDbSpline
210
0.0
220
0.0
230
1.0
 70
     8
 71
     3
 72
    10
 73
     6
 74
     0
 42
0.0000000001
 43
0.0000000001
 40
0.0
 40
0.0
 40
0.0
 40
0.0
 40
0.2810466326614075
 40
0.5607993546100786
 40
1.0
 40
1.0
 40
1.0
 40
1.0
 10
-6.916656413064522
 20
8.316542601025807
 30
0.0
 10
-6.915881161480601
 20
8.312719733657795
 30
0.0
 10
-6.914334227493864
 20
8.305091599022485
 30
0.0
 10
-6.903893225017236
 20
8.292967157290323
 30
0.0
 10
-6.894297129077799
 20
8.288843296958171
 30
0.0
 10
-6.888434980402678
 20
8.286324076377731
 30
0.0
  0
SPLINE
  5
232
330
1F
100
AcDbEntity
  8
0
  6
Continuous
 62
     7
370
     5
100
AcDbSpline
210
0.0
220
0.0
230
1.0
 70
     8
 71
     3
 72
     9
 73
     5
 74
     0
 42
0.0000000001
 43
0.0000000001
 40
0.0
 40
0.0
 40
0.0
 40
0.0
 40
0.5601256876538382
 40
1.0
 40
1.0
 40
1.0
 40
1.0
 10
-6.917144134543823
 20
8.332385776945553
 30
0.0
 10
-6.917154557311285
 20
8.329452066595955
 30
0.0
 10
-6.917173165219637
 20
8.324214473651617
 30
0.0
 10
-6.916814278231596
 20
8.318886319270344
 30
0.0
 10
-6.916656413064518
 20
8.316542601025805
 30
0.0
  0
LINE
  5
233
330
1F
100
AcDbEntity
  8
0
  6
Continuous
 62
     7
370
     5
100
AcDbLine
 10
-6.917144134543823
 20
8.403154566103593
 30
0.0
 11
-6.917144134543823
 21
8.332385776945553
 31
0.0
  0
LINE
  5
234
330
1F
100
AcDbEntity
  8
0
  6
Continuous
 62
     7
370
     5
100
AcDbLine
 10
-6.928081548143465
 20
8.406127120759553
 30
0.0
 11
-6.917144134543823
 21
8.403154566103593
 31
0.0
  0
LINE
  5
235
330
1F
100
AcDbEntity
  8
0
  6
Continuous
 62
     7
370
     5
100
AcDbLine
 10
-5.39597404717314
 20
9.590923139429269
 30
0.0
 11
-5.39597404717314
 21
9.867979622526567
 31
0.0
  0
ARC
  5
236
330
1F
100
AcDbEntity
  8
0
  6
Continuous
 62
     7
370
     5
100
AcDbCircle
 10
-5.4752793705961
 20
9.587961328049191
 30
0.0
 40
0.0793606114509684
100
AcDbArc
 50
306.2482746690859
 51
2.138828163204682
  0
LINE
  5
237
330
1F
100
AcDbEntity
  8
0
  6
Continuous
 62
     7
370
     5
100
AcDbLine
 10
-5.428354602577615
 20
9.523959978092468
 30
0.0
 11
-6.026907156081175
 21
9.106522866600906
 31
0.0
  0
ARC
  5
238
330
1F
100
AcDbEntity
  8
0
  6
Continuous
 62
     7
370
     5
100
AcDbCircle
 10
-5.979989814017113
 20
9.042525101954622
 30
0.0
 40
0.0793533292690196
100
AcDbArc
 50
126.2454812567159
 51
182.1417058899603
  0
LINE
  5
239
330
1F
100
AcDbEntity
  8
0
  6
Continuous
 62
     7
370
     5
100
AcDbLine
 10
-6.059287711485655
 20
9.039559579547685
 30
0.0
 11
-6.059287711485655
 21
8.164008950189913
 31
0.0
  0
ARC
  5
23A
330
1F
100
AcDbEntity
  8
0
  6
Continuous
 62
     7
370
     5
100
AcDbCircle
 10
-5.921483521642031
 20
8.168294420265167
 30
0.0
 40
0.1378708090649488
100
AcDbArc
 50
181.7812248008462
 51
220.1236710043522
  0
LINE
  5
23B
330
1F
100
AcDbEntity
  8
0
  6
Continuous
 62
     7
370
     5
100
AcDbLine
 10
-6.026907156081175
 20
8.079445012310669
 30
0.0
 11
-5.428354602577615
 21
7.336660367879655
 31
0.0
  0
ARC
  5
23C
330
1F
100
AcDbEntity
  8
0
  6
Continuous
 62
     7
370
     5
100
AcDbCircle
 10
-5.533792277779823
 20
7.247805581952287
 30
0.0
 40
0.1378850112747749
100
AcDbArc
 50
1.783290147993432
 51
40.12161987978294
  0
LINE
  5
23D
330
1F
100
AcDbEntity
  8
0
  6
Continuous
 62
     7
370
     5
100
AcDbLine
 10
-5.39597404717314
 20
6.805129524386952
 30
0.0
 11
-5.39597404717314
 21
7.252096461429517
 31
0.0
  0
ARC
  5
23E
330
1F
100
AcDbEntity
  8
0
  6
Continuous
 62
     7
370
     5
100
AcDbCircle
 10
-5.475279386528392
 20
6.802167600555225
 30
0.0
 40
0.0793606315690385
100
AcDbArc
 50
306.2482782829147
 51
2.138908863767972
  0
LINE
  5
23F
330
1F
100
AcDbEntity
  8
0
  6
Continuous
 62
     7
370
     5
100
AcDbLine
 10
-5.428354602577615
 20
6.738166237333732
 30
0.0
 11
-6.026907156081175
 21
6.32072912584217
 31
0.0
  0
ARC
  5
240
330
1F
100
AcDbEntity
  8
0
  6
Continuous
 62
     7
370
     5
100
AcDbCircle
 10
-5.979989886445483
 20
6.256731396219118
 30
0.0
 40
0.0793532582001119
100
AcDbArc
 50
126.245454032051
 51
182.1417331146248
  0
LINE
  5
241
330
1F
100
AcDbEntity
  8
0
  6
Continuous
 62
     7
370
     5
100
AcDbLine
 10
-6.059287711485655
 20
6.253765838788948
 30
0.0
 11
-6.059287711485655
 21
6.083855321985472
 31
0.0
  0
LINE
  5
242
330
1F
100
AcDbEntity
  8
0
  6
Continuous
 62
     7
370
     5
100
AcDbLine
 10
-7.374813669077581
 20
6.441387088947431
 30
0.0
 11
-6.059287711485655
 21
6.083855321985472
 31
0.0
  0
LINE
  5
243
330
1F
100
AcDbEntity
  8
0
  6
Continuous
 62
     7
370
     5
100
AcDbLine
 10
-7.374813669077581
 20
6.441387088947431
 30
0.0
 11
-7.374813669077581
 21
6.724488143161803
 31
0.0
  0
ARC
  5
244
330
1F
100
AcDbEntity
  8
0
  6
Continuous
 62
     7
370
     5
100
AcDbCircle
 10
-7.389885017948252
 20
6.780485167014806
 30
0.0
 40
0.0579897597613187
100
AcDbArc
 50
285.063934492471
 51
2.80510971643379
  0
LINE
  5
245
330
1F
100
AcDbEntity
  8
0
  6
Continuous
 62
     7
370
     5
100
AcDbLine
 10
-7.33196474285781
 20
7.265908345868911
 30
0.0
 11
-7.33196474285781
 21
6.783323118850737
 31
0.0
  0
ARC
  5
246
330
1F
100
AcDbEntity
  8
0
  6
Continuous
 62
     7
370
     5
100
AcDbCircle
 10
-7.441888272134835
 20
7.260797100994014
 30
0.0
 40
0.1100422969266271
100
AcDbArc
 50
2.66223234928689
 51
52.44413062512634
  0
LINE
  5
247
330
1F
100
AcDbEntity
  8
0
  6
Continuous
 62
     7
370
     5
100
AcDbLine
 10
-7.374813669077581
 20
7.34803416156806
 30
0.0
 11
-7.374813669077581
 21
7.688801399798724
 31
0.0
  0
ARC
  5
248
330
1F
100
AcDbEntity
  8
0
  6
Continuous
 62
     7
370
     5
100
AcDbCircle
 10
-7.389884940090609
 20
7.744798366948784
 30
0.0
 40
0.057989684771975
100
AcDbArc
 50
285.063874770494
 51
2.805169438410774
  0
LINE
  5
249
330
1F
100
AcDbEntity
  8
0
  6
Continuous
 62
     7
370
     5
100
AcDbLine
 10
-7.33196474285781
 20
8.230221571076729
 30
0.0
 11
-7.33196474285781
 21
7.74763637548766
 31
0.0
  0
ARC
  5
24A
330
1F
100
AcDbEntity
  8
0
  6
Continuous
 62
     7
370
     5
100
AcDbCircle
 10
-7.441888304902839
 20
8.225110309105209
 30
0.0
 40
0.1100423304533708
100
AcDbArc
 50
2.662240448918964
 51
52.44412252549595
  0
LINE
  5
24B
330
1F
100
AcDbEntity
  8
0
  6
Continuous
 62
     7
370
     5
100
AcDbLine
 10
-7.374813669077581
 20
8.312347386775876
 30
0.0
 11
-7.374813669077581
 21
8.653114625006542
 31
0.0
  0
ARC
  5
24C
330
1F
100
AcDbEntity
  8
0
  6
Continuous
 62
     7
370
     5
100
AcDbCircle
 10
-7.389884878518834
 20
8.709111547409248
 30
0.0
 40
0.0579896255600668
100
AcDbArc
 50
285.0638275164168
 51
2.80521851313498
  0
LINE
  5
24D
330
1F
100
AcDbEntity
  8
0
  6
Continuous
 62
     7
370
     5
100
AcDbLine
 10
-7.33196474285781
 20
9.194534796284546
 30
0.0
 11
-7.33196474285781
 21
8.711949602659796
 31
0.0
  0
ARC
  5
24E
330
1F
100
AcDbEntity
  8
0
  6
Continuous
 62
     7
370
     5
100
AcDbCircle
 10
-7.441888186528712
 20
9.189423596074417
 30
0.0
 40
0.1100422093383161
100
AcDbArc
 50
2.662211189048937
 51
52.44415178536311
  0
LINE
  5
24F
330
1F
100
AcDbEntity
  8
0
  6
Continuous
 62
     7
370
     5
100
AcDbLine
 10
-7.374813669077581
 20
9.276660611983695
 30
0.0
 11
-7.374813669077581
 21
9.61742785021436
 31
0.0
  0
ARC
  5
250
330
1F
100
AcDbEntity
  8
0
  6
Continuous
 62
     7
370
     5
100
AcDbCircle
 10
-7.389884824370105
 20
9.67342473308633
 30
0.0
 40
0.0579895733147658
100
AcDbArc
 50
285.0637860049067
 51
2.805258203998835
  0
LINE
  5
251
330
1F
100
AcDbEntity
  8
0
  6
Continuous
 62
     7
370
     5
100
AcDbLine
 10
-7.33196474285781
 20
10.15884805292146
 30
0.0
 11
-7.33196474285781
 21
9.676262825903295
 31
0.0
  0
ARC
  5
252
330
1F
100
AcDbEntity
  8
0
  6
Continuous
 62
     7
370
     5
100
AcDbCircle
 10
-7.441888574420591
 20
10.15373665032978
 30
0.0
 40
0.1100426062118535
100
AcDbArc
 50
2.662307068418902
 51
52.44405590599431
  0
LINE
  5
253
330
1F
100
AcDbEntity
  8
0
  6
Continuous
 62
     7
370
     5
100
AcDbLine
 10
-7.374813669077581
 20
10.24097386862061
 30
0.0
 11
-7.374813669077581
 21
10.4057858303561
 31
0.0
  0
LINE
  5
254
330
1F
100
AcDbEntity
  8
0
  6
Continuous
 62
     7
370
     5
100
AcDbLine
 10
-6.47761783904006
 20
8.644761119397131
 30
0.0
 11
-6.525375111211092
 21
8.657740522658658
 31
0.0
  0
LWPOLYLINE
  5
255
330
1F
100
AcDbEntity
  8
0
  6
Continuous
 62
     7
370
     5
100
AcDbPolyline
 90
        9
 70
   128
 43
0.0
 10
-6.47761783904006
 20
8.785336574248011
 10
-6.449865449162563
 20
8.772443735715983
 10
-6.426336519754758
 20
8.750812592666944
 10
-6.410615284836866
 20
8.723736919602378
 10
-6.405094692773291
 20
8.695338601793038
 10
-6.410615284836866
 20
8.669941041245499
 10
-6.426336519754758
 20
8.651410757751667
 10
-6.449865449162563
 20
8.642568948115318
 10
-6.47761783904006
 20
8.644761119397131
  0
LINE
  5
256
330
1F
100
AcDbEntity
  8
0
  6
Continuous
 62
     7
370
     5
100
AcDbLine
 10
-6.525375111211092
 20
8.798315977509538
 30
0.0
 11
-6.47761783904006
 21
8.785336574248011
 31
0.0
  0
LWPOLYLINE
  5
257
330
1F
100
AcDbEntity
  8
0
  6
Continuous
 62
     7
370
     5
100
AcDbPolyline
 90
        9
 70
   128
 43
0.0
 10
-6.525375111211092
 20
8.798315977509538
 10
-6.553129576499138
 20
8.800508712843468
 10
-6.576656430496393
 20
8.791666323440452
 10
-6.592377665414285
 20
8.773136039946619
 10
-6.597898257477861
 20
8.74773847939908
 10
-6.592377665414285
 20
8.719340161589739
 10
-6.576656430496393
 20
8.692264488525175
 10
-6.553129576499138
 20
8.670633925242803
 10
-6.525375111211092
 20
8.657740522658658
  0
LINE
  5
258
330
1F
100
AcDbEntity
  8
0
  6
Continuous
 62
     7
370
     5
100
AcDbLine
 10
-5.81430417472754
 20
7.072447021264166
 30
0.0
 11
-5.862063522309124
 21
7.08542698857781
 31
0.0
  0
LWPOLYLINE
  5
259
330
1F
100
AcDbEntity
  8
0
  6
Continuous
 62
     7
370
     5
100
AcDbPolyline
 90
        9
 70
   128
 43
0.0
 10
-5.81430417472754
 20
7.213022428971389
 10
-5.786551784850046
 20
7.200129621868465
 10
-5.76302285544224
 20
7.178498510248529
 10
-5.74730162052435
 20
7.151422742896651
 10
-5.741781028460774
 20
7.123024456516415
 10
-5.74730162052435
 20
7.097626927397979
 10
-5.76302285544224
 20
7.079096675333254
 10
-5.786551784850046
 20
7.070254881411456
 10
-5.81430417472754
 20
7.072447021264166
  0
LINE
  5
25A
330
1F
100
AcDbEntity
  8
0
  6
Continuous
 62
     7
370
     5
100
AcDbLine
 10
-5.862063522309124
 20
7.226002396285033
 30
0.0
 11
-5.81430417472754
 21
7.213022428971389
 31
0.0
  0
LWPOLYLINE
  5
25B
330
1F
100
AcDbEntity
  8
0
  6
Continuous
 62
     7
370
     5
100
AcDbPolyline
 90
        9
 70
   128
 43
0.0
 10
-5.862063522309124
 20
7.226002396285033
 10
-5.889815912186621
 20
7.22819459899595
 10
-5.913342766183876
 20
7.219352241022038
 10
-5.929064001101766
 20
7.200821863240892
 10
-5.934584593165341
 20
7.175424334122456
 10
-5.929064001101766
 20
7.147026047742221
 10
-5.913342766183876
 20
7.11995040610676
 10
-5.889815912186621
 20
7.098319858538941
 10
-5.862063522309124
 20
7.08542698857781
  0
LINE
  5
25C
330
1F
100
AcDbEntity
  8
0
  6
Continuous
 62
     7
370
     5
100
AcDbLine
 10
-5.81430417472754
 20
9.488801568803479
 30
0.0
 11
-5.862063522309124
 21
9.501781536117123
 31
0.0
  0
LWPOLYLINE
  5
25D
330
1F
100
AcDbEntity
  8
0
  6
Continuous
 62
     7
370
     5
100
AcDbPolyline
 90
        9
 70
   128
 43
0.0
 10
-5.81430417472754
 20
9.629377039368913
 10
-5.786551784850046
 20
9.61648416940778
 10
-5.76302285544224
 20
9.594853057787844
 10
-5.74730162052435
 20
9.567777416152384
 10
-5.741781028460774
 20
9.539379129772147
 10
-5.74730162052435
 20
9.513981474937294
 10
-5.76302285544224
 20
9.495451222872567
 10
-5.786551784850046
 20
9.486609428950771
 10
-5.81430417472754
 20
9.488801568803479
  0
LINE
  5
25E
330
1F
100
AcDbEntity
  8
0
  6
Continuous
 62
     7
370
     5
100
AcDbLine
 10
-5.862063522309124
 20
9.642357006682557
 30
0.0
 11
-5.81430417472754
 21
9.629377039368913
 31
0.0
  0
LWPOLYLINE
  5
25F
330
1F
100
AcDbEntity
  8
0
  6
Continuous
 62
     7
370
     5
100
AcDbPolyline
 90
        9
 70
   128
 43
0.0
 10
-5.862063522309124
 20
9.642357006682557
 10
-5.889815912186621
 20
9.644549146535265
 10
-5.913342766183876
 20
9.635706788561352
 10
-5.929064001101766
 20
9.617176536496623
 10
-5.934584593165341
 20
9.591779007378191
 10
-5.929064001101766
 20
9.563380595281534
 10
-5.913342766183876
 20
9.536304953646075
 10
-5.889815912186621
 20
9.514674406078256
 10
-5.862063522309124
 20
9.501781536117123
  0
LINE
  5
260
330
1F
100
AcDbEntity
  8
0
  6
Continuous
 62
     7
370
     5
100
AcDbLine
 10
-6.344955521259666
 20
6.435622259272145
 30
0.0
 11
-6.3927127934307
 21
6.448601662533673
 31
0.0
  0
LWPOLYLINE
  5
261
330
1F
100
AcDbEntity
  8
0
  6
Continuous
 62
     7
370
     5
100
AcDbPolyline
 90
        9
 70
   128
 43
0.0
 10
-6.344955521259666
 20
6.576197729837578
 10
-6.317201055971619
 20
6.56330429582433
 10
-6.293674201974364
 20
6.541673748256512
 10
-6.277952967056474
 20
6.514598106621051
 10
-6.272432374992897
 20
6.486199820240813
 10
-6.277952967056474
 20
6.460802165405961
 10
-6.293674201974364
 20
6.442271913341233
 10
-6.317201055971619
 20
6.433429555367321
 10
-6.344955521259666
 20
6.435622259272145
  0
LINE
  5
262
330
1F
100
AcDbEntity
  8
0
  6
Continuous
 62
     7
370
     5
100
AcDbLine
 10
-6.3927127934307
 20
6.589177133099106
 30
0.0
 11
-6.344955521259666
 21
6.576197729837578
 31
0.0
  0
LWPOLYLINE
  5
263
330
1F
100
AcDbEntity
  8
0
  6
Continuous
 62
     7
370
     5
100
AcDbPolyline
 90
        9
 70
   128
 43
0.0
 10
-6.3927127934307
 20
6.589177133099106
 10
-6.420467258718744
 20
6.591369837003933
 10
-6.443994112716
 20
6.582527479030018
 10
-6.45971534763389
 20
6.563997226965292
 10
-6.465235939697466
 20
6.538599697846857
 10
-6.45971534763389
 20
6.510201285750202
 10
-6.443994112716
 20
6.483125644114742
 10
-6.420467258718744
 20
6.461495096546923
 10
-6.3927127934307
 20
6.448601662533673
  0
LINE
  5
264
330
1F
100
AcDbEntity
  8
0
  6
Continuous
 62
     7
370
     5
100
AcDbLine
 10
-6.723404559681107
 20
8.281659545972308
 30
0.0
 11
-6.723404559681107
 21
8.232386692919602
 31
0.0
  0
SPLINE
  5
265
330
1F
100
AcDbEntity
  8
0
  6
Continuous
 62
     7
370
     5
100
AcDbSpline
210
0.0
220
0.0
230
1.0
 70
     8
 71
     3
 72
     9
 73
     5
 74
     0
 42
0.0000000001
 43
0.0000000001
 40
0.0
 40
0.0
 40
0.0
 40
0.0
 40
0.5698940366448392
 40
1.0
 40
1.0
 40
1.0
 40
1.0
 10
-6.659344937638121
 20
8.301408756593296
 30
0.0
 10
-6.6595362674518
 20
8.297499588987589
 30
0.0
 10
-6.659871996203755
 20
8.290640125027019
 30
0.0
 10
-6.664057406162402
 20
8.286189402366485
 30
0.0
 10
-6.665857575944702
 20
8.284275120008949
 30
0.0
  0
SPLINE
  5
266
330
1F
100
AcDbEntity
  8
0
  6
Continuous
 62
     7
370
     5
100
AcDbSpline
210
0.0
220
0.0
230
1.0
 70
     8
 71
     3
 72
    11
 73
     7
 74
     0
 42
0.0000000001
 43
0.0000000001
 40
0.0
 40
0.0
 40
0.0
 40
0.0
 40
0.2797087296706931
 40
0.5593962214722625
 40
0.7795074508830134
 40
1.0
 40
1.0
 40
1.0
 40
1.0
 10
-6.682685004685857
 20
8.337659048354556
 30
0.0
 10
-6.678982405511336
 20
8.335357631465591
 30
0.0
 10
-6.671577488295161
 20
8.330754972430838
 30
0.0
 10
-6.663920477981861
 20
8.320685009617674
 30
0.0
 10
-6.659885597300061
 20
8.310511910582675
 30
0.0
 10
-6.659525261476087
 20
8.304444891486486
 30
0.0
 10
-6.659344937638121
 20
8.301408756593296
 30
0.0
  0
SPLINE
  5
267
330
1F
100
AcDbEntity
  8
0
  6
Continuous
 62
     7
370
     5
100
AcDbSpline
210
0.0
220
0.0
230
1.0
 70
     8
 71
     3
 72
     9
 73
     5
 74
     0
 42
0.0000000001
 43
0.0000000001
 40
0.0
 40
0.0
 40
0.0
 40
0.0
 40
0.5603611901754436
 40
1.0
 40
1.0
 40
1.0
 40
1.0
 10
-6.710441545384454
 20
8.346977231470804
 30
0.0
 10
-6.705231237291013
 20
8.345577264382086
 30
0.0
 10
-6.695933112822743
 20
8.343078934531151
 30
0.0
 10
-6.686730729525988
 20
8.339314180386148
 30
0.0
 10
-6.682685004685857
 20
8.337659048354556
 30
0.0
  0
LINE
  5
268
330
1F
100
AcDbEntity
  8
0
  6
Continuous
 62
     7
370
     5
100
AcDbLine
 10
-6.734341973280748
 20
8.353472855648796
 30
0.0
 11
-6.710441545384454
 21
8.346977231470804
 31
0.0
  0
LINE
  5
269
330
1F
100
AcDbEntity
  8
0
  6
Continuous
 62
     7
370
     5
100
AcDbLine
 10
-5.371705924614597
 20
9.614609571020096
 30
0.0
 11
-5.371705924614597
 21
9.891666054117393
 31
0.0
  0
LINE
  5
26A
330
1F
100
AcDbEntity
  8
0
  6
Continuous
 62
     7
370
     5
100
AcDbLine
 10
-5.39597404717314
 20
9.590923139429269
 30
0.0
 11
-5.371705924614597
 21
9.614609571020096
 31
0.0
  0
ARC
  5
26B
330
1F
100
AcDbEntity
  8
0
  6
Continuous
 62
     7
370
     5
100
AcDbCircle
 10
-5.452373421165151
 20
9.611918817708556
 30
0.0
 40
0.0807123605968581
100
AcDbArc
 50
315.3552009922301
 51
1.91045558123441
  0
LINE
  5
26C
330
1F
100
AcDbEntity
  8
0
  6
Continuous
 62
     7
370
     5
100
AcDbLine
 10
-8.462732700022721
 20
7.433595196923581
 30
0.0
 11
-8.508721722404969
 21
7.446094027781528
 31
0.0
  0
ARC
  5
26D
330
1F
100
AcDbEntity
  8
0
  6
Continuous
 62
     7
370
     5
100
AcDbCircle
 10
-8.445607482166396
 20
7.496359055268175
 30
0.0
 40
0.0806844489918962
100
AcDbArc
 50
173.7230292358276
 51
218.5342862313931
  0
LINE
  5
26E
330
1F
100
AcDbEntity
  8
0
  6
Continuous
 62
     7
370
     5
100
AcDbLine
 10
-7.92983826699221
 20
9.478239518050969
 30
0.0
 11
-7.883849244609962
 21
9.465740687193024
 31
0.0
  0
ARC
  5
26F
330
1F
100
AcDbEntity
  8
0
  6
Continuous
 62
     7
370
     5
100
AcDbCircle
 10
-8.054578027736093
 20
9.583229261644062
 30
0.0
 40
0.163042491916018
100
AcDbArc
 50
319.9136791284128
 51
5.249265546196881
  0
LINE
  5
270
330
1F
100
AcDbEntity
  8
0
  6
Continuous
 62
     7
370
     5
100
AcDbLine
 10
-5.790036052168998
 20
9.512488000394307
 30
0.0
 11
-5.81430417472754
 21
9.488801568803479
 31
0.0
  0
LWPOLYLINE
  5
271
330
1F
100
AcDbEntity
  8
0
  6
Continuous
 62
     7
370
     5
100
AcDbPolyline
 90
        3
 70
   128
 43
0.0
 10
-5.747066752137314
 20
9.514475868637598
 10
-5.762283662291504
 20
9.510295860541598
 10
-5.790036052168998
 20
9.512488000394307
  0
LINE
  5
272
330
1F
100
AcDbEntity
  8
0
  6
Continuous
 62
     7
370
     5
100
AcDbLine
 10
-8.192873150108777
 20
7.174261031309639
 30
0.0
 11
-8.146884127726529
 21
7.161762200451693
 31
0.0
  0
LINE
  5
273
330
1F
100
AcDbEntity
  8
0
  6
Continuous
 62
     7
370
     5
100
AcDbLine
 10
-8.192873150108777
 20
7.174261031309639
 30
0.0
 11
-8.508721722404969
 21
7.446094027781528
 31
0.0
  0
LINE
  5
274
330
1F
100
AcDbEntity
  8
0
  6
Continuous
 62
     7
370
     5
100
AcDbLine
 10
-7.92983826699221
 20
9.478239518050969
 30
0.0
 11
-7.946668912843476
 21
9.461812291732833
 31
0.0
  0
LINE
  5
275
330
1F
100
AcDbEntity
  8
0
  6
Continuous
 62
     7
370
     5
100
AcDbLine
 10
-8.279859710343863
 20
8.112292968662448
 30
0.0
 11
-8.233870687961612
 21
8.099794137804503
 31
0.0
  0
ARC
  5
276
330
1F
100
AcDbEntity
  8
0
  6
Continuous
 62
     7
370
     5
100
AcDbCircle
 10
-8.40459959780248
 20
8.217282544160541
 30
0.0
 40
0.1630424806191878
100
AcDbArc
 50
319.9137529968565
 51
5.249261442169868
  0
LINE
  5
277
330
1F
100
AcDbEntity
  8
0
  6
Continuous
 62
     7
370
     5
100
AcDbLine
 10
-5.837795399750582
 20
9.525467967707951
 30
0.0
 11
-5.862063522309124
 21
9.501781536117123
 31
0.0
  0
ARC
  5
278
330
1F
100
AcDbEntity
  8
0
  6
Continuous
 62
     7
370
     5
100
AcDbCircle
 10
-5.816663224440106
 20
9.614957187316392
 30
0.0
 40
0.0919504717741043
100
AcDbArc
 50
163.9566179479728
 51
256.7134498920392
  0
LINE
  5
279
330
1F
100
AcDbEntity
  8
0
  6
Continuous
 62
     7
370
     5
100
AcDbLine
 10
-8.279859710343863
 20
8.112292968662448
 30
0.0
 11
-8.29669049309086
 21
8.095865608729882
 31
0.0
  0
LINE
  5
27A
330
1F
100
AcDbEntity
  8
0
  6
Continuous
 62
     7
370
     5
100
AcDbLine
 10
-5.790036052168998
 20
9.512488000394307
 30
0.0
 11
-5.837795399750582
 21
9.525467967707951
 31
0.0
  0
LINE
  5
27B
330
1F
100
AcDbEntity
  8
0
  6
Continuous
 62
     7
370
     5
100
AcDbLine
 10
-6.035019588927112
 20
9.063246011138511
 30
0.0
 11
-6.059287711485655
 21
9.039559579547685
 31
0.0
  0
ARC
  5
27C
330
1F
100
AcDbEntity
  8
0
  6
Continuous
 62
     7
370
     5
100
AcDbCircle
 10
-5.948867448061147
 20
9.064610058752888
 30
0.0
 40
0.0861629386783171
100
AcDbArc
 50
148.3855584055794
 51
180.9070887952885
  0
SPLINE
  5
27D
330
1F
100
AcDbEntity
  8
0
  6
Continuous
 62
     7
370
     5
100
AcDbSpline
210
0.0
220
0.0
230
1.0
 70
     8
 71
     3
 72
    15
 73
    11
 74
     0
 42
0.0000000001
 43
0.0000000001
 40
0.0
 40
0.0
 40
0.0
 40
0.0
 40
0.1587317958909242
 40
0.293931879767439
 40
0.4065411287854747
 40
0.4983006265716203
 40
0.603608061717813
 40
0.7205469946447393
 40
0.8519978413845292
 40
1.0
 40
1.0
 40
1.0
 40
1.0
 10
-7.374813669077581
 20
10.24097386862061
 30
0.0
 10
-7.378088443627082
 20
10.24324701746262
 30
0.0
 10
-7.38415251310822
 20
10.24745632479372
 30
0.0
 10
-7.393666028559135
 20
10.25135090101742
 30
0.0
 10
-7.401877111348375
 20
10.25321129475119
 30
0.0
 10
-7.409462598439145
 20
10.25324701585932
 30
0.0
 10
-7.416822788422321
 20
10.25105838078753
 30
0.0
 10
-7.424066315862864
 20
10.24665041118309
 30
0.0
 10
-7.430785887259571
 20
10.24002818620284
 30
0.0
 10
-7.433941694220957
 20
10.23431695505417
 30
0.0
 10
-7.435613053030865
 20
10.23129220841643
 30
0.0
  0
LINE
  5
27E
330
1F
100
AcDbEntity
  8
0
  6
Continuous
 62
     7
370
     5
100
AcDbLine
 10
-6.059287711485655
 20
8.164008950189913
 30
0.0
 11
-6.035019588927112
 21
8.187695381780738
 31
0.0
  0
LINE
  5
27F
330
1F
100
AcDbEntity
  8
0
  6
Continuous
 62
     7
370
     5
100
AcDbLine
 10
-6.035019588927112
 20
9.063246011138511
 30
0.0
 11
-6.035019588927112
 21
8.187695381780738
 31
0.0
  0
LINE
  5
280
330
1F
100
AcDbEntity
  8
0
  6
Continuous
 62
     7
370
     5
100
AcDbLine
 10
-8.146884127726529
 20
6.56326806990577
 30
0.0
 11
-8.192873150108777
 21
6.575766900763716
 31
0.0
  0
LINE
  5
281
330
1F
100
AcDbEntity
  8
0
  6
Continuous
 62
     7
370
     5
100
AcDbLine
 10
-8.508721722404969
 20
5.687378141313028
 30
0.0
 11
-8.462732700022721
 21
5.674879310455081
 31
0.0
  0
LINE
  5
282
330
1F
100
AcDbEntity
  8
0
  6
Continuous
 62
     7
370
     5
100
AcDbLine
 10
-8.508721722404969
 20
5.687378141313028
 30
0.0
 11
-8.192873150108777
 21
6.575766900763716
 31
0.0
  0
LINE
  5
283
330
1F
100
AcDbEntity
  8
0
  6
Continuous
 62
     7
370
     5
100
AcDbLine
 10
-5.428354602577615
 20
7.336660367879655
 30
0.0
 11
-5.404086480019072
 21
7.360346799470482
 31
0.0
  0
LINE
  5
284
330
1F
100
AcDbEntity
  8
0
  6
Continuous
 62
     7
370
     5
100
AcDbLine
 10
-6.002639033522633
 20
8.103131443901498
 30
0.0
 11
-6.026907156081175
 21
8.079445012310669
 31
0.0
  0
LINE
  5
285
330
1F
100
AcDbEntity
  8
0
  6
Continuous
 62
     7
370
     5
100
AcDbLine
 10
-6.002639033522633
 20
8.103131443901498
 30
0.0
 11
-5.404086480019072
 21
7.360346799470482
 31
0.0
  0
LINE
  5
286
330
1F
100
AcDbEntity
  8
0
  6
Continuous
 62
     7
370
     5
100
AcDbLine
 10
-8.129797623750933
 20
7.102675586820296
 30
0.0
 11
-8.175786646133181
 21
7.115174417678241
 31
0.0
  0
ARC
  5
287
330
1F
100
AcDbEntity
  8
0
  6
Continuous
 62
     7
370
     5
100
AcDbCircle
 10
-8.255988427062648
 20
7.123995708720868
 30
0.0
 40
0.0806854437920317
100
AcDbArc
 50
353.7233402104285
 51
38.53399152280484
  0
LINE
  5
288
330
1F
100
AcDbEntity
  8
0
  6
Continuous
 62
     7
370
     5
100
AcDbLine
 10
-7.435613053030865
 20
9.607746190010178
 30
0.0
 11
-7.444734482399067
 21
9.610225199063867
 31
0.0
  0
LINE
  5
289
330
1F
100
AcDbEntity
  8
0
  6
Continuous
 62
     7
370
     5
100
AcDbLine
 10
-6.453349716481517
 20
8.668447550987957
 30
0.0
 11
-6.47761783904006
 21
8.644761119397131
 31
0.0
  0
LWPOLYLINE
  5
28A
330
1F
100
AcDbEntity
  8
0
  6
Continuous
 62
     7
370
     5
100
AcDbPolyline
 90
        3
 70
   128
 43
0.0
 10
-6.410380416449833
 20
8.670435372087593
 10
-6.42559732660402
 20
8.666255379706145
 10
-6.453349716481517
 20
8.668447550987957
  0
LINE
  5
28B
330
1F
100
AcDbEntity
  8
0
  6
Continuous
 62
     7
370
     5
100
AcDbLine
 10
-7.374813669077581
 20
9.61742785021436
 30
0.0
 11
-7.350545546519039
 21
9.641114281805185
 31
0.0
  0
LWPOLYLINE
  5
28C
330
1F
100
AcDbEntity
  8
0
  6
Continuous
 62
     7
370
     5
100
AcDbPolyline
 90
        3
 70
   128
 43
0.0
 10
-7.339195126219905
 20
9.645363148050165
 10
-7.341249782664619
 20
9.644393539437427
 10
-7.350545546519039
 20
9.641114281805185
  0
LINE
  5
28D
330
1F
100
AcDbEntity
  8
0
  6
Continuous
 62
     7
370
     5
100
AcDbLine
 10
-8.175786646133181
 20
6.668207480635676
 30
0.0
 11
-8.129797623750933
 21
6.65570864977773
 31
0.0
  0
LINE
  5
28E
330
1F
100
AcDbEntity
  8
0
  6
Continuous
 62
     7
370
     5
100
AcDbLine
 10
-8.175786646133181
 20
6.668207480635676
 30
0.0
 11
-8.175786646133181
 21
7.115174417678241
 31
0.0
  0
SPLINE
  5
28F
330
1F
100
AcDbEntity
  8
0
  6
Continuous
 62
     7
370
     5
100
AcDbSpline
210
0.0
220
0.0
230
1.0
 70
     8
 71
     3
 72
    15
 73
    11
 74
     0
 42
0.0000000001
 43
0.0000000001
 40
0.0
 40
0.0
 40
0.0
 40
0.0
 40
0.1587321248873723
 40
0.2939321301187103
 40
0.406541050347956
 40
0.498300614981781
 40
0.6036080663044368
 40
0.7205466858849621
 40
0.8519974561604868
 40
1.0
 40
1.0
 40
1.0
 40
1.0
 10
-7.374813669077581
 20
9.276660611983695
 30
0.0
 10
-7.37808844185973
 20
9.278933782235254
 30
0.0
 10
-7.384152500664427
 20
9.28314312407225
 30
0.0
 10
-7.393666013805901
 20
9.287037742159659
 30
0.0
 10
-7.401877128927103
 20
9.288897987599094
 30
0.0
 10
-7.409462595019913
 20
9.288933875374278
 30
0.0
 10
-7.416822775951636
 20
9.286745075118149
 30
0.0
 10
-7.42406632603539
 20
9.282337245540738
 30
0.0
 10
-7.430785896642488
 20
9.27571498212257
 30
0.0
 10
-7.433941695832929
 20
9.270003719576633
 30
0.0
 10
-7.435613053030865
 20
9.266978951779513
 30
0.0
  0
SPLINE
  5
290
330
1F
100
AcDbEntity
  8
0
  6
Continuous
 62
     7
370
     5
100
AcDbSpline
210
0.0
220
0.0
230
1.0
 70
     8
 71
     3
 72
    15
 73
    11
 74
     0
 42
0.0000000001
 43
0.0000000001
 40
0.0
 40
0.0
 40
0.0
 40
0.0
 40
0.1480025051239558
 40
0.2794532410136536
 40
0.396392075328119
 40
0.5016994216704798
 40
0.5934589623011858
 40
0.7060675897966874
 40
0.841267916634905
 40
0.9999999999999998
 40
0.9999999999999998
 40
0.9999999999999998
 40
0.9999999999999998
 10
-7.435613053030865
 20
9.607746190010178
 30
0.0
 10
-7.433941696612247
 20
9.607561117989092
 30
0.0
 10
-7.430785898893292
 20
9.607211671362703
 30
0.0
 10
-7.424066314391598
 20
9.607202932817997
 30
0.0
 10
-7.416822790819363
 20
9.607640645261831
 30
0.0
 10
-7.409462588570267
 20
9.608552537687112
 30
0.0
 10
-7.401877142960215
 20
9.610348196707475
 30
0.0
 10
-7.393665982969975
 20
9.612637475765813
 30
0.0
 10
-7.384152521539132
 20
9.615223938559694
 30
0.0
 10
-7.378088446597187
 20
9.616655022891986
 30
0.0
 10
-7.374813669077581
 20
9.61742785021436
 30
0.0
  0
SPLINE
  5
291
330
1F
100
AcDbEntity
  8
0
  6
Continuous
 62
     7
370
     5
100
AcDbSpline
210
0.0
220
0.0
230
1.0
 70
     8
 71
     3
 72
    12
 73
     8
 74
     0
 42
0.0000000001
 43
0.0000000001
 40
0.0
 40
0.0
 40
0.0
 40
0.0
 40
0.1474476807316035
 40
0.3020556848316165
 40
0.5959991071246556
 40
0.7841925203757107
 40
1.0
 40
1.0
 40
1.0
 40
1.0
 10
-7.453780367354757
 20
9.628756637920156
 30
0.0
 10
-7.449359345259241
 20
9.629710732876054
 30
0.0
 10
-7.440302608319809
 20
9.631665255347128
 30
0.0
 10
-7.41974404597505
 20
9.635133625430201
 30
0.0
 10
-7.396223903570193
 20
9.639109892100563
 30
0.0
 10
-7.370946740908651
 20
9.641369600162532
 30
0.0
 10
-7.357648919977502
 20
9.641203179622069
 30
0.0
 10
-7.350545546519039
 20
9.641114281805185
 30
0.0
  0
LINE
  5
292
330
1F
100
AcDbEntity
  8
0
  6
Continuous
 62
     7
370
     5
100
AcDbLine
 10
-6.501106988652549
 20
8.681426954249484
 30
0.0
 11
-6.525375111211092
 21
8.657740522658658
 31
0.0
  0
ARC
  5
293
330
1F
100
AcDbEntity
  8
0
  6
Continuous
 62
     7
370
     5
100
AcDbCircle
 10
-6.479976917138125
 20
8.770916646299015
 30
0.0
 40
0.0919504480974661
100
AcDbArc
 50
163.9566052518482
 51
256.7147933674251
  0
LINE
  5
294
330
1F
100
AcDbEntity
  8
0
  6
Continuous
 62
     7
370
     5
100
AcDbLine
 10
-6.453349716481517
 20
8.668447550987957
 30
0.0
 11
-6.501106988652549
 21
8.681426954249484
 31
0.0
  0
LINE
  5
295
330
1F
100
AcDbEntity
  8
0
  6
Continuous
 62
     7
370
     5
100
AcDbLine
 10
-8.479819203998319
 20
5.582438730583122
 30
0.0
 11
-8.525808226380565
 21
5.594937561441067
 31
0.0
  0
ARC
  5
296
330
1F
100
AcDbEntity
  8
0
  6
Continuous
 62
     7
370
     5
100
AcDbCircle
 10
-8.240579505281438
 20
5.590015946225559
 30
0.0
 40
0.2852711791194007
100
AcDbArc
 50
160.0440865142983
 51
179.0114607030434
  0
ARC
  5
297
330
1F
100
AcDbEntity
  8
0
  6
Continuous
 62
     7
370
     5
100
AcDbCircle
 10
-5.897215399083517
 20
8.191980851855985
 30
0.0
 40
0.1378708090649193
100
AcDbArc
 50
181.7812248008436
 51
220.1236710043564
  0
LINE
  5
298
330
1F
100
AcDbEntity
  8
0
  6
Continuous
 62
     7
370
     5
100
AcDbLine
 10
-8.525808226380565
 20
5.42502704463759
 30
0.0
 11
-8.479819203998319
 21
5.412528213779644
 31
0.0
  0
LINE
  5
299
330
1F
100
AcDbEntity
  8
0
  6
Continuous
 62
     7
370
     5
100
AcDbLine
 10
-8.525808226380565
 20
5.594937561441067
 30
0.0
 11
-8.525808226380565
 21
5.42502704463759
 31
0.0
  0
LINE
  5
29A
330
1F
100
AcDbEntity
  8
0
  6
Continuous
 62
     7
370
     5
100
AcDbLine
 10
-5.371705924614597
 20
7.275782893020345
 30
0.0
 11
-5.39597404717314
 21
7.252096461429517
 31
0.0
  0
ARC
  5
29B
330
1F
100
AcDbEntity
  8
0
  6
Continuous
 62
     7
370
     5
100
AcDbCircle
 10
-5.509524155221287
 20
7.27149201354311
 30
0.0
 40
0.1378850112747823
100
AcDbArc
 50
1.783290147995553
 51
40.12161987978269
  0
ARC
  5
29C
330
1F
100
AcDbEntity
  8
0
  6
Continuous
 62
     7
370
     5
100
AcDbCircle
 10
-8.461018872980963
 20
6.673129743845696
 30
0.0
 40
0.2852746955263528
100
AcDbArc
 50
340.0442044933101
 51
359.0113427240332
  0
LINE
  5
29D
330
1F
100
AcDbEntity
  8
0
  6
Continuous
 62
     7
370
     5
100
AcDbLine
 10
-5.39597404717314
 20
6.805129524386952
 30
0.0
 11
-5.371705924614597
 21
6.828815955977779
 31
0.0
  0
LINE
  5
29E
330
1F
100
AcDbEntity
  8
0
  6
Continuous
 62
     7
370
     5
100
AcDbLine
 10
-5.371705924614597
 20
6.828815955977779
 30
0.0
 11
-5.371705924614597
 21
7.275782893020345
 31
0.0
  0
LINE
  5
29F
330
1F
100
AcDbEntity
  8
0
  6
Continuous
 62
     7
370
     5
100
AcDbLine
 10
-6.72760486299829
 20
8.294915261314669
 30
0.0
 11
-6.706267567131515
 21
8.28885597708566
 31
0.0
  0
SPLINE
  5
2A0
330
1F
100
AcDbEntity
  8
0
  6
Continuous
 62
     7
370
     5
100
AcDbSpline
210
0.0
220
0.0
230
1.0
 70
     8
 71
     3
 72
    11
 73
     7
 74
     0
 42
0.0000000001
 43
0.0000000001
 40
0.0
 40
0.0
 40
0.0
 40
0.0
 40
0.4997279242023528
 40
0.62534199337455
 40
0.7510779743403155
 40
1.0
 40
1.0
 40
1.0
 40
1.0
 10
-6.706267567131515
 20
8.28885597708566
 30
0.0
 10
-6.698842040242132
 20
8.286812699022116
 30
0.0
 10
-6.689549996387923
 20
8.284255812533704
 30
0.0
 10
-6.680554344951298
 20
8.287721111086476
 30
0.0
 10
-6.675865205291285
 20
8.291872255890515
 30
0.0
 10
-6.675034544147383
 20
8.296896353723722
 30
0.0
 10
-6.674482654554949
 20
8.30023435421387
 30
0.0
  0
SPLINE
  5
2A1
330
1F
100
AcDbEntity
  8
0
  6
Continuous
 62
     7
370
     5
100
AcDbSpline
210
0.0
220
0.0
230
1.0
 70
     8
 71
     3
 72
    11
 73
     7
 74
     0
 42
0.0000000001
 43
0.0000000001
 40
0.0
 40
0.0
 40
0.0
 40
0.0
 40
0.2489641519664445
 40
0.3747230756081384
 40
0.5003539198064133
 40
1.0
 40
1.0
 40
1.0
 40
1.0
 10
-6.674482654554949
 20
8.30023435421387
 30
0.0
 10
-6.675035302874761
 20
8.303773750761033
 30
0.0
 10
-6.675867109689086
 20
8.309100997874617
 30
0.0
 10
-6.680356261821736
 20
8.315644718862296
 30
0.0
 10
-6.688961460616772
 20
8.323967104243767
 30
0.0
 10
-6.698052535753372
 20
8.326336089712681
 30
0.0
 10
-6.705317029099516
 20
8.328229097846204
 30
0.0
  0
LINE
  5
2A2
330
1F
100
AcDbEntity
  8
0
  6
Continuous
 62
     7
370
     5
100
AcDbLine
 10
-6.705317029099516
 20
8.328229097846204
 30
0.0
 11
-6.72760486299829
 21
8.334286453529378
 31
0.0
  0
LINE
  5
2A3
330
1F
100
AcDbEntity
  8
0
  6
Continuous
 62
     7
370
     5
100
AcDbLine
 10
-6.72760486299829
 20
8.334286453529378
 30
0.0
 11
-6.72760486299829
 21
8.294915261314669
 31
0.0
  0
LINE
  5
2A4
330
1F
100
AcDbEntity
  8
0
  6
Continuous
 62
     7
370
     5
100
AcDbLine
 10
-6.738542276597934
 20
8.349373230844971
 30
0.0
 11
-6.714641848701638
 21
8.342877606666981
 31
0.0
  0
SPLINE
  5
2A5
330
1F
100
AcDbEntity
  8
0
  6
Continuous
 62
     7
370
     5
100
AcDbSpline
210
0.0
220
0.0
230
1.0
 70
     8
 71
     3
 72
     9
 73
     5
 74
     0
 42
0.0000000001
 43
0.0000000001
 40
0.0
 40
0.0
 40
0.0
 40
0.0
 40
0.5603611901754436
 40
1.0
 40
1.0
 40
1.0
 40
1.0
 10
-6.714641848701638
 20
8.342877606666981
 30
0.0
 10
-6.7094315406082
 20
8.341477639578261
 30
0.0
 10
-6.700133416139929
 20
8.338979309727328
 30
0.0
 10
-6.690931032843175
 20
8.335214555582323
 30
0.0
 10
-6.686885308003043
 20
8.333559423550731
 30
0.0
  0
SPLINE
  5
2A6
330
1F
100
AcDbEntity
  8
0
  6
Continuous
 62
     7
370
     5
100
AcDbSpline
210
0.0
220
0.0
230
1.0
 70
     8
 71
     3
 72
    11
 73
     7
 74
     0
 42
0.0000000001
 43
0.0000000001
 40
0.0
 40
0.0
 40
0.0
 40
0.0
 40
0.2797087296706931
 40
0.5593962214722625
 40
0.7795074508830134
 40
1.0
 40
1.0
 40
1.0
 40
1.0
 10
-6.686885308003043
 20
8.333559423550731
 30
0.0
 10
-6.683182708828522
 20
8.331258006661768
 30
0.0
 10
-6.675777791612348
 20
8.326655347627013
 30
0.0
 10
-6.668120781299045
 20
8.31658538481385
 30
0.0
 10
-6.664085900617247
 20
8.306412285778851
 30
0.0
 10
-6.663725564793273
 20
8.300345266682663
 30
0.0
 10
-6.663545240955305
 20
8.297309131789472
 30
0.0
  0
SPLINE
  5
2A7
330
1F
100
AcDbEntity
  8
0
  6
Continuous
 62
     7
370
     5
100
AcDbSpline
210
0.0
220
0.0
230
1.0
 70
     8
 71
     3
 72
    11
 73
     7
 74
     0
 42
0.0000000001
 43
0.0000000001
 40
0.0
 40
0.0
 40
0.0
 40
0.0
 40
0.2801072912404251
 40
0.5593319387415524
 40
0.7794815056856296
 40
1.0
 40
1.0
 40
1.0
 40
1.0
 10
-6.663545240955305
 20
8.297309131789472
 30
0.0
 10
-6.663835378712032
 20
8.293492573961023
 30
0.0
 10
-6.664414739974827
 20
8.285871484627529
 30
0.0
 10
-6.670522635972599
 20
8.278054087084695
 30
0.0
 10
-6.67882415583649
 20
8.274194906303662
 30
0.0
 10
-6.684846871846995
 20
8.274024753844225
 30
0.0
 10
-6.687860750961641
 20
8.273939606388672
 30
0.0
  0
SPLINE
  5
2A8
330
1F
100
AcDbEntity
  8
0
  6
Continuous
 62
     7
370
     5
100
AcDbSpline
210
0.0
220
0.0
230
1.0
 70
     8
 71
     3
 72
     9
 73
     5
 74
     0
 42
0.0000000001
 43
0.0000000001
 40
0.0
 40
0.0
 40
0.0
 40
0.0
 40
0.559661656284397
 40
1.0
 40
1.0
 40
1.0
 40
1.0
 10
-6.687860750961646
 20
8.273939606388672
 30
0.0
 10
-6.693628484658021
 20
8.274803988080108
 30
0.0
 10
-6.703934235698143
 20
8.276348459961873
 30
0.0
 10
-6.714317892055722
 20
8.279183990844044
 30
0.0
 10
-6.718890214097933
 20
8.280432583816253
 30
0.0
  0
LINE
  5
2A9
330
1F
100
AcDbEntity
  8
0
  6
Continuous
 62
     7
370
     5
100
AcDbLine
 10
-6.718890214097933
 20
8.280432583816253
 30
0.0
 11
-6.72760486299829
 21
8.282801038655032
 31
0.0
  0
LINE
  5
2AA
330
1F
100
AcDbEntity
  8
0
  6
Continuous
 62
     7
370
     5
100
AcDbLine
 10
-6.72760486299829
 20
8.282801038655032
 30
0.0
 11
-6.72760486299829
 21
8.228287068115777
 31
0.0
  0
LINE
  5
2AB
330
1F
100
AcDbEntity
  8
0
  6
Continuous
 62
     7
370
     5
100
AcDbLine
 10
-6.72760486299829
 20
8.228287068115777
 30
0.0
 11
-6.738542276597934
 21
8.231259622771736
 31
0.0
  0
LINE
  5
2AC
330
1F
100
AcDbEntity
  8
0
  6
Continuous
 62
     7
370
     5
100
AcDbLine
 10
-6.738542276597934
 20
8.231259622771736
 30
0.0
 11
-6.738542276597934
 21
8.349373230844971
 31
0.0
  0
LINE
  5
2AD
330
1F
100
AcDbEntity
  8
0
  6
Continuous
 62
     7
370
     5
100
AcDbLine
 10
-6.663545240955305
 20
8.297309131789472
 30
0.0
 11
-6.659344937638121
 21
8.301408756593296
 31
0.0
  0
LINE
  5
2AE
330
1F
100
AcDbEntity
  8
0
  6
Continuous
 62
     7
370
     5
100
AcDbLine
 10
-6.686885308003043
 20
8.333559423550731
 30
0.0
 11
-6.682685004685857
 21
8.337659048354556
 31
0.0
  0
LINE
  5
2AF
330
1F
100
AcDbEntity
  8
0
  6
Continuous
 62
     7
370
     5
100
AcDbLine
 10
-6.714641848701638
 20
8.342877606666981
 30
0.0
 11
-6.710441545384454
 21
8.346977231470804
 31
0.0
  0
SPLINE
  5
2B0
330
1F
100
AcDbEntity
  8
0
  6
Continuous
 62
     7
370
     5
100
AcDbSpline
210
0.0
220
0.0
230
1.0
 70
     8
 71
     3
 72
     9
 73
     5
 74
     0
 42
0.0000000001
 43
0.0000000001
 40
0.0
 40
0.0
 40
0.0
 40
0.0
 40
0.8202415753853918
 40
1.0
 40
1.0
 40
1.0
 40
1.0
 10
-6.70206726381433
 20
8.292955601889484
 30
0.0
 10
-6.694542809699806
 20
8.290756119069577
 30
0.0
 10
-6.685369348684997
 20
8.28807461293052
 30
0.0
 10
-6.67834774028552
 20
8.291255125759828
 30
0.0
 10
-6.677085547021373
 20
8.291826849735492
 30
0.0
  0
LINE
  5
2B1
330
1F
100
AcDbEntity
  8
0
  6
Continuous
 62
     7
370
     5
100
AcDbLine
 10
-6.723404559681107
 20
8.299014886118492
 30
0.0
 11
-6.70206726381433
 21
8.292955601889484
 31
0.0
  0
LINE
  5
2B2
330
1F
100
AcDbEntity
  8
0
  6
Continuous
 62
     7
370
     5
100
AcDbLine
 10
-6.723404559681107
 20
8.333144960846654
 30
0.0
 11
-6.723404559681107
 21
8.299014886118492
 31
0.0
  0
LINE
  5
2B3
330
1F
100
AcDbEntity
  8
0
  6
Continuous
 62
     7
370
     5
100
AcDbLine
 10
-6.738542276597934
 20
8.349373230844971
 30
0.0
 11
-6.734341973280748
 21
8.353472855648796
 31
0.0
  0
LINE
  5
2B4
330
1F
100
AcDbEntity
  8
0
  6
Continuous
 62
     7
370
     5
100
AcDbLine
 10
-6.706267567131515
 20
8.28885597708566
 30
0.0
 11
-6.70206726381433
 21
8.292955601889484
 31
0.0
  0
LINE
  5
2B5
330
1F
100
AcDbEntity
  8
0
  6
Continuous
 62
     7
370
     5
100
AcDbLine
 10
-6.72760486299829
 20
8.294915261314669
 30
0.0
 11
-6.723404559681107
 21
8.299014886118492
 31
0.0
  0
LINE
  5
2B6
330
1F
100
AcDbEntity
  8
0
  6
Continuous
 62
     7
370
     5
100
AcDbLine
 10
-6.835412064029294
 20
8.280371897589439
 30
0.0
 11
-6.825109726058018
 21
8.28355807157828
 31
0.0
  0
SPLINE
  5
2B7
330
1F
100
AcDbEntity
  8
0
  6
Continuous
 62
     7
370
     5
100
AcDbSpline
210
0.0
220
0.0
230
1.0
 70
     8
 71
     3
 72
    10
 73
     6
 74
     0
 42
0.0000000001
 43
0.0000000001
 40
0.0
 40
0.0
 40
0.0
 40
0.0
 40
0.5593030871431637
 40
0.7797626983485279
 40
1.0
 40
1.0
 40
1.0
 40
1.0
 10
-6.825109726058018
 20
8.28355807157828
 30
0.0
 10
-6.821488292562539
 20
8.277179429339984
 30
0.0
 10
-6.816439404367148
 20
8.268286527802574
 30
0.0
 10
-6.806114345997952
 20
8.259492611209362
 30
0.0
 10
-6.800939600695658
 20
8.257564340836648
 30
0.0
 10
-6.798353533244622
 20
8.256600692008277
 30
0.0
  0
SPLINE
  5
2B8
330
1F
100
AcDbEntity
  8
0
  6
Continuous
 62
     7
370
     5
100
AcDbSpline
210
0.0
220
0.0
230
1.0
 70
     8
 71
     3
 72
    11
 73
     7
 74
     0
 42
0.0000000001
 43
0.0000000001
 40
0.0
 40
0.0
 40
0.0
 40
0.0
 40
0.2802768282662317
 40
0.5601281387717482
 40
0.7801553834569031
 40
1.0
 40
1.0
 40
1.0
 40
1.0
 10
-6.798353533244624
 20
8.256600692008278
 30
0.0
 10
-6.795077346305978
 20
8.256028614321653
 30
0.0
 10
-6.788529946352999
 20
8.254885327479769
 30
0.0
 10
-6.780527253168007
 20
8.257484979260329
 30
0.0
 10
-6.775441819612037
 20
8.262906879400096
 30
0.0
 10
-6.774799191117422
 20
8.267722094990268
 30
0.0
 10
-6.774478010274931
 20
8.270128703183022
 30
0.0
  0
SPLINE
  5
2B9
330
1F
100
AcDbEntity
  8
0
  6
Continuous
 62
     7
370
     5
100
AcDbSpline
210
0.0
220
0.0
230
1.0
 70
     8
 71
     3
 72
     9
 73
     5
 74
     0
 42
0.0000000001
 43
0.0000000001
 40
0.0
 40
0.0
 40
0.0
 40
0.0
 40
0.5590267720179993
 40
1.0
 40
1.0
 40
1.0
 40
1.0
 10
-6.774478010274931
 20
8.270128703183022
 30
0.0
 10
-6.774778082312402
 20
8.27256340583928
 30
0.0
 10
-6.775314858102921
 20
8.276918658178033
 30
0.0
 10
-6.777765903904207
 20
8.281076301574202
 30
0.0
 10
-6.778846749483137
 20
8.282909711003409
 30
0.0
  0
SPLINE
  5
2BA
330
1F
100
AcDbEntity
  8
0
  6
Continuous
 62
     7
370
     5
100
AcDbSpline
210
0.0
220
0.0
230
1.0
 70
     8
 71
     3
 72
     9
 73
     5
 74
     0
 42
0.0000000001
 43
0.0000000001
 40
0.0
 40
0.0
 40
0.0
 40
0.0
 40
0.5595131941860698
 40
0.9999999999999998
 40
0.9999999999999998
 40
0.9999999999999998
 40
0.9999999999999998
 10
-6.778846749483137
 20
8.28290971100341
 30
0.0
 10
-6.782602438607152
 20
8.287824082897444
 30
0.0
 10
-6.789314861411543
 20
8.296607382281798
 30
0.0
 10
-6.797301230686366
 20
8.304318498280494
 30
0.0
 10
-6.800819120978281
 20
8.30771514313602
 30
0.0
  0
SPLINE
  5
2BB
330
1F
100
AcDbEntity
  8
0
  6
Continuous
 62
     7
370
     5
100
AcDbSpline
210
0.0
220
0.0
230
1.0
 70
     8
 71
     3
 72
     9
 73
     5
 74
     0
 42
0.0000000001
 43
0.0000000001
 40
0.0
 40
0.0
 40
0.0
 40
0.0
 40
0.5604332989192576
 40
1.0
 40
1.0
 40
1.0
 40
1.0
 10
-6.800819120978281
 20
8.30771514313602
 30
0.0
 10
-6.804792665461296
 20
8.311516306769197
 30
0.0
 10
-6.811882794635783
 20
8.3182988509908
 30
0.0
 10
-6.818069327465416
 20
8.325876921837991
 30
0.0
 10
-6.820788721292466
 20
8.329207989440849
 30
0.0
  0
SPLINE
  5
2BC
330
1F
100
AcDbEntity
  8
0
  6
Continuous
 62
     7
370
     5
100
AcDbSpline
210
0.0
220
0.0
230
1.0
 70
     8
 71
     3
 72
     9
 73
     5
 74
     0
 42
0.0000000001
 43
0.0000000001
 40
0.0
 40
0.0
 40
0.0
 40
0.0
 40
0.5598461419147336
 40
1.0
 40
1.0
 40
1.0
 40
1.0
 10
-6.820788721292466
 20
8.329207989440849
 30
0.0
 10
-6.822936501423212
 20
8.332855502331913
 30
0.0
 10
-6.826772877116356
 20
8.339370708239357
 30
0.0
 10
-6.827347358514491
 20
8.346085641291214
 30
0.0
 10
-6.827600218718277
 20
8.349041244980771
 30
0.0
  0
SPLINE
  5
2BD
330
1F
100
AcDbEntity
  8
0
  6
Continuous
 62
     7
370
     5
100
AcDbSpline
210
0.0
220
0.0
230
1.0
 70
     8
 71
     3
 72
    11
 73
     7
 74
     0
 42
0.0000000001
 43
0.0000000001
 40
0.0
 40
0.0
 40
0.0
 40
0.0
 40
0.2795623282534743
 40
0.5587979762292143
 40
0.779399001465952
 40
1.0
 40
1.0
 40
1.0
 40
1.0
 10
-6.827600218718277
 20
8.349041244980771
 30
0.0
 10
-6.827071889459754
 20
8.353091269608366
 30
0.0
 10
-6.826015848317557
 20
8.361186586240322
 30
0.0
 10
-6.817692689415368
 20
8.368030982790269
 30
0.0
 10
-6.807741653348594
 20
8.370365950017093
 30
0.0
 10
-6.800962670231261
 20
8.369085397226729
 30
0.0
 10
-6.79757317887774
 20
8.368445120870299
 30
0.0
  0
SPLINE
  5
2BE
330
1F
100
AcDbEntity
  8
0
  6
Continuous
 62
     7
370
     5
100
AcDbSpline
210
0.0
220
0.0
230
1.0
 70
     8
 71
     3
 72
    10
 73
     6
 74
     0
 42
0.0000000001
 43
0.0000000001
 40
0.0
 40
0.0
 40
0.0
 40
0.0
 40
0.2797711939965786
 40
0.5595114065519857
 40
1.0
 40
1.0
 40
1.0
 40
1.0
 10
-6.797573178877742
 20
8.368445120870301
 30
0.0
 10
-6.793820570376277
 20
8.367070231570894
 30
0.0
 10
-6.786315768931568
 20
8.364320605225254
 30
0.0
 10
-6.774569938489221
 20
8.354177256719358
 30
0.0
 10
-6.768695909607968
 20
8.345148987895564
 30
0.0
 10
-6.765103380819607
 20
8.33962734060471
 30
0.0
  0
LINE
  5
2BF
330
1F
100
AcDbEntity
  8
0
  6
Continuous
 62
     7
370
     5
100
AcDbLine
 10
-6.765103380819607
 20
8.33962734060471
 30
0.0
 11
-6.774990636680835
 21
8.335050684516902
 31
0.0
  0
SPLINE
  5
2C0
330
1F
100
AcDbEntity
  8
0
  6
Continuous
 62
     7
370
     5
100
AcDbSpline
210
0.0
220
0.0
230
1.0
 70
     8
 71
     3
 72
    10
 73
     6
 74
     0
 42
0.0000000001
 43
0.0000000001
 40
0.0
 40
0.0
 40
0.0
 40
0.0
 40
0.5598209262679658
 40
0.7798114226657776
 40
1.0
 40
1.0
 40
1.0
 40
1.0
 10
-6.774990636680835
 20
8.335050684516902
 30
0.0
 10
-6.778436159489055
 20
8.340268331904617
 30
0.0
 10
-6.783235655036341
 20
8.347536336442257
 30
0.0
 10
-6.792253874982789
 20
8.354403658609529
 30
0.0
 10
-6.796612984647492
 20
8.355909367583354
 30
0.0
 10
-6.798793520281272
 20
8.356662560855392
 30
0.0
  0
SPLINE
  5
2C1
330
1F
100
AcDbEntity
  8
0
  6
Continuous
 62
     7
370
     5
100
AcDbSpline
210
0.0
220
0.0
230
1.0
 70
     8
 71
     3
 72
    11
 73
     7
 74
     0
 42
0.0000000001
 43
0.0000000001
 40
0.0
 40
0.0
 40
0.0
 40
0.0
 40
0.2802285118415149
 40
0.5599107988477126
 40
0.7799258585864683
 40
1.0
 40
1.0
 40
1.0
 40
1.0
 10
-6.798793520281272
 20
8.356662560855392
 30
0.0
 10
-6.801267415195396
 20
8.357150239312714
 30
0.0
 10
-6.806210382877492
 20
8.358124645638556
 30
0.0
 10
-6.812160742204317
 20
8.356060240295768
 30
0.0
 10
-6.816067079675384
 20
8.352062613071151
 30
0.0
 10
-6.816464212199297
 20
8.34839808084691
 30
0.0
 10
-6.816662805118633
 20
8.346565568754314
 30
0.0
  0
SPLINE
  5
2C2
330
1F
100
AcDbEntity
  8
0
  6
Continuous
 62
     7
370
     5
100
AcDbSpline
210
0.0
220
0.0
230
1.0
 70
     8
 71
     3
 72
    10
 73
     6
 74
     0
 42
0.0000000001
 43
0.0000000001
 40
0.0
 40
0.0
 40
0.0
 40
0.0
 40
0.2799436831039776
 40
0.5597704290033545
 40
1.0
 40
1.0
 40
1.0
 40
1.0
 10
-6.816662805118633
 20
8.346565568754314
 30
0.0
 10
-6.816520058156677
 20
8.344878395468887
 30
0.0
 10
-6.816234623860583
 20
8.34150475365881
 30
0.0
 10
-6.813595064275903
 20
8.335353496623403
 30
0.0
 10
-6.810514418246981
 20
8.331486079400544
 30
0.0
 10
-6.808630966289297
 20
8.329121609587653
 30
0.0
  0
SPLINE
  5
2C3
330
1F
100
AcDbEntity
  8
0
  6
Continuous
 62
     7
370
     5
100
AcDbSpline
210
0.0
220
0.0
230
1.0
 70
     8
 71
     3
 72
     9
 73
     5
 74
     0
 42
0.0000000001
 43
0.0000000001
 40
0.0
 40
0.0
 40
0.0
 40
0.0
 40
0.5598811684969928
 40
1.0
 40
1.0
 40
1.0
 40
1.0
 10
-6.808630966289297
 20
8.329121609587653
 30
0.0
 10
-6.80562488140403
 20
8.326042894813587
 30
0.0
 10
-6.800255733351896
 20
8.320544023004181
 30
0.0
 10
-6.794696482017681
 20
8.315243219970586
 30
0.0
 10
-6.792249750816437
 20
8.312910236733412
 30
0.0
  0
SPLINE
  5
2C4
330
1F
100
AcDbEntity
  8
0
  6
Continuous
 62
     7
370
     5
100
AcDbSpline
210
0.0
220
0.0
230
1.0
 70
     8
 71
     3
 72
    10
 73
     6
 74
     0
 42
0.0000000001
 43
0.0000000001
 40
0.0
 40
0.0
 40
0.0
 40
0.0
 40
0.5601247686015651
 40
0.7802802879345433
 40
1.0
 40
1.0
 40
1.0
 40
1.0
 10
-6.792249750816437
 20
8.312910236733412
 30
0.0
 10
-6.784610547565617
 20
8.305351018942909
 30
0.0
 10
-6.773968776220599
 20
8.294820671126192
 30
0.0
 10
-6.764911031778634
 20
8.278141418007948
 30
0.0
 10
-6.763997106551983
 20
8.270705028227094
 30
0.0
 10
-6.763540596675292
 20
8.266990517145714
 30
0.0
  0
SPLINE
  5
2C5
330
1F
100
AcDbEntity
  8
0
  6
Continuous
 62
     7
370
     5
100
AcDbSpline
210
0.0
220
0.0
230
1.0
 70
     8
 71
     3
 72
    11
 73
     7
 74
     0
 42
0.0000000001
 43
0.0000000001
 40
0.0
 40
0.0
 40
0.0
 40
0.0
 40
0.2791771133581002
 40
0.5590761126475679
 40
0.7794530217301328
 40
1.0
 40
1.0
 40
1.0
 40
1.0
 10
-6.763540596675292
 20
8.266990517145714
 30
0.0
 10
-6.764221468049274
 20
8.262344417961013
 30
0.0
 10
-6.765584971369435
 20
8.253040205878896
 30
0.0
 10
-6.775327907844162
 20
8.245396426838448
 30
0.0
 10
-6.786582979044633
 20
8.242209312154159
 30
0.0
 10
-6.794429006411643
 20
8.243727242742382
 30
0.0
 10
-6.798353533244624
 20
8.244486500777748
 30
0.0
  0
SPLINE
  5
2C6
330
1F
100
AcDbEntity
  8
0
  6
Continuous
 62
     7
370
     5
100
AcDbSpline
210
0.0
220
0.0
230
1.0
 70
     8
 71
     3
 72
    10
 73
     6
 74
     0
 42
0.0000000001
 43
0.0000000001
 40
0.0
 40
0.0
 40
0.0
 40
0.0
 40
0.2798810200906376
 40
0.5596706794338974
 40
1.0
 40
1.0
 40
1.0
 40
1.0
 10
-6.798353533244624
 20
8.244486500777748
 30
0.0
 10
-6.802862520381022
 20
8.246149651326268
 30
0.0
 10
-6.811879022798263
 20
8.249475409525919
 30
0.0
 10
-6.825769191272532
 20
8.262152912346772
 30
0.0
 10
-6.831753099121029
 20
8.273458747395656
 30
0.0
 10
-6.83541206402929
 20
8.280371897589439
 30
0.0
  0
LINE
  5
2C7
330
1F
100
AcDbEntity
  8
0
  6
Continuous
 62
     7
370
     5
100
AcDbLine
 10
-6.765103380819607
 20
8.33962734060471
 30
0.0
 11
-6.760903077502421
 21
8.343726965408535
 31
0.0
  0
LINE
  5
2C8
330
1F
100
AcDbEntity
  8
0
  6
Continuous
 62
     7
370
     5
100
AcDbLine
 10
-6.797573178877742
 20
8.368445120870301
 30
0.0
 11
-6.793372875560558
 21
8.372544745674126
 31
0.0
  0
LINE
  5
2C9
330
1F
100
AcDbEntity
  8
0
  6
Continuous
 62
     7
370
     5
100
AcDbLine
 10
-6.816662805118633
 20
8.346565568754314
 30
0.0
 11
-6.812462501801449
 21
8.350665193558137
 31
0.0
  0
LINE
  5
2CA
330
1F
100
AcDbEntity
  8
0
  6
Continuous
 62
     7
370
     5
100
AcDbLine
 10
-6.72760486299829
 20
8.228287068115777
 30
0.0
 11
-6.723404559681107
 21
8.232386692919602
 31
0.0
  0
LINE
  5
2CB
330
1F
100
AcDbEntity
  8
0
  6
Continuous
 62
     7
370
     5
100
AcDbLine
 10
-6.763540596675292
 20
8.266990517145714
 30
0.0
 11
-6.759340293358107
 21
8.271090141949537
 31
0.0
  0
LINE
  5
2CC
330
1F
100
AcDbEntity
  8
0
  6
Continuous
 62
     7
370
     5
100
AcDbLine
 10
-6.792249750816437
 20
8.312910236733412
 30
0.0
 11
-6.788049447499253
 21
8.317009861537236
 31
0.0
  0
LINE
  5
2CD
330
1F
100
AcDbEntity
  8
0
  6
Continuous
 62
     7
370
     5
100
AcDbLine
 10
-6.808630966289297
 20
8.329121609587653
 30
0.0
 11
-6.80443066297211
 21
8.333221234391476
 31
0.0
  0
LINE
  5
2CE
330
1F
100
AcDbEntity
  8
0
  6
Continuous
 62
     7
370
     5
100
AcDbLine
 10
-6.85416132293995
 20
8.309459360003916
 30
0.0
 11
-6.849961019622764
 21
8.313558984807739
 31
0.0
  0
LINE
  5
2CF
330
1F
100
AcDbEntity
  8
0
  6
Continuous
 62
     7
370
     5
100
AcDbLine
 10
-6.85416132293995
 20
8.380796010224244
 30
0.0
 11
-6.85416132293995
 21
8.309459360003916
 31
0.0
  0
LINE
  5
2D0
330
1F
100
AcDbEntity
  8
0
  6
Continuous
 62
     7
370
     5
100
AcDbLine
 10
-6.85416132293995
 20
8.380796010224244
 30
0.0
 11
-6.849961019622764
 21
8.384895635028067
 31
0.0
  0
LINE
  5
2D1
330
1F
100
AcDbEntity
  8
0
  6
Continuous
 62
     7
370
     5
100
AcDbLine
 10
-6.865098736539589
 20
8.383768564880202
 30
0.0
 11
-6.85416132293995
 21
8.380796010224244
 31
0.0
  0
LINE
  5
2D2
330
1F
100
AcDbEntity
  8
0
  6
Continuous
 62
     7
370
     5
100
AcDbLine
 10
-6.865098736539589
 20
8.383768564880202
 30
0.0
 11
-6.860898433222405
 21
8.387868189684025
 31
0.0
  0
LINE
  5
2D3
330
1F
100
AcDbEntity
  8
0
  6
Continuous
 62
     7
370
     5
100
AcDbLine
 10
-6.932281851460649
 20
8.402027495955728
 30
0.0
 11
-6.92134443786101
 21
8.39905494129977
 31
0.0
  0
LINE
  5
2D4
330
1F
100
AcDbEntity
  8
0
  6
Continuous
 62
     7
370
     5
100
AcDbLine
 10
-6.92134443786101
 20
8.39905494129977
 30
0.0
 11
-6.92134443786101
 21
8.328286152141728
 31
0.0
  0
SPLINE
  5
2D5
330
1F
100
AcDbEntity
  8
0
  6
Continuous
 62
     7
370
     5
100
AcDbSpline
210
0.0
220
0.0
230
1.0
 70
     8
 71
     3
 72
     9
 73
     5
 74
     0
 42
0.0000000001
 43
0.0000000001
 40
0.0
 40
0.0
 40
0.0
 40
0.0
 40
0.5601256876538382
 40
1.0
 40
1.0
 40
1.0
 40
1.0
 10
-6.92134443786101
 20
8.328286152141728
 30
0.0
 10
-6.921354860628471
 20
8.32535244179213
 30
0.0
 10
-6.921373468536821
 20
8.320114848847792
 30
0.0
 10
-6.921014581548781
 20
8.314786694466519
 30
0.0
 10
-6.920856716381704
 20
8.312442976221982
 30
0.0
  0
SPLINE
  5
2D6
330
1F
100
AcDbEntity
  8
0
  6
Continuous
 62
     7
370
     5
100
AcDbSpline
210
0.0
220
0.0
230
1.0
 70
     8
 71
     3
 72
    10
 73
     6
 74
     0
 42
0.0000000001
 43
0.0000000001
 40
0.0
 40
0.0
 40
0.0
 40
0.0
 40
0.2810466326614075
 40
0.5607993546100786
 40
1.0
 40
1.0
 40
1.0
 40
1.0
 10
-6.920856716381709
 20
8.312442976221982
 30
0.0
 10
-6.920081464797787
 20
8.30862010885397
 30
0.0
 10
-6.918534530811049
 20
8.300991974218661
 30
0.0
 10
-6.908093528334422
 20
8.288867532486499
 30
0.0
 10
-6.898497432394986
 20
8.284743672154347
 30
0.0
 10
-6.892635283719864
 20
8.282224451573906
 30
0.0
  0
SPLINE
  5
2D7
330
1F
100
AcDbEntity
  8
0
  6
Continuous
 62
     7
370
     5
100
AcDbSpline
210
0.0
220
0.0
230
1.0
 70
     8
 71
     3
 72
    11
 73
     7
 74
     0
 42
0.0000000001
 43
0.0000000001
 40
0.0
 40
0.0
 40
0.0
 40
0.0
 40
0.2797821559744533
 40
0.5593549792851727
 40
0.7795815881641083
 40
1.0
 40
1.0
 40
1.0
 40
1.0
 10
-6.892635283719864
 20
8.282224451573906
 30
0.0
 10
-6.889275260076964
 20
8.281661217832118
 30
0.0
 10
-6.882557726756712
 20
8.280535171759336
 30
0.0
 10
-6.874431371563595
 20
8.283325316170612
 30
0.0
 10
-6.868886184997364
 20
8.288386730449477
 30
0.0
 10
-6.867191629446358
 20
8.292795775320861
 30
0.0
 10
-6.866343982869716
 20
8.295001257336037
 30
0.0
  0
SPLINE
  5
2D8
330
1F
100
AcDbEntity
  8
0
  6
Continuous
 62
     7
370
     5
100
AcDbSpline
210
0.0
220
0.0
230
1.0
 70
     8
 71
     3
 72
     9
 73
     5
 74
     0
 42
0.0000000001
 43
0.0000000001
 40
0.0
 40
0.0
 40
0.0
 40
0.0
 40
0.5596281731238358
 40
1.0
 40
1.0
 40
1.0
 40
1.0
 10
-6.866343982869721
 20
8.295001257336037
 30
0.0
 10
-6.865881769017109
 20
8.298282801925324
 30
0.0
 10
-6.865055838739089
 20
8.304146596399732
 30
0.0
 10
-6.865085621188107
 20
8.310293050500844
 30
0.0
 10
-6.865098736539589
 20
8.312999775722161
 30
0.0
  0
LINE
  5
2D9
330
1F
100
AcDbEntity
  8
0
  6
Continuous
 62
     7
370
     5
100
AcDbLine
 10
-6.865098736539589
 20
8.312999775722161
 30
0.0
 11
-6.865098736539589
 21
8.383768564880202
 31
0.0
  0
SPLINE
  5
2DA
330
1F
100
AcDbEntity
  8
0
  6
Continuous
 62
     7
370
     5
100
AcDbSpline
210
0.0
220
0.0
230
1.0
 70
     8
 71
     3
 72
    11
 73
     7
 74
     0
 42
0.0000000001
 43
0.0000000001
 40
0.0
 40
0.0
 40
0.0
 40
0.0
 40
0.2816543147667304
 40
0.5601195124955534
 40
0.7800810133757512
 40
1.0
 40
1.0
 40
1.0
 40
1.0
 10
-6.85416132293995
 20
8.309459360003916
 30
0.0
 10
-6.854263714944584
 20
8.302906133856239
 30
0.0
 10
-6.854467339589096
 20
8.28987388246627
 30
0.0
 10
-6.861826753920659
 20
8.274435179807921
 30
0.0
 10
-6.876007568907348
 20
8.267257713431737
 30
0.0
 10
-6.886686275678619
 20
8.269048914864198
 30
0.0
 10
-6.8920251130181
 20
8.269944429021013
 30
0.0
  0
SPLINE
  5
2DB
330
1F
100
AcDbEntity
  8
0
  6
Continuous
 62
     7
370
     5
100
AcDbSpline
210
0.0
220
0.0
230
1.0
 70
     8
 71
     3
 72
    11
 73
     7
 74
     0
 42
0.0000000001
 43
0.0000000001
 40
0.0
 40
0.0
 40
0.0
 40
0.0
 40
0.2802073945285552
 40
0.5599134907690614
 40
0.7799538382636851
 40
1.0
 40
1.0
 40
1.0
 40
1.0
 10
-6.8920251130181
 20
8.269944429021013
 30
0.0
 10
-6.896653474248735
 20
8.271508261352012
 30
0.0
 10
-6.905901916451849
 20
8.274633128277455
 30
0.0
 10
-6.917558034535954
 20
8.283669928890313
 30
0.0
 10
-6.926108581352373
 20
8.294254904851412
 30
0.0
 10
-6.928775446449329
 20
8.301557842434673
 30
0.0
 10
-6.930108896614571
 20
8.305209359468006
 30
0.0
  0
SPLINE
  5
2DC
330
1F
100
AcDbEntity
  8
0
  6
Continuous
 62
     7
370
     5
100
AcDbSpline
210
0.0
220
0.0
230
1.0
 70
     8
 71
     3
 72
     9
 73
     5
 74
     0
 42
0.0000000001
 43
0.0000000001
 40
0.0
 40
0.0
 40
0.0
 40
0.0
 40
0.5595002095494791
 40
1.0
 40
1.0
 40
1.0
 40
1.0
 10
-6.930108896614574
 20
8.305209359468006
 30
0.0
 10
-6.930888793490495
 20
8.310035116863682
 30
0.0
 10
-6.932282710530403
 20
8.318660238558562
 30
0.0
 10
-6.932282114161171
 20
8.327011928198915
 30
0.0
 10
-6.932281851460649
 20
8.3306908457354
 30
0.0
  0
LINE
  5
2DD
330
1F
100
AcDbEntity
  8
0
  6
Continuous
 62
     7
370
     5
100
AcDbLine
 10
-6.932281851460649
 20
8.3306908457354
 30
0.0
 11
-6.932281851460649
 21
8.402027495955728
 31
0.0
  0
LINE
  5
2DE
330
1F
100
AcDbEntity
  8
0
  6
Continuous
 62
     7
370
     5
100
AcDbLine
 10
-6.798353533244624
 20
8.256600692008278
 30
0.0
 11
-6.79415322992744
 21
8.260700316812101
 31
0.0
  0
LINE
  5
2DF
330
1F
100
AcDbEntity
  8
0
  6
Continuous
 62
     7
370
     5
100
AcDbLine
 10
-6.825109726058018
 20
8.28355807157828
 30
0.0
 11
-6.820909422740832
 21
8.287657696382105
 31
0.0
  0
LINE
  5
2E0
330
1F
100
AcDbEntity
  8
0
  6
Continuous
 62
     7
370
     5
100
AcDbLine
 10
-6.92134443786101
 20
8.39905494129977
 30
0.0
 11
-6.917144134543823
 21
8.403154566103593
 31
0.0
  0
LINE
  5
2E1
330
1F
100
AcDbEntity
  8
0
  6
Continuous
 62
     7
370
     5
100
AcDbLine
 10
-6.932281851460649
 20
8.402027495955728
 30
0.0
 11
-6.928081548143465
 21
8.406127120759553
 31
0.0
  0
LINE
  5
2E2
330
1F
100
AcDbEntity
  8
0
  6
Continuous
 62
     7
370
     5
100
AcDbLine
 10
-6.92134443786101
 20
8.328286152141728
 30
0.0
 11
-6.917144134543823
 21
8.332385776945553
 31
0.0
  0
LINE
  5
2E3
330
1F
100
AcDbEntity
  8
0
  6
Continuous
 62
     7
370
     5
100
AcDbLine
 10
-7.92983826699221
 20
7.061884970511655
 30
0.0
 11
-7.883849244609962
 21
7.04938613965371
 31
0.0
  0
ARC
  5
2E4
330
1F
100
AcDbEntity
  8
0
  6
Continuous
 62
     7
370
     5
100
AcDbCircle
 10
-8.054577896652459
 20
7.166874657339719
 30
0.0
 40
0.1630423550738611
100
AcDbArc
 50
319.913664727148
 51
5.249245631589215
  0
LINE
  5
2E5
330
1F
100
AcDbEntity
  8
0
  6
Continuous
 62
     7
370
     5
100
AcDbLine
 10
-6.835412064029294
 20
8.280371897589439
 30
0.0
 11
-6.831211760712108
 21
8.284471522393264
 31
0.0
  0
LINE
  5
2E6
330
1F
100
AcDbEntity
  8
0
  6
Continuous
 62
     7
370
     5
100
AcDbLine
 10
-5.790036052168998
 20
7.096133452854992
 30
0.0
 11
-5.81430417472754
 21
7.072447021264166
 31
0.0
  0
LWPOLYLINE
  5
2E7
330
1F
100
AcDbEntity
  8
0
  6
Continuous
 62
     7
370
     5
100
AcDbPolyline
 90
        3
 70
   128
 43
0.0
 10
-5.747066752137314
 20
7.098121195381866
 10
-5.762283662291504
 20
7.093941313002283
 10
-5.790036052168998
 20
7.096133452854992
  0
LINE
  5
2E8
330
1F
100
AcDbEntity
  8
0
  6
Continuous
 62
     7
370
     5
100
AcDbLine
 10
-8.209855476431826
 20
6.007535162277702
 30
0.0
 11
-8.163866454049577
 21
5.995036331419755
 31
0.0
  0
ARC
  5
2E9
330
1F
100
AcDbEntity
  8
0
  6
Continuous
 62
     7
370
     5
100
AcDbCircle
 10
-8.334593208001003
 20
6.112524067261785
 30
0.0
 40
0.1630403994314933
100
AcDbArc
 50
319.9134454090686
 51
5.249581898390649
  0
LINE
  5
2EA
330
1F
100
AcDbEntity
  8
0
  6
Continuous
 62
     7
370
     5
100
AcDbLine
 10
-6.892635283719864
 20
8.282224451573906
 30
0.0
 11
-6.888434980402678
 21
8.286324076377731
 31
0.0
  0
ARC
  5
2EB
330
1F
100
AcDbEntity
  8
0
  6
Continuous
 62
     7
370
     5
100
AcDbCircle
 10
-5.452373439344109
 20
6.826125089756203
 30
0.0
 40
0.0807123825299339
100
AcDbArc
 50
315.3552035925643
 51
1.910535258585871
  0
LINE
  5
2EC
330
1F
100
AcDbEntity
  8
0
  6
Continuous
 62
     7
370
     5
100
AcDbLine
 10
-6.920856716381709
 20
8.312442976221982
 30
0.0
 11
-6.916656413064522
 21
8.316542601025807
 31
0.0
  0
LINE
  5
2ED
330
1F
100
AcDbEntity
  8
0
  6
Continuous
 62
     7
370
     5
100
AcDbLine
 10
-7.435613053030865
 20
8.643432964802361
 30
0.0
 11
-7.444734482399067
 21
8.645911973856049
 31
0.0
  0
LINE
  5
2EE
330
1F
100
AcDbEntity
  8
0
  6
Continuous
 62
     7
370
     5
100
AcDbLine
 10
-7.92983826699221
 20
7.061884970511655
 30
0.0
 11
-7.946668912843476
 21
7.045457744193519
 31
0.0
  0
LINE
  5
2EF
330
1F
100
AcDbEntity
  8
0
  6
Continuous
 62
     7
370
     5
100
AcDbLine
 10
-8.209855476431826
 20
6.007535162277702
 30
0.0
 11
-8.226686122283089
 21
5.991107935959567
 31
0.0
  0
LINE
  5
2F0
330
1F
100
AcDbEntity
  8
0
  6
Continuous
 62
     7
370
     5
100
AcDbLine
 10
-5.837795399750582
 20
7.109113420168636
 30
0.0
 11
-5.862063522309124
 21
7.08542698857781
 31
0.0
  0
ARC
  5
2F1
330
1F
100
AcDbEntity
  8
0
  6
Continuous
 62
     7
370
     5
100
AcDbCircle
 10
-5.816663278056217
 20
7.198602580598513
 30
0.0
 40
0.0919504018574674
100
AcDbArc
 50
163.9566485608973
 51
256.7134739321509
  0
LINE
  5
2F2
330
1F
100
AcDbEntity
  8
0
  6
Continuous
 62
     7
370
     5
100
AcDbLine
 10
-7.374813669077581
 20
8.653114625006542
 30
0.0
 11
-7.350545546519039
 21
8.676801056597369
 31
0.0
  0
LWPOLYLINE
  5
2F3
330
1F
100
AcDbEntity
  8
0
  6
Continuous
 62
     7
370
     5
100
AcDbPolyline
 90
        3
 70
   128
 43
0.0
 10
-7.339195126219905
 20
8.681049930699625
 10
-7.341249782664619
 20
8.680080314229611
 10
-7.350545546519039
 20
8.676801056597369
  0
SPLINE
  5
2F4
330
1F
100
AcDbEntity
  8
0
  6
Continuous
 62
     7
370
     5
100
AcDbSpline
210
0.0
220
0.0
230
1.0
 70
     8
 71
     3
 72
    15
 73
    11
 74
     0
 42
0.0000000001
 43
0.0000000001
 40
0.0
 40
0.0
 40
0.0
 40
0.0
 40
0.1587320964391826
 40
0.2939322559257741
 40
0.4065410243337558
 40
0.4983005725223056
 40
0.6036079662538811
 40
0.7205466875373539
 40
0.8519972470258474
 40
1.0
 40
1.0
 40
1.0
 40
1.0
 10
-7.374813669077581
 20
8.312347386775876
 30
0.0
 10
-7.378088444230386
 20
8.314620551695488
 30
0.0
 10
-7.384152511107261
 20
8.318829886215107
 30
0.0
 10
-7.393665998370899
 20
8.322724565787746
 30
0.0
 10
-7.401877135991974
 20
8.324584756455822
 30
0.0
 10
-7.409462591641944
 20
8.324620641299434
 30
0.0
 10
-7.416822784088614
 20
8.322431902140463
 30
0.0
 10
-7.424066313287694
 20
8.318024001943614
 30
0.0
 10
-7.430785909602644
 20
8.311401798016747
 30
0.0
 10
-7.433941698769821
 20
8.305690511405959
 30
0.0
 10
-7.435613053030865
 20
8.302665726571696
 30
0.0
  0
SPLINE
  5
2F5
330
1F
100
AcDbEntity
  8
0
  6
Continuous
 62
     7
370
     5
100
AcDbSpline
210
0.0
220
0.0
230
1.0
 70
     8
 71
     3
 72
    15
 73
    11
 74
     0
 42
0.0000000001
 43
0.0000000001
 40
0.0
 40
0.0
 40
0.0
 40
0.0
 40
0.1480026100237078
 40
0.2794531995273166
 40
0.3963920241763176
 40
0.5016994129167005
 40
0.5934589369723306
 40
0.7060677640027957
 40
0.8412679989824209
 40
1.0
 40
1.0
 40
1.0
 40
1.0
 10
-7.435613053030865
 20
8.643432964802361
 30
0.0
 10
-7.433941698127028
 20
8.643247885597521
 30
0.0
 10
-7.430785905973444
 20
8.642898425706574
 30
0.0
 10
-7.424066310100648
 20
8.642889736762571
 30
0.0
 10
-7.416822788251804
 20
8.643327456413892
 30
0.0
 10
-7.409462592560219
 20
8.644239349554586
 30
0.0
 10
-7.401877132494096
 20
8.646034956144767
 30
0.0
 10
-7.393665998310285
 20
8.648324316741895
 30
0.0
 10
-7.384152517744852
 20
8.650910721747484
 30
0.0
 10
-7.378088445423801
 20
8.652341800591107
 30
0.0
 10
-7.374813669077579
 20
8.653114625006541
 30
0.0
  0
SPLINE
  5
2F6
330
1F
100
AcDbEntity
  8
0
  6
Continuous
 62
     7
370
     5
100
AcDbSpline
210
0.0
220
0.0
230
1.0
 70
     8
 71
     3
 72
    12
 73
     8
 74
     0
 42
0.0000000001
 43
0.0000000001
 40
0.0
 40
0.0
 40
0.0
 40
0.0
 40
0.1474476741766615
 40
0.3020556953739792
 40
0.5959991604585964
 40
0.7841925459471918
 40
1.0
 40
1.0
 40
1.0
 40
1.0
 10
-7.453780367354752
 20
8.664443432355529
 30
0.0
 10
-7.449359345088665
 20
8.665397534963751
 30
0.0
 10
-7.440302607081072
 20
8.667352073266197
 30
0.0
 10
-7.41974404531717
 20
8.670820414743602
 30
0.0
 10
-7.396223908480288
 20
8.674796726793786
 30
0.0
 10
-7.370946740131483
 20
8.677056388964887
 30
0.0
 10
-7.357648919769513
 20
8.676889959293156
 30
0.0
 10
-7.350545546519039
 20
8.676801056597369
 30
0.0
  0
LINE
  5
2F7
330
1F
100
AcDbEntity
  8
0
  6
Continuous
 62
     7
370
     5
100
AcDbLine
 10
-5.790036052168998
 20
7.096133452854992
 30
0.0
 11
-5.837795399750582
 21
7.109113420168636
 31
0.0
  0
LINE
  5
2F8
330
1F
100
AcDbEntity
  8
0
  6
Continuous
 62
     7
370
     5
100
AcDbLine
 10
-7.435613053030865
 20
7.679119739594544
 30
0.0
 11
-7.444734482399067
 21
7.681598748648232
 31
0.0
  0
LINE
  5
2F9
330
1F
100
AcDbEntity
  8
0
  6
Continuous
 62
     7
370
     5
100
AcDbLine
 10
-7.374813669077581
 20
7.688801399798724
 30
0.0
 11
-7.350545546519039
 21
7.712487831389551
 31
0.0
  0
LWPOLYLINE
  5
2FA
330
1F
100
AcDbEntity
  8
0
  6
Continuous
 62
     7
370
     5
100
AcDbPolyline
 90
        3
 70
   128
 43
0.0
 10
-7.339195126219905
 20
7.716736697634532
 10
-7.341249782664619
 20
7.715767089021793
 10
-7.350545546519039
 20
7.712487831389551
  0
SPLINE
  5
2FB
330
1F
100
AcDbEntity
  8
0
  6
Continuous
 62
     7
370
     5
100
AcDbSpline
210
0.0
220
0.0
230
1.0
 70
     8
 71
     3
 72
    12
 73
     8
 74
     0
 42
0.0000000001
 43
0.0000000001
 40
0.0
 40
0.0
 40
0.0
 40
0.0
 40
0.1474476340703609
 40
0.3020556728313209
 40
0.5959991610223545
 40
0.7841926164637347
 40
1.0
 40
1.0
 40
1.0
 40
1.0
 10
-7.453780367354757
 20
7.700130187504522
 30
0.0
 10
-7.449359344531906
 20
7.701084308856834
 30
0.0
 10
-7.440302603596196
 20
7.70303888594349
 30
0.0
 10
-7.41974404727058
 20
7.706507228798233
 30
0.0
 10
-7.396223902011563
 20
7.710483500538524
 30
0.0
 10
-7.370946749370081
 20
7.712743226007069
 30
0.0
 10
-7.357648921479793
 20
7.712576755740946
 30
0.0
 10
-7.350545546519039
 20
7.712487831389551
 30
0.0
  0
SPLINE
  5
2FC
330
1F
100
AcDbEntity
  8
0
  6
Continuous
 62
     7
370
     5
100
AcDbSpline
210
0.0
220
0.0
230
1.0
 70
     8
 71
     3
 72
    15
 73
    11
 74
     0
 42
0.0000000001
 43
0.0000000001
 40
0.0
 40
0.0
 40
0.0
 40
0.0
 40
0.1480026017299409
 40
0.2794530489665907
 40
0.3963919596107862
 40
0.5016993746906318
 40
0.5934588549919918
 40
0.7060678192676325
 40
0.8412682343554427
 40
1.0
 40
1.0
 40
1.0
 40
1.0
 10
-7.435613053030865
 20
7.679119739594544
 30
0.0
 10
-7.433941699335393
 20
7.678934658624626
 30
0.0
 10
-7.430785910986788
 20
7.678585195569621
 30
0.0
 10
-7.424066301819026
 20
7.678576568176634
 30
0.0
 10
-7.416822790437024
 20
7.679014243951717
 30
0.0
 10
-7.409462596212484
 20
7.679926180146166
 30
0.0
 10
-7.401877124648414
 20
7.681721705380679
 30
0.0
 10
-7.39366599798137
 20
7.684011119680562
 30
0.0
 10
-7.384152533899314
 20
7.68659754962241
 30
0.0
 10
-7.378088448335204
 20
7.688028594647128
 30
0.0
 10
-7.374813669077579
 20
7.688801399798722
 30
0.0
  0
SPLINE
  5
2FD
330
1F
100
AcDbEntity
  8
0
  6
Continuous
 62
     7
370
     5
100
AcDbSpline
210
0.0
220
0.0
230
1.0
 70
     8
 71
     3
 72
    15
 73
    11
 74
     0
 42
0.0000000001
 43
0.0000000001
 40
0.0
 40
0.0
 40
0.0
 40
0.0
 40
0.1587325166334307
 40
0.2939324966626761
 40
0.4065411326242209
 40
0.4983005599298387
 40
0.6036079141893241
 40
0.7205462666557958
 40
0.8519970124281076
 40
1.0
 40
1.0
 40
1.0
 40
1.0
 10
-7.374813669077581
 20
7.34803416156806
 30
0.0
 10
-7.378088439821706
 20
7.350307355960269
 30
0.0
 10
-7.384152487448709
 20
7.354516737360331
 30
0.0
 10
-7.393666001438568
 20
7.358411365448292
 30
0.0
 10
-7.40187713392444
 20
7.360271553643052
 30
0.0
 10
-7.409462597452268
 20
7.360307325088254
 30
0.0
 10
-7.416822768944919
 20
7.358118641084563
 30
0.0
 10
-7.424066335483641
 20
7.353710864848054
 30
0.0
 10
-7.43078590624322
 20
7.347088590659837
 30
0.0
 10
-7.433941697520326
 20
7.341377292535077
 30
0.0
 10
-7.435613053030865
 20
7.338352501363879
 30
0.0
  0
LINE
  5
2FE
330
1F
100
AcDbEntity
  8
0
  6
Continuous
 62
     7
370
     5
100
AcDbLine
 10
-6.035019588927112
 20
6.277452270379775
 30
0.0
 11
-6.059287711485655
 21
6.253765838788948
 31
0.0
  0
ARC
  5
2FF
330
1F
100
AcDbEntity
  8
0
  6
Continuous
 62
     7
370
     5
100
AcDbCircle
 10
-5.948868266331366
 20
6.278816481656456
 30
0.0
 40
0.0861621231017651
100
AcDbArc
 50
148.385401448526
 51
180.907206227363
  0
LINE
  5
300
330
1F
100
AcDbEntity
  8
0
  6
Continuous
 62
     7
370
     5
100
AcDbLine
 10
-6.320687398701123
 20
6.459308690862973
 30
0.0
 11
-6.344955521259666
 21
6.435622259272145
 31
0.0
  0
LWPOLYLINE
  5
301
330
1F
100
AcDbEntity
  8
0
  6
Continuous
 62
     7
370
     5
100
AcDbPolyline
 90
        3
 70
   128
 43
0.0
 10
-6.277718098669438
 20
6.461296559106265
 10
-6.292932933413077
 20
6.457115986958148
 10
-6.320687398701123
 20
6.459308690862973
  0
LINE
  5
302
330
1F
100
AcDbEntity
  8
0
  6
Continuous
 62
     7
370
     5
100
AcDbLine
 10
-6.059287711485655
 20
6.083855321985472
 30
0.0
 11
-6.035019588927112
 21
6.107541753576298
 31
0.0
  0
LINE
  5
303
330
1F
100
AcDbEntity
  8
0
  6
Continuous
 62
     7
370
     5
100
AcDbLine
 10
-6.035019588927112
 20
6.277452270379775
 30
0.0
 11
-6.035019588927112
 21
6.107541753576298
 31
0.0
  0
LINE
  5
304
330
1F
100
AcDbEntity
  8
0
  6
Continuous
 62
     7
370
     5
100
AcDbLine
 10
-6.368444670872157
 20
6.4722880941245
 30
0.0
 11
-6.3927127934307
 21
6.448601662533673
 31
0.0
  0
ARC
  5
305
330
1F
100
AcDbEntity
  8
0
  6
Continuous
 62
     7
370
     5
100
AcDbCircle
 10
-6.347314515087727
 20
6.561777852865229
 30
0.0
 40
0.09195053236903
100
AcDbArc
 50
163.9566126485374
 51
256.7147518123319
  0
LINE
  5
306
330
1F
100
AcDbEntity
  8
0
  6
Continuous
 62
     7
370
     5
100
AcDbLine
 10
-6.320687398701123
 20
6.459308690862973
 30
0.0
 11
-6.368444670872157
 21
6.4722880941245
 31
0.0
  0
LINE
  5
307
330
1F
100
AcDbEntity
  8
0
  6
Continuous
 62
     7
370
     5
100
AcDbLine
 10
-7.435613053030865
 20
6.714806482957622
 30
0.0
 11
-7.444734482399067
 21
6.71728549201131
 31
0.0
  0
LINE
  5
308
330
1F
100
AcDbEntity
  8
0
  6
Continuous
 62
     7
370
     5
100
AcDbLine
 10
-7.374813669077581
 20
6.724488143161803
 30
0.0
 11
-7.350545546519039
 21
6.74817457475263
 31
0.0
  0
LWPOLYLINE
  5
309
330
1F
100
AcDbEntity
  8
0
  6
Continuous
 62
     7
370
     5
100
AcDbPolyline
 90
        3
 70
   128
 43
0.0
 10
-7.339195126219905
 20
6.752423566714028
 10
-7.341249782664619
 20
6.751453895243081
 10
-7.350545546519039
 20
6.74817457475263
  0
SPLINE
  5
30A
330
1F
100
AcDbEntity
  8
0
  6
Continuous
 62
     7
370
     5
100
AcDbSpline
210
0.0
220
0.0
230
1.0
 70
     8
 71
     3
 72
    12
 73
     8
 74
     0
 42
0.0000000001
 43
0.0000000001
 40
0.0
 40
0.0
 40
0.0
 40
0.0
 40
0.1474477781138528
 40
0.3020558007339363
 40
0.5959993227533673
 40
0.7841926389937426
 40
1.0
 40
1.0
 40
1.0
 40
1.0
 10
-7.453780367354757
 20
6.735817056584019
 30
0.0
 10
-7.44935934610559
 20
6.7367711260264
 30
0.0
 10
-7.440302613406316
 20
6.738725595690574
 30
0.0
 10
-7.419744040342061
 20
6.742193975013531
 30
0.0
 10
-7.396223918279156
 20
6.746170352653273
 30
0.0
 10
-7.370946739985291
 20
6.748429943625949
 30
0.0
 10
-7.357648919582315
 20
6.748263490157452
 30
0.0
 10
-7.350545546519036
 20
6.748174574752628
 30
0.0
  0
SPLINE
  5
30B
330
1F
100
AcDbEntity
  8
0
  6
Continuous
 62
     7
370
     5
100
AcDbSpline
210
0.0
220
0.0
230
1.0
 70
     8
 71
     3
 72
    15
 73
    11
 74
     0
 42
0.0000000001
 43
0.0000000001
 40
0.0
 40
0.0
 40
0.0
 40
0.0
 40
0.1480021586154708
 40
0.2794530053552608
 40
0.396391938282187
 40
0.5016993734283797
 40
0.5934588712145254
 40
0.706068120232561
 40
0.8412682041090759
 40
1.0
 40
1.0
 40
1.0
 40
1.0
 10
-7.435613053030865
 20
6.714806482957622
 30
0.0
 10
-7.433941694220953
 20
6.714621437477984
 30
0.0
 10
-7.430785887259578
 20
6.714272040442858
 30
0.0
 10
-7.42406631586286
 20
6.714263288908475
 30
0.0
 10
-7.416822788422326
 20
6.714700990724119
 30
0.0
 10
-7.409462598439132
 20
6.715612927934108
 30
0.0
 10
-7.40187711134839
 20
6.717408431105332
 30
0.0
 10
-7.393666028559124
 20
6.719697964189525
 30
0.0
 10
-7.384152513108224
 20
6.722284262995574
 30
0.0
 10
-7.378088443627078
 20
6.723715326884452
 30
0.0
 10
-7.374813669077581
 20
6.724488143161803
 30
0.0
  0
ARC
  5
30C
330
1F
100
AcDbEntity
  8
0
  6
Continuous
 62
     7
370
     5
100
AcDbCircle
 10
-7.395440131134996
 20
6.375171830721302
 30
0.0
 40
0.0693535244883701
100
AcDbArc
 50
72.69786580735701
 51
125.3977002998522
  0
LINE
  5
30D
330
1F
100
AcDbEntity
  8
0
  6
Continuous
 62
     8
370
     5
100
AcDbLine
 10
13.28140770421658
 20
3.6820306432762
 30
0.0
 11
13.3169843918684
 21
3.67236166188864
 31
0.0
  0
LINE
  5
30E
330
1F
100
AcDbEntity
  8
0
  6
Continuous
 62
     8
370
     5
100
AcDbLine
 10
12.93138626086492
 20
2.31608409388768
 30
0.0
 11
12.96696294851674
 21
2.30641511250012
 31
0.0
  0
LINE
  5
30F
330
1F
100
AcDbEntity
  8
0
  6
Continuous
 62
     8
370
     5
100
AcDbLine
 10
13.28140770421658
 20
1.265676095736887
 30
0.0
 11
13.3169843918684
 21
1.256007114349328
 31
0.0
  0
LINE
  5
310
330
1F
100
AcDbEntity
  8
0
  6
Continuous
 62
     8
370
     5
100
AcDbLine
 10
13.00139049477696
 20
0.2113262875029312
 30
0.0
 11
13.03696718242878
 21
0.201657306115374
 31
0.0
  0
LINE
  5
311
330
1F
100
AcDbEntity
  8
0
  6
Continuous
 62
     8
370
     5
100
AcDbLine
 10
-7.944627478373424
 20
9.4508121869865
 30
0.0
 11
-7.909050790721612
 21
9.44114320559894
 31
0.0
  0
LINE
  5
312
330
1F
100
AcDbEntity
  8
0
  6
Continuous
 62
     8
370
     5
100
AcDbLine
 10
-8.294648921725078
 20
8.084865637597978
 30
0.0
 11
-8.259072234073265
 21
8.075196656210421
 31
0.0
  0
LINE
  5
313
330
1F
100
AcDbEntity
  8
0
  6
Continuous
 62
     8
370
     5
100
AcDbLine
 10
-7.944627478373424
 20
7.034457639447186
 30
0.0
 11
-7.909050790721612
 21
7.024788658059628
 31
0.0
  0
LINE
  5
314
330
1F
100
AcDbEntity
  8
0
  6
Continuous
 62
     8
370
     5
100
AcDbLine
 10
-8.224644687813039
 20
5.980107831213232
 30
0.0
 11
-8.189068000161228
 21
5.970438849825674
 31
0.0
  0
ENDSEC
  0
SECTION
  2
OBJECTS
  0
DICTIONARY
  5
C
330
0
100
AcDbDictionary
281
     1
  3
ACAD_COLOR
350
317
  3
ACAD_GROUP
350
D
  3
ACAD_LAYOUT
350
1A
  3
ACAD_MATERIAL
350
316
  3
ACAD_MLINESTYLE
350
17
  3
ACAD_PLOTSETTINGS
350
19
  3
ACAD_PLOTSTYLENAME
350
E
  3
ACAD_SCALELIST
350
47
  0
DICTIONARY
  5
317
102
{ACAD_REACTORS
330
C
102
}
330
C
100
AcDbDictionary
281
     1
  0
DICTIONARY
  5
D
102
{ACAD_REACTORS
330
C
102
}
330
C
100
AcDbDictionary
281
     1
  0
DICTIONARY
  5
1A
102
{ACAD_REACTORS
330
C
102
}
330
C
100
AcDbDictionary
281
     1
  3
Layout1
350
1E
  3
Layout2
350
26
  3
Model
350
22
  0
DICTIONARY
  5
316
102
{ACAD_REACTORS
330
C
102
}
330
C
100
AcDbDictionary
281
     1
  0
DICTIONARY
  5
17
102
{ACAD_REACTORS
330
C
102
}
330
C
100
AcDbDictionary
281
     1
  3
Standard
350
18
  0
DICTIONARY
  5
19
102
{ACAD_REACTORS
330
C
102
}
330
C
100
AcDbDictionary
281
     1
  0
ACDBDICTIONARYWDFLT
  5
E
102
{ACAD_REACTORS
330
C
102
}
330
C
100
AcDbDictionary
281
     1
  3
Normal
350
F
100
AcDbDictionaryWithDefault
340
F
  0
DICTIONARY
  5
47
102
{ACAD_REACTORS
330
C
102
}
330
C
100
AcDbDictionary
281
     1
  3
A0
350
48
  3
A1
350
49
  3
A2
350
4A
  3
A3
350
4B
  3
A4
350
4C
  3
A5
350
4D
  3
A6
350
4E
  3
A7
350
4F
  3
A8
350
50
  3
A9
350
51
  3
B0
350
52
  3
B1
350
53
  3
B2
350
54
  3
B3
350
55
  3
B4
350
56
  3
B5
350
57
  3
B6
350
58
  3
B7
350
59
  3
B8
350
5A
  3
B9
350
5B
  3
C0
350
5C
  3
C1
350
5D
  3
C2
350
5E
  3
C3
350
5F
  3
C4
350
60
  3
C5
350
61
  3
C6
350
62
  3
C7
350
63
  3
C8
350
64
  3
C9
350
65
  3
D0
350
66
  3
D1
350
67
  3
D2
350
68
  0
LAYOUT
  5
1E
102
{ACAD_REACTORS
330
1A
102
}
330
1A
100
AcDbPlotSettings
  1

  2
none_device
  4

  6

 40
0.0
 41
0.0
 42
0.0
 43
0.0
 44
0.0
 45
0.0
 46
0.0
 47
0.0
 48
0.0
 49
0.0
140
0.0
141
0.0
142
1.0
143
1.0
 70
   688
 72
     0
 73
     0
 74
     5
  7

 75
    16
147
1.0
 76
     0
 77
     2
 78
   300
148
0.0
149
0.0
100
AcDbLayout
  1
Layout1
 70
     1
 71
     1
 10
0.0
 20
0.0
 11
12.0
 21
9.0
 12
0.0
 22
0.0
 32
0.0
 14
1.000000000000000E+20
 24
1.000000000000000E+20
 34
1.000000000000000E+20
 15
-1.000000000000000E+20
 25
-1.000000000000000E+20
 35
-1.000000000000000E+20
146
0.0
 13
0.0
 23
0.0
 33
0.0
 16
1.0
 26
0.0
 36
0.0
 17
0.0
 27
1.0
 37
0.0
 76
     0
330
1B
  0
LAYOUT
  5
26
102
{ACAD_REACTORS
330
1A
102
}
330
1A
100
AcDbPlotSettings
  1

  2
none_device
  4

  6

 40
0.0
 41
0.0
 42
0.0
 43
0.0
 44
0.0
 45
0.0
 46
0.0
 47
0.0
 48
0.0
 49
0.0
140
0.0
141
0.0
142
1.0
143
1.0
 70
   688
 72
     0
 73
     0
 74
     5
  7

 75
    16
147
1.0
 76
     0
 77
     2
 78
   300
148
0.0
149
0.0
100
AcDbLayout
  1
Layout2
 70
     1
 71
     2
 10
0.0
 20
0.0
 11
0.0
 21
0.0
 12
0.0
 22
0.0
 32
0.0
 14
0.0
 24
0.0
 34
0.0
 15
0.0
 25
0.0
 35
0.0
146
0.0
 13
0.0
 23
0.0
 33
0.0
 16
1.0
 26
0.0
 36
0.0
 17
0.0
 27
1.0
 37
0.0
 76
     0
330
23
  0
LAYOUT
  5
22
102
{ACAD_REACTORS
330
1A
102
}
330
1A
100
AcDbPlotSettings
  1

  2
none_device
  4
Letter_(8.50_x_11.00_Inches)
  6

 40
6.349999999999999
 41
6.349999999999999
 42
6.350005079999999
 43
6.350005079999999
 44
215.9
 45
279.4
 46
0.0
 47
0.0
 48
0.0
 49
0.0
140
0.0
141
0.0
142
1.0
143
1.0
 70
  1712
 72
     0
 73
     0
 74
     0
  7

 75
     0
147
1.0
 76
     0
 77
     2
 78
   300
148
0.0
149
0.0
100
AcDbLayout
  1
Model
 70
     1
 71
     0
 10
0.0
 20
0.0
 11
11.0
 21
8.5
 12
0.0
 22
0.0
 32
0.0
 14
0.0
 24
0.0
 34
0.0
 15
11.0
 25
8.5
 35
0.0
146
0.0
 13
0.0
 23
0.0
 33
0.0
 16
1.0
 26
0.0
 36
0.0
 17
0.0
 27
1.0
 37
0.0
 76
     0
330
1F
  0
MLINESTYLE
  5
18
102
{ACAD_REACTORS
330
17
102
}
330
17
100
AcDbMlineStyle
  2
STANDARD
 70
     0
  3

 62
   256
 51
90.0
 52
90.0
 71
     2
 49
0.5
 62
   256
  6
BYLAYER
 49
-0.5
 62
   256
  6
BYLAYER
  0
ACDBPLACEHOLDER
  5
F
102
{ACAD_REACTORS
330
E
102
}
330
E
  0
ACAD_PROXY_OBJECT
  5
48
102
{ACAD_REACTORS
330
47
102
}
330
47
100
AcDbProxyObject
 90
      499
 91
      503
 95
   393239
 70
     0
 93
       41
310
903313A31580
 94
        0
  0
ACAD_PROXY_OBJECT
  5
49
102
{ACAD_REACTORS
330
47
102
}
330
47
100
AcDbProxyObject
 90
      499
 91
      503
 95
   393239
 70
     0
 93
      105
310
903313A324000000000000004000
 94
        0
  0
ACAD_PROXY_OBJECT
  5
4A
102
{ACAD_REACTORS
330
47
102
}
330
47
100
AcDbProxyObject
 90
      499
 91
      503
 95
   393239
 70
     0
 93
      105
310
903313A344000000000000104000
 94
        0
  0
ACAD_PROXY_OBJECT
  5
4B
102
{ACAD_REACTORS
330
47
102
}
330
47
100
AcDbProxyObject
 90
      499
 91
      503
 95
   393239
 70
     0
 93
      105
310
903313A354000000000000144000
 94
        0
  0
ACAD_PROXY_OBJECT
  5
4C
102
{ACAD_REACTORS
330
47
102
}
330
47
100
AcDbProxyObject
 90
      499
 91
      503
 95
   393239
 70
     0
 93
      105
310
903313A384000000000000204000
 94
        0
  0
ACAD_PROXY_OBJECT
  5
4D
102
{ACAD_REACTORS
330
47
102
}
330
47
100
AcDbProxyObject
 90
      499
 91
      503
 95
   393239
 70
     0
 93
      113
310
904313A31304000000000000244000
 94
        0
  0
ACAD_PROXY_OBJECT
  5
4E
102
{ACAD_REACTORS
330
47
102
}
330
47
100
AcDbProxyObject
 90
      499
 91
      503
 95
   393239
 70
     0
 93
      113
310
904313A31364000000000000304000
 94
        0
  0
ACAD_PROXY_OBJECT
  5
4F
102
{ACAD_REACTORS
330
47
102
}
330
47
100
AcDbProxyObject
 90
      499
 91
      503
 95
   393239
 70
     0
 93
      113
310
904313A32304000000000000344000
 94
        0
  0
ACAD_PROXY_OBJECT
  5
50
102
{ACAD_REACTORS
330
47
102
}
330
47
100
AcDbProxyObject
 90
      499
 91
      503
 95
   393239
 70
     0
 93
      113
310
904313A333040000000000003E4000
 94
        0
  0
ACAD_PROXY_OBJECT
  5
51
102
{ACAD_REACTORS
330
47
102
}
330
47
100
AcDbProxyObject
 90
      499
 91
      503
 95
   393239
 70
     0
 93
      113
310
904313A34304000000000000444000
 94
        0
  0
ACAD_PROXY_OBJECT
  5
52
102
{ACAD_REACTORS
330
47
102
}
330
47
100
AcDbProxyObject
 90
      499
 91
      503
 95
   393239
 70
     0
 93
      113
310
904313A35304000000000000494000
 94
        0
  0
ACAD_PROXY_OBJECT
  5
53
102
{ACAD_REACTORS
330
47
102
}
330
47
100
AcDbProxyObject
 90
      499
 91
      503
 95
   393239
 70
     0
 93
      121
310
905313A3130304000000000000594000
 94
        0
  0
ACAD_PROXY_OBJECT
  5
54
102
{ACAD_REACTORS
330
47
102
}
330
47
100
AcDbProxyObject
 90
      499
 91
      503
 95
   393239
 70
     0
 93
      105
310
903323A310000000000000010140
 94
        0
  0
ACAD_PROXY_OBJECT
  5
55
102
{ACAD_REACTORS
330
47
102
}
330
47
100
AcDbProxyObject
 90
      499
 91
      503
 95
   393239
 70
     0
 93
      105
310
903343A310000000000000410159
 94
        0
  0
ACAD_PROXY_OBJECT
  5
56
102
{ACAD_REACTORS
330
47
102
}
330
47
100
AcDbProxyObject
 90
      499
 91
      503
 95
   393239
 70
     0
 93
      105
310
903383A310000000000000810140
 94
        0
  0
ACAD_PROXY_OBJECT
  5
57
102
{ACAD_REACTORS
330
47
102
}
330
47
100
AcDbProxyObject
 90
      499
 91
      503
 95
   393239
 70
     0
 93
      113
310
90431303A310000000000000910140
 94
        0
  0
ACAD_PROXY_OBJECT
  5
58
102
{ACAD_REACTORS
330
47
102
}
330
47
100
AcDbProxyObject
 90
      499
 91
      503
 95
   393239
 70
     0
 93
      121
310
9053130303A310000000000001650100
 94
        0
  0
ACAD_PROXY_OBJECT
  5
59
102
{ACAD_REACTORS
330
47
102
}
330
47
100
AcDbProxyObject
 90
      499
 91
      503
 95
   393239
 70
     0
 93
      257
310
90E312F31323822203D2031272D3022000000000000200FC000000000000284000
 94
        0
  0
ACAD_PROXY_OBJECT
  5
5A
102
{ACAD_REACTORS
330
47
102
}
330
47
100
AcDbProxyObject
 90
      499
 91
      503
 95
   393239
 70
     0
 93
      249
310
90D312F363422203D2031272D3022000000000000240FC000000000000284000
 94
        0
  0
ACAD_PROXY_OBJECT
  5
5B
102
{ACAD_REACTORS
330
47
102
}
330
47
100
AcDbProxyObject
 90
      499
 91
      503
 95
   393239
 70
     0
 93
      249
310
90D312F333222203D2031272D3022000000000000280FC000000000000284040
 94
        0
  0
ACAD_PROXY_OBJECT
  5
5C
102
{ACAD_REACTORS
330
47
102
}
330
47
100
AcDbProxyObject
 90
      499
 91
      503
 95
   393239
 70
     0
 93
      249
310
90D312F313622203D2031272D30220000000000002C0FC000000000000284000
 94
        0
  0
ACAD_PROXY_OBJECT
  5
5D
102
{ACAD_REACTORS
330
47
102
}
330
47
100
AcDbProxyObject
 90
      499
 91
      503
 95
   393239
 70
     0
 93
      249
310
90D332F333222203D2031272D30220000000000002E0FC000000000000284040
 94
        0
  0
ACAD_PROXY_OBJECT
  5
5E
102
{ACAD_REACTORS
330
47
102
}
330
47
100
AcDbProxyObject
 90
      499
 91
      503
 95
   393239
 70
     0
 93
      241
310
90C312F3822203D2031272D3022000000000000300FC000000000000284040
 94
        0
  0
ACAD_PROXY_OBJECT
  5
5F
102
{ACAD_REACTORS
330
47
102
}
330
47
100
AcDbProxyObject
 90
      499
 91
      503
 95
   393239
 70
     0
 93
      249
310
90D332F313622203D2031272D3022000000000000320FC000000000000284040
 94
        0
  0
ACAD_PROXY_OBJECT
  5
60
102
{ACAD_REACTORS
330
47
102
}
330
47
100
AcDbProxyObject
 90
      499
 91
      503
 95
   393239
 70
     0
 93
      241
310
90C312F3422203D2031272D3022000000000000340FC000000000000284040
 94
        0
  0
ACAD_PROXY_OBJECT
  5
61
102
{ACAD_REACTORS
330
47
102
}
330
47
100
AcDbProxyObject
 90
      499
 91
      503
 95
   393239
 70
     0
 93
      241
310
90C332F3822203D2031272D3022000000000000360FC000000000000284040
 94
        0
  0
ACAD_PROXY_OBJECT
  5
62
102
{ACAD_REACTORS
330
47
102
}
330
47
100
AcDbProxyObject
 90
      499
 91
      503
 95
   393239
 70
     0
 93
      241
310
90C312F3222203D2031272D3022000000000000380FC000000000000284040
 94
        0
  0
ACAD_PROXY_OBJECT
  5
63
102
{ACAD_REACTORS
330
47
102
}
330
47
100
AcDbProxyObject
 90
      499
 91
      503
 95
   393239
 70
     0
 93
      241
310
90C332F3422203D2031272D30220000000000003A0FC000000000000284040
 94
        0
  0
ACAD_PROXY_OBJECT
  5
64
102
{ACAD_REACTORS
330
47
102
}
330
47
100
AcDbProxyObject
 90
      499
 91
      503
 95
   393239
 70
     0
 93
      161
310
90A3122203D2031272D30224000000000000284000
 94
        0
  0
ACAD_PROXY_OBJECT
  5
65
102
{ACAD_REACTORS
330
47
102
}
330
47
100
AcDbProxyObject
 90
      499
 91
      503
 95
   393239
 70
     0
 93
      257
310
90E312D312F3222203D2031272D30220000000000003E0FC000000000000284000
 94
        0
  0
ACAD_PROXY_OBJECT
  5
66
102
{ACAD_REACTORS
330
47
102
}
330
47
100
AcDbProxyObject
 90
      499
 91
      503
 95
   393239
 70
     0
 93
      225
310
90A3322203D2031272D302200000000000002100000000000000284028
 94
        0
  0
ACAD_PROXY_OBJECT
  5
67
102
{ACAD_REACTORS
330
47
102
}
330
47
100
AcDbProxyObject
 90
      499
 91
      503
 95
   393239
 70
     0
 93
      225
310
90A3622203D2031272D302200000000000006100000000000000284000
 94
        0
  0
ACAD_PROXY_OBJECT
  5
68
102
{ACAD_REACTORS
330
47
102
}
330
47
100
AcDbProxyObject
 90
      499
 91
      503
 95
   393239
 70
     0
 93
      249
310
90D31272D3022203D2031272D30220000000000000A100000000000000284000
 94
        0
  0
ENDSEC
  0
EOF
