  0
SECTION
  2
HEADER
  9
$ACADVER
  1
AC1018
  9
$ACADMAINTVER
 70
     0
  9
$DWGCODEPAGE
  3
ANSI_1252
  9
$INSBASE
 10
0.0
 20
0.0
 30
0.0
  9
$EXTMIN
 10
-18.04295174913617
 20
-12.97467058046489
 30
0.0
  9
$EXTMAX
 10
24.77919708416239
 20
20.97739023501835
 30
0.0
  9
$LIMMIN
 10
-100.0
 20
-100.0
  9
$LIMMAX
 10
100.0
 20
100.0
  9
$ORTHOMODE
 70
     0
  9
$REGENMODE
 70
     1
  9
$FILLMODE
 70
     1
  9
$QTEXTMODE
 70
     0
  9
$MIRRTEXT
 70
     1
  9
$LTSCALE
 40
1.0
  9
$ATTMODE
 70
     1
  9
$TEXTSIZE
 40
0.1377952755905512
  9
$TRACEWID
 40
0.05
  9
$TEXTSTYLE
  7
Standard
  9
$CLAYER
  8
0
  9
$CELTYPE
  6
ByLayer
  9
$CECOLOR
 62
   256
  9
$CELTSCALE
 40
1.0
  9
$DISPSILH
 70
     0
  9
$DIMSCALE
 40
1.0
  9
$DIMASZ
 40
0.13
  9
$DIMEXO
 40
0.0393700787401575
  9
$DIMDLI
 40
0.38
  9
$DIMRND
 40
0.0
  9
$DIMDLE
 40
0.0
  9
$DIMEXE
 40
0.0393700787401575
  9
$DIMTP
 40
0.0
  9
$DIMTM
 40
0.0
  9
$DIMTXT
 40
0.1377952755905512
  9
$DIMCEN
 40
0.09
  9
$DIMTSZ
 40
0.0
  9
$DIMTOL
 70
     0
  9
$DIMLIM
 70
     0
  9
$DIMTIH
 70
     1
  9
$DIMTOH
 70
     1
  9
$DIMSE1
 70
     0
  9
$DIMSE2
 70
     0
  9
$DIMTAD
 70
     1
  9
$DIMZIN
 70
     0
  9
$DIMBLK
  1

  9
$DIMASO
 70
     1
  9
$DIMSHO
 70
     1
  9
$DIMPOST
  1

  9
$DIMAPOST
  1

  9
$DIMALT
 70
     0
  9
$DIMALTD
 70
     2
  9
$DIMALTF
 40
25.4
  9
$DIMLFAC
 40
1.0
  9
$DIMTOFL
 70
     0
  9
$DIMTVP
 40
0.0
  9
$DIMTIX
 70
     0
  9
$DIMSOXD
 70
     0
  9
$DIMSAH
 70
     0
  9
$DIMBLK1
  1

  9
$DIMBLK2
  1

  9
$DIMSTYLE
  2
Standard
  9
$DIMCLRD
 70
     0
  9
$DIMCLRE
 70
     0
  9
$DIMCLRT
 70
     0
  9
$DIMTFAC
 40
1.0
  9
$DIMGAP
 40
0.06
  9
$DIMJUST
 70
     0
  9
$DIMSD1
 70
     0
  9
$DIMSD2
 70
     0
  9
$DIMTOLJ
 70
     1
  9
$DIMTZIN
 70
     0
  9
$DIMALTZ
 70
     0
  9
$DIMALTTZ
 70
     0
  9
$DIMUPT
 70
     0
  9
$DIMDEC
 70
     2
  9
$DIMTDEC
 70
     2
  9
$DIMALTU
 70
     2
  9
$DIMALTTD
 70
     2
  9
$DIMTXSTY
  7
Standard
  9
$DIMAUNIT
 70
     0
  9
$DIMADEC
 70
     2
  9
$DIMALTRND
 40
0.0
  9
$DIMAZIN
 70
     0
  9
$DIMDSEP
 70
    46
  9
$DIMATFIT
 70
     3
  9
$DIMFRAC
 70
     0
  9
$DIMLDRBLK
  1

  9
$DIMLUNIT
 70
     2
  9
$DIMLWD
 70
    -2
  9
$DIMLWE
 70
    -2
  9
$DIMTMOVE
 70
     0
  9
$LUNITS
 70
     2
  9
$LUPREC
 70
     2
  9
$SKETCHINC
 40
0.1
  9
$FILLETRAD
 40
0.5
  9
$AUNITS
 70
     0
  9
$AUPREC
 70
     2
  9
$MENU
  1
.
  9
$ELEVATION
 40
0.0
  9
$PELEVATION
 40
0.0
  9
$THICKNESS
 40
0.0
  9
$LIMCHECK
 70
     0
  9
$CHAMFERA
 40
0.0
  9
$CHAMFERB
 40
0.0
  9
$CHAMFERC
 40
0.0
  9
$CHAMFERD
 40
0.0
  9
$SKPOLY
 70
     0
  9
$TDCREATE
 40
2457060.503325243
  9
$TDUCREATE
 40
2457060.753325243
  9
$TDUPDATE
 40
2457064.331665891
  9
$TDUUPDATE
 40
2457064.581665891
  9
$TDINDWG
 40
0.0004095602
  9
$TDUSRTIMER
 40
0.0004095602
  9
$USRTIMER
 70
     1
  9
$ANGBASE
 50
0.0
  9
$ANGDIR
 70
     0
  9
$PDMODE
 70
     0
  9
$PDSIZE
 40
-1.0
  9
$PLINEWID
 40
0.0
  9
$SPLFRAME
 70
     0
  9
$SPLINETYPE
 70
     6
  9
$SPLINESEGS
 70
     8
  9
$HANDSEED
  5
23A
  9
$SURFTAB1
 70
     6
  9
$SURFTAB2
 70
     6
  9
$SURFTYPE
 70
     6
  9
$SURFU
 70
     6
  9
$SURFV
 70
     6
  9
$UCSBASE
  2

  9
$UCSNAME
  2

  9
$UCSORG
 10
0.0
 20
0.0
 30
0.0
  9
$UCSXDIR
 10
1.0
 20
0.0
 30
0.0
  9
$UCSYDIR
 10
0.0
 20
1.0
 30
0.0
  9
$UCSORTHOREF
  2

  9
$UCSORTHOVIEW
 70
     0
  9
$UCSORGTOP
 10
0.0
 20
0.0
 30
0.0
  9
$UCSORGBOTTOM
 10
0.0
 20
0.0
 30
0.0
  9
$UCSORGLEFT
 10
0.0
 20
0.0
 30
0.0
  9
$UCSORGRIGHT
 10
0.0
 20
0.0
 30
0.0
  9
$UCSORGFRONT
 10
0.0
 20
0.0
 30
0.0
  9
$UCSORGBACK
 10
0.0
 20
0.0
 30
0.0
  9
$PUCSBASE
  2

  9
$PUCSNAME
  2

  9
$PUCSORG
 10
0.0
 20
0.0
 30
0.0
  9
$PUCSXDIR
 10
1.0
 20
0.0
 30
0.0
  9
$PUCSYDIR
 10
0.0
 20
1.0
 30
0.0
  9
$PUCSORTHOREF
  2

  9
$PUCSORTHOVIEW
 70
     0
  9
$PUCSORGTOP
 10
0.0
 20
0.0
 30
0.0
  9
$PUCSORGBOTTOM
 10
0.0
 20
0.0
 30
0.0
  9
$PUCSORGLEFT
 10
0.0
 20
0.0
 30
0.0
  9
$PUCSORGRIGHT
 10
0.0
 20
0.0
 30
0.0
  9
$PUCSORGFRONT
 10
0.0
 20
0.0
 30
0.0
  9
$PUCSORGBACK
 10
0.0
 20
0.0
 30
0.0
  9
$USERI1
 70
     0
  9
$USERI2
 70
     0
  9
$USERI3
 70
     0
  9
$USERI4
 70
     0
  9
$USERI5
 70
     0
  9
$USERR1
 40
0.0
  9
$USERR2
 40
0.0
  9
$USERR3
 40
0.0
  9
$USERR4
 40
0.0
  9
$USERR5
 40
0.0
  9
$WORLDVIEW
 70
     1
  9
$SHADEDGE
 70
     3
  9
$SHADEDIF
 70
    70
  9
$TILEMODE
 70
     1
  9
$MAXACTVP
 70
    64
  9
$PINSBASE
 10
0.0
 20
0.0
 30
0.0
  9
$PLIMCHECK
 70
     0
  9
$PEXTMIN
 10
1.000000000000000E+20
 20
1.000000000000000E+20
 30
1.000000000000000E+20
  9
$PEXTMAX
 10
-1.000000000000000E+20
 20
-1.000000000000000E+20
 30
-1.000000000000000E+20
  9
$PLIMMIN
 10
0.0
 20
0.0
  9
$PLIMMAX
 10
12.0
 20
9.0
  9
$UNITMODE
 70
     0
  9
$VISRETAIN
 70
     1
  9
$PLINEGEN
 70
     0
  9
$PSLTSCALE
 70
     1
  9
$TREEDEPTH
 70
  3020
  9
$CMLSTYLE
  2
Standard
  9
$CMLJUST
 70
     0
  9
$CMLSCALE
 40
1.0
  9
$PROXYGRAPHICS
 70
     1
  9
$MEASUREMENT
 70
     0
  9
$CELWEIGHT
370
    -1
  9
$ENDCAPS
280
     0
  9
$JOINSTYLE
280
     0
  9
$LWDISPLAY
290
     1
  9
$INSUNITS
 70
     1
  9
$HYPERLINKBASE
  1

  9
$STYLESHEET
  1

  9
$XEDIT
290
     1
  9
$CEPSNTYPE
380
     0
  9
$PSTYLEMODE
290
     1
  9
$FINGERPRINTGUID
  2
{8DF63151-7812-4469-BF21-39F91BD71D35}
  9
$VERSIONGUID
  2
{21BE9708-D221-424F-B30E-582D50F1E0EC}
  9
$EXTNAMES
290
     1
  9
$PSVPSCALE
 40
0.0
  9
$OLESTARTUP
290
     0
  9
$SORTENTS
280
   127
  9
$INDEXCTL
280
     0
  9
$HIDETEXT
280
     0
  9
$XCLIPFRAME
290
     0
  9
$HALOGAP
280
     0
  9
$OBSCOLOR
 70
   257
  9
$OBSLTYPE
280
     0
  9
$INTERSECTIONDISPLAY
280
     0
  9
$INTERSECTIONCOLOR
 70
   257
  9
$DIMASSOC
280
     1
  9
$PROJECTNAME
  1

  0
ENDSEC
  0
SECTION
  2
CLASSES
  0
CLASS
  1
ACDBDICTIONARYWDFLT
  2
AcDbDictionaryWithDefault
  3
ObjectDBX Classes
 90
        0
 91
        1
280
     0
281
     0
  0
CLASS
  1
VISUALSTYLE
  2
AcDbVisualStyle
  3
ObjectDBX Classes
 90
     4095
 91
        0
280
     0
281
     0
  0
CLASS
  1
MATERIAL
  2
AcDbMaterial
  3
ObjectDBX Classes
 90
        0
 91
        0
280
     0
281
     0
  0
CLASS
  1
SCALE
  2
AcDbScale
  3
ObjectDBX Classes
 90
     1153
 91
       33
280
     0
281
     0
  0
CLASS
  1
SUN
  2
AcDbSun
  3
SCENEOE
 90
     1153
 91
        1
280
     0
281
     0
  0
CLASS
  1
ACDBPLACEHOLDER
  2
AcDbPlaceHolder
  3
ObjectDBX Classes
 90
        0
 91
        1
280
     0
281
     0
  0
CLASS
  1
LAYOUT
  2
AcDbLayout
  3
ObjectDBX Classes
 90
        0
 91
        3
280
     0
281
     0
  0
ENDSEC
  0
SECTION
  2
TABLES
  0
TABLE
  2
VPORT
  5
8
330
0
100
AcDbSymbolTable
 70
     3
  0
VPORT
  5
239
330
8
100
AcDbSymbolTableRecord
100
AcDbViewportTableRecord
  2
*Active
 70
     0
 10
0.0
 20
0.0
 11
1.0
 21
1.0
 12
3.260874881008319
 22
3.09907614560754
 13
0.0
 23
0.0
 14
0.5
 24
0.5
 15
0.5
 25
0.5
 16
0.0
 26
0.0
 36
1.0
 17
0.0
 27
0.0
 37
0.0
 40
53.40371625656473
 41
2.240490797546012
 42
50.0
 43
0.0
 44
0.0
 50
0.0
 51
0.0
 71
     0
 72
  2000
 73
     1
 74
     3
 75
     0
 76
     0
 77
     0
 78
     0
281
     0
 65
     1
110
0.0
120
0.0
130
0.0
111
1.0
121
0.0
131
0.0
112
0.0
122
1.0
132
0.0
 79
     0
146
0.0
  0
ENDTAB
  0
TABLE
  2
LTYPE
  5
5
330
0
100
AcDbSymbolTable
 70
     6
  0
LTYPE
  5
14
330
5
100
AcDbSymbolTableRecord
100
AcDbLinetypeTableRecord
  2
ByBlock
 70
     0
  3

 72
    65
 73
     0
 40
0.0
  0
LTYPE
  5
15
330
5
100
AcDbSymbolTableRecord
100
AcDbLinetypeTableRecord
  2
ByLayer
 70
     0
  3

 72
    65
 73
     0
 40
0.0
  0
LTYPE
  5
16
330
5
100
AcDbSymbolTableRecord
100
AcDbLinetypeTableRecord
  2
Continuous
 70
     0
  3
Solid line
 72
    65
 73
     0
 40
0.0
  0
LTYPE
  5
6A
330
5
100
AcDbSymbolTableRecord
100
AcDbLinetypeTableRecord
  2
HIDDEN
 70
     0
  3
Hidden __ __ __ __ __ __ __ __ __ __ __ __ __ __
 72
    65
 73
     2
 40
0.075
 49
0.05
 74
     0
 49
-0.025
 74
     0
  0
LTYPE
  5
6B
330
5
100
AcDbSymbolTableRecord
100
AcDbLinetypeTableRecord
  2
PHANTOM
 70
     0
  3
Phantom ______  __  __  ______  __  __  ______
 72
    65
 73
     6
 40
0.5
 49
0.25
 74
     0
 49
-0.05
 74
     0
 49
0.05
 74
     0
 49
-0.05
 74
     0
 49
0.05
 74
     0
 49
-0.05
 74
     0
  0
LTYPE
  5
6C
330
5
100
AcDbSymbolTableRecord
100
AcDbLinetypeTableRecord
  2
CENTER
 70
     0
  3
Center ____ _ ____ _ ____ _ ____ _ ____ _ ____
 72
    65
 73
     4
 40
0.4
 49
0.25
 74
     0
 49
-0.05
 74
     0
 49
0.05
 74
     0
 49
-0.05
 74
     0
  0
LTYPE
  5
6D
330
5
100
AcDbSymbolTableRecord
100
AcDbLinetypeTableRecord
  2
CENTERX2
 70
     0
  3
Center (2x) ________  __  ________  __  _____
 72
    65
 73
     4
 40
0.8
 49
0.5
 74
     0
 49
-0.1
 74
     0
 49
0.1
 74
     0
 49
-0.1
 74
     0
  0
LTYPE
  5
6E
330
5
100
AcDbSymbolTableRecord
100
AcDbLinetypeTableRecord
  2
DOT2
 70
     0
  3
Dot (.5x) ........................................
 72
    65
 73
     2
 40
0.025
 49
0.0
 74
     0
 49
-0.025
 74
     0
  0
ENDTAB
  0
TABLE
  2
LAYER
  5
2
330
0
100
AcDbSymbolTable
 70
     1
  0
LAYER
  5
10
330
2
100
AcDbSymbolTableRecord
100
AcDbLayerTableRecord
  2
0
 70
     0
 62
     7
  6
Continuous
370
    -3
390
F
  0
ENDTAB
  0
TABLE
  2
STYLE
  5
3
330
0
100
AcDbSymbolTable
 70
     1
  0
STYLE
  5
11
330
3
100
AcDbSymbolTableRecord
100
AcDbTextStyleTableRecord
  2
Standard
 70
     0
 40
0.0
 41
1.0
 50
0.0
 71
     0
 42
0.1377952755905512
  3
txt
  4

  0
ENDTAB
  0
TABLE
  2
VIEW
  5
6
330
0
100
AcDbSymbolTable
 70
     0
  0
ENDTAB
  0
TABLE
  2
UCS
  5
7
330
0
100
AcDbSymbolTable
 70
     0
  0
ENDTAB
  0
TABLE
  2
APPID
  5
9
330
0
100
AcDbSymbolTable
 70
     1
  0
APPID
  5
12
330
9
100
AcDbSymbolTableRecord
100
AcDbRegAppTableRecord
  2
ACAD
 70
     0
  0
ENDTAB
  0
TABLE
  2
DIMSTYLE
  5
A
330
0
100
AcDbSymbolTable
 70
     1
100
AcDbDimStyleTable
 71
     0
  0
DIMSTYLE
105
27
330
A
100
AcDbSymbolTableRecord
100
AcDbDimStyleTableRecord
  2
Standard
 70
     0
340
11
  0
ENDTAB
  0
TABLE
  2
BLOCK_RECORD
  5
1
330
0
100
AcDbSymbolTable
 70
     1
  0
BLOCK_RECORD
  5
1F
330
1
100
AcDbSymbolTableRecord
100
AcDbBlockTableRecord
  2
*Model_Space
340
22
  0
BLOCK_RECORD
  5
1B
330
1
100
AcDbSymbolTableRecord
100
AcDbBlockTableRecord
  2
*Paper_Space
340
1E
  0
BLOCK_RECORD
  5
23
330
1
100
AcDbSymbolTableRecord
100
AcDbBlockTableRecord
  2
*Paper_Space0
340
26
  0
ENDTAB
  0
ENDSEC
  0
SECTION
  2
BLOCKS
  0
BLOCK
  5
20
330
1F
100
AcDbEntity
  8
0
100
AcDbBlockBegin
  2
*Model_Space
 70
     0
 10
0.0
 20
0.0
 30
0.0
  3
*Model_Space
  1

  0
ENDBLK
  5
21
330
1F
100
AcDbEntity
  8
0
100
AcDbBlockEnd
  0
BLOCK
  5
1C
330
1B
100
AcDbEntity
 67
     1
  8
0
100
AcDbBlockBegin
  2
*Paper_Space
 70
     0
 10
0.0
 20
0.0
 30
0.0
  3
*Paper_Space
  1

  0
ENDBLK
  5
1D
330
1B
100
AcDbEntity
 67
     1
  8
0
100
AcDbBlockEnd
  0
BLOCK
  5
24
330
23
100
AcDbEntity
  8
0
100
AcDbBlockBegin
  2
*Paper_Space0
 70
     0
 10
0.0
 20
0.0
 30
0.0
  3
*Paper_Space0
  1

  0
ENDBLK
  5
25
330
23
100
AcDbEntity
  8
0
100
AcDbBlockEnd
  0
ENDSEC
  0
SECTION
  2
ENTITIES
  0
LINE
  5
6F
330
1F
100
AcDbEntity
  8
0
  6
Continuous
 62
     7
370
    15
100
AcDbLine
 10
22.73794920323911
 20
-12.25229658012603
 30
0.0
 11
23.43799229528602
 21
-11.56903306147518
 31
0.0
  0
LINE
  5
70
330
1F
100
AcDbEntity
  8
0
  6
Continuous
 62
     7
370
    15
100
AcDbLine
 10
23.43799229528602
 20
-11.56903306147518
 30
0.0
 11
24.13803538733292
 21
-10.88576954282435
 31
0.0
  0
LINE
  5
71
330
1F
100
AcDbEntity
  8
0
  6
Continuous
 62
     7
370
    15
100
AcDbLine
 10
-4.018996829016011
 20
4.992225680437244
 30
0.0
 11
-4.018996829016011
 21
3.232804792008443
 31
0.0
  0
LINE
  5
72
330
1F
100
AcDbEntity
  8
0
  6
Continuous
 62
     7
370
    15
100
AcDbLine
 10
11.89792095415871
 20
0.6423399852863926
 30
0.0
 11
11.89792095415871
 21
-1.115588900687852
 31
0.0
  0
LINE
  5
73
330
1F
100
AcDbEntity
  8
0
  6
Continuous
 62
     7
370
    15
100
AcDbLine
 10
-14.76622553438414
 20
1.365717175109729
 30
0.0
 11
-13.21849434279179
 21
0.9450770011027593
 31
0.0
  0
SPLINE
  5
74
330
1F
100
AcDbEntity
  8
0
  6
Continuous
 62
     7
370
    15
100
AcDbSpline
210
0.0
220
0.0
230
1.0
 70
     8
 71
     3
 72
    13
 73
     9
 74
     0
 42
0.0000000001
 43
0.0000000001
 40
0.0
 40
0.0
 40
0.0
 40
0.0
 40
0.1982067305169813
 40
0.381247347851898
 40
0.5509937124496372
 40
0.7093842036981444
 40
0.858396300249996
 40
1.0
 40
1.0
 40
1.0
 40
1.0
 10
-13.21849434279179
 20
0.9450770011027593
 30
0.0
 10
-13.26149734710736
 20
0.7839100686930183
 30
0.0
 10
-13.34421291030855
 20
0.4739081561324537
 30
0.0
 10
-13.44713985145258
 20
0.023386771084007
 30
0.0
 10
-13.52887256079837
 20
-0.393523845194582
 30
0.0
 10
-13.5891240201118
 20
-0.7785119422394976
 30
0.0
 10
-13.63106772656342
 20
-1.134765268818963
 30
0.0
 10
-13.64378090724036
 20
-1.355611013160578
 30
0.0
 10
-13.64997545496404
 20
-1.463218978284172
 30
0.0
  0
LINE
  5
75
330
1F
100
AcDbEntity
  8
0
  6
Continuous
 62
     7
370
    15
100
AcDbLine
 10
-13.64997545496404
 20
-1.463218978284172
 30
0.0
 11
-14.14745966549316
 21
-1.328013429659549
 31
0.0
  0
SPLINE
  5
76
330
1F
100
AcDbEntity
  8
0
  6
Continuous
 62
     7
370
    15
100
AcDbSpline
210
0.0
220
0.0
230
1.0
 70
     8
 71
     3
 72
    28
 73
    24
 74
     0
 42
0.0000000001
 43
0.0000000001
 40
0.0
 40
0.0
 40
0.0
 40
0.0
 40
0.0448835797283784
 40
0.0884118359173286
 40
0.131292885695935
 40
0.1802760886260301
 40
0.2297312301602775
 40
0.2799975961538152
 40
0.3312045717851593
 40
0.3833182848993184
 40
0.436186990502305
 40
0.4895799125210305
 40
0.5432226875602032
 40
0.5968266785892156
 40
0.6501192793040009
 40
0.7028734916621779
 40
0.7549412578663967
 40
0.8062907724262965
 40
0.8570484570831638
 40
0.8924589584822706
 40
0.927916655458476
 40
0.9636629591012539
 40
1.0
 40
1.0
 40
1.0
 40
1.0
 10
-14.14745966549316
 20
-1.328013429659549
 30
0.0
 10
-14.15043946393997
 20
-1.448090628567213
 30
0.0
 10
-14.15630908158056
 20
-1.684619124544658
 30
0.0
 10
-14.13634105223787
 20
-2.007086145697472
 30
0.0
 10
-14.09548519931486
 20
-2.313067076751518
 30
0.0
 10
-14.03064748495714
 20
-2.599791230000523
 30
0.0
 10
-13.94242977764683
 20
-2.866959181691491
 30
0.0
 10
-13.83680009212582
 20
-3.107140181397888
 30
0.0
 10
-13.71699731301047
 20
-3.325550508344923
 30
0.0
 10
-13.58614611077697
 20
-3.52726645351688
 30
0.0
 10
-13.44735515293289
 20
-3.717272743453243
 30
0.0
 10
-13.30372594740081
 20
-3.900514819568103
 30
0.0
 10
-13.15834944489504
 20
-4.0818852635517
 30
0.0
 10
-13.01432350384589
 20
-4.266286475705379
 30
0.0
 10
-12.87474319841228
 20
-4.458618977751621
 30
0.0
 10
-12.74270929778507
 20
-4.663817076073552
 30
0.0
 10
-12.62133715004497
 20
-4.886878116452709
 30
0.0
 10
-12.51375967425581
 20
-5.132845421929963
 30
0.0
 10
-12.43215234352416
 20
-5.379898805069047
 30
0.0
 10
-12.37348580046979
 20
-5.621569019232985
 30
0.0
 10
-12.33350820514073
 20
-5.851189552776472
 30
0.0
 10
-12.30475910524034
 20
-6.09937191527723
 30
0.0
 10
-12.29712780865957
 20
-6.279674190157292
 30
0.0
 10
-12.29328089037727
 20
-6.370564133987238
 30
0.0
  0
LINE
  5
77
330
1F
100
AcDbEntity
  8
0
  6
Continuous
 62
     7
370
    15
100
AcDbLine
 10
-12.29328089037727
 20
-6.370564133987238
 30
0.0
 11
-11.79579667984816
 21
-6.505769682611861
 31
0.0
  0
SPLINE
  5
78
330
1F
100
AcDbEntity
  8
0
  6
Continuous
 62
     7
370
    15
100
AcDbSpline
210
0.0
220
0.0
230
1.0
 70
     8
 71
     3
 72
    13
 73
     9
 74
     0
 42
0.0000000001
 43
0.0000000001
 40
0.0
 40
0.0
 40
0.0
 40
0.0
 40
0.1474120300712556
 40
0.3001575045572558
 40
0.4599656127738617
 40
0.6286481161806988
 40
0.8080487846374547
 40
1.0
 40
1.0
 40
1.0
 40
1.0
 10
-11.79579667984816
 20
-6.505769682611861
 30
0.0
 10
-11.79470095128666
 20
-6.601797090079224
 30
0.0
 10
-11.79246985013072
 20
-6.797326226884229
 30
0.0
 10
-11.80872162301518
 20
-7.115199305276026
 30
0.0
 10
-11.8403542762598
 20
-7.457877945519023
 30
0.0
 10
-11.8901437240998
 20
-7.828504885112794
 30
0.0
 10
-11.95769752469072
 20
-8.228185384072384
 30
0.0
 10
-12.01598398725429
 20
-8.504999309171983
 30
0.0
 10
-12.04611216975656
 20
-8.64808399964308
 30
0.0
  0
LINE
  5
79
330
1F
100
AcDbEntity
  8
0
  6
Continuous
 62
     7
370
    15
100
AcDbLine
 10
-13.59384336134892
 20
-8.227443825636107
 30
0.0
 11
-12.04611216975656
 21
-8.648083999643079
 31
0.0
  0
SPLINE
  5
7A
330
1F
100
AcDbEntity
  8
0
  6
Continuous
 62
     7
370
    15
100
AcDbSpline
210
0.0
220
0.0
230
1.0
 70
     8
 71
     3
 72
    13
 73
     9
 74
     0
 42
0.0000000001
 43
0.0000000001
 40
0.0
 40
0.0
 40
0.0
 40
0.0
 40
0.1474120300712556
 40
0.3001575045572558
 40
0.4599656127738617
 40
0.6286481161806988
 40
0.8080487846374547
 40
1.0
 40
1.0
 40
1.0
 40
1.0
 10
-13.34352787144052
 20
-6.085129508604889
 30
0.0
 10
-13.34243214287902
 20
-6.181156916072253
 30
0.0
 10
-13.34020104172307
 20
-6.376686052877259
 30
0.0
 10
-13.35645281460754
 20
-6.694559131269053
 30
0.0
 10
-13.38808546785216
 20
-7.037237771512053
 30
0.0
 10
-13.43787491569216
 20
-7.407864711105824
 30
0.0
 10
-13.50542871628307
 20
-7.807545210065414
 30
0.0
 10
-13.56371517884666
 20
-8.084359135165012
 30
0.0
 10
-13.59384336134891
 20
-8.227443825636111
 30
0.0
  0
LINE
  5
7B
330
1F
100
AcDbEntity
  8
0
  6
Continuous
 62
     7
370
    15
100
AcDbLine
 10
-13.34352787144052
 20
-6.085129508604889
 30
0.0
 11
-12.84604158550085
 21
-6.22033562128163
 31
0.0
  0
SPLINE
  5
7C
330
1F
100
AcDbEntity
  8
0
  6
Continuous
 62
     7
370
    15
100
AcDbSpline
210
0.0
220
0.0
230
1.0
 70
     8
 71
     3
 72
    28
 73
    24
 74
     0
 42
0.0000000001
 43
0.0000000001
 40
0.0
 40
0.0
 40
0.0
 40
0.0
 40
0.0363370408987461
 40
0.0720833445415239
 40
0.1075410415177292
 40
0.1429515429168362
 40
0.1937092275737034
 40
0.2450587421336034
 40
0.2971265083378222
 40
0.3498807206959992
 40
0.4031733214107845
 40
0.4567773124397969
 40
0.5104200874789696
 40
0.5638130094976949
 40
0.6166817151006815
 40
0.6687954282148407
 40
0.7200024038461847
 40
0.7702687698397225
 40
0.81972391137397
 40
0.868707114304065
 40
0.9115881640826712
 40
0.9551164202716215
 40
1.0
 40
1.0
 40
1.0
 40
1.0
 10
-12.84604158550085
 20
-6.220335621281633
 30
0.0
 10
-12.84988850378315
 20
-6.129445677451684
 30
0.0
 10
-12.85751980036392
 20
-5.949143402571627
 30
0.0
 10
-12.88626890026431
 20
-5.700961040070864
 30
0.0
 10
-12.92624649559337
 20
-5.471340506527376
 30
0.0
 10
-12.98491303864775
 20
-5.22967029236344
 30
0.0
 10
-13.06652036937939
 20
-4.982616909224357
 30
0.0
 10
-13.17409784516855
 20
-4.736649603747108
 30
0.0
 10
-13.29546999290865
 20
-4.51358856336794
 30
0.0
 10
-13.42750389353586
 20
-4.308390465046016
 30
0.0
 10
-13.56708419896946
 20
-4.116057962999772
 30
0.0
 10
-13.71111014001862
 20
-3.931656750846094
 30
0.0
 10
-13.85648664252439
 20
-3.750286306862495
 30
0.0
 10
-14.00011584805648
 20
-3.567044230747636
 30
0.0
 10
-14.13890680590055
 20
-3.377037940811274
 30
0.0
 10
-14.26975800813405
 20
-3.175321995639313
 30
0.0
 10
-14.3895607872494
 20
-2.956911668692285
 30
0.0
 10
-14.49519047277041
 20
-2.716730668985884
 30
0.0
 10
-14.58340818008072
 20
-2.449562717294916
 30
0.0
 10
-14.64824589443845
 20
-2.162838564045911
 30
0.0
 10
-14.68910174736145
 20
-1.856857632991868
 30
0.0
 10
-14.70906977670414
 20
-1.534390611839044
 30
0.0
 10
-14.70320015906356
 20
-1.297862115861606
 30
0.0
 10
-14.70022036061673
 20
-1.177784916953942
 30
0.0
  0
LINE
  5
7D
330
1F
100
AcDbEntity
  8
0
  6
Continuous
 62
     7
370
    15
100
AcDbLine
 10
-14.70022036061673
 20
-1.177784916953942
 30
0.0
 11
-15.1977066465564
 21
-1.042578804277203
 31
0.0
  0
SPLINE
  5
7E
330
1F
100
AcDbEntity
  8
0
  6
Continuous
 62
     7
370
    15
100
AcDbSpline
210
0.0
220
0.0
230
1.0
 70
     8
 71
     3
 72
    13
 73
     9
 74
     0
 42
0.0000000001
 43
0.0000000001
 40
0.0
 40
0.0
 40
0.0
 40
0.0
 40
0.1982067305169813
 40
0.381247347851898
 40
0.5509937124496372
 40
0.7093842036981444
 40
0.858396300249996
 40
1.0
 40
1.0
 40
1.0
 40
1.0
 10
-14.76622553438414
 20
1.365717175109729
 30
0.0
 10
-14.80922853869972
 20
1.204550242699988
 30
0.0
 10
-14.89194410190091
 20
0.894548330139424
 30
0.0
 10
-14.99487104304493
 20
0.4440269450909775
 30
0.0
 10
-15.07660375239073
 20
0.0271163288123889
 30
0.0
 10
-15.13685521170416
 20
-0.3578717682325272
 30
0.0
 10
-15.17879891815578
 20
-0.7141250948119939
 30
0.0
 10
-15.19151209883273
 20
-0.9349708391536067
 30
0.0
 10
-15.1977066465564
 20
-1.042578804277203
 30
0.0
  0
LINE
  5
7F
330
1F
100
AcDbEntity
  8
0
  6
Continuous
 62
     7
370
    15
100
AcDbLine
 10
-3.2146806243508
 20
15.63233581643079
 30
0.0
 11
-3.2146806243508
 21
13.85752572978266
 31
0.0
  0
LINE
  5
80
330
1F
100
AcDbEntity
  8
0
  6
Continuous
 62
     7
370
    15
100
AcDbLine
 10
-3.2146806243508
 20
13.85752572978266
 30
0.0
 11
-13.64997545496404
 21
-1.463218978284172
 31
0.0
  0
LINE
  5
81
330
1F
100
AcDbEntity
  8
0
  6
Continuous
 62
     7
370
    15
100
AcDbLine
 10
-13.21849434279179
 20
0.9450770011027593
 30
0.0
 11
-3.2146806243508
 21
15.63233581643079
 31
0.0
  0
LINE
  5
82
330
1F
100
AcDbEntity
  8
0
  6
Continuous
 62
     7
370
    15
100
AcDbLine
 10
-4.762411815943158
 20
16.05297599043776
 30
0.0
 11
-4.565685725298679
 21
15.99951005433081
 31
0.0
  0
LINE
  5
83
330
1F
100
AcDbEntity
  8
0
  6
Continuous
 62
     7
370
    15
100
AcDbLine
 10
-3.435784487318123
 20
15.69242710870261
 30
0.0
 11
-3.2146806243508
 21
15.63233581643079
 31
0.0
  0
LINE
  5
84
330
1F
100
AcDbEntity
  8
0
  6
Continuous
 62
     7
370
    15
100
AcDbLine
 10
-14.76622553438414
 20
1.365717175109729
 30
0.0
 11
-4.762411815943158
 21
16.05297599043776
 31
0.0
  0
LINE
  5
85
330
1F
100
AcDbEntity
  8
0
  6
Continuous
 62
     7
370
    15
100
AcDbLine
 10
-5.134617531465939
 20
4.139541914067633
 30
0.0
 11
-12.29328089037727
 21
-6.370564133987238
 31
0.0
  0
LINE
  5
86
330
1F
100
AcDbEntity
  8
0
  6
Continuous
 62
     7
370
    15
100
AcDbLine
 10
-3.2146806243508
 20
6.092733109294148
 30
0.0
 11
-3.2146806243508
 21
4.317923525511699
 31
0.0
  0
LINE
  5
87
330
1F
100
AcDbEntity
  8
0
  6
Continuous
 62
     7
370
    15
100
AcDbLine
 10
-3.2146806243508
 20
4.317923525511699
 30
0.0
 11
-3.455121979070495
 21
3.964915567636331
 31
0.0
  0
LINE
  5
88
330
1F
100
AcDbEntity
  8
0
  6
Continuous
 62
     7
370
    15
100
AcDbLine
 10
-4.004576881830566
 20
3.158224276514977
 30
0.0
 11
-12.04611216975656
 21
-8.648083999643079
 31
0.0
  0
LINE
  5
89
330
1F
100
AcDbEntity
  8
0
  6
Continuous
 62
     7
370
    15
100
AcDbLine
 10
-3.2146806243508
 20
6.092733109294148
 30
0.0
 11
-3.348238636908533
 21
5.896647828119426
 31
0.0
  0
LINE
  5
8A
330
1F
100
AcDbEntity
  8
0
  6
Continuous
 62
     7
370
    15
100
AcDbLine
 10
-4.018998094339238
 20
4.911861371530062
 30
0.0
 11
-11.79579667984816
 21
-6.505769682611861
 31
0.0
  0
LINE
  5
8B
330
1F
100
AcDbEntity
  8
0
  6
Continuous
 62
     7
370
    15
100
AcDbLine
 10
-12.92801482510807
 20
-5.475087470968784
 30
0.0
 11
-13.34352787144052
 21
-6.085129508604889
 31
0.0
  0
LINE
  5
8C
330
1F
100
AcDbEntity
  8
0
  6
Continuous
 62
     7
370
    15
100
AcDbLine
 10
5.414198660825325
 20
20.97739023501835
 30
0.0
 11
-4.762411815943158
 21
16.05297599043776
 31
0.0
  0
LINE
  5
8D
330
1F
100
AcDbEntity
  8
0
  6
Continuous
 62
     7
370
    15
100
AcDbLine
 10
5.414198660825325
 20
20.97739023501835
 30
0.0
 11
6.961929852417684
 21
20.55675006101138
 31
0.0
  0
LINE
  5
8E
330
1F
100
AcDbEntity
  8
0
  6
Continuous
 62
     7
370
    15
100
AcDbLine
 10
6.961929852417684
 20
20.55675006101138
 30
0.0
 11
-3.2146806243508
 21
15.63233581643079
 31
0.0
  0
LINE
  5
8F
330
1F
100
AcDbEntity
  8
0
  6
Continuous
 62
     7
370
    15
100
AcDbLine
 10
-3.2146806243508
 20
13.85752572978266
 30
0.0
 11
-1.91619182214646
 21
14.48585896662995
 31
0.0
  0
LINE
  5
90
330
1F
100
AcDbEntity
  8
0
  6
Continuous
 62
     7
370
    15
100
AcDbLine
 10
1.462920265600037
 20
16.12099514912378
 30
0.0
 11
7.171097770587578
 21
18.88315565991958
 31
0.0
  0
SPLINE
  5
91
330
1F
100
AcDbEntity
  8
0
  6
Continuous
 62
     7
370
    15
100
AcDbSpline
210
0.0
220
0.0
230
1.0
 70
     8
 71
     3
 72
    13
 73
     9
 74
     0
 42
0.0000000001
 43
0.0000000001
 40
0.0
 40
0.0
 40
0.0
 40
0.0
 40
0.2069364041905142
 40
0.4019669835754985
 40
0.587481790038201
 40
0.7280876617449083
 40
0.86527634327909
 40
1.0
 40
1.0
 40
1.0
 40
1.0
 10
6.961929852417684
 20
20.55675006101138
 30
0.0
 10
6.99119414925502
 20
20.46293420422454
 30
0.0
 10
7.048039058550603
 20
20.28070006755016
 30
0.0
 10
7.109491863182081
 20
19.97786758131232
 30
0.0
 10
7.148318802909532
 20
19.68653786063919
 30
0.0
 10
7.16853946439973
 20
19.40929340750418
 30
0.0
 10
7.176486948396865
 20
19.15081817353898
 30
0.0
 10
7.172883273470148
 20
18.97183564164142
 30
0.0
 10
7.171097770587578
 20
18.88315565991958
 30
0.0
  0
SPLINE
  5
92
330
1F
100
AcDbEntity
  8
0
  6
Continuous
 62
     7
370
    15
100
AcDbSpline
210
0.0
220
0.0
230
1.0
 70
     8
 71
     3
 72
    15
 73
    11
 74
     0
 42
0.0000000001
 43
0.0000000001
 40
0.0
 40
0.0
 40
0.0
 40
0.0
 40
0.1085791629088606
 40
0.2533577909379889
 40
0.3967904117514411
 40
0.5384447459867421
 40
0.6781658600477959
 40
0.7867457668269273
 40
0.8946223418789616
 40
1.0
 40
1.0
 40
1.0
 40
1.0
 10
5.914961503333592
 20
14.91102581928204
 30
0.0
 10
5.948967713793144
 20
15.04664657677198
 30
0.0
 10
6.028317546020502
 20
15.36310301834383
 30
0.0
 10
6.150987029816429
 20
15.85894815082874
 30
0.0
 10
6.278342489258051
 20
16.39672468403875
 30
0.0
 10
6.39506688048616
 20
16.9283853103792
 30
0.0
 10
6.490219579154738
 20
17.41550783456668
 30
0.0
 10
6.563368782152823
 20
17.85697946555022
 30
0.0
 10
6.617836193276073
 20
18.25197793742836
 30
0.0
 10
6.640725873158777
 20
18.50630846529836
 30
0.0
 10
6.652036602260326
 20
18.6319836043887
 30
0.0
  0
LINE
  5
93
330
1F
100
AcDbEntity
  8
0
  6
Continuous
 62
     7
370
    15
100
AcDbLine
 10
-2.832735294514585
 20
6.653490467085689
 30
0.0
 11
-2.668358359559932
 21
6.73303189670965
 31
0.0
  0
LINE
  5
94
330
1F
100
AcDbEntity
  8
0
  6
Continuous
 62
     7
370
    15
100
AcDbLine
 10
-3.2146806243508
 20
6.092733109294148
 30
0.0
 11
-2.719530205298964
 21
6.332333935224496
 31
0.0
  0
LINE
  5
95
330
1F
100
AcDbEntity
  8
0
  6
Continuous
 62
     7
370
    15
100
AcDbLine
 10
24.76059310399025
 20
-3.551800617696391
 30
0.0
 11
23.12715924536343
 21
-5.146082138945951
 31
0.0
  0
SPLINE
  5
96
330
1F
100
AcDbEntity
  8
0
  6
Continuous
 62
     7
370
    15
100
AcDbSpline
210
0.0
220
0.0
230
1.0
 70
     8
 71
     3
 72
    14
 73
    10
 74
     0
 42
0.0000000001
 43
0.0000000001
 40
0.0
 40
0.0
 40
0.0
 40
0.0
 40
0.1411177067436033
 40
0.2894102301062927
 40
0.4155907723507292
 40
0.5380614560248043
 40
0.6568925004233304
 40
0.7776273472663426
 40
1.0
 40
1.0
 40
1.0
 40
1.0
 10
23.14576322553557
 20
-4.267322713978124
 30
0.0
 10
23.13656722264584
 20
-4.307188610398338
 30
0.0
 10
23.117707666508
 20
-4.388947296268504
 30
0.0
 10
23.0728108466511
 20
-4.496649540674802
 30
0.0
 10
23.03539679827829
 20
-4.60257926963529
 30
0.0
 10
23.01196311186084
 20
-4.706931445190003
 30
0.0
 10
23.01410492554152
 20
-4.819858394375223
 30
0.0
 10
23.05712054825472
 20
-4.967737825899935
 30
0.0
 10
23.099616827108
 20
-5.075949000178879
 30
0.0
 10
23.12715924536343
 20
-5.146082138945951
 30
0.0
  0
SPLINE
  5
97
330
1F
100
AcDbEntity
  8
0
  6
Continuous
 62
     7
370
    15
100
AcDbSpline
210
0.0
220
0.0
230
1.0
 70
     8
 71
     3
 72
    15
 73
    11
 74
     0
 42
0.0000000001
 43
0.0000000001
 40
0.0
 40
0.0
 40
0.0
 40
0.0
 40
0.0920038446799998
 40
0.1840264519036496
 40
0.2784411693953835
 40
0.3728760592736133
 40
0.5282397492101287
 40
0.6836878981526987
 40
0.8418268332674808
 40
1.0
 40
1.0
 40
1.0
 40
1.0
 10
23.68340385753844
 20
-2.992399480433177
 30
0.0
 10
23.68478087447159
 20
-3.032217179029509
 30
0.0
 10
23.68753518915593
 20
-3.111860696331829
 30
0.0
 10
23.67288941549295
 20
-3.233735770289339
 30
0.0
 10
23.64566625528633
 20
-3.356551852123399
 30
0.0
 10
23.5973237359399
 20
-3.506312810816631
 30
0.0
 10
23.52104629076538
 20
-3.680672380204597
 30
0.0
 10
23.41131530528206
 20
-3.878631389221816
 30
0.0
 10
23.28580805704812
 20
-4.074347251956972
 30
0.0
 10
23.19244820387255
 20
-4.202992919249371
 30
0.0
 10
23.14576322553557
 20
-4.267322713978124
 30
0.0
  0
SPLINE
  5
98
330
1F
100
AcDbEntity
  8
0
  6
Continuous
 62
     7
370
    15
100
AcDbSpline
210
0.0
220
0.0
230
1.0
 70
     8
 71
     3
 72
    15
 73
    11
 74
     0
 42
0.0000000001
 43
0.0000000001
 40
0.0
 40
0.0
 40
0.0
 40
0.0
 40
0.1507881980761813
 40
0.3015489733826122
 40
0.45411351248726
 40
0.6066035503809459
 40
0.7037437913324281
 40
0.800862476686232
 40
0.9004440282887163
 40
1.0
 40
1.0
 40
1.0
 40
1.0
 10
24.77919708416239
 20
-2.673041192728565
 30
0.0
 10
24.73934041561313
 20
-2.694095990437979
 30
0.0
 10
24.65963432696151
 20
-2.736201756771527
 30
0.0
 10
24.52702746095447
 20
-2.796244190553698
 30
0.0
 10
24.38085180901889
 20
-2.852720702121176
 30
0.0
 10
24.23615257171007
 20
-2.897613172711876
 30
0.0
 10
24.0983851790575
 20
-2.931668802649122
 30
0.0
 10
23.97195142705297
 20
-2.956712442442563
 30
0.0
 10
23.83484873033455
 20
-2.977871903343343
 30
0.0
 10
23.73388115859465
 20
-2.987557369446906
 30
0.0
 10
23.68340385753843
 20
-2.992399480433176
 30
0.0
  0
SPLINE
  5
99
330
1F
100
AcDbEntity
  8
0
  6
Continuous
 62
     7
370
    15
100
AcDbSpline
210
0.0
220
0.0
230
1.0
 70
     8
 71
     3
 72
    14
 73
    10
 74
     0
 42
0.0000000001
 43
0.0000000001
 40
0.0
 40
0.0
 40
0.0
 40
0.0
 40
0.1411177067436033
 40
0.2894102301062927
 40
0.4155907723507292
 40
0.5380614560248043
 40
0.6568925004233304
 40
0.7776273472663426
 40
1.0
 40
1.0
 40
1.0
 40
1.0
 10
24.77919708416239
 20
-2.673041192728565
 30
0.0
 10
24.77000108127266
 20
-2.712907089148778
 30
0.0
 10
24.75114152513481
 20
-2.794665775018944
 30
0.0
 10
24.70624470527791
 20
-2.902368019425242
 30
0.0
 10
24.6688306569051
 20
-3.00829774838573
 30
0.0
 10
24.64539697048765
 20
-3.112649923940444
 30
0.0
 10
24.64753878416833
 20
-3.225576873125663
 30
0.0
 10
24.69055440688153
 20
-3.373456304650377
 30
0.0
 10
24.73305068573481
 20
-3.48166747892932
 30
0.0
 10
24.76059310399025
 20
-3.551800617696391
 30
0.0
  0
LINE
  5
9A
330
1F
100
AcDbEntity
  8
0
  6
Continuous
 62
     7
370
    15
100
AcDbLine
 10
-16.80644988653909
 20
8.011875174588039
 30
0.0
 11
-11.26515456501932
 21
6.505869841795083
 31
0.0
  0
LINE
  5
9B
330
1F
100
AcDbEntity
  8
0
  6
Continuous
 62
     7
370
    15
100
AcDbLine
 10
-3.2146806243508
 20
4.317923525511699
 30
0.0
 11
4.654371303070541
 21
2.179283825025387
 31
0.0
  0
LINE
  5
9C
330
1F
100
AcDbEntity
  8
0
  6
Continuous
 62
     7
370
    15
100
AcDbLine
 10
12.70484731914962
 20
-0.0086630553101132
 30
0.0
 11
23.68340385753843
 21
-2.992399480433176
 31
0.0
  0
LINE
  5
9D
330
1F
100
AcDbEntity
  8
0
  6
Continuous
 62
     7
370
    15
100
AcDbLine
 10
-17.86034577979251
 20
6.877259059038835
 30
0.0
 11
-12.08187150288872
 21
5.306793568302766
 31
0.0
  0
LINE
  5
9E
330
1F
100
AcDbEntity
  8
0
  6
Continuous
 62
     7
370
    15
100
AcDbLine
 10
-4.031397562220194
 20
3.118847252019382
 30
0.0
 11
-3.982635791342857
 21
3.105594847533284
 31
0.0
  0
LINE
  5
9F
330
1F
100
AcDbEntity
  8
0
  6
Continuous
 62
     7
370
    15
100
AcDbLine
 10
-2.824342937035337
 20
2.790795668946159
 30
0.0
 11
3.837654365201149
 21
0.9802075515330697
 31
0.0
  0
LINE
  5
A0
330
1F
100
AcDbEntity
  8
0
  6
Continuous
 62
     7
370
    15
100
AcDbLine
 10
11.88813038128022
 20
-1.207739328802429
 30
0.0
 11
11.9272643226151
 21
-1.218375095518321
 31
0.0
  0
LINE
  5
A1
330
1F
100
AcDbEntity
  8
0
  6
Continuous
 62
     7
370
    15
100
AcDbLine
 10
13.07944094203114
 20
-1.531512012517
 30
0.0
 11
23.14576322553557
 21
-4.267322713978124
 31
0.0
  0
SPLINE
  5
A2
330
1F
100
AcDbEntity
  8
0
  6
Continuous
 62
     7
370
    15
100
AcDbSpline
210
0.0
220
0.0
230
1.0
 70
     8
 71
     3
 72
     9
 73
     5
 74
     0
 42
0.0000000001
 43
0.0000000001
 40
0.0
 40
0.0
 40
0.0
 40
0.0
 40
0.4997616168584477
 40
0.9999999999999998
 40
0.9999999999999998
 40
0.9999999999999998
 40
0.9999999999999998
 10
-17.86034577979251
 20
6.877259059038835
 30
0.0
 10
-17.69050058644306
 20
7.068638356958173
 30
0.0
 10
-17.35064816957057
 20
7.451579526234768
 30
0.0
 10
-16.9879069618087
 20
7.825050605664154
 30
0.0
 10
-16.80644988653909
 20
8.011875174588039
 30
0.0
  0
LINE
  5
A3
330
1F
100
AcDbEntity
  8
0
  6
Continuous
 62
     7
370
    15
100
AcDbLine
 10
23.12715924536343
 20
-5.146082138945951
 30
0.0
 11
13.17026505852971
 21
-2.440011649399445
 31
0.0
  0
LINE
  5
A4
330
1F
100
AcDbEntity
  8
0
  6
Continuous
 62
     7
370
    15
100
AcDbLine
 10
12.04047381730832
 20
-2.132958598533435
 30
0.0
 11
11.38017364911471
 21
-1.953503161339569
 31
0.0
  0
LINE
  5
A5
330
1F
100
AcDbEntity
  8
0
  6
Continuous
 62
     7
370
    15
100
AcDbLine
 10
3.329697633035643
 20
0.2344437189959307
 30
0.0
 11
-2.74127670517347
 21
1.884404458876612
 31
0.0
  0
LINE
  5
A6
330
1F
100
AcDbEntity
  8
0
  6
Continuous
 62
     7
370
    15
100
AcDbLine
 10
-3.874706141089395
 20
2.192446293103513
 30
0.0
 11
-4.53935221897515
 21
2.373082855430125
 31
0.0
  0
LINE
  5
A7
330
1F
100
AcDbEntity
  8
0
  6
Continuous
 62
     7
370
    15
100
AcDbLine
 10
-12.58982823505422
 20
4.561029735765627
 30
0.0
 11
-18.04282936553612
 21
6.043038599350154
 31
0.0
  0
SPLINE
  5
A8
330
1F
100
AcDbEntity
  8
0
  6
Continuous
 62
     7
370
    15
100
AcDbSpline
210
0.0
220
0.0
230
1.0
 70
     8
 71
     3
 72
    11
 73
     7
 74
     0
 42
0.0000000001
 43
0.0000000001
 40
0.0
 40
0.0
 40
0.0
 40
0.0
 40
0.237428902224822
 40
0.4804477983686246
 40
0.7330881032481608
 40
1.0
 40
1.0
 40
1.0
 40
1.0
 10
-18.04282936553612
 20
6.043038599350154
 30
0.0
 10
-18.04310518638231
 20
6.115132512567074
 30
0.0
 10
-18.04366332196333
 20
6.261017708330014
 30
0.0
 10
-18.01182583470809
 20
6.472963464584928
 30
0.0
 10
-17.95440611157318
 20
6.682324717213992
 30
0.0
 10
-17.89226817983124
 20
6.811101818008378
 30
0.0
 10
-17.86034577979251
 20
6.877259059038835
 30
0.0
  0
LINE
  5
A9
330
1F
100
AcDbEntity
  8
0
  6
Continuous
 62
     7
370
    15
100
AcDbLine
 10
-16.22691192116569
 20
8.471540580288396
 30
0.0
 11
-10.91044686225616
 21
7.026639295343117
 31
0.0
  0
LINE
  5
AA
330
1F
100
AcDbEntity
  8
0
  6
Continuous
 62
     7
370
    15
100
AcDbLine
 10
13.52156423990704
 20
0.3865421924471289
 30
0.0
 11
24.77919708416239
 21
-2.673041192728565
 31
0.0
  0
SPLINE
  5
AB
330
1F
100
AcDbEntity
  8
0
  6
Continuous
 62
     7
370
    15
100
AcDbSpline
210
0.0
220
0.0
230
1.0
 70
     8
 71
     3
 72
     9
 73
     5
 74
     0
 42
0.0000000001
 43
0.0000000001
 40
0.0
 40
0.0
 40
0.0
 40
0.0
 40
0.4997613558790886
 40
1.0
 40
1.0
 40
1.0
 40
1.0
 10
-16.80644988653909
 20
8.011875174588039
 30
0.0
 10
-16.71656033763454
 20
8.089905222760272
 30
0.0
 10
-16.53669539240199
 20
8.246039840321834
 30
0.0
 10
-16.33020592990863
 20
8.396349753248186
 30
0.0
 10
-16.22691192116569
 20
8.471540580288396
 30
0.0
  0
LINE
  5
AC
330
1F
100
AcDbEntity
  8
0
  6
Continuous
 62
     7
370
    15
100
AcDbLine
 10
12.70484731914962
 20
11.30574923560897
 30
0.0
 11
12.48374138077174
 21
11.36584109193291
 31
0.0
  0
LINE
  5
AD
330
1F
100
AcDbEntity
  8
0
  6
Continuous
 62
     7
370
    15
100
AcDbLine
 10
11.35384014279118
 20
11.67292403756111
 30
0.0
 11
11.1571140521467
 21
11.72638997366806
 31
0.0
  0
LINE
  5
AE
330
1F
100
AcDbEntity
  8
0
  6
Continuous
 62
     7
370
    15
100
AcDbLine
 10
21.33372452891519
 20
16.65080421824865
 30
0.0
 11
11.1571140521467
 21
11.72638997366806
 31
0.0
  0
LINE
  5
AF
330
1F
100
AcDbEntity
  8
0
  6
Continuous
 62
     7
370
    15
100
AcDbLine
 10
21.33372452891519
 20
16.65080421824865
 30
0.0
 11
22.8814577959181
 21
16.23016348018956
 31
0.0
  0
LINE
  5
B0
330
1F
100
AcDbEntity
  8
0
  6
Continuous
 62
     7
370
    15
100
AcDbLine
 10
22.8814577959181
 20
16.23016348018956
 30
0.0
 11
12.70484731914962
 21
11.30574923560897
 31
0.0
  0
LINE
  5
B1
330
1F
100
AcDbEntity
  8
0
  6
Continuous
 62
     7
370
    15
100
AcDbLine
 10
12.70484731914962
 20
9.530939148960852
 30
0.0
 11
23.090625714088
 21
14.55656907909777
 31
0.0
  0
LINE
  5
B2
330
1F
100
AcDbEntity
  8
0
  6
Continuous
 62
     7
370
    15
100
AcDbLine
 10
12.70484731914962
 20
9.530939148960852
 30
0.0
 11
12.70484731914962
 21
11.30574923560897
 31
0.0
  0
SPLINE
  5
B3
330
1F
100
AcDbEntity
  8
0
  6
Continuous
 62
     7
370
    15
100
AcDbSpline
210
0.0
220
0.0
230
1.0
 70
     8
 71
     3
 72
    13
 73
     9
 74
     0
 42
0.0000000001
 43
0.0000000001
 40
0.0
 40
0.0
 40
0.0
 40
0.0
 40
0.2069364041905142
 40
0.4019669835754985
 40
0.587481790038201
 40
0.7280876617449083
 40
0.86527634327909
 40
1.0
 40
1.0
 40
1.0
 40
1.0
 10
22.8814577959181
 20
16.23016348018956
 30
0.0
 10
22.91072209275544
 20
16.13634762340273
 30
0.0
 10
22.96756700205103
 20
15.95411348672835
 30
0.0
 10
23.0290198066825
 20
15.6512810004905
 30
0.0
 10
23.06784674640994
 20
15.35995127981738
 30
0.0
 10
23.08806740790016
 20
15.08270682668236
 30
0.0
 10
23.09601489189728
 20
14.82423159271717
 30
0.0
 10
23.09241121697057
 20
14.64524906081961
 30
0.0
 10
23.090625714088
 20
14.55656907909777
 30
0.0
  0
LINE
  5
B4
330
1F
100
AcDbEntity
  8
0
  6
Continuous
 62
     7
370
    15
100
AcDbLine
 10
12.70484731914962
 20
-0.0086630553101132
 30
0.0
 11
12.70484731914962
 21
1.766146528472335
 31
0.0
  0
SPLINE
  5
B5
330
1F
100
AcDbEntity
  8
0
  6
Continuous
 62
     7
370
    15
100
AcDbSpline
210
0.0
220
0.0
230
1.0
 70
     8
 71
     3
 72
    23
 73
    19
 74
     0
 42
0.0000000001
 43
0.0000000001
 40
0.0
 40
0.0
 40
0.0
 40
0.0
 40
0.0557394078261445
 40
0.1105623439540263
 40
0.1650278913001009
 40
0.2195356551476255
 40
0.2743362409736346
 40
0.3295504803756124
 40
0.4171516987039071
 40
0.5054694543720296
 40
0.5938908063374364
 40
0.6598483534824448
 40
0.7251926931700124
 40
0.7897268896588742
 40
0.8533803590506472
 40
0.9028466678413639
 40
0.9519925561654682
 40
0.9999999999999998
 40
0.9999999999999998
 40
0.9999999999999998
 40
0.9999999999999998
 10
21.07704504031351
 20
6.193352726925434
 30
0.0
 10
21.07898548554984
 20
6.330505906951511
 30
0.0
 10
21.08283447107034
 20
6.602557183702229
 30
0.0
 10
21.11648642446271
 20
7.031834970554764
 30
0.0
 10
21.16754691630313
 20
7.468041036556714
 30
0.0
 10
21.23556915169902
 20
7.911907907984687
 30
0.0
 10
21.317528737222
 20
8.361688095330176
 30
0.0
 10
21.42919178196375
 20
8.904075575351317
 30
0.0
 10
21.57497279968492
 20
9.539200873654646
 30
0.0
 10
21.75370022518012
 20
10.26438997241432
 30
0.0
 10
21.9214320467099
 20
10.92965900679884
 30
0.0
 10
22.07050481180158
 20
11.53236366802338
 30
0.0
 10
22.19786786568779
 20
12.07013897576019
 30
0.0
 10
22.31459025395211
 20
12.60179992530775
 30
0.0
 10
22.40974345615633
 20
13.08892236824247
 30
0.0
 10
22.48289255490615
 20
13.53039401604799
 30
0.0
 10
22.53735999078932
 20
13.92539248393076
 30
0.0
 10
22.56024966743677
 20
14.17972301232281
 30
0.0
 10
22.57156039493965
 20
14.30539815167111
 30
0.0
  0
LINE
  5
B6
330
1F
100
AcDbEntity
  8
0
  6
Continuous
 62
     7
370
    15
100
AcDbLine
 10
13.08678849816473
 20
2.32690501436811
 30
0.0
 11
21.0770450403135
 21
6.193352726925434
 31
0.0
  0
LINE
  5
B7
330
1F
100
AcDbEntity
  8
0
  6
Continuous
 62
     7
370
    15
100
AcDbLine
 10
12.70484731914962
 20
-0.0086630553101132
 30
0.0
 11
21.83352862860536
 21
4.408663013985603
 31
0.0
  0
LINE
  5
B8
330
1F
100
AcDbEntity
  8
0
  6
Continuous
 62
     7
370
    15
100
AcDbLine
 10
12.70484731914962
 20
1.766146528472335
 30
0.0
 11
21.57453340166371
 21
6.05814605019658
 31
0.0
  0
SPLINE
  5
B9
330
1F
100
AcDbEntity
  8
0
  6
Continuous
 62
     7
370
    15
100
AcDbSpline
210
0.0
220
0.0
230
1.0
 70
     8
 71
     3
 72
    13
 73
     9
 74
     0
 42
0.0000000001
 43
0.0000000001
 40
0.0
 40
0.0
 40
0.0
 40
0.0
 40
0.1700123686652511
 40
0.3455723305990918
 40
0.5284862974339971
 40
0.6786344147959957
 40
0.8354792751950411
 40
1.0
 40
1.0
 40
1.0
 40
1.0
 10
21.57453340166371
 20
6.05814605019658
 30
0.0
 10
21.57631675523843
 20
5.947790323811196
 30
0.0
 10
21.57994165415569
 20
5.723477905477451
 30
0.0
 10
21.60659288307161
 20
5.403882911114979
 30
0.0
 10
21.64686459196705
 20
5.11579967694314
 30
0.0
 10
21.69909103191209
 20
4.85817671303904
 30
0.0
 10
21.75914018045598
 20
4.625867173832895
 30
0.0
 10
21.80834075820329
 20
4.482208172745208
 30
0.0
 10
21.83352862860537
 20
4.408663013985603
 30
0.0
  0
LINE
  5
BA
330
1F
100
AcDbEntity
  8
0
  6
Continuous
 62
     7
370
    15
100
AcDbLine
 10
21.57453340166371
 20
6.05814605019658
 30
0.0
 11
21.0770450403135
 21
6.193352726925434
 31
0.0
  0
LINE
  5
BB
330
1F
100
AcDbEntity
  8
0
  6
Continuous
 62
     7
370
    15
100
AcDbLine
 10
1.153300333705723
 20
-2.960868841659966
 30
0.0
 11
2.701033600708634
 21
-3.381509579719053
 31
0.0
  0
SPLINE
  5
BC
330
1F
100
AcDbEntity
  8
0
  6
Continuous
 62
     7
370
    15
100
AcDbSpline
210
0.0
220
0.0
230
1.0
 70
     8
 71
     3
 72
    13
 73
     9
 74
     0
 42
0.0000000001
 43
0.0000000001
 40
0.0
 40
0.0
 40
0.0
 40
0.0
 40
0.1416036997500039
 40
0.2906157963018556
 40
0.4490062875503628
 40
0.6187526521481021
 40
0.8017932694830186
 40
1.0
 40
1.0
 40
1.0
 40
1.0
 10
2.269552488536378
 20
-5.789805559105987
 30
0.0
 10
2.275747036260055
 20
-5.682197593982393
 30
0.0
 10
2.288460216937006
 20
-5.461351849640778
 30
0.0
 10
2.330403923388619
 20
-5.105098523061313
 30
0.0
 10
2.390655382702046
 20
-4.720110426016393
 30
0.0
 10
2.472388092047836
 20
-4.303199809737798
 30
0.0
 10
2.575315033191862
 20
-3.852678424689361
 30
0.0
 10
2.658030596393054
 20
-3.542676512128796
 30
0.0
 10
2.701033600708634
 20
-3.381509579719053
 30
0.0
  0
LINE
  5
BD
330
1F
100
AcDbEntity
  8
0
  6
Continuous
 62
     7
370
    15
100
AcDbLine
 10
2.269552488536378
 20
-5.789805559105987
 30
0.0
 11
1.772064127186162
 21
-5.65459888237713
 31
0.0
  0
SPLINE
  5
BE
330
1F
100
AcDbEntity
  8
0
  6
Continuous
 62
     7
370
    15
100
AcDbSpline
210
0.0
220
0.0
230
1.0
 70
     8
 71
     3
 72
    28
 73
    24
 74
     0
 42
0.0000000001
 43
0.0000000001
 40
0.0
 40
0.0
 40
0.0
 40
0.0
 40
0.0448835797283784
 40
0.0884118359173286
 40
0.131292885695935
 40
0.1802760886260301
 40
0.2297312301602775
 40
0.2799975961538152
 40
0.3312045717851593
 40
0.3833182848993184
 40
0.436186990502305
 40
0.4895799125210305
 40
0.5432226875602032
 40
0.5968266785892156
 40
0.6501192793040009
 40
0.7028734916621779
 40
0.7549412578663967
 40
0.8062907724262965
 40
0.8570484570831638
 40
0.8924589584822706
 40
0.927916655458476
 40
0.9636629591012539
 40
1.0
 40
1.0
 40
1.0
 40
1.0
 10
1.772064127186162
 20
-5.65459888237713
 30
0.0
 10
1.769084328739345
 20
-5.774676081284795
 30
0.0
 10
1.763214711098762
 20
-6.011204577262241
 30
0.0
 10
1.783182740441453
 20
-6.333671598415055
 30
0.0
 10
1.824038593364448
 20
-6.639652529469098
 30
0.0
 10
1.888876307722185
 20
-6.926376682718107
 30
0.0
 10
1.977094015032475
 20
-7.193544634409072
 30
0.0
 10
2.0827237005535
 20
-7.433725634115471
 30
0.0
 10
2.202526479668848
 20
-7.652135961062507
 30
0.0
 10
2.333377681902351
 20
-7.853851906234461
 30
0.0
 10
2.472168639746431
 20
-8.043858196170823
 30
0.0
 10
2.615797845278494
 20
-8.227100272285682
 30
0.0
 10
2.761174347784276
 20
-8.408470716269283
 30
0.0
 10
2.905200288833429
 20
-8.59287192842296
 30
0.0
 10
3.044780594267032
 20
-8.785204430469201
 30
0.0
 10
3.176814494894256
 20
-8.990402528791134
 30
0.0
 10
3.298186642634348
 20
-9.21346356917029
 30
0.0
 10
3.405764118423508
 20
-9.459430874647544
 30
0.0
 10
3.487371449155149
 20
-9.706484257786629
 30
0.0
 10
3.546037992209529
 20
-9.948154471950566
 30
0.0
 10
3.586015587538585
 20
-10.17777500549405
 30
0.0
 10
3.614764687438972
 20
-10.42595736799481
 30
0.0
 10
3.622395984019745
 20
-10.60625964287487
 30
0.0
 10
3.62624290230205
 20
-10.69714958670482
 30
0.0
  0
LINE
  5
BF
330
1F
100
AcDbEntity
  8
0
  6
Continuous
 62
     7
370
    15
100
AcDbLine
 10
3.626242902302041
 20
-10.69714958670481
 30
0.0
 11
4.123731263652258
 21
-10.83235626343367
 31
0.0
  0
SPLINE
  5
C0
330
1F
100
AcDbEntity
  8
0
  6
Continuous
 62
     7
370
    15
100
AcDbSpline
210
0.0
220
0.0
230
1.0
 70
     8
 71
     3
 72
    13
 73
     9
 74
     0
 42
0.0000000001
 43
0.0000000001
 40
0.0
 40
0.0
 40
0.0
 40
0.0
 40
0.1919512153625453
 40
0.3713518838193013
 40
0.5400343872261383
 40
0.6998424954427442
 40
0.8525879699287443
 40
1.0
 40
1.0
 40
1.0
 40
1.0
 10
3.873415773743866
 20
-12.97467058046489
 30
0.0
 10
3.903543956246118
 20
-12.8315858899938
 30
0.0
 10
3.961830418809694
 20
-12.5547719648942
 30
0.0
 10
4.029384219400617
 20
-12.15509146593461
 30
0.0
 10
4.079173667240622
 20
-11.78446452634084
 30
0.0
 10
4.11080632048524
 20
-11.44178588609784
 30
0.0
 10
4.127058093369702
 20
-11.12391280770604
 30
0.0
 10
4.124826992213756
 20
-10.92838367090103
 30
0.0
 10
4.123731263652258
 20
-10.83235626343367
 30
0.0
  0
LINE
  5
C1
330
1F
100
AcDbEntity
  8
0
  6
Continuous
 62
     7
370
    15
100
AcDbLine
 10
2.325682506740951
 20
-12.5540298424058
 30
0.0
 11
3.873415773743861
 21
-12.97467058046489
 31
0.0
  0
SPLINE
  5
C2
330
1F
100
AcDbEntity
  8
0
  6
Continuous
 62
     7
370
    15
100
AcDbSpline
210
0.0
220
0.0
230
1.0
 70
     8
 71
     3
 72
    13
 73
     9
 74
     0
 42
0.0000000001
 43
0.0000000001
 40
0.0
 40
0.0
 40
0.0
 40
0.0
 40
0.1474120300712556
 40
0.3001575045572558
 40
0.4599656127738617
 40
0.6286481161806988
 40
0.8080487846374547
 40
1.0
 40
1.0
 40
1.0
 40
1.0
 10
2.575997996649347
 20
-10.41171552537458
 30
0.0
 10
2.577093725210845
 20
-10.50774293284195
 30
0.0
 10
2.579324826366783
 20
-10.70327206964695
 30
0.0
 10
2.563073053482338
 20
-11.02114514803875
 30
0.0
 10
2.531440400237708
 20
-11.36382378828175
 30
0.0
 10
2.481650952397715
 20
-11.73445072787552
 30
0.0
 10
2.414097151806783
 20
-12.13413122683511
 30
0.0
 10
2.355810689243212
 20
-12.4109451519347
 30
0.0
 10
2.325682506740955
 20
-12.5540298424058
 30
0.0
  0
LINE
  5
C3
330
1F
100
AcDbEntity
  8
0
  6
Continuous
 62
     7
370
    15
100
AcDbLine
 10
2.575997996649347
 20
-10.41171552537458
 30
0.0
 11
3.073484282589011
 21
-10.54692163805132
 31
0.0
  0
SPLINE
  5
C4
330
1F
100
AcDbEntity
  8
0
  6
Continuous
 62
     7
370
    15
100
AcDbSpline
210
0.0
220
0.0
230
1.0
 70
     8
 71
     3
 72
    28
 73
    24
 74
     0
 42
0.0000000001
 43
0.0000000001
 40
0.0
 40
0.0
 40
0.0
 40
0.0
 40
0.0363370408987461
 40
0.0720833445415239
 40
0.1075410415177292
 40
0.1429515429168362
 40
0.1937092275737034
 40
0.2450587421336034
 40
0.2971265083378222
 40
0.3498807206959992
 40
0.4031733214107845
 40
0.4567773124397969
 40
0.5104200874789696
 40
0.5638130094976949
 40
0.6166817151006815
 40
0.6687954282148407
 40
0.7200024038461847
 40
0.7702687698397225
 40
0.81972391137397
 40
0.868707114304065
 40
0.9115881640826712
 40
0.9551164202716215
 40
1.0
 40
1.0
 40
1.0
 40
1.0
 10
3.073484282589015
 20
-10.54692163805133
 30
0.0
 10
3.069637364306719
 20
-10.45603169422138
 30
0.0
 10
3.062006067725951
 20
-10.27572941934132
 30
0.0
 10
3.033256967825559
 20
-10.02754705684056
 30
0.0
 10
2.993279372496485
 20
-9.79792652329707
 30
0.0
 10
2.934612829442127
 20
-9.556256309133139
 30
0.0
 10
2.853005498710477
 20
-9.309202925994053
 30
0.0
 10
2.745428022921326
 20
-9.063235620516806
 30
0.0
 10
2.624055875181213
 20
-8.840174580137636
 30
0.0
 10
2.492021974554015
 20
-8.634976481815716
 30
0.0
 10
2.352441669120398
 20
-8.442643979769467
 30
0.0
 10
2.20841572807125
 20
-8.258242767615794
 30
0.0
 10
2.063039225565464
 20
-8.076872323632189
 30
0.0
 10
1.919410020033401
 20
-7.893630247517335
 30
0.0
 10
1.780619062189303
 20
-7.703623957580968
 30
0.0
 10
1.649767859955813
 20
-7.501908012409011
 30
0.0
 10
1.529965080840478
 20
-7.283497685461984
 30
0.0
 10
1.42433539531944
 20
-7.043316685755578
 30
0.0
 10
1.336117688009155
 20
-6.776148734064613
 30
0.0
 10
1.271279973651417
 20
-6.489424580815607
 30
0.0
 10
1.23042412072841
 20
-6.183443649761561
 30
0.0
 10
1.210456091385723
 20
-5.860976628608742
 30
0.0
 10
1.21632570902631
 20
-5.624448132631304
 30
0.0
 10
1.219305507473132
 20
-5.504370933723639
 30
0.0
  0
LINE
  5
C5
330
1F
100
AcDbEntity
  8
0
  6
Continuous
 62
     7
370
    15
100
AcDbLine
 10
1.219305507473132
 20
-5.504370933723639
 30
0.0
 11
0.7218192215334681
 21
-5.369164821046898
 31
0.0
  0
SPLINE
  5
C6
330
1F
100
AcDbEntity
  8
0
  6
Continuous
 62
     7
370
    15
100
AcDbSpline
210
0.0
220
0.0
230
1.0
 70
     8
 71
     3
 72
    13
 73
     9
 74
     0
 42
0.0000000001
 43
0.0000000001
 40
0.0
 40
0.0
 40
0.0
 40
0.0
 40
0.1982067305169813
 40
0.381247347851898
 40
0.5509937124496372
 40
0.7093842036981444
 40
0.858396300249996
 40
1.0
 40
1.0
 40
1.0
 40
1.0
 10
1.153300333705723
 20
-2.960868841659966
 30
0.0
 10
1.110297329390144
 20
-3.122035774069706
 30
0.0
 10
1.02758176618896
 20
-3.432037686630272
 30
0.0
 10
0.9246548250449263
 20
-3.882559071678716
 30
0.0
 10
0.8429221156991451
 20
-4.299469687957308
 30
0.0
 10
0.7826706563857089
 20
-4.684457785002224
 30
0.0
 10
0.7407269499340867
 20
-5.04071111158169
 30
0.0
 10
0.7280137692571448
 20
-5.261556855923304
 30
0.0
 10
0.7218192215334681
 20
-5.369164821046898
 30
0.0
  0
LINE
  5
C7
330
1F
100
AcDbEntity
  8
0
  6
Continuous
 62
     7
370
    15
100
AcDbLine
 10
12.70484731914962
 20
9.530939148960852
 30
0.0
 11
2.269552488536378
 21
-5.789805559105987
 31
0.0
  0
LINE
  5
C8
330
1F
100
AcDbEntity
  8
0
  6
Continuous
 62
     7
370
    15
100
AcDbLine
 10
2.701033600708634
 20
-3.381509579719053
 30
0.0
 11
12.70484731914962
 21
11.30574923560897
 31
0.0
  0
LINE
  5
C9
330
1F
100
AcDbEntity
  8
0
  6
Continuous
 62
     7
370
    15
100
AcDbLine
 10
1.153300333705723
 20
-2.960868841659966
 30
0.0
 11
11.1571140521467
 21
11.72638997366806
 31
0.0
  0
LINE
  5
CA
330
1F
100
AcDbEntity
  8
0
  6
Continuous
 62
     7
370
    15
100
AcDbLine
 10
10.78490626121338
 20
-0.1870435386499463
 30
0.0
 11
3.626242902302041
 21
-10.69714958670481
 31
0.0
  0
LINE
  5
CB
330
1F
100
AcDbEntity
  8
0
  6
Continuous
 62
     7
370
    15
100
AcDbLine
 10
12.70484731914962
 20
-0.0086630553101132
 30
0.0
 11
12.45588051744335
 21
-0.3741880219873179
 31
0.0
  0
LINE
  5
CC
330
1F
100
AcDbEntity
  8
0
  6
Continuous
 62
     7
370
    15
100
AcDbLine
 10
11.90967674288212
 20
-1.176105490878536
 30
0.0
 11
3.873415773743861
 21
-12.97467058046489
 31
0.0
  0
LINE
  5
CD
330
1F
100
AcDbEntity
  8
0
  6
Continuous
 62
     7
370
    15
100
AcDbLine
 10
12.70484731914962
 20
1.766146528472335
 30
0.0
 11
12.56446234100283
 21
1.560038274024858
 31
0.0
  0
LINE
  5
CE
330
1F
100
AcDbEntity
  8
0
  6
Continuous
 62
     7
370
    15
100
AcDbLine
 10
11.89792027425744
 20
0.5814434466707668
 30
0.0
 11
4.123731263652258
 21
-10.83235626343367
 31
0.0
  0
LINE
  5
CF
330
1F
100
AcDbEntity
  8
0
  6
Continuous
 62
     7
370
    15
100
AcDbLine
 10
2.9915110429818
 20
-9.801673487738479
 30
0.0
 11
2.575997996649347
 21
-10.41171552537458
 31
0.0
  0
SPLINE
  5
D0
330
1F
100
AcDbEntity
  8
0
  6
Continuous
 62
     7
370
    15
100
AcDbSpline
210
0.0
220
0.0
230
1.0
 70
     8
 71
     3
 72
    36
 73
    32
 74
     0
 42
0.0000000001
 43
0.0000000001
 40
0.0
 40
0.0
 40
0.0
 40
0.0
 40
0.024851878262417
 40
0.0492978771681218
 40
0.0739573395713242
 40
0.0991284602159526
 40
0.1248578973477017
 40
0.1591777610966253
 40
0.1937430559220567
 40
0.2280183725371389
 40
0.2640756614144962
 40
0.2996811400550907
 40
0.3351414856242239
 40
0.3706329867112106
 40
0.4062217769074544
 40
0.453926702288986
 40
0.501563847446202
 40
0.5488429376362505
 40
0.5954875348898647
 40
0.6413412582558231
 40
0.6864857459517345
 40
0.7166411270768142
 40
0.7469248759848694
 40
0.777697269755631
 40
0.8094229020654148
 40
0.8426560414993074
 40
0.8702327122360998
 40
0.8994366653171093
 40
0.9305885980074505
 40
0.9640065002274473
 40
1.0
 40
1.0
 40
1.0
 40
1.0
 10
23.12715924536343
 20
-5.146082138945951
 30
0.0
 10
23.14869849939473
 20
-5.219090661989747
 30
0.0
 10
23.19142522967706
 20
-5.363915337341634
 30
0.0
 10
23.20871169564896
 20
-5.578091896699292
 30
0.0
 10
23.19824905382587
 20
-5.784901876579576
 30
0.0
 10
23.16377927170462
 20
-5.986484015960066
 30
0.0
 10
23.10760388403542
 20
-6.205563340530695
 30
0.0
 10
23.03230419308647
 20
-6.441992414627898
 30
0.0
 10
22.94820128689911
 20
-6.698574887216535
 30
0.0
 10
22.87339005582385
 20
-6.965480818811615
 30
0.0
 10
22.82653023026075
 20
-7.24880098899719
 30
0.0
 10
22.81016337117276
 20
-7.546656193678483
 30
0.0
 10
22.81951437221599
 20
-7.850044582149473
 30
0.0
 10
22.84995661546339
 20
-8.157706194485315
 30
0.0
 10
22.90185138880936
 20
-8.503336598553746
 30
0.0
 10
22.97533390981109
 20
-8.885954788397814
 30
0.0
 10
23.06465353037246
 20
-9.303280231933577
 30
0.0
 10
23.15194792449977
 20
-9.717437208823488
 30
0.0
 10
23.22604455786052
 20
-10.12556158222917
 30
0.0
 10
23.27566557383635
 20
-10.5248128828233
 30
0.0
 10
23.28771408053461
 20
-10.87048228888039
 30
0.0
 10
23.26690785287959
 20
-11.16247718805132
 30
0.0
 10
23.22385082767771
 20
-11.40521250974523
 30
0.0
 10
23.15197391225181
 20
-11.63862307236115
 30
0.0
 10
23.04772672216402
 20
-11.8614838380078
 30
0.0
 10
22.91850397497864
 20
-12.05619510373578
 30
0.0
 10
22.77024453451649
 20
-12.22574099131623
 30
0.0
 10
22.60783033442173
 20
-12.37382647723377
 30
0.0
 10
22.41796020732095
 20
-12.51271167077318
 30
0.0
 10
22.19987804644384
 20
-12.64331953028413
 30
0.0
 10
22.03865101435784
 20
-12.71773585397648
 30
0.0
 10
21.95504623220203
 20
-12.7563246715627
 30
0.0
  0
LINE
  5
D1
330
1F
100
AcDbEntity
  8
0
  6
Continuous
 62
     7
370
    15
100
AcDbLine
 10
-16.46187603956117
 20
-2.315428373167953
 30
0.0
 11
-14.42384570876455
 21
-2.869321347370908
 31
0.0
  0
LINE
  5
D2
330
1F
100
AcDbEntity
  8
0
  6
Continuous
 62
     7
370
    15
100
AcDbLine
 10
-9.096278241116646
 20
-4.317240029115436
 30
0.0
 11
1.49568015932531
 21
-7.195907364140605
 31
0.0
  0
LINE
  5
D3
330
1F
100
AcDbEntity
  8
0
  6
Continuous
 62
     7
370
    15
100
AcDbLine
 10
6.823246589267947
 20
-8.643825763859075
 30
0.0
 11
21.95504623220202
 21
-12.7563246715627
 31
0.0
  0
SPLINE
  5
D4
330
1F
100
AcDbEntity
  8
0
  6
Continuous
 62
     7
370
    15
100
AcDbSpline
210
0.0
220
0.0
230
1.0
 70
     8
 71
     3
 72
    34
 73
    30
 74
     0
 42
0.0000000001
 43
0.0000000001
 40
0.0
 40
0.0
 40
0.0
 40
0.0
 40
0.0380882655101729
 40
0.0734744712510959
 40
0.1069063664673976
 40
0.1390667582504279
 40
0.1705354626389017
 40
0.2012071986225606
 40
0.2319485896345384
 40
0.2629417725961179
 40
0.2942674690922435
 40
0.3354371120648532
 40
0.3770192868218909
 40
0.4187702059984295
 40
0.4604103547466301
 40
0.5016849732808645
 40
0.5424267913450535
 40
0.5826255151014373
 40
0.6225041007116622
 40
0.6625512402789404
 40
0.7031405947738995
 40
0.7442925389371558
 40
0.7857921492889952
 40
0.8273046328647261
 40
0.868479829828572
 40
0.9019089433778029
 40
0.9348805589393951
 40
0.9674847391144885
 40
1.0
 40
1.0
 40
1.0
 40
1.0
 10
-16.46187603956117
 20
-2.315428373167953
 30
0.0
 10
-16.53875565109861
 20
-2.219057607064238
 30
0.0
 10
-16.6870608766593
 20
-2.033152814900831
 30
0.0
 10
-16.86840743884298
 20
-1.742700046718596
 30
0.0
 10
-17.01050878065655
 20
-1.45860758322853
 30
0.0
 10
-17.11529786944278
 20
-1.179231078363161
 30
0.0
 10
-17.18683976320381
 20
-0.9062768651832977
 30
0.0
 10
-17.22972173185557
 20
-0.6392358843590703
 30
0.0
 10
-17.24850716482882
 20
-0.3774724505790709
 30
0.0
 10
-17.24731835356313
 20
-0.1187730246501474
 30
0.0
 10
-17.22820111720429
 20
0.1633975342886184
 30
0.0
 10
-17.19019791565378
 20
0.468333963953716
 30
0.0
 10
-17.1363454878938
 20
0.7960465716269857
 30
0.0
 10
-17.07776269658412
 20
1.123042514749163
 30
0.0
 10
-17.02245731702492
 20
1.450595654869252
 30
0.0
 10
-16.97845052114004
 20
1.780005115445346
 30
0.0
 10
-16.9538513376474
 20
2.112649324443025
 30
0.0
 10
-16.95688273124252
 20
2.449943288475451
 30
0.0
 10
-16.99620157984888
 20
2.793405579430624
 30
0.0
 10
-17.07965116212677
 20
3.142170325782084
 30
0.0
 10
-17.19563774313827
 20
3.493559420801455
 30
0.0
 10
-17.33362020117143
 20
3.846805122422694
 30
0.0
 10
-17.48323206735742
 20
4.200898336608133
 30
0.0
 10
-17.6342704438623
 20
4.554797888087005
 30
0.0
 10
-17.76819416981731
 20
4.886991955065892
 30
0.0
 10
-17.87852717850684
 20
5.196628843397628
 30
0.0
 10
-17.96174395664217
 20
5.482664581355204
 30
0.0
 10
-18.02278885498207
 20
5.766408788196945
 30
0.0
 10
-18.03615527921277
 20
5.950912641068227
 30
0.0
 10
-18.04282936553612
 20
6.043038599350154
 30
0.0
  0
LINE
  5
D5
330
1F
100
AcDbEntity
  8
0
  6
Continuous
 62
     7
370
    15
100
AcDbLine
 10
23.12715924536343
 20
-5.146082138945951
 30
0.0
 11
23.82720233741034
 21
-4.462818620295101
 31
0.0
  0
SPLINE
  5
D6
330
1F
100
AcDbEntity
  8
0
  6
Continuous
 62
     7
370
    15
100
AcDbSpline
210
0.0
220
0.0
230
1.0
 70
     8
 71
     3
 72
    33
 73
    29
 74
     0
 42
0.0000000001
 43
0.0000000001
 40
0.0
 40
0.0
 40
0.0
 40
0.0
 40
0.0283590759493648
 40
0.0562549932037713
 40
0.0843944987887674
 40
0.1131178698979503
 40
0.1424783493775691
 40
0.1816415712616649
 40
0.2210848604495486
 40
0.2601972485279016
 40
0.301343088009481
 40
0.3419733559642824
 40
0.3824380090809263
 40
0.4229382145082537
 40
0.4635494388778651
 40
0.5179866764889774
 40
0.5723465684560733
 40
0.6262978752892515
 40
0.6795251469737106
 40
0.7318499334451986
 40
0.7833653940371498
 40
0.8177764246473167
 40
0.8523339388217607
 40
0.8874490574004846
 40
0.9236519394005707
 40
0.9615750740340946
 40
0.9930434762046459
 40
1.0
 40
1.0
 40
1.0
 40
1.0
 10
23.82720233741034
 20
-4.462818620295101
 30
0.0
 10
23.84874159144164
 20
-4.535827143338899
 30
0.0
 10
23.89146832172396
 20
-4.680651818690781
 30
0.0
 10
23.90875478769588
 20
-4.894828378048446
 30
0.0
 10
23.89829214587279
 20
-5.10163835792873
 30
0.0
 10
23.86382236375149
 20
-5.303220497309205
 30
0.0
 10
23.80764697608236
 20
-5.522299821879859
 30
0.0
 10
23.73234728513333
 20
-5.758728895976989
 30
0.0
 10
23.64824437894624
 20
-6.015311368565913
 30
0.0
 10
23.57343314786994
 20
-6.282217300159915
 30
0.0
 10
23.52657332231084
 20
-6.56553747034968
 30
0.0
 10
23.51020646320797
 20
-6.863392675015385
 30
0.0
 10
23.51955746430636
 20
-7.166781063544147
 30
0.0
 10
23.54999970734775
 20
-7.474442675664183
 30
0.0
 10
23.60189448155233
 20
-7.820073080632074
 30
0.0
 10
23.67537699826109
 20
-8.202691265978943
 30
0.0
 10
23.76469663565105
 20
-8.62001672714398
 30
0.0
 10
23.8519909678874
 20
-9.034173639198101
 30
0.0
 10
23.92608782755123
 20
-9.442298249674607
 30
0.0
 10
23.97570801935688
 20
-9.841548686883607
 30
0.0
 10
23.98775921293652
 20
-10.18722090766691
 30
0.0
 10
23.96694607054843
 20
-10.47920856309402
 30
0.0
 10
23.92391257088503
 20
-10.721968529698
 30
0.0
 10
23.85194515756117
 20
-10.95528428842409
 30
0.0
 10
23.74805266417862
 20
-11.17851662764454
 30
0.0
 10
23.61751692868883
 20
-11.37185243160642
 30
0.0
 10
23.51045884458193
 20
-11.50116421030356
 30
0.0
 10
23.44793386698727
 20
-11.557389230414
 30
0.0
 10
23.43661422268068
 20
-11.56756831808849
 30
0.0
  0
SPLINE
  5
D7
330
1F
100
AcDbEntity
  8
0
  6
Continuous
 62
     7
370
    15
100
AcDbSpline
210
0.0
220
0.0
230
1.0
 70
     8
 71
     3
 72
    33
 73
    29
 74
     0
 42
0.0000000001
 43
0.0000000001
 40
0.0
 40
0.0
 40
0.0
 40
0.0
 40
0.0147425632339105
 40
0.0476482533409518
 40
0.0789896148254461
 40
0.114461804346266
 40
0.1489149369498603
 40
0.1828466532207084
 40
0.2166433318375099
 40
0.2681587769383904
 40
0.3204835476754375
 40
0.3737108033540719
 40
0.4276620939637031
 40
0.4820219695843872
 40
0.5364591908258296
 40
0.5795274423599977
 40
0.622473281445757
 40
0.6653994209062139
 40
0.7085716649701014
 40
0.7524346394186232
 40
0.7970936976066546
 40
0.827269852297576
 40
0.8571979216632982
 40
0.8866283842972519
 40
0.9154195059184312
 40
0.9436230876815447
 40
0.9715799009038413
 40
1.0
 40
1.0
 40
1.0
 40
1.0
 10
23.43568858957528
 20
-11.56665120812491
 30
0.0
 10
23.45932490385536
 20
-11.54469477831565
 30
0.0
 10
23.53571793490385
 20
-11.47373116680419
 30
0.0
 10
23.64323162682921
 20
-11.33703491275773
 30
0.0
 10
23.76180707209482
 20
-11.15085117894209
 30
0.0
 10
23.85646617864784
 20
-10.94287473749502
 30
0.0
 10
23.92576583109051
 20
-10.71332565798668
 30
0.0
 10
23.96732916194409
 20
-10.47472971493874
 30
0.0
 10
23.98770530896906
 20
-10.18568610820133
 30
0.0
 10
23.97570813244416
 20
-9.841548286573614
 30
0.0
 10
23.92608779382515
 20
-9.442298365770595
 30
0.0
 10
23.85199098727372
 20
-9.034173584052199
 30
0.0
 10
23.76469659183011
 20
-8.620016830820212
 30
0.0
 10
23.6753771551711
 20
-8.202690904235884
 30
0.0
 10
23.60068551926683
 20
-7.813782099402287
 30
0.0
 10
23.54731146767717
 20
-7.455685810751255
 30
0.0
 10
23.51673838861547
 20
-7.129654367939781
 30
0.0
 10
23.5106288302042
 20
-6.808586973301543
 30
0.0
 10
23.53421550097091
 20
-6.49383131919056
 30
0.0
 10
23.59565232257288
 20
-6.189697264674648
 30
0.0
 10
23.67642969401786
 20
-5.928612828760208
 30
0.0
 10
23.75131522662325
 20
-5.700284177921481
 30
0.0
 10
23.81241359144834
 20
-5.50350102336518
 30
0.0
 10
23.86345047155285
 20
-5.304977987534234
 30
0.0
 10
23.89815400423508
 20
-5.10298880304433
 30
0.0
 10
23.90879073643311
 20
-4.895756846022615
 30
0.0
 10
23.89158450469795
 20
-4.681125999122534
 30
0.0
 10
23.84878030983901
 20
-4.535985318462824
 30
0.0
 10
23.82720233741034
 20
-4.462818620295101
 30
0.0
  0
LINE
  5
D8
330
1F
100
AcDbEntity
  8
0
  6
Continuous
 62
     7
370
    15
100
AcDbLine
 10
23.82720233741034
 20
-4.462818620295101
 30
0.0
 11
24.52724542945723
 21
-3.779555101644267
 31
0.0
  0
SPLINE
  5
D9
330
1F
100
AcDbEntity
  8
0
  6
Continuous
 62
     7
370
    15
100
AcDbSpline
210
0.0
220
0.0
230
1.0
 70
     8
 71
     3
 72
    33
 73
    29
 74
     0
 42
0.0000000001
 43
0.0000000001
 40
0.0
 40
0.0
 40
0.0
 40
0.0
 40
0.0283590759493648
 40
0.0562549932037713
 40
0.0843944987887674
 40
0.1131178698979503
 40
0.1424783493775691
 40
0.1816415712616649
 40
0.2210848604495486
 40
0.2601972485279016
 40
0.301343088009481
 40
0.3419733559642824
 40
0.3824380090809263
 40
0.4229382145082537
 40
0.4635494388778651
 40
0.5179866764889774
 40
0.5723465684560733
 40
0.6262978752892515
 40
0.6795251469737106
 40
0.7318499334451986
 40
0.7833653940371498
 40
0.8177764246473167
 40
0.8523339388217607
 40
0.8874490574004846
 40
0.9236519394005707
 40
0.9615750740340946
 40
0.9930434762046459
 40
1.0
 40
1.0
 40
1.0
 40
1.0
 10
24.52724542945723
 20
-3.779555101644267
 30
0.0
 10
24.54878468348852
 20
-3.852563624688064
 30
0.0
 10
24.59151141377085
 20
-3.997388300039947
 30
0.0
 10
24.60879787974278
 20
-4.211564859397611
 30
0.0
 10
24.59833523791969
 20
-4.418374839277896
 30
0.0
 10
24.56386545579838
 20
-4.619956978658371
 30
0.0
 10
24.50769006812925
 20
-4.839036303229025
 30
0.0
 10
24.43239037718022
 20
-5.075465377326154
 30
0.0
 10
24.34828747099313
 20
-5.332047849915078
 30
0.0
 10
24.27347623991684
 20
-5.598953781509081
 30
0.0
 10
24.22661641435774
 20
-5.882273951698848
 30
0.0
 10
24.21024955525486
 20
-6.180129156364553
 30
0.0
 10
24.21960055635325
 20
-6.483517544893314
 30
0.0
 10
24.25004279939465
 20
-6.79117915701335
 30
0.0
 10
24.30193757359922
 20
-7.136809561981239
 30
0.0
 10
24.37542009030798
 20
-7.519427747328111
 30
0.0
 10
24.46473972769795
 20
-7.936753208493145
 30
0.0
 10
24.55203405993429
 20
-8.350910120547268
 30
0.0
 10
24.62613091959812
 20
-8.759034731023776
 30
0.0
 10
24.67575111140377
 20
-9.158285168232774
 30
0.0
 10
24.68780230498341
 20
-9.503957389016079
 30
0.0
 10
24.66698916259533
 20
-9.795945044443193
 30
0.0
 10
24.62395566293193
 20
-10.03870501104716
 30
0.0
 10
24.55198824960806
 20
-10.27202076977326
 30
0.0
 10
24.44809575622552
 20
-10.49525310899371
 30
0.0
 10
24.31756002073572
 20
-10.68858891295558
 30
0.0
 10
24.21050193662882
 20
-10.81790069165273
 30
0.0
 10
24.14797695903417
 20
-10.87412571176317
 30
0.0
 10
24.13665731472757
 20
-10.88430479943765
 30
0.0
  0
LWPOLYLINE
  5
DA
330
1F
100
AcDbEntity
  8
0
  6
Continuous
 62
     7
370
    15
100
AcDbPolyline
 90
       17
 70
   128
 43
0.0
 10
-3.426313810175592
 20
9.452561624265682
 10
-3.429226865806657
 20
9.422821113498672
 10
-3.437522541861949
 20
9.391921332502908
 10
-3.449937906759861
 20
9.364566725831821
 10
-3.464582824007655
 20
9.344922346866647
 10
-3.479227741255452
 20
9.335978949442738
 10
-3.491643106153364
 20
9.339098002611891
 10
-3.499938799320621
 20
9.353804098614514
 10
-3.502851854951686
 20
9.377858146181987
 10
-3.499938799320621
 20
9.407599662680347
 10
-3.491643106153364
 20
9.438499460377913
 10
-3.479227741255452
 20
9.465854067049003
 10
-3.464582824007655
 20
9.485497440282825
 10
-3.449937906759861
 20
9.494441843438083
 10
-3.437522541861949
 20
9.491322790268929
 10
-3.429226865806657
 20
9.476616677564507
 10
-3.426313810175592
 20
9.452561624265682
  0
LWPOLYLINE
  5
DB
330
1F
100
AcDbEntity
  8
0
  6
Continuous
 62
     7
370
    15
100
AcDbPolyline
 90
       17
 70
   128
 43
0.0
 10
-3.776335356199044
 20
8.789492091775221
 10
-3.779248394718142
 20
8.75975159771001
 10
-3.787544070773436
 20
8.728851816714248
 10
-3.799959452783313
 20
8.701497193341355
 10
-3.814604387143075
 20
8.68185279767438
 10
-3.829249287278904
 20
8.672909416952272
 10
-3.841664669288782
 20
8.676028453419624
 10
-3.849960345344073
 20
8.690734566124046
 10
-3.852873383863171
 20
8.714788630393325
 10
-3.849960345344073
 20
8.744530130189879
 10
-3.841664669288782
 20
8.775429911185645
 10
-3.829249287278904
 20
8.802784534558536
 10
-3.814604387143075
 20
8.822427891090557
 10
-3.799959452783313
 20
8.831372310947617
 10
-3.787544070773436
 20
8.828253274480269
 10
-3.779248394718142
 20
8.813547161775844
 10
-3.776335356199044
 20
8.789492091775221
  0
LWPOLYLINE
  5
DC
330
1F
100
AcDbEntity
  8
0
  6
Continuous
 62
     7
370
    15
100
AcDbPolyline
 90
       17
 70
   128
 43
0.0
 10
-3.717998437565791
 20
7.989263988142968
 10
-3.720911476084888
 20
7.959522488346414
 10
-3.729207152140182
 20
7.928622707350649
 10
-3.74162253415006
 20
7.901268083977758
 10
-3.756267434285888
 20
7.881624727445737
 10
-3.770912368645651
 20
7.872680307588675
 10
-3.783327716431595
 20
7.875799377459634
 10
-3.79162342671082
 20
7.89050545676045
 10
-3.794536465229918
 20
7.914560526761077
 10
-3.79162342671082
 20
7.944301020826284
 10
-3.783327716431595
 20
7.975200835225656
 10
-3.770912368645651
 20
8.002555425194941
 10
-3.756267434285888
 20
8.022199820861915
 10
-3.74162253415006
 20
8.031143201584022
 10
-3.729207152140182
 20
8.028024165116672
 10
-3.720911476084888
 20
8.013318052412248
 10
-3.717998437565791
 20
7.989263988142968
  0
LWPOLYLINE
  5
DD
330
1F
100
AcDbEntity
  8
0
  6
Continuous
 62
     7
370
    15
100
AcDbPolyline
 90
       17
 70
   128
 43
0.0
 10
-3.484650728808845
 20
8.538456278659495
 10
-3.48756378443991
 20
8.508714762161137
 10
-3.495859460495202
 20
8.477814981165373
 10
-3.508274825393113
 20
8.450460374494285
 10
-3.522919759752876
 20
8.430816984558656
 10
-3.537564677000671
 20
8.421872581403398
 10
-3.549980041898582
 20
8.424991634572553
 10
-3.558275717953874
 20
8.439697747276976
 10
-3.56118877358494
 20
8.4637528005758
 10
-3.558275717953874
 20
8.493493311342811
 10
-3.549980041898582
 20
8.524393092338575
 10
-3.537564677000671
 20
8.551747699009663
 10
-3.522919759752876
 20
8.571392077974834
 10
-3.508274825393113
 20
8.580335492100548
 10
-3.495859460495202
 20
8.577216438931396
 10
-3.48756378443991
 20
8.562510326226972
 10
-3.484650728808845
 20
8.538456278659495
  0
LWPOLYLINE
  5
DE
330
1F
100
AcDbEntity
  8
0
  6
Continuous
 62
     7
370
    15
100
AcDbPolyline
 90
       17
 70
   128
 43
0.0
 10
-3.776335356199044
 20
7.075157636805435
 10
-3.779248394718142
 20
7.045417142740228
 10
-3.787544070773436
 20
7.014516356013114
 10
-3.799959452783313
 20
6.987162738371571
 10
-3.814604387143075
 20
6.967518342704595
 10
-3.829249287278904
 20
6.958574961982487
 10
-3.841664669288782
 20
6.961692992718492
 10
-3.849960345344073
 20
6.976400111154261
 10
-3.852873383863171
 20
7.00045417542354
 10
-3.849960345344073
 20
7.030195675220097
 10
-3.841664669288782
 20
7.061095456215862
 10
-3.829249287278904
 20
7.088450079588754
 10
-3.814604387143075
 20
7.108093436120773
 10
-3.799959452783313
 20
7.117037855977836
 10
-3.787544070773436
 20
7.113918819510485
 10
-3.779248394718142
 20
7.099212706806062
 10
-3.776335356199044
 20
7.075157636805435
  0
LWPOLYLINE
  5
DF
330
1F
100
AcDbEntity
  8
0
  6
Continuous
 62
     7
370
    15
100
AcDbPolyline
 90
       17
 70
   128
 43
0.0
 10
-3.426313810175592
 20
7.7382271692959
 10
-3.429226865806657
 20
7.70848565279754
 10
-3.437522541861949
 20
7.677585871801776
 10
-3.449937906759861
 20
7.650232270862035
 10
-3.464582824007655
 20
7.630587891896865
 10
-3.479227741255452
 20
7.621644494472953
 10
-3.491643106153364
 20
7.62476254191076
 10
-3.499938799320621
 20
7.639468637913379
 10
-3.502851854951686
 20
7.663523691212202
 10
-3.499938799320621
 20
7.693265207710561
 10
-3.491643106153364
 20
7.724165005408131
 10
-3.479227741255452
 20
7.75151860634787
 10
-3.464582824007655
 20
7.771162985313043
 10
-3.449937906759861
 20
7.780106382736953
 10
-3.437522541861949
 20
7.776988335299146
 10
-3.429226865806657
 20
7.762282222594723
 10
-3.426313810175592
 20
7.7382271692959
  0
LWPOLYLINE
  5
E0
330
1F
100
AcDbEntity
  8
0
  6
Continuous
 62
     7
370
    15
100
AcDbPolyline
 90
       17
 70
   128
 43
0.0
 10
-3.484650728808845
 20
6.824121320824037
 10
-3.48756378443991
 20
6.794380307191354
 10
-3.495859460495202
 20
6.763480526195589
 10
-3.508274825393113
 20
6.736125919524501
 10
-3.522919759752876
 20
6.7164820267232
 10
-3.537564677000671
 20
6.707538126433615
 10
-3.549980041898582
 20
6.71065717960277
 10
-3.558275717953874
 20
6.725363292307193
 10
-3.56118877358494
 20
6.749417842740341
 10
-3.558275717953874
 20
6.779158856373027
 10
-3.549980041898582
 20
6.810059140234465
 10
-3.537564677000671
 20
6.83741324403988
 10
-3.522919759752876
 20
6.857057120139376
 10
-3.508274825393113
 20
6.866001037130766
 10
-3.495859460495202
 20
6.862882486827285
 10
-3.48756378443991
 20
6.848175871257188
 10
-3.484650728808845
 20
6.824121320824037
  0
LWPOLYLINE
  5
E1
330
1F
100
AcDbEntity
  8
0
  6
Continuous
 62
     7
370
    15
100
AcDbPolyline
 90
       22
 70
   128
 43
0.0
 10
-3.566789126671953
 20
9.036873871388113
 10
-3.570023630595259
 20
8.99430329060927
 10
-3.579439729774465
 20
8.94920123990836
 10
-3.594200751715521
 20
8.905574517124387
 10
-3.612995132627787
 20
8.867301052796383
 10
-3.634152915692542
 20
8.837780863146555
 10
-3.655794111813236
 20
8.819637368543592
 10
-3.675995849305062
 20
8.814481837624382
 10
-3.69296304864965
 20
8.822772952516215
 10
-3.70518817981507
 20
8.84377452843716
 10
-3.71158490671484
 20
8.875619178757169
 10
-3.71158490671484
 20
8.915479329267018
 10
-3.70518817981507
 20
8.959810782696832
 10
-3.69296304864965
 20
9.00467656421012
 10
-3.675995849305062
 20
9.046088692529668
 10
-3.655794111813236
 20
9.080368191820289
 10
-3.634152915692542
 20
9.104469638927991
 10
-3.612995132627787
 20
9.116250739064216
 10
-3.594200751715521
 20
9.114665058613718
 10
-3.579439729774465
 20
9.099852755698776
 10
-3.570023630595259
 20
9.07313150792341
 10
-3.566789126671953
 20
9.036873871388113
  0
ARC
  5
E2
330
1F
100
AcDbEntity
  8
0
  6
Continuous
 62
     7
370
    15
100
AcDbCircle
 10
-5.861010003149758
 20
5.368954986528321
 30
0.0
 40
1.929753889656791
100
AcDbArc
 50
351.4226557078096
 51
359.725722327256
  0
LINE
  5
E3
330
1F
100
AcDbEntity
  8
0
  6
Continuous
 62
     7
370
    15
100
AcDbLine
 10
-3.931278224409581
 20
5.734609087874355
 30
0.0
 11
-3.931278224409581
 21
5.359717196436076
 31
0.0
  0
LWPOLYLINE
  5
E4
330
1F
100
AcDbEntity
  8
0
  6
Continuous
 62
     7
370
    15
100
AcDbPolyline
 90
        9
 70
   128
 43
0.0
 10
-3.931278224409581
 20
5.841755179884594
 10
-3.920115951712494
 20
5.848571659616655
 10
-3.910653034192719
 20
5.84619457734133
 10
-3.904330094092852
 20
5.834985917295073
 10
-3.902109782204921
 20
5.816651679103991
 10
-3.904330094092852
 20
5.793982753108379
 10
-3.910653034192719
 20
5.770431326309803
 10
-3.920115951712494
 20
5.749582048837583
 10
-3.931278224409581
 20
5.734609087874355
  0
LINE
  5
E5
330
1F
100
AcDbEntity
  8
0
  6
Continuous
 62
     7
370
    15
100
AcDbLine
 10
-3.931278224409581
 20
9.045418352620574
 30
0.0
 11
-3.931278224409581
 21
5.841755179884594
 31
0.0
  0
LINE
  5
E6
330
1F
100
AcDbEntity
  8
0
  6
Continuous
 62
     7
370
    15
100
AcDbLine
 10
-3.916390608139755
 20
9.059949122500901
 30
0.0
 11
-3.931278224409581
 21
9.045418352620574
 31
0.0
  0
LINE
  5
E7
330
1F
100
AcDbEntity
  8
0
  6
Continuous
 62
     7
370
    15
100
AcDbLine
 10
-3.823051572550483
 20
9.359513847804709
 30
0.0
 11
-3.916390608139755
 21
9.059949122500901
 31
0.0
  0
LINE
  5
E8
330
1F
100
AcDbEntity
  8
0
  6
Continuous
 62
     7
370
    15
100
AcDbLine
 10
-3.456135638600247
 20
9.717635047668073
 30
0.0
 11
-3.823051572550483
 21
9.359513847804709
 31
0.0
  0
LINE
  5
E9
330
1F
100
AcDbEntity
  8
0
  6
Continuous
 62
     7
370
    15
100
AcDbLine
 10
-3.36279656023106
 20
9.60027388446986
 30
0.0
 11
-3.456135638600247
 21
9.717635047668073
 31
0.0
  0
LINE
  5
EA
330
1F
100
AcDbEntity
  8
0
  6
Continuous
 62
     7
370
    15
100
AcDbLine
 10
-3.347908982463158
 20
9.614804616771127
 30
0.0
 11
-3.36279656023106
 21
9.60027388446986
 31
0.0
  0
LINE
  5
EB
330
1F
100
AcDbEntity
  8
0
  6
Continuous
 62
     7
370
    15
100
AcDbLine
 10
-3.347908982463158
 20
9.614804616771127
 30
0.0
 11
-3.347908982463158
 21
6.411141444035144
 31
0.0
  0
LWPOLYLINE
  5
EC
330
1F
100
AcDbEntity
  8
0
  6
Continuous
 62
     7
370
    15
100
AcDbPolyline
 90
        9
 70
   128
 43
0.0
 10
-3.347908982463158
 20
6.303995352024905
 10
-3.359071267994221
 20
6.297178859766491
 10
-3.368534202625962
 20
6.299555925340012
 10
-3.374857125613863
 20
6.310764602088073
 10
-3.377077446057775
 20
6.329099334793927
 10
-3.374857125613863
 20
6.351767766274766
 10
-3.368534202625962
 20
6.37531917637154
 10
-3.359071267994221
 20
6.396168470545563
 10
-3.347908982463158
 20
6.411141444035144
  0
LINE
  5
ED
330
1F
100
AcDbEntity
  8
0
  6
Continuous
 62
     7
370
    15
100
AcDbLine
 10
-3.347908982463158
 20
6.303995352024905
 30
0.0
 11
-3.347908982463158
 21
5.929103460586627
 31
0.0
  0
ARC
  5
EE
330
1F
100
AcDbEntity
  8
0
  6
Continuous
 62
     7
370
    15
100
AcDbCircle
 10
-5.499609737119854
 20
5.954274426485745
 30
0.0
 40
2.151847976766595
100
AcDbArc
 50
345.3923838453268
 51
359.3297746780121
  0
LINE
  5
EF
330
1F
100
AcDbEntity
  8
0
  6
Continuous
 62
     7
370
    15
100
AcDbLine
 10
-3.67877007555125
 20
4.377352729599579
 30
0.0
 11
-3.417318836493966
 21
5.411582690520366
 31
0.0
  0
LINE
  5
F0
330
1F
100
AcDbEntity
  8
0
  6
Continuous
 62
     7
370
    15
100
AcDbLine
 10
-3.823051572550483
 20
9.359513847804709
 30
0.0
 11
-3.875941335012202
 21
9.37388815195128
 31
0.0
  0
LINE
  5
F1
330
1F
100
AcDbEntity
  8
0
  6
Continuous
 62
     7
370
    15
100
AcDbLine
 10
-3.916390608139755
 20
9.059949122500901
 30
0.0
 11
-3.969280370601474
 21
9.074323426647472
 31
0.0
  0
LINE
  5
F2
330
1F
100
AcDbEntity
  8
0
  6
Continuous
 62
     7
370
    15
100
AcDbLine
 10
-3.875941335012202
 20
9.37388815195128
 30
0.0
 11
-3.969280370601474
 21
9.074323426647472
 31
0.0
  0
LINE
  5
F3
330
1F
100
AcDbEntity
  8
0
  6
Continuous
 62
     7
370
    15
100
AcDbLine
 10
-3.931278224409581
 20
9.045418352620574
 30
0.0
 11
-3.9841679868713
 21
9.059792656767147
 31
0.0
  0
LINE
  5
F4
330
1F
100
AcDbEntity
  8
0
  6
Continuous
 62
     7
370
    15
100
AcDbLine
 10
-3.969280370601474
 20
9.074323426647472
 30
0.0
 11
-3.9841679868713
 21
9.059792656767147
 31
0.0
  0
LINE
  5
F5
330
1F
100
AcDbEntity
  8
0
  6
Continuous
 62
     7
370
    15
100
AcDbLine
 10
-3.931278224409581
 20
5.841755179884594
 30
0.0
 11
-3.9841679868713
 21
5.856129484031166
 31
0.0
  0
LINE
  5
F6
330
1F
100
AcDbEntity
  8
0
  6
Continuous
 62
     7
370
    15
100
AcDbLine
 10
-3.9841679868713
 20
9.059792656767147
 30
0.0
 11
-3.9841679868713
 21
5.856129484031166
 31
0.0
  0
LINE
  5
F7
330
1F
100
AcDbEntity
  8
0
  6
Continuous
 62
     7
370
    15
100
AcDbLine
 10
-3.456135638600247
 20
9.717635047668073
 30
0.0
 11
-3.509025401061967
 21
9.732009351814646
 31
0.0
  0
LINE
  5
F8
330
1F
100
AcDbEntity
  8
0
  6
Continuous
 62
     7
370
    15
100
AcDbLine
 10
-3.509025401061967
 20
9.732009351814646
 30
0.0
 11
-3.875941335012202
 21
9.37388815195128
 31
0.0
  0
ARC
  5
F9
330
1F
100
AcDbEntity
  8
0
  6
Continuous
 62
     7
370
    15
100
AcDbCircle
 10
-4.013435356703324
 20
8.806154104545628
 30
0.0
 40
0.1842244430319844
100
AcDbArc
 50
330.6416734399919
 51
359.2884797706151
  0
ARC
  5
FA
330
1F
100
AcDbEntity
  8
0
  6
Continuous
 62
     7
370
    15
100
AcDbCircle
 10
-3.906520094814314
 20
9.039994049113996
 30
0.0
 40
0.2870618968755997
100
AcDbArc
 50
315.2091566405904
 51
2.246829853398864
  0
LWPOLYLINE
  5
FB
330
1F
100
AcDbEntity
  8
0
  6
Continuous
 62
     7
370
    15
100
AcDbPolyline
 90
        3
 70
   128
 43
0.0
 10
-3.629281440300756
 20
9.1082510429807
 10
-3.622913393056978
 20
9.087505812069981
 10
-3.619678889133672
 20
9.051248175534684
  0
ARC
  5
FC
330
1F
100
AcDbEntity
  8
0
  6
Continuous
 62
     7
370
    15
100
AcDbCircle
 10
-3.663381694505829
 20
9.469215024619233
 30
0.0
 40
0.1841922225679893
100
AcDbArc
 50
330.6391033538863
 51
359.2910345276077
  0
LINE
  5
FD
330
1F
100
AcDbEntity
  8
0
  6
Continuous
 62
     7
370
    15
100
AcDbLine
 10
-3.347908982463158
 20
9.614804616771127
 30
0.0
 11
-3.381646856367479
 21
9.62397384798313
 31
0.0
  0
ARC
  5
FE
330
1F
100
AcDbEntity
  8
0
  6
Continuous
 62
     7
370
    15
100
AcDbCircle
 10
-3.955098215476612
 20
8.005924909263395
 30
0.0
 40
0.1842242069027399
100
AcDbArc
 50
330.6416627888783
 51
359.2888184000454
  0
ARC
  5
FF
330
1F
100
AcDbEntity
  8
0
  6
Continuous
 62
     7
370
    15
100
AcDbCircle
 10
-3.721718390839348
 20
8.555108587540328
 30
0.0
 40
0.1841919867831889
100
AcDbArc
 50
330.6390926943557
 51
359.2913731655422
  0
ARC
  5
100
330
1F
100
AcDbEntity
  8
0
  6
Continuous
 62
     7
370
    15
100
AcDbCircle
 10
-4.013431117788404
 20
7.091818510992318
 30
0.0
 40
0.1842201903081254
100
AcDbArc
 50
330.6413357191147
 51
359.288817491492
  0
ARC
  5
101
330
1F
100
AcDbEntity
  8
0
  6
Continuous
 62
     7
370
    15
100
AcDbCircle
 10
-3.663375262874259
 20
7.754878842095634
 30
0.0
 40
0.184185770060331
100
AcDbArc
 50
330.6385907503508
 51
359.2915471311415
  0
LWPOLYLINE
  5
102
330
1F
100
AcDbEntity
  8
0
  6
Continuous
 62
     7
370
    15
100
AcDbPolyline
 90
       17
 70
   128
 43
0.0
 10
-3.062812099840997
 20
-0.820356697764048
 10
-3.057291507777424
 20
-0.8487549841442859
 10
-3.04157027285953
 20
-0.8758306257797464
 10
-3.018041343451728
 20
-0.8974617373996819
 10
-2.990288953574228
 20
-0.9103546073608143
 10
-2.962536563696734
 20
-0.9125467472135222
 10
-2.939007634288927
 20
-0.9037049532917253
 10
-2.923286399371038
 20
-0.8851747012269974
 10
-2.917765807307464
 20
-0.8597771721085642
 10
-2.923286399371038
 20
-0.8313787600119084
 10
-2.939007634288927
 20
-0.8043031183764483
 10
-2.962536563696734
 20
-0.7826720067565127
 10
-2.990288953574228
 20
-0.7697791367953815
 10
-3.018041343451728
 20
-0.7675869969426726
 10
-3.04157027285953
 20
-0.7764287908644683
 10
-3.057291507777424
 20
-0.7949590429291961
 10
-3.062812099840997
 20
-0.820356697764048
  0
LWPOLYLINE
  5
103
330
1F
100
AcDbEntity
  8
0
  6
Continuous
 62
     7
370
    15
100
AcDbPolyline
 90
       17
 70
   128
 43
0.0
 10
-3.726125764153514
 20
-0.9615199672033075
 10
-3.720605172089936
 20
-0.9899182535835443
 10
-3.704883937172047
 20
-1.016993958077215
 10
-3.68135500776424
 20
-1.038625069697149
 10
-3.653602617886745
 20
-1.051517876800072
 10
-3.625850228009251
 20
-1.05371007951099
 10
-3.602321298601444
 20
-1.044868285589193
 10
-3.586600063683554
 20
-1.026337970666257
 10
-3.581079471619976
 20
-1.000940441547823
 10
-3.586600063683554
 20
-0.9725420923093771
 10
-3.602321298601444
 20
-0.945466450673916
 10
-3.625850228009251
 20
-0.923835276195772
 10
-3.653602617886745
 20
-0.9109424690928491
 10
-3.68135500776424
 20
-0.9087502663819307
 10
-3.704883937172047
 20
-0.9175921231619369
 10
-3.720605172089936
 20
-0.9361223752266637
 10
-3.726125764153514
 20
-0.9615199672033075
  0
LWPOLYLINE
  5
104
330
1F
100
AcDbEntity
  8
0
  6
Continuous
 62
     7
370
    15
100
AcDbPolyline
 90
       17
 70
   128
 43
0.0
 10
-3.173362993619384
 20
0.0668560195471118
 10
-3.167842401555806
 20
0.0384577331668761
 10
-3.152123242048464
 20
0.0113825298671141
 10
-3.128594312640662
 20
-0.0102485817528216
 10
-3.100841922763165
 20
-0.0231413259975361
 10
-3.073087457475118
 20
-0.0253341556187794
 10
-3.049560603477864
 20
-0.016491797644866
 10
-3.033839368559974
 20
0.0020385801362791
 10
-3.028318776496401
 20
0.0274361092547145
 10
-3.033839368559974
 20
0.0558343956349502
 10
-3.049560603477864
 20
0.0829101629868299
 10
-3.073087457475118
 20
0.1045405848382301
 10
-3.100841922763165
 20
0.1174341445678973
 10
-3.128594312640662
 20
0.1196261587041879
 10
-3.152123242048464
 20
0.1107844904988099
 10
-3.167842401555806
 20
0.0922535486655473
 10
-3.173362993619384
 20
0.0668560195471118
  0
LWPOLYLINE
  5
105
330
1F
100
AcDbEntity
  8
0
  6
Continuous
 62
     7
370
    15
100
AcDbPolyline
 90
       17
 70
   128
 43
0.0
 10
-3.615572794964577
 20
-0.1343986050221753
 10
-3.610052202901
 20
-0.1627968914024121
 10
-3.59433096798311
 20
-0.1898725330378718
 10
-3.570804113985855
 20
-0.2115030806056909
 10
-3.543049648697809
 20
-0.2243965146189408
 10
-3.515297258820314
 20
-0.2265886544716487
 10
-3.491768329412507
 20
-0.2177468605498518
 10
-3.476049169905166
 20
-0.1992160444330081
 10
-3.470528577841592
 20
-0.1738185153145737
 10
-3.476049169905166
 20
-0.1454201032179186
 10
-3.491768329412507
 20
-0.1183450256345748
 10
-3.515297258820314
 20
-0.0967139140146387
 10
-3.543049648697809
 20
-0.0838210440535075
 10
-3.570804113985855
 20
-0.0816283401486809
 10
-3.59433096798311
 20
-0.0904706981225948
 10
-3.610052202901
 20
-0.1090009501873226
 10
-3.615572794964577
 20
-0.1343986050221753
  0
LWPOLYLINE
  5
106
330
1F
100
AcDbEntity
  8
0
  6
Continuous
 62
     7
370
    15
100
AcDbPolyline
 90
       17
 70
   128
 43
0.0
 10
-3.062812099840997
 20
0.8939778829221527
 10
-3.057291507777424
 20
0.8655797222583341
 10
-3.04157027285953
 20
0.8385040806228746
 10
-3.018041343451728
 20
0.8168728432865201
 10
-2.990288953574228
 20
0.8039800990418061
 10
-2.962536563696734
 20
0.8017878334726798
 10
-2.939007634288927
 20
0.8106297531108946
 10
-2.923286399371038
 20
0.8291600051756217
 10
-2.917765807307464
 20
0.8545574085776378
 10
-2.923286399371038
 20
0.882955820674293
 10
-2.939007634288927
 20
0.9100314623097531
 10
-2.962536563696734
 20
0.9316626996461076
 10
-2.990288953574228
 20
0.9445554438908205
 10
-3.018041343451728
 20
0.9467477094599479
 10
-3.04157027285953
 20
0.9379057898217332
 10
-3.057291507777424
 20
0.9193755377570054
 10
-3.062812099840997
 20
0.8939778829221527
  0
LWPOLYLINE
  5
107
330
1F
100
AcDbEntity
  8
0
  6
Continuous
 62
     7
370
    15
100
AcDbPolyline
 90
       17
 70
   128
 43
0.0
 10
-3.726125764153514
 20
0.7528145506246851
 10
-3.720605172089936
 20
0.7244163899608666
 10
-3.704883937172047
 20
0.6973407483254058
 10
-3.68135500776424
 20
0.6757095109890524
 10
-3.653602617886745
 20
0.6628167667443385
 10
-3.625850228009251
 20
0.6606245011752111
 10
-3.602321298601444
 20
0.6694664208134269
 10
-3.586600063683554
 20
0.6879966728781531
 10
-3.581079471619976
 20
0.7133940762801691
 10
-3.586600063683554
 20
0.7417924883768242
 10
-3.602321298601444
 20
0.7688681300122856
 10
-3.625850228009251
 20
0.790499367348639
 10
-3.653602617886745
 20
0.8033921115933528
 10
-3.68135500776424
 20
0.8055843771624802
 10
-3.704883937172047
 20
0.7967424575242644
 10
-3.720605172089936
 20
0.7782122054595378
 10
-3.726125764153514
 20
0.7528145506246851
  0
LWPOLYLINE
  5
108
330
1F
100
AcDbEntity
  8
0
  6
Continuous
 62
     7
370
    15
100
AcDbPolyline
 90
       17
 70
   128
 43
0.0
 10
-3.615572794964577
 20
1.579936101380445
 10
-3.610052202901
 20
1.551537689283789
 10
-3.59433096798311
 20
1.52446204764833
 10
-3.570804113985855
 20
1.502831374364093
 10
-3.543049648697809
 20
1.489938066067261
 10
-3.515297258820314
 20
1.487745800498135
 10
-3.491768329412507
 20
1.49658772013635
 10
-3.476049169905166
 20
1.515118536253193
 10
-3.470528577841592
 20
1.540516191088047
 10
-3.476049169905166
 20
1.568914351751865
 10
-3.491768329412507
 20
1.595989429335208
 10
-3.515297258820314
 20
1.617620666671563
 10
-3.543049648697809
 20
1.630513410916276
 10
-3.570804113985855
 20
1.632706240537521
 10
-3.59433096798311
 20
1.623863756847188
 10
-3.610052202901
 20
1.605333504782461
 10
-3.615572794964577
 20
1.579936101380445
  0
LWPOLYLINE
  5
109
330
1F
100
AcDbEntity
  8
0
  6
Continuous
 62
     7
370
    15
100
AcDbPolyline
 90
       22
 70
   128
 43
0.0
 10
-3.459914928287784
 20
-0.7552910192508095
 10
-3.453786240932994
 20
-0.7963707738090262
 10
-3.43594186102223
 20
-0.8371323945809358
 10
-3.407967402215865
 20
-0.8739542630481468
 10
-3.372351281763595
 20
-0.903563533815176
 10
-3.332256425343964
 20
-0.9233300014179842
 10
-3.291244237461131
 20
-0.9314975733383272
 10
-3.252961214451838
 20
-0.9273398430677543
 10
-3.220806878797334
 20
-0.9112267666178414
 10
-3.197639070825265
 20
-0.8845899788307137
 10
-3.185516597801452
 20
-0.8497961782212417
 10
-3.185516597801452
 20
-0.8099369077263245
 10
-3.197639070825265
 20
-0.76855385028746
 10
-3.220806878797334
 20
-0.7293240349388667
 10
-3.252961214451838
 20
-0.6957333024535157
 10
-3.291244237461131
 20
-0.6707665614870036
 10
-3.332256425343964
 20
-0.6566416027858039
 10
-3.372351281763595
 20
-0.6546142246966001
 10
-3.407967402215865
 20
-0.6648642244244893
 10
-3.43594186102223
 20
-0.686480250208428
 10
-3.453786240932994
 20
-0.7175425564948866
 10
-3.459914928287784
 20
-0.7552910192508095
  0
LINE
  5
10A
330
1F
100
AcDbEntity
  8
0
  6
Continuous
 62
     7
370
    15
100
AcDbLine
 10
-3.957774788126485
 20
4.8131636756941
 30
0.0
 11
-2.900720460458534
 21
2.863825437054556
 31
0.0
  0
ARC
  5
10B
330
1F
100
AcDbEntity
  8
0
  6
Continuous
 62
     7
370
    15
100
AcDbCircle
 10
-3.798361781387797
 20
2.360062176644684
 30
0.0
 40
1.02933831347056
100
AcDbArc
 50
1.015349148331734
 51
29.30147782075188
  0
LINE
  5
10C
330
1F
100
AcDbEntity
  8
0
  6
Continuous
 62
     7
370
    15
100
AcDbLine
 10
-2.769185090606908
 20
-1.30731266026345
 30
0.0
 11
-2.769185090606908
 21
2.378302317316177
 31
0.0
  0
LINE
  5
10D
330
1F
100
AcDbEntity
  8
0
  6
Continuous
 62
     7
370
    15
100
AcDbLine
 10
-2.769185090606908
 20
-1.30731266026345
 30
0.0
 11
-2.797398221626552
 21
-1.299644935786582
 31
0.0
  0
LINE
  5
10E
330
1F
100
AcDbEntity
  8
0
  6
Continuous
 62
     7
370
    15
100
AcDbLine
 10
-2.797398221626552
 20
-1.299644935786582
 30
0.0
 11
-2.97428131200041
 21
-1.385975702118399
 31
0.0
  0
LINE
  5
10F
330
1F
100
AcDbEntity
  8
0
  6
Continuous
 62
     7
370
    15
100
AcDbLine
 10
-2.97428131200041
 20
-1.385975702118399
 30
0.0
 11
-3.669610259460564
 21
-1.19700019329583
 31
0.0
  0
LINE
  5
110
330
1F
100
AcDbEntity
  8
0
  6
Continuous
 62
     7
370
    15
100
AcDbLine
 10
-3.669610259460564
 20
-1.19700019329583
 30
0.0
 11
-3.846493349834423
 21
-1.014523359329103
 31
0.0
  0
LINE
  5
111
330
1F
100
AcDbEntity
  8
0
  6
Continuous
 62
     7
370
    15
100
AcDbLine
 10
-3.846493349834423
 20
-1.014523359329103
 30
0.0
 11
-3.874706480854068
 21
-1.006855634852235
 31
0.0
  0
LINE
  5
112
330
1F
100
AcDbEntity
  8
0
  6
Continuous
 62
     7
370
    15
100
AcDbLine
 10
-3.874706480854068
 20
-1.006855634852235
 30
0.0
 11
-3.874706480854068
 21
2.678759342727392
 31
0.0
  0
ARC
  5
113
330
1F
100
AcDbEntity
  8
0
  6
Continuous
 62
     7
370
    15
100
AcDbCircle
 10
-4.863633524584921
 20
2.667110372056739
 30
0.0
 40
0.9889956503139583
100
AcDbArc
 50
0.6748788922086592
 51
23.66070581853332
  0
LINE
  5
114
330
1F
100
AcDbEntity
  8
0
  6
Continuous
 62
     7
370
    15
100
AcDbLine
 10
-3.957774788126485
 20
3.06401381865535
 30
0.0
 11
-3.957774788126485
 21
4.8131636756941
 31
0.0
  0
LINE
  5
115
330
1F
100
AcDbEntity
  8
0
  6
Continuous
 62
     7
370
    15
100
AcDbLine
 10
-2.900720460458534
 20
2.863825437054556
 30
0.0
 11
-2.872812075025096
 21
2.891064876808697
 31
0.0
  0
LINE
  5
116
330
1F
100
AcDbEntity
  8
0
  6
Continuous
 62
     7
370
    15
100
AcDbLine
 10
-3.957774788126485
 20
4.8131636756941
 30
0.0
 11
-3.92986640269305
 21
4.840403115448243
 31
0.0
  0
LINE
  5
117
330
1F
100
AcDbEntity
  8
0
  6
Continuous
 62
     7
370
    15
100
AcDbLine
 10
-3.92986640269305
 20
4.840403115448243
 30
0.0
 11
-2.872812075025096
 21
2.891064876808697
 31
0.0
  0
LINE
  5
118
330
1F
100
AcDbEntity
  8
0
  6
Continuous
 62
     7
370
    15
100
AcDbLine
 10
-3.9841679868713
 20
5.748983392020927
 30
0.0
 11
-3.931278224409581
 21
5.734609087874355
 31
0.0
  0
ARC
  5
119
330
1F
100
AcDbEntity
  8
0
  6
Continuous
 62
     7
370
    15
100
AcDbCircle
 10
-4.075583046815208
 20
5.827401028303221
 30
0.0
 40
0.1204410181983293
100
AcDbArc
 50
319.3763582513723
 51
10.21468398360901
  0
LINE
  5
11A
330
1F
100
AcDbEntity
  8
0
  6
Continuous
 62
     7
370
    15
100
AcDbLine
 10
-3.9841679868713
 20
5.374091500582649
 30
0.0
 11
-3.931278224409581
 21
5.359717196436076
 31
0.0
  0
LINE
  5
11B
330
1F
100
AcDbEntity
  8
0
  6
Continuous
 62
     7
370
    15
100
AcDbLine
 10
-3.9841679868713
 20
5.748983392020927
 30
0.0
 11
-3.9841679868713
 21
5.374091500582649
 31
0.0
  0
ARC
  5
11C
330
1F
100
AcDbEntity
  8
0
  6
Continuous
 62
     7
370
    15
100
AcDbCircle
 10
-3.721718501977328
 20
6.840774175436354
 30
0.0
 40
0.1841921046628384
100
AcDbArc
 50
330.6390980236329
 51
359.2912038479367
  0
LINE
  5
11D
330
1F
100
AcDbEntity
  8
0
  6
Continuous
 62
     7
370
    15
100
AcDbLine
 10
-3.952839576094204
 20
5.081143075801644
 30
0.0
 11
-4.005729338555923
 21
5.095517379948216
 31
0.0
  0
ARC
  5
11E
330
1F
100
AcDbEntity
  8
0
  6
Continuous
 62
     7
370
    15
100
AcDbCircle
 10
-5.913899765611435
 20
5.383329290674887
 30
0.0
 40
1.929753889656748
100
AcDbArc
 50
351.4226557078096
 51
359.7257223272562
  0
LINE
  5
11F
330
1F
100
AcDbEntity
  8
0
  6
Continuous
 62
     7
370
    15
100
AcDbLine
 10
-3.968128161772844
 20
4.826568554083754
 30
0.0
 11
-3.957774788126485
 21
4.8131636756941
 31
0.0
  0
SPLINE
  5
120
330
1F
100
AcDbEntity
  8
0
  6
Continuous
 62
     7
370
    15
100
AcDbSpline
210
0.0
220
0.0
230
1.0
 70
     8
 71
     3
 72
     9
 73
     5
 74
     0
 42
0.0000000001
 43
0.0000000001
 40
0.0
 40
0.0
 40
0.0
 40
0.0
 40
0.4999962611624167
 40
1.0
 40
1.0
 40
1.0
 40
1.0
 10
-3.957774788126485
 20
3.06401381865535
 30
0.0
 10
-3.970457246540763
 20
3.082884744045569
 30
0.0
 10
-3.995822353041349
 20
3.120626877049419
 30
0.0
 10
-4.007813612593739
 20
3.164094667007141
 30
0.0
 10
-4.013809287203311
 20
3.185828724505009
 30
0.0
  0
LINE
  5
121
330
1F
100
AcDbEntity
  8
0
  6
Continuous
 62
     7
370
    15
100
AcDbLine
 10
-4.013809218755444
 20
3.185828791312225
 30
0.0
 11
-4.017420672885647
 21
3.232890337788956
 31
0.0
  0
SPLINE
  5
122
330
1F
100
AcDbEntity
  8
0
  6
Continuous
 62
     7
370
    15
100
AcDbSpline
210
0.0
220
0.0
230
1.0
 70
     8
 71
     3
 72
    18
 73
    14
 74
     0
 42
0.0000000001
 43
0.0000000001
 40
0.0
 40
0.0
 40
0.0
 40
0.0
 40
0.3586338277126133
 40
0.4491821735625431
 40
0.4721577822466182
 40
0.4780699883196295
 40
0.4796329564210346
 40
0.4800643680546983
 40
0.4801939008197405
 40
0.4802651770124477
 40
0.5451007552324891
 40
0.6535802515492252
 40
1.0
 40
1.0
 40
1.0
 40
1.0
 10
-4.005729338555923
 20
5.095517379948216
 30
0.0
 10
-4.012092755262183
 20
5.062413133897423
 30
0.0
 10
-4.020062815882597
 20
5.020950683770826
 30
0.0
 10
-4.018814433715538
 20
4.976757262747097
 30
0.0
 10
-4.018121978332975
 20
4.965619212657345
 30
0.0
 10
-4.017923142055908
 20
4.962780520407283
 30
0.0
 10
-4.017863234151929
 20
4.962044067436307
 30
0.0
 10
-4.017850002387397
 20
4.96184606891196
 30
0.0
 10
-4.017845476397345
 20
4.961787140302642
 30
0.0
 10
-4.017200443830068
 20
4.955753822488888
 30
0.0
 10
-4.01557263450084
 20
4.939744307445289
 30
0.0
 10
-4.005611199723627
 20
4.892447632607659
 30
0.0
 10
-3.984332525687804
 20
4.855048864676122
 30
0.0
 10
-3.968128161772844
 20
4.826568554083754
 30
0.0
  0
SPLINE
  5
123
330
1F
100
AcDbEntity
  8
0
  6
Continuous
 62
     7
370
    15
100
AcDbSpline
210
0.0
220
0.0
230
1.0
 70
     8
 71
     3
 72
    17
 73
    13
 74
     0
 42
0.0000000001
 43
0.0000000001
 40
0.0
 40
0.0
 40
0.0
 40
0.0
 40
0.3733357221633631
 40
0.4674218819211586
 40
0.491289961423504
 40
0.4974278146408453
 40
0.4990482427030614
 40
0.4994964195252239
 40
0.4996315833989189
 40
0.499703434940084
 40
0.6689446850303145
 40
1.0
 40
1.0
 40
1.0
 40
1.0
 10
-3.952839576094204
 20
5.081143075801644
 30
0.0
 10
-3.955880317429013
 20
5.052600725975125
 30
0.0
 10
-3.959687370847095
 20
5.01686527908819
 30
0.0
 10
-3.959120681592868
 20
4.978976991107243
 30
0.0
 10
-3.958772429460218
 20
4.969424788441185
 30
0.0
 10
-3.95868600014392
 20
4.966991495560724
 30
0.0
 10
-3.958653140800863
 20
4.96635965067916
 30
0.0
 10
-3.958650389401938
 20
4.966190176566813
 30
0.0
 10
-3.958644213898232
 20
4.966139481272675
 30
0.0
 10
-3.958773081604303
 20
4.953114561791537
 30
0.0
 10
-3.953711331474253
 20
4.913504834313095
 30
0.0
 10
-3.942346474960356
 20
4.876582326487293
 30
0.0
 10
-3.93482614319005
 20
4.852150033100913
 30
0.0
  0
LWPOLYLINE
  5
124
330
1F
100
AcDbEntity
  8
0
  6
Continuous
 62
     7
370
    15
100
AcDbPolyline
 90
        3
 70
   128
 43
0.0
 10
-3.968128161772844
 20
4.826568554083754
 10
-3.951478155962789
 20
4.839359609021999
 10
-3.93482614319005
 20
4.852150033100913
  0
LINE
  5
125
330
1F
100
AcDbEntity
  8
0
  6
Continuous
 62
     7
370
    15
100
AcDbLine
 10
-3.93482614319005
 20
4.852150033100913
 30
0.0
 11
-3.92986640269305
 21
4.840403115448243
 31
0.0
  0
LINE
  5
126
330
1F
100
AcDbEntity
  8
0
  6
Continuous
 62
     7
370
    15
100
AcDbLine
 10
-2.74127670517347
 20
2.405541757070318
 30
0.0
 11
-2.769185090606908
 21
2.378302317316177
 31
0.0
  0
ARC
  5
127
330
1F
100
AcDbEntity
  8
0
  6
Continuous
 62
     7
370
    15
100
AcDbCircle
 10
-3.770453395954363
 20
2.387301616398824
 30
0.0
 40
1.029338313470564
100
AcDbArc
 50
1.015349148331779
 51
29.30147782075181
  0
LINE
  5
128
330
1F
100
AcDbEntity
  8
0
  6
Continuous
 62
     7
370
    15
100
AcDbLine
 10
-3.347908982463158
 20
6.303995352024905
 30
0.0
 11
-3.375026296712288
 21
6.311365256984061
 31
0.0
  0
LINE
  5
129
330
1F
100
AcDbEntity
  8
0
  6
Continuous
 62
     7
370
    15
100
AcDbLine
 10
-2.74127670517347
 20
-1.280073220509308
 30
0.0
 11
-2.769185090606908
 21
-1.30731266026345
 31
0.0
  0
LINE
  5
12A
330
1F
100
AcDbEntity
  8
0
  6
Continuous
 62
     7
370
    15
100
AcDbLine
 10
-2.74127670517347
 20
-1.280073220509308
 30
0.0
 11
-2.74127670517347
 21
2.405541757070318
 31
0.0
  0
ARC
  5
12B
330
1F
100
AcDbEntity
  8
0
  6
Continuous
 62
     7
370
    15
100
AcDbCircle
 10
-3.497205893352452
 20
1.604971604394142
 30
0.0
 40
0.0897115305982692
100
AcDbArc
 50
164.0888222076024
 51
284.5208826087063
  0
ARC
  5
12C
330
1F
100
AcDbEntity
  8
0
  6
Continuous
 62
     7
370
    15
100
AcDbCircle
 10
-2.944441211526384
 20
0.919016474094978
 30
0.0
 40
0.089714586963413
100
AcDbArc
 50
164.0912624621982
 51
284.5191161371293
  0
ARC
  5
12D
330
1F
100
AcDbEntity
  8
0
  6
Continuous
 62
     7
370
    15
100
AcDbCircle
 10
-3.607755515431007
 20
0.777852713481277
 30
0.0
 40
0.0897140892739134
100
AcDbArc
 50
164.0908874301818
 51
284.5196204021127
  0
ARC
  5
12E
330
1F
100
AcDbEntity
  8
0
  6
Continuous
 62
     7
370
    15
100
AcDbCircle
 10
-3.054995023756821
 20
0.0918943241908814
 30
0.0
 40
0.0897139749052996
100
AcDbArc
 50
164.0906696775503
 51
284.5197735382219
  0
ARC
  5
12F
330
1F
100
AcDbEntity
  8
0
  6
Continuous
 62
     7
370
    15
100
AcDbCircle
 10
-3.497205288257287
 20
-0.1093624836765453
 30
0.0
 40
0.0897119774642286
100
AcDbArc
 50
164.0892307142987
 51
284.520409485185
  0
ARC
  5
130
330
1F
100
AcDbEntity
  8
0
  6
Continuous
 62
     7
370
    15
100
AcDbCircle
 10
-2.944441565832436
 20
-0.7953183821737993
 30
0.0
 40
0.0897142873069725
100
AcDbArc
 50
164.0911083926559
 51
284.5193994396364
  0
LWPOLYLINE
  5
131
330
1F
100
AcDbEntity
  8
0
  6
Continuous
 62
     7
370
    15
100
AcDbPolyline
 90
        9
 70
   128
 43
0.0
 10
-3.432006542854348
 20
-0.7280515794966674
 10
-3.425877855499558
 20
-0.7691313340548851
 10
-3.408033475588795
 20
-0.8098929548267935
 10
-3.380059016782429
 20
-0.8467148232940058
 10
-3.344442896330159
 20
-0.8763240940610339
 10
-3.304348039910528
 20
-0.8960905616638433
 10
-3.263335852027696
 20
-0.9042581335841862
 10
-3.225052829018402
 20
-0.9001004033136133
 10
-3.20051940090429
 20
-0.8892790866882195
  0
LWPOLYLINE
  5
132
330
1F
100
AcDbEntity
  8
0
  6
Continuous
 62
     7
370
    15
100
AcDbPolyline
 90
        3
 70
   128
 43
0.0
 10
-3.41546344535857
 20
-0.6690575789595977
 10
-3.425877855499558
 20
-0.6903031167407457
 10
-3.432006542854348
 20
-0.7280515794966674
  0
ARC
  5
133
330
1F
100
AcDbEntity
  8
0
  6
Continuous
 62
     7
370
    15
100
AcDbCircle
 10
-3.607755212890876
 20
-0.9364816837597812
 30
0.0
 40
0.0897143127118924
100
AcDbArc
 50
164.09109166906
 51
284.5193838549648
  0
LWPOLYLINE
  5
134
330
1F
100
AcDbEntity
  8
0
  6
Continuous
 62
     7
370
    15
100
AcDbPolyline
 90
       17
 70
   128
 43
0.0
 10
12.4863113178348
 20
5.11216871187739
 10
12.48339826220374
 20
5.082427195379031
 10
12.47510258614845
 20
5.051527414383264
 10
12.46268722125054
 20
5.024172807712178
 10
12.44804230400274
 20
5.004529434478355
 10
12.43339738675494
 20
4.995585031323095
 10
12.42098202185704
 20
4.998704084492249
 10
12.41268632868978
 20
5.01341018049487
 10
12.40977327305871
 20
5.037465233793692
 10
12.41268632868978
 20
5.067205744560703
 10
12.42098202185704
 20
5.09810554225827
 10
12.43339738675494
 20
5.125460148929359
 10
12.44804230400274
 20
5.14510452789453
 10
12.46268722125054
 20
5.154047925318442
 10
12.47510258614845
 20
5.150928872149286
 10
12.48339826220374
 20
5.136222759444864
 10
12.4863113178348
 20
5.11216871187739
  0
LWPOLYLINE
  5
135
330
1F
100
AcDbEntity
  8
0
  6
Continuous
 62
     7
370
    15
100
AcDbPolyline
 90
       17
 70
   128
 43
0.0
 10
12.13628977181135
 20
4.449099179386924
 10
12.13337673329225
 20
4.419357679590369
 10
12.12508105723696
 20
4.388457898594605
 10
12.11266567522709
 20
4.361103275221712
 10
12.09802074086732
 20
4.341459885286084
 10
12.0833758407315
 20
4.33251549883263
 10
12.07096045872162
 20
4.335634535299982
 10
12.06266478266633
 20
4.350340648004404
 10
12.05975174414723
 20
4.374395718005031
 10
12.06266478266633
 20
4.404136212070239
 10
12.07096045872162
 20
4.435035993066003
 10
12.0833758407315
 20
4.462390616438896
 10
12.09802074086732
 20
4.482034978702262
 10
12.11266567522709
 20
4.490978392827979
 10
12.12508105723696
 20
4.487859356360627
 10
12.13337673329225
 20
4.473153243656204
 10
12.13628977181135
 20
4.449099179386924
  0
LWPOLYLINE
  5
136
330
1F
100
AcDbEntity
  8
0
  6
Continuous
 62
     7
370
    15
100
AcDbPolyline
 90
       17
 70
   128
 43
0.0
 10
12.1946266904446
 20
3.648870070023327
 10
12.19171365192551
 20
3.61912957595812
 10
12.18341797587022
 20
3.588228789231008
 10
12.17100259386034
 20
3.560875171589463
 10
12.15635769372451
 20
3.541230809326096
 10
12.14171275936475
 20
3.532287395200381
 10
12.1292974115788
 20
3.535405459339993
 10
12.12100170129958
 20
3.550112544372155
 10
12.11808866278048
 20
3.574166608641434
 10
12.12100170129958
 20
3.603908108437989
 10
12.1292974115788
 20
3.634807922837362
 10
12.14171275936475
 20
3.662161507075298
 10
12.15635769372451
 20
3.681805902742274
 10
12.17100259386034
 20
3.69074928346438
 10
12.18341797587022
 20
3.687631252728377
 10
12.19171365192551
 20
3.672925140023954
 10
12.1946266904446
 20
3.648870070023327
  0
LWPOLYLINE
  5
137
330
1F
100
AcDbEntity
  8
0
  6
Continuous
 62
     7
370
    15
100
AcDbPolyline
 90
       17
 70
   128
 43
0.0
 10
12.42797439920155
 20
4.198062360539855
 10
12.42506134357049
 20
4.168320844041495
 10
12.41676566751519
 20
4.137421063045731
 10
12.40435030261729
 20
4.11006746210599
 10
12.38970536825752
 20
4.090423066439016
 10
12.37506045100972
 20
4.081479669015104
 10
12.36264508611182
 20
4.084597716452912
 10
12.35434941005652
 20
4.099303829157333
 10
12.35143635442546
 20
4.123358882456157
 10
12.35434941005652
 20
4.153100398954516
 10
12.36264508611182
 20
4.184000179950281
 10
12.37506045100972
 20
4.211353780890022
 10
12.38970536825752
 20
4.230998159855193
 10
12.40435030261729
 20
4.239941573980908
 10
12.41676566751519
 20
4.2368235265431
 10
12.42506134357049
 20
4.222117413838677
 10
12.42797439920155
 20
4.198062360539855
  0
LWPOLYLINE
  5
138
330
1F
100
AcDbEntity
  8
0
  6
Continuous
 62
     7
370
    15
100
AcDbPolyline
 90
       17
 70
   128
 43
0.0
 10
12.13628977181135
 20
2.73476472441714
 10
12.13337673329225
 20
2.705023224620585
 10
12.12508105723696
 20
2.67412344362482
 10
12.11266567522709
 20
2.646768820251928
 10
12.09802074086732
 20
2.627124424584952
 10
12.0833758407315
 20
2.618181043862846
 10
12.07096045872162
 20
2.621300080330196
 10
12.06266478266633
 20
2.63600619303462
 10
12.05975174414723
 20
2.660061263035248
 10
12.06266478266633
 20
2.689801757100455
 10
12.07096045872162
 20
2.720701538096219
 10
12.0833758407315
 20
2.748056161469111
 10
12.09802074086732
 20
2.767700523732479
 10
12.11266567522709
 20
2.776643937858193
 10
12.12508105723696
 20
2.773524901390842
 10
12.13337673329225
 20
2.758818788686419
 10
12.13628977181135
 20
2.73476472441714
  0
LWPOLYLINE
  5
139
330
1F
100
AcDbEntity
  8
0
  6
Continuous
 62
     7
370
    15
100
AcDbPolyline
 90
       17
 70
   128
 43
0.0
 10
12.4863113178348
 20
3.397834256907605
 10
12.48339826220374
 20
3.368092740409246
 10
12.47510258614845
 20
3.337192959413481
 10
12.46268722125054
 20
3.309838352742393
 10
12.44804230400274
 20
3.290193973777221
 10
12.43339738675494
 20
3.28125057635331
 10
12.42098202185704
 20
3.284369629522465
 10
12.41268632868978
 20
3.299075725525085
 10
12.40977327305871
 20
3.323130778823908
 10
12.41268632868978
 20
3.352871289590919
 10
12.42098202185704
 20
3.383771087288488
 10
12.43339738675494
 20
3.411125693959576
 10
12.44804230400274
 20
3.430770072924747
 10
12.46268722125054
 20
3.439713470348658
 10
12.47510258614845
 20
3.436594417179503
 10
12.48339826220374
 20
3.42188830447508
 10
12.4863113178348
 20
3.397834256907605
  0
LWPOLYLINE
  5
13A
330
1F
100
AcDbEntity
  8
0
  6
Continuous
 62
     7
370
    15
100
AcDbPolyline
 90
       17
 70
   128
 43
0.0
 10
12.42797439920155
 20
2.48372790557007
 10
12.42506134357049
 20
2.453986891937386
 10
12.41676566751519
 20
2.423087110941621
 10
12.40435030261729
 20
2.395732504270533
 10
12.38970536825752
 20
2.376088611469231
 10
12.37506045100972
 20
2.367144711179647
 10
12.36264508611182
 20
2.370263764348802
 10
12.35434941005652
 20
2.384969877053225
 10
12.35143635442546
 20
2.409024427486373
 10
12.35434941005652
 20
2.438765441119058
 10
12.36264508611182
 20
2.469665222114823
 10
12.37506045100972
 20
2.49701982878591
 10
12.38970536825752
 20
2.516663704885409
 10
12.40435030261729
 20
2.525607621876797
 10
12.41676566751519
 20
2.522488568707642
 10
12.42506134357049
 20
2.507782456003219
 10
12.42797439920155
 20
2.48372790557007
  0
LWPOLYLINE
  5
13B
330
1F
100
AcDbEntity
  8
0
  6
Continuous
 62
     7
370
    15
100
AcDbPolyline
 90
       22
 70
   128
 43
0.0
 10
12.34583600133844
 20
4.69648095899982
 10
12.34260149741514
 20
4.653909372489628
 10
12.33318539823593
 20
4.60880732178872
 10
12.31842437629488
 20
4.565181604736094
 10
12.29962999538261
 20
4.526908140408091
 10
12.27847221231785
 20
4.497387950758263
 10
12.25683101619716
 20
4.479243450423952
 10
12.23662927870533
 20
4.47408892523609
 10
12.21966207936074
 20
4.482380040127922
 10
12.20743694819533
 20
4.503380610317519
 10
12.20104022129556
 20
4.535226266368875
 10
12.20104022129556
 20
4.575085411147375
 10
12.20743694819533
 20
4.61941686457719
 10
12.21966207936074
 20
4.664282646090478
 10
12.23662927870533
 20
4.705694774410026
 10
12.25683101619716
 20
4.739974273700646
 10
12.27847221231785
 20
4.764075720808349
 10
12.29962999538261
 20
4.775856820944574
 10
12.31842437629488
 20
4.774271140494077
 10
12.33318539823593
 20
4.759459843310483
 10
12.34260149741514
 20
4.732737589803766
 10
12.34583600133844
 20
4.69648095899982
  0
ARC
  5
13C
330
1F
100
AcDbEntity
  8
0
  6
Continuous
 62
     7
370
    15
100
AcDbCircle
 10
10.01912439588078
 20
1.030361464432263
 30
0.0
 40
1.962253551469488
100
AcDbArc
 50
350.616016898606
 51
359.6777093355742
  0
LINE
  5
13D
330
1F
100
AcDbEntity
  8
0
  6
Continuous
 62
     7
370
    15
100
AcDbLine
 10
11.98134690360082
 20
1.394215672620386
 30
0.0
 11
11.98134690360082
 21
1.019323781182108
 31
0.0
  0
LWPOLYLINE
  5
13E
330
1F
100
AcDbEntity
  8
0
  6
Continuous
 62
     7
370
    15
100
AcDbPolyline
 90
        9
 70
   128
 43
0.0
 10
11.98134690360082
 20
1.501361764630625
 10
11.9925091762979
 20
1.508178244362686
 10
12.00197209381768
 20
1.505801162087361
 10
12.00829503391755
 20
1.494592502041104
 10
12.01051534580548
 20
1.476257760984348
 10
12.00829503391755
 20
1.453589337854412
 10
12.00197209381768
 20
1.430037911055833
 10
11.9925091762979
 20
1.409188633583616
 10
11.98134690360082
 20
1.394215672620386
  0
LINE
  5
13F
330
1F
100
AcDbEntity
  8
0
  6
Continuous
 62
     7
370
    15
100
AcDbLine
 10
11.98134690360082
 20
4.705024434500932
 30
0.0
 11
11.98134690360082
 21
1.501361764630625
 31
0.0
  0
LINE
  5
140
330
1F
100
AcDbEntity
  8
0
  6
Continuous
 62
     7
370
    15
100
AcDbLine
 10
11.99623451987064
 20
4.719555204381258
 30
0.0
 11
11.98134690360082
 21
4.705024434500932
 31
0.0
  0
LINE
  5
141
330
1F
100
AcDbEntity
  8
0
  6
Continuous
 62
     7
370
    15
100
AcDbLine
 10
12.08957355545991
 20
5.019119929685066
 30
0.0
 11
11.99623451987064
 21
4.719555204381258
 31
0.0
  0
LINE
  5
142
330
1F
100
AcDbEntity
  8
0
  6
Continuous
 62
     7
370
    15
100
AcDbLine
 10
12.45648948941015
 20
5.37724112954843
 30
0.0
 11
12.08957355545991
 21
5.019119929685066
 31
0.0
  0
LINE
  5
143
330
1F
100
AcDbEntity
  8
0
  6
Continuous
 62
     7
370
    15
100
AcDbLine
 10
12.54982856777934
 20
5.259879966350217
 30
0.0
 11
12.45648948941015
 21
5.37724112954843
 31
0.0
  0
LINE
  5
144
330
1F
100
AcDbEntity
  8
0
  6
Continuous
 62
     7
370
    15
100
AcDbLine
 10
12.56471614554724
 20
5.274410698651484
 30
0.0
 11
12.54982856777934
 21
5.259879966350217
 31
0.0
  0
LINE
  5
145
330
1F
100
AcDbEntity
  8
0
  6
Continuous
 62
     7
370
    15
100
AcDbLine
 10
12.56471614554724
 20
5.274410698651484
 30
0.0
 11
12.56471614554724
 21
2.070748028781177
 31
0.0
  0
LWPOLYLINE
  5
146
330
1F
100
AcDbEntity
  8
0
  6
Continuous
 62
     7
370
    15
100
AcDbPolyline
 90
        9
 70
   128
 43
0.0
 10
12.56471614554724
 20
1.963601936770937
 10
12.55355386001618
 20
1.956785444512523
 10
12.54409092538444
 20
1.959162510086043
 10
12.53776800239653
 20
1.970371186834105
 10
12.53554768195262
 20
1.988705416674284
 10
12.53776800239653
 20
2.011374351020798
 10
12.54409092538444
 20
2.034925761117571
 10
12.55355386001618
 20
2.055775055291594
 10
12.56471614554724
 20
2.070748028781177
  0
LINE
  5
147
330
1F
100
AcDbEntity
  8
0
  6
Continuous
 62
     7
370
    15
100
AcDbLine
 10
12.56471614554724
 20
1.963601936770937
 30
0.0
 11
12.56471614554724
 21
1.588710045332659
 31
0.0
  0
ARC
  5
148
330
1F
100
AcDbEntity
  8
0
  6
Continuous
 62
     7
370
    15
100
AcDbCircle
 10
10.41301829541028
 20
1.613880621677758
 30
0.0
 40
2.151845067888848
100
AcDbArc
 50
345.3923743782722
 51
359.3297841450672
  0
LINE
  5
149
330
1F
100
AcDbEntity
  8
0
  6
Continuous
 62
     7
370
    15
100
AcDbLine
 10
12.23356038439461
 20
0.0357937058144693
 30
0.0
 11
12.49530629151643
 21
1.071189275266398
 31
0.0
  0
LINE
  5
14A
330
1F
100
AcDbEntity
  8
0
  6
Continuous
 62
     7
370
    15
100
AcDbLine
 10
12.08957355545991
 20
5.019119929685066
 30
0.0
 11
12.04358660848822
 21
5.031618196490895
 31
0.0
  0
LINE
  5
14B
330
1F
100
AcDbEntity
  8
0
  6
Continuous
 62
     7
370
    15
100
AcDbLine
 10
11.99623451987064
 20
4.719555204381258
 30
0.0
 11
11.95024757289894
 21
4.732053471187087
 31
0.0
  0
LINE
  5
14C
330
1F
100
AcDbEntity
  8
0
  6
Continuous
 62
     7
370
    15
100
AcDbLine
 10
12.04358660848822
 20
5.031618196490895
 30
0.0
 11
11.95024757289894
 21
4.732053471187087
 31
0.0
  0
LINE
  5
14D
330
1F
100
AcDbEntity
  8
0
  6
Continuous
 62
     7
370
    15
100
AcDbLine
 10
11.98134690360082
 20
1.501361764630625
 30
0.0
 11
11.93535995662912
 21
1.513860031436454
 31
0.0
  0
LINE
  5
14E
330
1F
100
AcDbEntity
  8
0
  6
Continuous
 62
     7
370
    15
100
AcDbLine
 10
11.98134690360082
 20
4.705024434500932
 30
0.0
 11
11.93535995662912
 21
4.717522701306761
 31
0.0
  0
LINE
  5
14F
330
1F
100
AcDbEntity
  8
0
  6
Continuous
 62
     7
370
    15
100
AcDbLine
 10
11.93535995662912
 20
4.717522701306761
 30
0.0
 11
11.93535995662912
 21
1.513860031436454
 31
0.0
  0
LINE
  5
150
330
1F
100
AcDbEntity
  8
0
  6
Continuous
 62
     7
370
    15
100
AcDbLine
 10
11.95024757289894
 20
4.732053471187087
 30
0.0
 11
11.93535995662912
 21
4.717522701306761
 31
0.0
  0
LINE
  5
151
330
1F
100
AcDbEntity
  8
0
  6
Continuous
 62
     7
370
    15
100
AcDbLine
 10
12.45648948941015
 20
5.37724112954843
 30
0.0
 11
12.41050254243845
 21
5.389739396354259
 31
0.0
  0
LINE
  5
152
330
1F
100
AcDbEntity
  8
0
  6
Continuous
 62
     7
370
    15
100
AcDbLine
 10
12.41050254243845
 20
5.389739396354259
 30
0.0
 11
12.04358660848822
 21
5.031618196490895
 31
0.0
  0
ARC
  5
153
330
1F
100
AcDbEntity
  8
0
  6
Continuous
 62
     7
370
    15
100
AcDbCircle
 10
11.91844073882535
 20
4.460553302922498
 30
0.0
 40
0.1717750295446324
100
AcDbArc
 50
325.6439349823324
 51
3.946933595884753
  0
ARC
  5
154
330
1F
100
AcDbEntity
  8
0
  6
Continuous
 62
     7
370
    15
100
AcDbCircle
 10
12.02092830855256
 20
4.695938545511205
 30
0.0
 40
0.2792254318433136
100
AcDbArc
 50
313.2436176191009
 51
2.676861577903421
  0
LWPOLYLINE
  5
155
330
1F
100
AcDbEntity
  8
0
  6
Continuous
 62
     7
370
    15
100
AcDbPolyline
 90
        3
 70
   128
 43
0.0
 10
12.28785274441846
 20
4.77080249556853
 10
12.29661455044344
 20
4.745235856609595
 10
12.29984905436675
 20
4.708979225805648
  0
ARC
  5
156
330
1F
100
AcDbEntity
  8
0
  6
Continuous
 62
     7
370
    15
100
AcDbCircle
 10
12.26846255106085
 20
5.123622734284401
 30
0.0
 40
0.1717747527039255
100
AcDbArc
 50
325.64391271901
 51
3.946968194687507
  0
LINE
  5
157
330
1F
100
AcDbEntity
  8
0
  6
Continuous
 62
     7
370
    15
100
AcDbLine
 10
12.56471614554724
 20
5.274410698651484
 30
0.0
 11
12.53098242246401
 21
5.283578801759253
 31
0.0
  0
ARC
  5
158
330
1F
100
AcDbEntity
  8
0
  6
Continuous
 62
     7
370
    15
100
AcDbCircle
 10
11.97676852099482
 20
3.660326785978263
 30
0.0
 40
0.1717840351373337
100
AcDbArc
 50
325.6449408720954
 51
3.946195882339644
  0
ARC
  5
159
330
1F
100
AcDbEntity
  8
0
  6
Continuous
 62
     7
370
    15
100
AcDbCircle
 10
12.21011649595374
 20
4.209518975368705
 30
0.0
 40
0.1717837583051704
100
AcDbArc
 50
325.6449186127757
 51
3.946230477084382
  0
ARC
  5
15A
330
1F
100
AcDbEntity
  8
0
  6
Continuous
 62
     7
370
    15
100
AcDbCircle
 10
11.91844073882536
 20
2.746218847952712
 30
0.0
 40
0.1717750295446238
100
AcDbArc
 50
325.6439349823314
 51
3.946933595885695
  0
ARC
  5
15B
330
1F
100
AcDbEntity
  8
0
  6
Continuous
 62
     7
370
    15
100
AcDbCircle
 10
12.26846255106087
 20
3.409288279314613
 30
0.0
 40
0.1717747527039063
100
AcDbArc
 50
325.6439127190078
 51
3.946968194689581
  0
LWPOLYLINE
  5
15C
330
1F
100
AcDbEntity
  8
0
  6
Continuous
 62
     7
370
    15
100
AcDbPolyline
 90
       17
 70
   128
 43
0.0
 10
12.85236785132653
 20
-5.156902105597573
 10
12.85788844339011
 20
-5.18530051769423
 10
12.87361175371855
 20
-5.212376723381808
 10
12.8971386077158
 20
-5.234007270949627
 10
12.9248909975933
 20
-5.246900140910758
 10
12.95264338747079
 20
-5.249092280763466
 10
12.97617439228915
 20
-5.240251050893787
 10
12.99189355179649
 20
-5.221720234776944
 10
12.99741414386006
 20
-5.196322579942091
 10
12.99189355179649
 20
-5.167924293561854
 10
12.97617439228915
 20
-5.140849215978508
 10
12.95264338747079
 20
-5.119217540306456
 10
12.9248909975933
 20
-5.106324670345324
 10
12.8971386077158
 20
-5.104132530492616
 10
12.87361175371855
 20
-5.112974888466529
 10
12.85788844339011
 20
-5.13150457647914
 10
12.85236785132653
 20
-5.156902105597573
  0
LWPOLYLINE
  5
15D
330
1F
100
AcDbEntity
  8
0
  6
Continuous
 62
     7
370
    15
100
AcDbPolyline
 90
       17
 70
   128
 43
0.0
 10
12.18905418701401
 20
-5.298065437895044
 10
12.19457477907759
 20
-5.326463787133491
 10
12.21029808940603
 20
-5.353539992821067
 10
12.23382494340328
 20
-5.375170540388887
 10
12.26157733328078
 20
-5.388063410350017
 10
12.28932972315828
 20
-5.390255550202725
 10
12.31286072797663
 20
-5.381414320333046
 10
12.32857988748397
 20
-5.362883504216202
 10
12.33410047954755
 20
-5.337485912239559
 10
12.32857988748397
 20
-5.309087563001112
 10
12.31286072797663
 20
-5.28201248541777
 10
12.28932972315828
 20
-5.260380809745716
 10
12.26157733328078
 20
-5.247487939784585
 10
12.23382494340328
 20
-5.245295799931877
 10
12.21029808940603
 20
-5.254138157905789
 10
12.19457477907759
 20
-5.272667845918401
 10
12.18905418701401
 20
-5.298065437895044
  0
LWPOLYLINE
  5
15E
330
1F
100
AcDbEntity
  8
0
  6
Continuous
 62
     7
370
    15
100
AcDbPolyline
 90
       17
 70
   128
 43
0.0
 10
12.74181903295869
 20
-4.269690078054948
 10
12.74733962502227
 20
-4.298088364435186
 10
12.76305878452961
 20
-4.325163442018528
 10
12.78658563852687
 20
-4.346793989586347
 10
12.81433802840436
 20
-4.359686859547481
 10
12.84209456910296
 20
-4.361880127504422
 10
12.86562142310021
 20
-4.35303776953051
 10
12.88134058260755
 20
-4.334506953413665
 10
12.88686117467113
 20
-4.30910942429523
 10
12.88134058260755
 20
-4.280711012198575
 10
12.86562142310021
 20
-4.253635934615231
 10
12.84209456910296
 20
-4.232005387047412
 10
12.81433802840436
 20
-4.219111514698465
 10
12.78658563852687
 20
-4.216919249129338
 10
12.76305878452961
 20
-4.22576160710325
 10
12.74733962502227
 20
-4.244292423220096
 10
12.74181903295869
 20
-4.269690078054948
  0
LWPOLYLINE
  5
15F
330
1F
100
AcDbEntity
  8
0
  6
Continuous
 62
     7
370
    15
100
AcDbPolyline
 90
       17
 70
   128
 43
0.0
 10
12.29960715620295
 20
-4.4709440128557
 10
12.30512774826653
 20
-4.499342424952355
 10
12.32085105859497
 20
-4.526418630639931
 10
12.34437791259222
 20
-4.548049178207751
 10
12.37213030246972
 20
-4.560942048168884
 10
12.39988269234721
 20
-4.563134188021592
 10
12.42341369716557
 20
-4.554292958151913
 10
12.43913285667291
 20
-4.535762142035069
 10
12.44465344873649
 20
-4.510364487200217
 10
12.43913285667291
 20
-4.481966200819979
 10
12.42341369716557
 20
-4.454891123236635
 10
12.39988269234721
 20
-4.433259447564583
 10
12.37213030246972
 20
-4.420366577603451
 10
12.34437791259222
 20
-4.418174437750741
 10
12.32085105859497
 20
-4.427016795724656
 10
12.30512774826653
 20
-4.445546483737265
 10
12.29960715620295
 20
-4.4709440128557
  0
LWPOLYLINE
  5
160
330
1F
100
AcDbEntity
  8
0
  6
Continuous
 62
     7
370
    15
100
AcDbPolyline
 90
       17
 70
   128
 43
0.0
 10
12.85236785132653
 20
-3.442567524911372
 10
12.85788844339011
 20
-3.470965937008026
 10
12.87361175371855
 20
-3.498042142695605
 10
12.8971386077158
 20
-3.519672564547005
 10
12.9248909975933
 20
-3.532565560224554
 10
12.95264338747079
 20
-3.534757574360845
 10
12.97617439228915
 20
-3.525916470207584
 10
12.99189355179649
 20
-3.50738565409074
 10
12.99741414386006
 20
-3.481987999255888
 10
12.99189355179649
 20
-3.453589587159233
 10
12.97617439228915
 20
-3.426514509575887
 10
12.95264338747079
 20
-3.404882959620254
 10
12.9248909975933
 20
-3.391989963942704
 10
12.8971386077158
 20
-3.389797949806415
 10
12.87361175371855
 20
-3.398640182063908
 10
12.85788844339011
 20
-3.41716987007652
 10
12.85236785132653
 20
-3.442567524911372
  0
LWPOLYLINE
  5
161
330
1F
100
AcDbEntity
  8
0
  6
Continuous
 62
     7
370
    15
100
AcDbPolyline
 90
       17
 70
   128
 43
0.0
 10
12.18905418701401
 20
-3.583730857208841
 10
12.19457477907759
 20
-3.612129269305495
 10
12.21029808940603
 20
-3.639205474993072
 10
12.23382494340328
 20
-3.660835896844474
 10
12.26157733328078
 20
-3.673728892522022
 10
12.28932972315828
 20
-3.675920906658313
 10
12.31286072797663
 20
-3.667079802505053
 10
12.32857988748397
 20
-3.648548986388209
 10
12.33410047954755
 20
-3.623151331553357
 10
12.32857988748397
 20
-3.5947529194567
 10
12.31286072797663
 20
-3.567677841873356
 10
12.28932972315828
 20
-3.546046291917723
 10
12.26157733328078
 20
-3.533153296240173
 10
12.23382494340328
 20
-3.530961282103882
 10
12.21029808940603
 20
-3.539803514361377
 10
12.19457477907759
 20
-3.558333202373988
 10
12.18905418701401
 20
-3.583730857208841
  0
LWPOLYLINE
  5
162
330
1F
100
AcDbEntity
  8
0
  6
Continuous
 62
     7
370
    15
100
AcDbPolyline
 90
       17
 70
   128
 43
0.0
 10
12.29960715620295
 20
-2.756609557885916
 10
12.30512774826653
 20
-2.785007718549735
 10
12.32085105859497
 20
-2.812083924237311
 10
12.34437791259222
 20
-2.83371459752155
 10
12.37213030246972
 20
-2.846607341766264
 10
12.39988269234721
 20
-2.848799607335391
 10
12.42341369716557
 20
-2.839958251749293
 10
12.43913285667291
 20
-2.821427435632448
 10
12.44465344873649
 20
-2.796030032230432
 10
12.43913285667291
 20
-2.767631620133777
 10
12.42341369716557
 20
-2.740556542550433
 10
12.39988269234721
 20
-2.718924741161962
 10
12.37213030246972
 20
-2.706031996917248
 10
12.34437791259222
 20
-2.703839731348121
 10
12.32085105859497
 20
-2.712682215038455
 10
12.30512774826653
 20
-2.731211903051064
 10
12.29960715620295
 20
-2.756609557885916
  0
LWPOLYLINE
  5
163
330
1F
100
AcDbEntity
  8
0
  6
Continuous
 62
     7
370
    15
100
AcDbPolyline
 90
       22
 70
   128
 43
0.0
 10
12.45526709829029
 20
-5.091836991136451
 10
12.46139371023453
 20
-5.132916181642551
 10
12.47923809014529
 20
-5.17367792813088
 10
12.50721462436221
 20
-5.210500297791998
 10
12.54282866940393
 20
-5.240109067365121
 10
12.58292560123411
 20
-5.259876099020045
 10
12.6239357137064
 20
-5.268043044030064
 10
12.66221873671569
 20
-5.26388531375949
 10
12.69437514778074
 20
-5.247772864219903
 10
12.71754088034226
 20
-5.221135512380658
 10
12.72966542877663
 20
-5.186342275823305
 10
12.72966542877663
 20
-5.146483005328387
 10
12.71754088034226
 20
-5.105099258120985
 10
12.69437514778074
 20
-5.065870006824508
 10
12.66221873671569
 20
-5.03227883600346
 10
12.6239357137064
 20
-5.007312095036947
 10
12.58292560123411
 20
-4.993187700387864
 10
12.54282866940393
 20
-4.991159758246544
 10
12.50721462436221
 20
-5.001410196310131
 10
12.47923809014529
 20
-5.023025783758372
 10
12.46139371023453
 20
-5.05408796432841
 10
12.45526709829029
 20
-5.091836991136451
  0
LWPOLYLINE
  5
164
330
1F
100
AcDbEntity
  8
0
  6
Continuous
 62
     7
370
    15
100
AcDbPolyline
 90
        9
 70
   128
 43
0.0
 10
11.95090497719776
 20
0.4886071325103215
 10
11.95074724599594
 20
0.4888974103827778
 10
11.95058951479413
 20
0.4891876882552352
 10
11.95043593441341
 20
0.4894768380234598
 10
11.9502782032116
 20
0.4897676187615907
 10
11.95012047200978
 20
0.4900578966340471
 10
11.94996274080796
 20
0.4903486773721779
 10
11.94980500960615
 20
0.4906389552446364
 10
11.94965142922543
 20
0.4909286078785332
  0
LINE
  5
165
330
1F
100
AcDbEntity
  8
0
  6
Continuous
 62
     7
370
    15
100
AcDbLine
 10
11.95090497719776
 20
0.4886071325103215
 30
0.0
 11
13.01446156611954
 21
-1.472720534831086
 31
0.0
  0
ARC
  5
166
330
1F
100
AcDbEntity
  8
0
  6
Continuous
 62
     7
370
    15
100
AcDbCircle
 10
12.11679161966603
 20
-1.976491550317424
 30
0.0
 40
1.029367071947607
100
AcDbArc
 50
1.015752502989888
 51
29.30107446609376
  0
LINE
  5
167
330
1F
100
AcDbEntity
  8
0
  6
Continuous
 62
     7
370
    15
100
AcDbLine
 10
13.14599693597117
 20
-5.643858695007303
 30
0.0
 11
13.14599693597117
 21
-1.958243654569464
 31
0.0
  0
LINE
  5
168
330
1F
100
AcDbEntity
  8
0
  6
Continuous
 62
     7
370
    15
100
AcDbLine
 10
13.14599693597117
 20
-5.643858695007303
 30
0.0
 11
13.11778380495153
 21
-5.636190970530435
 31
0.0
  0
LINE
  5
169
330
1F
100
AcDbEntity
  8
0
  6
Continuous
 62
     7
370
    15
100
AcDbLine
 10
13.11778380495153
 20
-5.636190970530435
 30
0.0
 11
12.94090071457767
 21
-5.722521799720461
 31
0.0
  0
LINE
  5
16A
330
1F
100
AcDbEntity
  8
0
  6
Continuous
 62
     7
370
    15
100
AcDbLine
 10
12.94090071457767
 20
-5.722521799720461
 30
0.0
 11
12.24557176711751
 21
-5.533546290897892
 31
0.0
  0
LINE
  5
16B
330
1F
100
AcDbEntity
  8
0
  6
Continuous
 62
     7
370
    15
100
AcDbLine
 10
12.24557176711751
 20
-5.533546290897892
 30
0.0
 11
12.06868867674365
 21
-5.351069394072956
 31
0.0
  0
LINE
  5
16C
330
1F
100
AcDbEntity
  8
0
  6
Continuous
 62
     7
370
    15
100
AcDbLine
 10
12.06868867674365
 20
-5.351069394072956
 30
0.0
 11
12.04047554572401
 21
-5.343401669596087
 31
0.0
  0
LINE
  5
16D
330
1F
100
AcDbEntity
  8
0
  6
Continuous
 62
     7
370
    15
100
AcDbLine
 10
12.04047554572401
 20
-5.343401669596087
 30
0.0
 11
12.04047554572401
 21
-1.657786629158249
 31
0.0
  0
ARC
  5
16E
330
1F
100
AcDbEntity
  8
0
  6
Continuous
 62
     7
370
    15
100
AcDbCircle
 10
11.04420106864986
 20
-1.670535864554326
 30
0.0
 40
0.9963560491473664
100
AcDbArc
 50
0.7331689473037982
 51
24.66519556550192
  0
LINE
  5
16F
330
1F
100
AcDbEntity
  8
0
  6
Continuous
 62
     7
370
    15
100
AcDbLine
 10
11.94965142922543
 20
-1.254741418696612
 30
0.0
 11
11.94965142922543
 21
0.4909286078785332
 31
0.0
  0
LINE
  5
170
330
1F
100
AcDbEntity
  8
0
  6
Continuous
 62
     7
370
    15
100
AcDbLine
 10
11.9751730997563
 20
0.5122935641011482
 30
0.0
 11
11.95090497719776
 21
0.4886071325103215
 31
0.0
  0
LINE
  5
171
330
1F
100
AcDbEntity
  8
0
  6
Continuous
 62
     7
370
    15
100
AcDbLine
 10
13.01446156611954
 20
-1.472720534831086
 30
0.0
 11
13.03872968867809
 21
-1.449034103240258
 31
0.0
  0
LINE
  5
172
330
1F
100
AcDbEntity
  8
0
  6
Continuous
 62
     7
370
    15
100
AcDbLine
 10
11.9751730997563
 20
0.5122935641011482
 30
0.0
 11
13.03872968867809
 21
-1.449034103240258
 31
0.0
  0
LINE
  5
173
330
1F
100
AcDbEntity
  8
0
  6
Continuous
 62
     7
370
    15
100
AcDbLine
 10
11.93535995662912
 20
1.406713939426214
 30
0.0
 11
11.98134690360082
 21
1.394215672620386
 31
0.0
  0
ARC
  5
174
330
1F
100
AcDbEntity
  8
0
  6
Continuous
 62
     7
370
    15
100
AcDbCircle
 10
11.84394478535313
 20
1.48513160596611
 30
0.0
 40
0.1204411224000312
100
AcDbArc
 50
319.3763818094585
 51
10.21466042552175
  0
LINE
  5
175
330
1F
100
AcDbEntity
  8
0
  6
Continuous
 62
     7
370
    15
100
AcDbLine
 10
11.93535995662912
 20
1.031822047987936
 30
0.0
 11
11.98134690360082
 21
1.019323781182108
 31
0.0
  0
LINE
  5
176
330
1F
100
AcDbEntity
  8
0
  6
Continuous
 62
     7
370
    15
100
AcDbLine
 10
11.93535995662912
 20
1.406713939426214
 30
0.0
 11
11.93535995662912
 21
1.031822047987936
 31
0.0
  0
ARC
  5
177
330
1F
100
AcDbEntity
  8
0
  6
Continuous
 62
     7
370
    15
100
AcDbCircle
 10
12.21011987180328
 20
2.495183548257714
 30
0.0
 40
0.1717804227566184
100
AcDbArc
 50
325.644550883342
 51
3.946464119014305
  0
LINE
  5
178
330
1F
100
AcDbEntity
  8
0
  6
Continuous
 62
     7
370
    15
100
AcDbLine
 10
11.95511863949425
 20
0.7104157050446288
 30
0.0
 11
11.90913169252255
 21
0.7229139718504577
 31
0.0
  0
ARC
  5
179
330
1F
100
AcDbEntity
  8
0
  6
Continuous
 62
     7
370
    15
100
AcDbCircle
 10
9.973137448909087
 20
1.042859731238092
 30
0.0
 40
1.962253551469488
100
AcDbArc
 50
350.616016898606
 51
359.6777093355742
  0
SPLINE
  5
17A
330
1F
100
AcDbEntity
  8
0
  6
Continuous
 62
     7
370
    15
100
AcDbSpline
210
0.0
220
0.0
230
1.0
 70
     8
 71
     3
 72
    11
 73
     7
 74
     0
 42
0.0000000001
 43
0.0000000001
 40
0.0
 40
0.0
 40
0.0
 40
0.0
 40
0.2205036181228126
 40
0.4862425740360933
 40
0.6833346084817875
 40
1.0
 40
1.0
 40
1.0
 40
1.0
 10
11.90913169252255
 20
0.7229139718504577
 30
0.0
 10
11.90516082745286
 20
0.7053373992927258
 30
0.0
 10
11.89640449198285
 20
0.6665784983914059
 30
0.0
 10
11.89775608491399
 20
0.61033604885371
 30
0.0
 10
11.91153953301267
 20
0.5479851052301307
 30
0.0
 10
11.93511820797761
 20
0.512685979776482
 30
0.0
 10
11.94965142922543
 20
0.4909286078785332
 30
0.0
  0
SPLINE
  5
17B
330
1F
100
AcDbEntity
  8
0
  6
Continuous
 62
     7
370
    15
100
AcDbSpline
210
0.0
220
0.0
230
1.0
 70
     8
 71
     3
 72
     9
 73
     5
 74
     0
 42
0.0000000001
 43
0.0000000001
 40
0.0
 40
0.0
 40
0.0
 40
0.0
 40
0.5000196386614607
 40
1.0
 40
1.0
 40
1.0
 40
1.0
 10
11.94965142922543
 20
-1.254741418696612
 30
0.0
 10
11.93879979861094
 20
-1.239101891594565
 30
0.0
 10
11.91709738979444
 20
-1.207824065899727
 30
0.0
 10
11.90704150671947
 20
-1.171611106602893
 30
0.0
 10
11.90201376266606
 20
-1.153505338128522
 30
0.0
  0
LINE
  5
17C
330
1F
100
AcDbEntity
  8
0
  6
Continuous
 62
     7
370
    15
100
AcDbLine
 10
11.90201383111393
 20
-1.153504768455633
 30
0.0
 11
11.89928053589678
 21
-1.115520509420726
 31
0.0
  0
SPLINE
  5
17D
330
1F
100
AcDbEntity
  8
0
  6
Continuous
 62
     7
370
    15
100
AcDbSpline
210
0.0
220
0.0
230
1.0
 70
     8
 71
     3
 72
     9
 73
     5
 74
     0
 42
0.0000000001
 43
0.0000000001
 40
0.0
 40
0.0
 40
0.0
 40
0.0
 40
0.5018283576621779
 40
1.0
 40
1.0
 40
1.0
 40
1.0
 10
11.95511863949425
 20
0.7104157050446288
 30
0.0
 10
11.9514798066656
 20
0.6770442447933878
 30
0.0
 10
11.94422865640062
 20
0.6105444949452436
 30
0.0
 10
11.96404674302321
 20
0.5465134768930047
 30
0.0
 10
11.97391955178397
 20
0.5146150394693599
 30
0.0
  0
LINE
  5
17E
330
1F
100
AcDbEntity
  8
0
  6
Continuous
 62
     7
370
    15
100
AcDbLine
 10
11.97391955178397
 20
0.5146150394693599
 30
0.0
 11
11.94965142922543
 21
0.4909286078785332
 31
0.0
  0
LWPOLYLINE
  5
17F
330
1F
100
AcDbEntity
  8
0
  6
Continuous
 62
     7
370
    15
100
AcDbPolyline
 90
        9
 70
   128
 43
0.0
 10
11.97391955178397
 20
0.5146150394693599
 10
11.97407313216469
 20
0.5143253868354631
 10
11.9742308633665
 20
0.5140351089630046
 10
11.97438859456832
 20
0.5137443282248736
 10
11.97454632577014
 20
0.5134540503524173
 10
11.97470405697195
 20
0.5131632696142864
 10
11.97485763735267
 20
0.512874119846062
 10
11.97501536855448
 20
0.5125838419736044
 10
11.9751730997563
 20
0.5122935641011482
  0
LINE
  5
180
330
1F
100
AcDbEntity
  8
0
  6
Continuous
 62
     7
370
    15
100
AcDbLine
 10
13.17026505852971
 20
-1.934557222978637
 30
0.0
 11
13.14599693597117
 21
-1.958243654569464
 31
0.0
  0
ARC
  5
181
330
1F
100
AcDbEntity
  8
0
  6
Continuous
 62
     7
370
    15
100
AcDbCircle
 10
12.1410597422246
 20
-1.95280511872659
 30
0.0
 40
1.029367071947582
100
AcDbArc
 50
1.015752502989554
 51
29.30107446609413
  0
LINE
  5
182
330
1F
100
AcDbEntity
  8
0
  6
Continuous
 62
     7
370
    15
100
AcDbLine
 10
12.56471614554724
 20
1.963601936770937
 30
0.0
 11
12.5375988312981
 21
1.970971841730092
 31
0.0
  0
LINE
  5
183
330
1F
100
AcDbEntity
  8
0
  6
Continuous
 62
     7
370
    15
100
AcDbLine
 10
13.17026505852971
 20
-5.620172263416474
 30
0.0
 11
13.14599693597117
 21
-5.643858695007303
 31
0.0
  0
LINE
  5
184
330
1F
100
AcDbEntity
  8
0
  6
Continuous
 62
     7
370
    15
100
AcDbLine
 10
13.17026505852971
 20
-5.620172263416474
 30
0.0
 11
13.17026505852971
 21
-1.934557222978637
 31
0.0
  0
ARC
  5
185
330
1F
100
AcDbEntity
  8
0
  6
Continuous
 62
     7
370
    15
100
AcDbCircle
 10
12.4136632309765
 20
-2.735780932438972
 30
0.0
 40
0.0889473112425261
100
AcDbArc
 50
161.813404514426
 51
286.7972364523277
  0
ARC
  5
186
330
1F
100
AcDbEntity
  8
0
  6
Continuous
 62
     7
370
    15
100
AcDbCircle
 10
12.96642257316283
 20
-3.421743665537038
 30
0.0
 40
0.0889431395414189
100
AcDbArc
 50
161.8102253652982
 51
286.7989580598544
  0
ARC
  5
187
330
1F
100
AcDbEntity
  8
0
  6
Continuous
 62
     7
370
    15
100
AcDbCircle
 10
12.30310892944232
 20
-3.5629069159094
 30
0.0
 40
0.0889432120189764
100
AcDbArc
 50
161.8101257687192
 51
286.7989301082204
  0
ARC
  5
188
330
1F
100
AcDbEntity
  8
0
  6
Continuous
 62
     7
370
    15
100
AcDbCircle
 10
12.85586899486654
 20
-4.248865654160508
 30
0.0
 40
0.0889427760522978
100
AcDbArc
 50
161.8096810292924
 51
286.7994386217163
  0
ARC
  5
189
330
1F
100
AcDbEntity
  8
0
  6
Continuous
 62
     7
370
    15
100
AcDbCircle
 10
12.41366320910277
 20
-4.450115534474821
 30
0.0
 40
0.0889472971249946
100
AcDbArc
 50
161.8133870512782
 51
286.7972539154741
  0
ARC
  5
18A
330
1F
100
AcDbEntity
  8
0
  6
Continuous
 62
     7
370
    15
100
AcDbCircle
 10
12.96642261562199
 20
-5.136078268671912
 30
0.0
 40
0.0889432261309069
100
AcDbArc
 50
161.8101432275764
 51
286.7989126493615
  0
LWPOLYLINE
  5
18B
330
1F
100
AcDbEntity
  8
0
  6
Continuous
 62
     7
370
    15
100
AcDbPolyline
 90
        9
 70
   128
 43
0.0
 10
12.47953522084883
 20
-5.068150559545625
 10
12.48566183279308
 20
-5.109229750051724
 10
12.50350621270383
 20
-5.149991496540053
 10
12.53148274692076
 20
-5.186813866201171
 10
12.56709679196247
 20
-5.216422635774293
 10
12.60719372379266
 20
-5.236189667429218
 10
12.64820383626494
 20
-5.244356612439236
 10
12.68648685927423
 20
-5.240198882168664
 10
12.71320569469772
 20
-5.227975638562511
  0
LWPOLYLINE
  5
18C
330
1F
100
AcDbEntity
  8
0
  6
Continuous
 62
     7
370
    15
100
AcDbPolyline
 90
        3
 70
   128
 43
0.0
 10
12.49753318114031
 20
-5.007005699202536
 10
12.48566183279308
 20
-5.030401532737585
 10
12.47953522084883
 20
-5.068150559545625
  0
ARC
  5
18D
330
1F
100
AcDbEntity
  8
0
  6
Continuous
 62
     7
370
    15
100
AcDbCircle
 10
12.30310894616146
 20
-5.277241558592461
 30
0.0
 40
0.0889432080115026
100
AcDbArc
 50
161.8101681266967
 51
286.7989196372698
  0
LWPOLYLINE
  5
18E
330
1F
100
AcDbEntity
  8
0
  6
Continuous
 62
     7
370
    15
100
AcDbPolyline
 90
       17
 70
   128
 43
0.0
 10
10.94841417315782
 20
9.761216037703464
 10
10.9680806804117
 20
9.780484178351279
 10
10.99579425530163
 20
9.793819012301408
 10
11.02733409566624
 20
9.799189310463422
 10
11.05790030888059
 20
9.795778075461022
 10
11.08284302624233
 20
9.784103172545346
 10
11.09835689387223
 20
9.765944684789429
 10
11.10208371340753
 20
9.744065025320685
 10
11.09345839028081
 20
9.721796127411066
 10
11.07379188302692
 20
9.702527986763247
 10
11.04608038354755
 20
9.689193594492348
 10
11.01454054318293
 20
9.683823296330336
 10
10.98397024759534
 20
9.687235726244184
 10
10.95903161260684
 20
9.69890943424841
 10
10.94351774497694
 20
9.717067922004327
 10
10.93978885003109
 20
9.738947139793843
 10
10.94841417315782
 20
9.761216037703464
  0
LWPOLYLINE
  5
18F
330
1F
100
AcDbEntity
  8
0
  6
Continuous
 62
     7
370
    15
100
AcDbPolyline
 90
       17
 70
   128
 43
0.0
 10
9.596034714489075
 20
7.77569844444087
 10
9.615701290190823
 20
7.794967657627251
 10
9.643414865080755
 20
7.808301485846032
 10
9.674954773893233
 20
7.81367185081526
 10
9.705520918659718
 20
7.810260549005644
 10
9.730463704469327
 20
7.798585712897185
 10
9.745977503651358
 20
7.780427158334052
 10
9.749704323186653
 20
7.758548504596654
 10
9.74107893161206
 20
7.736278534148471
 10
9.721412629701783
 20
7.717010593922304
 10
9.693701130222404
 20
7.703676201651405
 10
9.662161221409924
 20
7.698305836682174
 10
9.631590925822337
 20
7.701718266596024
 10
9.606652290833832
 20
7.713391974600249
 10
9.5911384916518
 20
7.731550529163384
 10
9.587409596705953
 20
7.753429746952899
 10
9.596034714489075
 20
7.77569844444087
  0
LWPOLYLINE
  5
190
330
1F
100
AcDbEntity
  8
0
  6
Continuous
 62
     7
370
    15
100
AcDbPolyline
 90
       17
 70
   128
 43
0.0
 10
8.243655461163932
 20
5.790182057331274
 10
8.263322036865677
 20
5.809450264786306
 10
8.291035337964142
 20
5.822783825776222
 10
8.322575246776624
 20
5.828154190745453
 10
8.353141391543109
 20
5.824742888935836
 10
8.378084177352718
 20
5.81306805282738
 10
8.393597976534744
 20
5.794909498264244
 10
8.397325069861507
 20
5.77303111175571
 10
8.388699678286918
 20
5.750762147038876
 10
8.36903310258517
 20
5.731493939583841
 10
8.341321603105795
 20
5.718158541581597
 10
8.309781694293311
 20
5.712788176612368
 10
8.279211398705722
 20
5.716200606526216
 10
8.254272763717219
 20
5.727874314530442
 10
8.238758964535191
 20
5.746032869093576
 10
8.23503006958934
 20
5.767913092614437
 10
8.243655461163932
 20
5.790182057331274
  0
LWPOLYLINE
  5
191
330
1F
100
AcDbEntity
  8
0
  6
Continuous
 62
     7
370
    15
100
AcDbPolyline
 90
       17
 70
   128
 43
0.0
 10
6.891275934047319
 20
3.804664397261465
 10
6.910942783540534
 20
3.823932871945362
 10
6.938656084638999
 20
3.837266432935278
 10
6.970195719660011
 20
3.842636530675644
 10
7.000762138217963
 20
3.839225496094893
 10
7.025704650236105
 20
3.82755039275757
 10
7.041218723209603
 20
3.809392105423298
 10
7.044945816536364
 20
3.787513718914766
 10
7.036320151170305
 20
3.765244486969066
 10
7.016653849260027
 20
3.745976546742898
 10
6.988942075989186
 20
3.732640881511787
 10
6.957402440968169
 20
3.727270783771423
 10
6.926831871589114
 20
3.730683952187756
 10
6.901893510392076
 20
3.742356921689497
 10
6.886379437418583
 20
3.760515209023767
 10
6.882650816264197
 20
3.782395699773494
 10
6.891275934047319
 20
3.804664397261465
  0
LWPOLYLINE
  5
192
330
1F
100
AcDbEntity
  8
0
  6
Continuous
 62
     7
370
    15
100
AcDbPolyline
 90
       17
 70
   128
 43
0.0
 10
11.07184317314467
 20
10.90420381650243
 10
11.09150968039855
 20
10.92347195715025
 10
11.11922322106455
 20
10.93680575196542
 10
11.1507630956531
 20
10.94217608353104
 10
11.18133135005407
 20
10.93876425107292
 10
11.20626995081864
 20
10.92709050966508
 10
11.22178585963515
 20
10.90893142445344
 10
11.22551271339439
 20
10.88705280411965
 10
11.21688739026766
 20
10.86478390621003
 10
11.19722088301378
 20
10.84551576556221
 10
11.16950941775834
 20
10.83218140669492
 10
11.13796746775924
 20
10.82681163918142
 10
11.10740128876882
 20
10.83022290758743
 10
11.0824606125937
 20
10.84189721304738
 10
11.06694677918773
 20
10.86005573420691
 10
11.06321785001795
 20
10.88193491859281
 10
11.07184317314467
 20
10.90420381650243
  0
LWPOLYLINE
  5
193
330
1F
100
AcDbEntity
  8
0
  6
Continuous
 62
     7
370
    15
100
AcDbPolyline
 90
       17
 70
   128
 43
0.0
 10
9.719463782923799
 20
8.918686290047054
 10
9.739130221729812
 20
8.937954363887659
 10
9.766843796619744
 20
8.951288192106439
 10
9.798383705432222
 20
8.956658557075666
 10
9.828951925609258
 20
8.953246691213935
 10
9.853890560597763
 20
8.941572983209709
 10
9.869406435190347
 20
8.923413864594458
 10
9.873133254725646
 20
8.90153521085706
 10
9.864508000046784
 20
8.879266379754657
 10
9.844841561240777
 20
8.859998305914055
 10
9.817130061761396
 20
8.846663913643158
 10
9.785588077538362
 20
8.841294112726044
 10
9.755021932771876
 20
8.844705414535662
 10
9.73008122237282
 20
8.856379686592003
 10
9.714567423190793
 20
8.874538241155137
 10
9.710838528244941
 20
8.896417458944652
 10
9.719463782923799
 20
8.918686290047054
  0
LWPOLYLINE
  5
194
330
1F
100
AcDbEntity
  8
0
  6
Continuous
 62
     7
370
    15
100
AcDbPolyline
 90
       17
 70
   128
 43
0.0
 10
8.367084392702921
 20
6.933168763591677
 10
8.386750968404669
 20
6.952436971046712
 10
8.414464543294597
 20
6.965770799265492
 10
8.44600445210708
 20
6.971141164234721
 10
8.476572672284117
 20
6.967729298372989
 10
8.501511307272622
 20
6.956055590368763
 10
8.5170271818652
 20
6.937896471753513
 10
8.520754001400504
 20
6.916017818016115
 10
8.512128609825907
 20
6.893748853299279
 10
8.492462034124168
 20
6.874480645844247
 10
8.464750534644783
 20
6.861146253573349
 10
8.433208824213215
 20
6.855776719885101
 10
8.402642405655267
 20
6.859187754465852
 10
8.377701969047674
 20
6.870862293751058
 10
8.36218789607418
 20
6.889020581085328
 10
8.358459001128332
 20
6.910899798874844
 10
8.367084392702921
 20
6.933168763591677
  0
LWPOLYLINE
  5
195
330
1F
100
AcDbEntity
  8
0
  6
Continuous
 62
     7
370
    15
100
AcDbPolyline
 90
       17
 70
   128
 43
0.0
 10
7.014705139377779
 20
4.947651370750734
 10
7.034371441288056
 20
4.966919310976904
 10
7.062085016177988
 20
4.980253139195684
 10
7.093624924990467
 20
4.985623504164915
 10
7.124193145167503
 20
4.982211638303181
 10
7.149131780156008
 20
4.970537930298957
 10
7.164647654748591
 20
4.952378811683704
 10
7.168374474283891
 20
4.930500157946307
 10
7.159749356500764
 20
4.908231460458337
 10
7.14008278079902
 20
4.888963253003302
 10
7.11237128131964
 20
4.875628860732403
 10
7.080829297096606
 20
4.870259059815293
 10
7.050263152330122
 20
4.873670361624908
 10
7.025322441931065
 20
4.885344633681251
 10
7.009808642749038
 20
4.903503188244384
 10
7.006079747803187
 20
4.925382406033899
 10
7.014705139377779
 20
4.947651370750734
  0
LWPOLYLINE
  5
196
330
1F
100
AcDbEntity
  8
0
  6
Continuous
 62
     7
370
    15
100
AcDbPolyline
 90
       17
 70
   128
 43
0.0
 10
6.952990262921085
 20
4.376157616777235
 10
6.972657112414295
 20
4.395426091461133
 10
7.000370413512761
 20
4.40875965245105
 10
7.031910596116706
 20
4.414130284649141
 10
7.062478542502276
 20
4.410718151558547
 10
7.087417451282247
 20
4.399044710783184
 10
7.102933052083363
 20
4.38088532493907
 10
7.106660145410129
 20
4.359006938430535
 10
7.098034480044071
 20
4.336737706484837
 10
7.078368178133793
 20
4.317469766258668
 10
7.050656952445875
 20
4.304135641216633
 10
7.019114694431379
 20
4.298765573070658
 10
6.98854882345636
 20
4.302177142109137
 10
6.963607839265837
 20
4.313851146936617
 10
6.948094313875272
 20
4.332009968728613
 10
6.944365145137958
 20
4.353888919289264
 10
6.952990262921085
 20
4.376157616777235
  0
LWPOLYLINE
  5
197
330
1F
100
AcDbEntity
  8
0
  6
Continuous
 62
     7
370
    15
100
AcDbPolyline
 90
       30
 70
   128
 43
0.0
 10
7.4253229620801
 20
5.424320096741443
 10
7.462067241517926
 20
5.467025785491514
 10
7.510018118463583
 20
5.504221829760071
 10
7.566931299045957
 20
5.534169109290967
 10
7.630145885990843
 20
5.555468354096024
 10
7.69670621255572
 20
5.567122914453126
 10
7.763500800308961
 20
5.568587595181726
 10
7.827405988290044
 20
5.55979486973233
 10
7.885433023463944
 20
5.541154703291459
 10
7.93487003703585
 20
5.513539025463825
 10
7.973403990039837
 20
5.478239763008458
 10
7.99923209993063
 20
5.436906975875604
 10
8.011147672721806
 20
5.391473527645424
 10
8.008596896302424
 20
5.344063506813689
 10
7.991693780779153
 20
5.296893766157246
 10
7.96123174234877
 20
5.252170451320992
 10
7.918635044213815
 20
5.211984681602873
 10
7.865892539047999
 20
5.178214691434419
 10
7.80547590334303
 20
5.152440593313092
 10
7.740206216334082
 20
5.135866577027434
 10
7.673134705109377
 20
5.129268275258532
 10
7.607398885607566
 20
5.132954105605038
 10
7.546073484651079
 20
5.146751715530572
 10
7.492024789421156
 20
5.170016328091942
 10
7.447780488125237
 20
5.201658657948995
 10
7.415410144582398
 20
5.240200454613535
 10
7.396426021275404
 20
5.283839547559745
 10
7.391716111800746
 20
5.330534662545044
 10
7.401500188727924
 20
5.378103625243027
 10
7.4253229620801
 20
5.424320096741443
  0
LINE
  5
198
330
1F
100
AcDbEntity
  8
0
  6
Continuous
 62
     7
370
    15
100
AcDbLine
 10
12.47192815175392
 20
11.3909146106657
 30
0.0
 11
7.183830406400443
 21
3.627109495131298
 31
0.0
  0
LINE
  5
199
330
1F
100
AcDbEntity
  8
0
  6
Continuous
 62
     7
370
    15
100
AcDbLine
 10
7.183830406400443
 20
3.627109495131298
 30
0.0
 11
6.850025877488769
 21
3.521742011249992
 31
0.0
  0
LINE
  5
19A
330
1F
100
AcDbEntity
  8
0
  6
Continuous
 62
     7
370
    15
100
AcDbLine
 10
6.186714288586797
 20
3.702015888065451
 30
0.0
 11
6.850025877488769
 21
3.521742011249992
 31
0.0
  0
LINE
  5
19B
330
1F
100
AcDbEntity
  8
0
  6
Continuous
 62
     7
370
    15
100
AcDbLine
 10
6.186714288586797
 20
3.702015888065451
 30
0.0
 11
6.078309016153278
 21
3.927566520542513
 31
0.0
  0
LINE
  5
19C
330
1F
100
AcDbEntity
  8
0
  6
Continuous
 62
     7
370
    15
100
AcDbLine
 10
6.078309016153278
 20
3.927566520542513
 30
0.0
 11
11.36640676150675
 21
11.69137163607691
 31
0.0
  0
LINE
  5
19D
330
1F
100
AcDbEntity
  8
0
  6
Continuous
 62
     7
370
    15
100
AcDbLine
 10
11.36640676150675
 20
11.69137163607691
 30
0.0
 11
12.47192815175392
 21
11.3909146106657
 31
0.0
  0
LINE
  5
19E
330
1F
100
AcDbEntity
  8
0
  6
Continuous
 62
     7
370
    15
100
AcDbLine
 10
7.189604120820901
 20
3.59316828313731
 30
0.0
 11
6.85580013949215
 21
3.487801333713732
 31
0.0
  0
LINE
  5
19F
330
1F
100
AcDbEntity
  8
0
  6
Continuous
 62
     7
370
    15
100
AcDbLine
 10
6.850025877488769
 20
3.521742011249992
 30
0.0
 11
6.85580013949215
 21
3.487801333713732
 31
0.0
  0
LINE
  5
1A0
330
1F
100
AcDbEntity
  8
0
  6
Continuous
 62
     7
370
    15
100
AcDbLine
 10
7.183830406400443
 20
3.627109495131298
 30
0.0
 11
7.189604120820901
 21
3.59316828313731
 31
0.0
  0
LINE
  5
1A1
330
1F
100
AcDbEntity
  8
0
  6
Continuous
 62
     7
370
    15
100
AcDbLine
 10
6.186714288586797
 20
3.702015888065451
 30
0.0
 11
6.192488550590188
 21
3.668075210529192
 31
0.0
  0
LINE
  5
1A2
330
1F
100
AcDbEntity
  8
0
  6
Continuous
 62
     7
370
    15
100
AcDbLine
 10
6.192488550590188
 20
3.668075210529192
 30
0.0
 11
6.85580013949215
 21
3.487801333713732
 31
0.0
  0
LINE
  5
1A3
330
1F
100
AcDbEntity
  8
0
  6
Continuous
 62
     7
370
    15
100
AcDbLine
 10
12.47192815175392
 20
11.3909146106657
 30
0.0
 11
12.4777019003983
 21
11.35697343207532
 31
0.0
  0
LINE
  5
1A4
330
1F
100
AcDbEntity
  8
0
  6
Continuous
 62
     7
370
    15
100
AcDbLine
 10
12.4777019003983
 20
11.35697343207532
 30
0.0
 11
7.189604120820901
 21
3.59316828313731
 31
0.0
  0
ARC
  5
1A5
330
1F
100
AcDbEntity
  8
0
  6
Continuous
 62
     7
370
    15
100
AcDbCircle
 10
6.975187801525119
 20
3.718007413100558
 30
0.0
 40
0.0931561407697327
100
AcDbArc
 50
42.62277646195289
 51
156.685283390897
  0
LINE
  5
1A6
330
1F
100
AcDbEntity
  8
0
  6
Continuous
 62
     7
370
    15
100
AcDbLine
 10
6.078309016153278
 20
3.927566520542513
 30
0.0
 11
6.084082730573737
 21
3.893625308548525
 31
0.0
  0
LINE
  5
1A7
330
1F
100
AcDbEntity
  8
0
  6
Continuous
 62
     7
370
    15
100
AcDbLine
 10
6.192488550590188
 20
3.668075210529192
 30
0.0
 11
6.084082730573737
 21
3.893625308548525
 31
0.0
  0
ARC
  5
1A8
330
1F
100
AcDbEntity
  8
0
  6
Continuous
 62
     7
370
    15
100
AcDbCircle
 10
7.036901680332845
 20
4.289501926710112
 30
0.0
 40
0.0931552152811857
100
AcDbArc
 50
42.62313683013661
 51
156.6859047809486
  0
ARC
  5
1A9
330
1F
100
AcDbEntity
  8
0
  6
Continuous
 62
     7
370
    15
100
AcDbCircle
 10
7.098615271926379
 20
4.860992431407137
 30
0.0
 40
0.093157596203889
100
AcDbArc
 50
42.62405838455838
 51
156.6841609402655
  0
LWPOLYLINE
  5
1AA
330
1F
100
AcDbEntity
  8
0
  6
Continuous
 62
     7
370
    15
100
AcDbPolyline
 90
       13
 70
   128
 43
0.0
 10
7.431096676500554
 20
5.390378884747457
 10
7.46784095593838
 20
5.433084573497527
 10
7.515791832884037
 20
5.470280617766085
 10
7.572705013466411
 20
5.500227897296979
 10
7.635919874202763
 20
5.5215274093309
 10
7.702479926976178
 20
5.533181702459138
 10
7.769274514729415
 20
5.534646383187738
 10
7.833179702710498
 20
5.525853657738342
 10
7.891206737884398
 20
5.507213491297473
 10
7.940643751456309
 20
5.479597813469837
 10
7.97917770446029
 20
5.444298551014473
 10
8.00500608814255
 20
5.402966031110481
 10
8.011691276123695
 20
5.384476907788561
  0
ARC
  5
1AB
330
1F
100
AcDbEntity
  8
0
  6
Continuous
 62
     7
370
    15
100
AcDbCircle
 10
7.573330699039128
 20
5.2867650693605
 30
0.0
 40
0.1759725544127435
100
AcDbArc
 50
143.9276278113728
 51
182.2048477735516
  0
ARC
  5
1AC
330
1F
100
AcDbEntity
  8
0
  6
Continuous
 62
     7
370
    15
100
AcDbCircle
 10
8.327567279962449
 20
5.703524841650239
 30
0.0
 40
0.0931563333675524
100
AcDbArc
 50
42.622860966655
 51
156.6853583581696
  0
ARC
  5
1AD
330
1F
100
AcDbEntity
  8
0
  6
Continuous
 62
     7
370
    15
100
AcDbCircle
 10
8.450994404419192
 20
6.84651105224611
 30
0.0
 40
0.0931568535372363
100
AcDbArc
 50
42.62345231637421
 51
156.6846075364748
  0
ARC
  5
1AE
330
1F
100
AcDbEntity
  8
0
  6
Continuous
 62
     7
370
    15
100
AcDbCircle
 10
9.679946958866226
 20
7.689043023969114
 30
0.0
 40
0.093155868027688
100
AcDbArc
 50
42.6226878297249
 51
156.6862583575496
  0
ARC
  5
1AF
330
1F
100
AcDbEntity
  8
0
  6
Continuous
 62
     7
370
    15
100
AcDbCircle
 10
9.803374049107246
 20
8.832027503487314
 30
0.0
 40
0.0931575856220489
100
AcDbArc
 50
42.62404835118259
 51
156.6841709736435
  0
ARC
  5
1B0
330
1F
100
AcDbEntity
  8
0
  6
Continuous
 62
     7
370
    15
100
AcDbCircle
 10
11.03232638736382
 20
9.674559985671097
 30
0.0
 40
0.0931561266905924
100
AcDbArc
 50
42.62295763644269
 51
156.6859486833077
  0
ARC
  5
1B1
330
1F
100
AcDbEntity
  8
0
  6
Continuous
 62
     7
370
    15
100
AcDbCircle
 10
11.15575337652594
 20
10.81754529395589
 30
0.0
 40
0.0931574052444359
100
AcDbArc
 50
42.62390185054848
 51
156.6842776063444
  0
ARC
  5
1B2
330
1F
100
AcDbEntity
  8
0
  6
Continuous
 62
     7
370
    15
100
AcDbCircle
 10
11.42346082196294
 20
11.65654985477362
 30
0.0
 40
0.0668410223416156
100
AcDbArc
 50
120.0070191909443
 51
148.6030480471177
  0
LINE
  5
1B3
330
1F
100
AcDbEntity
  8
0
  6
Continuous
 62
     7
370
    15
100
AcDbLine
 10
11.39003321954241
 20
11.71443178342227
 30
0.0
 11
12.49555460978957
 21
11.41397475801105
 31
0.0
  0
ARC
  5
1B4
330
1F
100
AcDbEntity
  8
0
  6
Continuous
 62
     7
370
    15
100
AcDbCircle
 10
12.52898221221008
 20
11.35609282936242
 30
0.0
 40
0.0668410223415902
100
AcDbArc
 50
120.007019190934
 51
148.6030480471186
  0
ARC
  5
1B5
330
1F
100
AcDbEntity
  8
0
  6
Continuous
 62
     7
370
    15
100
AcDbCircle
 10
12.49988829922972
 20
11.34884550414836
 30
0.0
 40
0.0223352118838924
100
AcDbArc
 50
116.9063658686878
 51
131.792728501251
  0
ARC
  5
1B6
330
1F
100
AcDbEntity
  8
0
  6
Continuous
 62
     7
370
    15
100
AcDbCircle
 10
12.5178277147035
 20
11.33018652614397
 30
0.0
 40
0.0482454070666823
100
AcDbArc
 50
134.9524551499234
 51
146.274000862016
  0
LINE
  5
1B7
330
1F
100
AcDbEntity
  8
0
  6
Continuous
 62
     7
370
    15
100
AcDbLine
 10
12.49555460978957
 20
11.41397475801105
 30
0.0
 11
12.48978086114518
 21
11.36876286806193
 31
0.0
  0
LINE
  5
1B8
330
1F
100
AcDbEntity
  8
0
  6
Continuous
 62
     7
370
    15
100
AcDbLine
 10
17.78365220113535
 20
13.97286051935139
 30
0.0
 11
17.77787848671489
 21
13.92764866280588
 31
0.0
  0
LINE
  5
1B9
330
1F
100
AcDbEntity
  8
0
  6
Continuous
 62
     7
370
    15
100
AcDbLine
 10
17.77787848671489
 20
13.92764866280588
 30
0.0
 11
12.48978086114518
 21
11.36876286806193
 31
0.0
  0
LINE
  5
1BA
330
1F
100
AcDbEntity
  8
0
  6
Continuous
 62
     7
370
    15
100
AcDbLine
 10
17.78365220113535
 20
13.97286051935139
 30
0.0
 11
12.49555460978957
 21
11.41397475801105
 31
0.0
  0
LINE
  5
1BB
330
1F
100
AcDbEntity
  8
0
  6
Continuous
 62
     7
370
    15
100
AcDbLine
 10
16.67813081088818
 20
14.2733175447626
 30
0.0
 11
17.01193326438931
 21
14.26776147087754
 31
0.0
  0
LINE
  5
1BC
330
1F
100
AcDbEntity
  8
0
  6
Continuous
 62
     7
370
    15
100
AcDbLine
 10
17.67524485329128
 20
14.08748759406208
 30
0.0
 11
17.01193326438931
 21
14.26776147087754
 31
0.0
  0
LINE
  5
1BD
330
1F
100
AcDbEntity
  8
0
  6
Continuous
 62
     7
370
    15
100
AcDbLine
 10
17.67524485329128
 20
14.08748759406208
 30
0.0
 11
17.78365220113535
 21
13.97286051935139
 31
0.0
  0
LINE
  5
1BE
330
1F
100
AcDbEntity
  8
0
  6
Continuous
 62
     7
370
    15
100
AcDbLine
 10
11.39003321954241
 20
11.71443178342227
 30
0.0
 11
16.67813081088818
 21
14.2733175447626
 31
0.0
  0
LWPOLYLINE
  5
1BF
330
1F
100
AcDbEntity
  8
0
  6
Continuous
 62
     7
370
    15
100
AcDbPolyline
 90
       17
 70
   128
 43
0.0
 10
13.32126165206445
 20
12.07718792011852
 10
13.34092809087046
 20
12.0825326491793
 10
13.36864166576039
 20
12.08406321429956
 10
13.40018157457287
 20
12.08154663403886
 10
13.43074771933936
 20
12.07536554809722
 10
13.45569050514897
 20
12.06646049612078
 10
13.47120430433099
 20
12.05618888678759
 10
13.47493112386629
 20
12.04611349614871
 10
13.46630586918744
 20
12.03776800982612
 10
13.44663929348569
 20
12.0324231471509
 10
13.41892779400631
 20
12.03089302370986
 10
13.38738802208956
 20
12.03340973758501
 10
13.35681758960624
 20
12.03959181801644
 10
13.33187909151347
 20
12.04849587550308
 10
13.3163651554357
 20
12.05876735122185
 10
13.31263626048986
 20
12.06884230018149
 10
13.32126165206445
 20
12.07718792011852
  0
LWPOLYLINE
  5
1C0
330
1F
100
AcDbEntity
  8
0
  6
Continuous
 62
     7
370
    15
100
AcDbPolyline
 90
       17
 70
   128
 43
0.0
 10
14.67364090538959
 20
12.73159774797337
 10
14.69330748109134
 20
12.73694261064859
 10
14.72102105598127
 20
12.73847317576885
 10
14.75256096479375
 20
12.73595659550814
 10
14.78312710956023
 20
12.72977550956651
 10
14.80806989536984
 20
12.72087045759006
 10
14.82358369455187
 20
12.71059884825687
 10
14.82731051408717
 20
12.70052345761799
 10
14.81868512251258
 20
12.69217783768097
 10
14.7990188206023
 20
12.68683424796596
 10
14.77130732112292
 20
12.68530311879358
 10
14.73976741231044
 20
12.68781969905429
 10
14.70919711672285
 20
12.69400191310016
 10
14.68425848173434
 20
12.70290583697237
 10
14.66874468255232
 20
12.71317744630556
 10
14.66501578760647
 20
12.72325340099656
 10
14.67364090538959
 20
12.73159774797337
  0
LWPOLYLINE
  5
1C1
330
1F
100
AcDbEntity
  8
0
  6
Continuous
 62
     7
370
    15
100
AcDbPolyline
 90
       17
 70
   128
 43
0.0
 10
16.02602043250621
 20
13.38600884878843
 10
16.04568700820795
 20
13.39135371146365
 10
16.07340030930641
 20
13.3928830036237
 10
16.10494021811889
 20
13.390366423363
 10
16.13550636288538
 20
13.38418533742136
 10
16.16044914869499
 20
13.37528028544492
 10
16.17596294787702
 20
13.36500867611172
 10
16.17969004120378
 20
13.35493455843306
 10
16.17106464962919
 20
13.34658893849604
 10
16.15139807392744
 20
13.34124407582081
 10
16.12368657444806
 20
13.33971294664843
 10
16.09214666563558
 20
13.34222952690915
 10
16.061576370048
 20
13.34841174095501
 10
16.03663773505949
 20
13.35731566482722
 10
16.02112393587746
 20
13.36758727416041
 10
16.01739504093161
 20
13.37766322885141
 10
16.02602043250621
 20
13.38600884878843
  0
LWPOLYLINE
  5
1C2
330
1F
100
AcDbEntity
  8
0
  6
Continuous
 62
     7
370
    15
100
AcDbPolyline
 90
       17
 70
   128
 43
0.0
 10
17.37839968583135
 20
14.04041867664328
 10
17.39806598774163
 20
14.04576327208964
 10
17.42577983642303
 20
14.04729309870742
 10
17.45731947144404
 20
14.04477625121785
 10
17.48788589000199
 20
14.03859643823643
 10
17.51282840202013
 20
14.02969011329977
 10
17.52834247499363
 20
14.01941877119544
 10
17.53206902073745
 20
14.00934411905905
 10
17.52344390295433
 20
14.00099876635089
 10
17.50377760104405
 20
13.99565417090453
 10
17.47606582777321
 20
13.99412277450329
 10
17.44452619275219
 20
13.99663962199286
 10
17.41395562337314
 20
14.00282156880986
 10
17.3890172621761
 20
14.01172575991093
 10
17.37350318920261
 20
14.02199710201526
 10
17.36977456804823
 20
14.03207332393513
 10
17.37839968583135
 20
14.04041867664328
  0
LWPOLYLINE
  5
1C3
330
1F
100
AcDbEntity
  8
0
  6
Continuous
 62
     7
370
    15
100
AcDbPolyline
 90
       17
 70
   128
 43
0.0
 10
12.09231119338256
 20
11.90021188814794
 10
12.11197770063644
 20
11.90555668401594
 10
12.13969127552637
 20
11.90708724913621
 10
12.17123111589099
 20
11.90457060206828
 10
12.20179940451589
 20
11.89838901888175
 10
12.22673797105653
 20
11.88948502820232
 10
12.24225391409697
 20
11.87921292162423
 10
12.24598073363228
 20
11.86913753098535
 10
12.23735541050555
 20
11.86079197785554
 10
12.21768890325167
 20
11.85544718198753
 10
12.18997747222015
 20
11.85391611962237
 10
12.15843548799713
 20
11.8564332639352
 10
12.12786934323064
 20
11.86261434987683
 10
12.10292863283158
 20
11.87151883780116
 10
12.08741483364955
 20
11.88179044713435
 10
12.08368587025584
 20
11.89186633501813
 10
12.09231119338256
 20
11.90021188814794
  0
LWPOLYLINE
  5
1C4
330
1F
100
AcDbEntity
  8
0
  6
Continuous
 62
     7
370
    15
100
AcDbPolyline
 90
       17
 70
   128
 43
0.0
 10
13.44469058360344
 20
12.55462184961722
 10
13.46435715930518
 20
12.55996671229244
 10
13.49207059729938
 20
12.56149714379828
 10
13.52361050611186
 20
12.55898056353756
 10
13.5541787262889
 20
12.55279891354382
 10
13.5791173612774
 20
12.5438949896716
 10
13.59463323586998
 20
12.5336228162863
 10
13.59836019230102
 20
12.52354755926185
 10
13.58973480072642
 20
12.51520193932483
 10
13.57006836192042
 20
12.50985721026404
 10
13.54235686244103
 20
12.50832608109166
 10
13.510814878218
 20
12.51084322540449
 10
13.48024873345152
 20
12.51702431134611
 10
13.45530802305246
 20
12.52592879927044
 10
13.43979422387043
 20
12.53620040860364
 10
13.43606532892458
 20
12.54627636329463
 10
13.44469058360344
 20
12.55462184961722
  0
LWPOLYLINE
  5
1C5
330
1F
100
AcDbEntity
  8
0
  6
Continuous
 62
     7
370
    15
100
AcDbPolyline
 90
       17
 70
   128
 43
0.0
 10
14.79707011072005
 20
13.20903194470094
 10
14.81673641263033
 20
13.2143765401473
 10
14.84444998752026
 20
13.21590710526756
 10
14.87598989633274
 20
13.21339052500685
 10
14.90655811650978
 20
13.2072088750131
 10
14.93149675149828
 20
13.19830495114089
 10
14.94701262609086
 20
13.18803277775558
 10
14.95073944562616
 20
13.1779573871167
 10
14.94211432784303
 20
13.16961203440854
 10
14.92244775214129
 20
13.16426717173332
 10
14.89473625266191
 20
13.16273604256094
 10
14.86319426843888
 20
13.16525318687377
 10
14.8326281236724
 20
13.1714342728154
 10
14.80768741327334
 20
13.18033876073973
 10
14.79217361409131
 20
13.19061037007292
 10
14.78844471914546
 20
13.20068632476392
 10
14.79707011072005
 20
13.20903194470094
  0
LWPOLYLINE
  5
1C6
330
1F
100
AcDbEntity
  8
0
  6
Continuous
 62
     7
370
    15
100
AcDbPolyline
 90
       17
 70
   128
 43
0.0
 10
16.14944963783666
 20
13.86344203978466
 10
16.16911593974694
 20
13.86878663523101
 10
16.1968292408454
 20
13.87031693312241
 10
16.22836942344935
 20
13.86780062009056
 10
16.25893736983492
 20
13.86161870286795
 10
16.28387627861489
 20
13.85271504622461
 10
16.29939187941601
 20
13.84244260561043
 10
16.30311897274277
 20
13.83236748220042
 10
16.29449385495965
 20
13.82402212949226
 10
16.27482700546644
 20
13.81867699958817
 10
16.24711577977852
 20
13.81714613764466
 10
16.21557352176402
 20
13.81966301472862
 10
16.185007650789
 20
13.82584436789912
 10
16.16006666659848
 20
13.83474858859458
 10
16.14455314120792
 20
13.84502046515663
 10
16.1408239724706
 20
13.85509615261877
 10
16.14944963783666
 20
13.86344203978466
  0
LWPOLYLINE
  5
1C7
330
1F
100
AcDbEntity
  8
0
  6
Continuous
 62
     7
370
    15
100
AcDbPolyline
 90
       17
 70
   128
 43
0.0
 10
16.76392466183401
 20
13.95193035821397
 10
16.78359096374428
 20
13.95727495366033
 10
16.81130481242568
 20
13.95880578600945
 10
16.8428444474467
 20
13.95628893851988
 10
16.8734129414152
 20
13.950107555755
 10
16.89835130261224
 20
13.94120336465392
 10
16.91386745099628
 20
13.93093145849747
 10
16.91759399674012
 20
13.92085580062973
 10
16.90896887895699
 20
13.91251044792157
 10
16.88930202946378
 20
13.90716531801749
 10
16.86159080377586
 20
13.90563445607397
 10
16.8300490933443
 20
13.90815186761567
 10
16.79948267478635
 20
13.91433268632843
 10
16.77454223817876
 20
13.92323744148162
 10
16.75902816520526
 20
13.93350878358595
 10
16.75529899646795
 20
13.94358447104808
 10
16.76392466183401
 20
13.95193035821397
  0
LWPOLYLINE
  5
1C8
330
1F
100
AcDbEntity
  8
0
  6
Continuous
 62
     7
370
    15
100
AcDbPolyline
 90
       30
 70
   128
 43
0.0
 10
15.88387756008494
 20
13.68012869337255
 10
15.92062183952277
 20
13.69302752216601
 10
15.96857271646843
 20
13.70180964439475
 10
16.0254858970508
 20
13.70606652237584
 10
16.08870075778715
 20
13.70559798511661
 10
16.15526081056057
 20
13.70042639279511
 10
16.22205539831381
 20
13.69079383383139
 10
16.28596058629489
 20
13.6771494603599
 10
16.34398762146879
 20
13.66013254431448
 10
16.3934246350407
 20
13.6405385797174
 10
16.43195858804468
 20
13.61928334980359
 10
16.45778697172694
 20
13.59736144491336
 10
16.46970227072665
 20
13.57579675153314
 10
16.46715149430727
 20
13.55559880378053
 10
16.450248378784
 20
13.53771093131711
 10
16.41978634035362
 20
13.52297047942334
 10
16.37718964221866
 20
13.51206657789825
 10
16.32444713705284
 20
13.50550866080892
 10
16.26403050134787
 20
13.50360358476642
 10
16.19876081433892
 20
13.50644018349451
 10
16.13168957690569
 20
13.51388618149603
 10
16.06595348361241
 20
13.52559345784423
 10
16.00462808265592
 20
13.54101431816522
 10
15.950579387426
 20
13.55942728270449
 10
15.90633508613008
 20
13.57997237286923
 10
15.87396474258724
 20
13.60168828408403
 10
15.85498061928025
 20
13.62355932773709
 10
15.85027098359705
 20
13.64456430840145
 10
15.86005506052424
 20
13.66371934905961
 10
15.88387756008494
 20
13.68012869337255
  0
ARC
  5
1C9
330
1F
100
AcDbEntity
  8
0
  6
Continuous
 62
     7
370
    15
100
AcDbCircle
 10
12.12943089153484
 20
11.60326958376177
 30
0.0
 40
0.2586388041127048
100
AcDbArc
 50
75.69171031534274
 51
89.75356669823741
  0
ARC
  5
1CA
330
1F
100
AcDbEntity
  8
0
  6
Continuous
 62
     7
370
    15
100
AcDbCircle
 10
13.35836277864142
 20
11.78011783200459
 30
0.0
 40
0.2587670508115627
100
AcDbArc
 50
75.69474031786032
 51
89.74913232370074
  0
ARC
  5
1CB
330
1F
100
AcDbEntity
  8
0
  6
Continuous
 62
     7
370
    15
100
AcDbCircle
 10
13.48181339620283
 20
12.25770177016329
 30
0.0
 40
0.2586164989080486
100
AcDbArc
 50
75.69116202677553
 51
89.75425061188266
  0
ARC
  5
1CC
330
1F
100
AcDbEntity
  8
0
  6
Continuous
 62
     7
370
    15
100
AcDbCircle
 10
14.71074925811288
 20
12.4345737062266
 30
0.0
 40
0.2587209733418052
100
AcDbArc
 50
75.69372721690728
 51
89.75068794636454
  0
ARC
  5
1CD
330
1F
100
AcDbEntity
  8
0
  6
Continuous
 62
     7
370
    15
100
AcDbCircle
 10
14.83418655653802
 20
12.91206727442875
 30
0.0
 40
0.2586611166977657
100
AcDbArc
 50
75.69225869831185
 51
89.7528826899423
  0
ARC
  5
1CE
330
1F
100
AcDbEntity
  8
0
  6
Continuous
 62
     7
370
    15
100
AcDbCircle
 10
16.06311315217284
 20
13.08884047686206
 30
0.0
 40
0.2588643648925033
100
AcDbArc
 50
75.69831233708983
 51
89.74736586961338
  0
LWPOLYLINE
  5
1CF
330
1F
100
AcDbEntity
  8
0
  6
Continuous
 62
     7
370
    15
100
AcDbPolyline
 90
       14
 70
   128
 43
0.0
 10
15.85660619794745
 20
13.62081852659501
 10
15.87810384566449
 20
13.63491683682704
 10
15.91484812510231
 20
13.6478156656205
 10
15.96279900204797
 20
13.65659778784924
 10
16.01971218263035
 20
13.66085466583033
 10
16.0829270433667
 20
13.6603861285711
 10
16.14948709614011
 20
13.6552145362496
 10
16.21628168389335
 20
13.64558197728588
 10
16.28018687187443
 20
13.63193760381439
 10
16.33821390704833
 20
13.61492068776897
 10
16.38765092062024
 20
13.59532672317189
 10
16.42618487362422
 20
13.57407149325808
 10
16.45201325730648
 20
13.55214958836784
 10
16.45813527378316
 20
13.54400079482212
  0
ARC
  5
1D0
330
1F
100
AcDbEntity
  8
0
  6
Continuous
 62
     7
370
    15
100
AcDbCircle
 10
16.18650907238103
 20
13.56607396423735
 30
0.0
 40
0.259065775727278
100
AcDbArc
 50
75.70213359810825
 51
89.74065977726594
  0
ARC
  5
1D1
330
1F
100
AcDbEntity
  8
0
  6
Continuous
 62
     7
370
    15
100
AcDbCircle
 10
16.80105310101627
 20
13.65507013314323
 30
0.0
 40
0.2585566209980711
100
AcDbArc
 50
75.68915833061867
 51
89.75544055376813
  0
ARC
  5
1D2
330
1F
100
AcDbEntity
  8
0
  6
Continuous
 62
     7
370
    15
100
AcDbCircle
 10
17.41555211188053
 20
13.74370734085528
 30
0.0
 40
0.2584070763744611
100
AcDbArc
 50
75.68606329959087
 51
89.76015742314034
  0
LWPOLYLINE
  5
1D3
330
1F
100
AcDbEntity
  8
0
  6
Continuous
 62
     7
370
    15
100
AcDbPolyline
 90
       17
 70
   128
 43
0.0
 10
-4.971111694932044
 20
14.08780205447316
 10
-4.951445187678168
 20
14.10707019512098
 10
-4.923731612788238
 20
14.1204050290711
 10
-4.892191772423624
 20
14.12577532723312
 10
-4.861623483798721
 20
14.1223635281786
 10
-4.83668491725808
 20
14.11068975336716
 10
-4.821168974217636
 20
14.09253070155912
 10
-4.817442154682334
 20
14.07065104209038
 10
-4.826067477809059
 20
14.04838214418076
 10
-4.845733985062937
 20
14.02911400353294
 10
-4.873445484542319
 20
14.01577961126204
 10
-4.904987400317484
 20
14.01040987715215
 10
-4.935553545083971
 20
14.01382117896176
 10
-4.960494255483028
 20
14.02549545101811
 10
-4.976008123112921
 20
14.04365393877402
 10
-4.979737018058771
 20
14.06553315656354
 10
-4.971111694932044
 20
14.08780205447316
  0
LWPOLYLINE
  5
1D4
330
1F
100
AcDbEntity
  8
0
  6
Continuous
 62
     7
370
    15
100
AcDbPolyline
 90
       17
 70
   128
 43
0.0
 10
-6.32349115360079
 20
12.10228446121057
 10
-6.303824577899046
 20
12.12155367439694
 10
-6.276111003009116
 20
12.13488750261573
 10
-6.244571094196635
 20
12.14025786758496
 10
-6.214002874019599
 20
12.13684600172323
 10
-6.189064239031092
 20
12.125172293719
 10
-6.173548364438514
 20
12.10701317510375
 10
-6.169821544903212
 20
12.08513452136635
 10
-6.178446936477804
 20
12.06286455091817
 10
-6.198113238388081
 20
12.043596610692
 10
-6.225824737867466
 20
12.0302622184211
 10
-6.257366722090496
 20
12.02489241750399
 10
-6.287932866856983
 20
12.0283037193136
 10
-6.312873577256038
 20
12.03997799136995
 10
-6.328387376438069
 20
12.05813654593308
 10
-6.332116271383916
 20
12.0800157637226
 10
-6.32349115360079
 20
12.10228446121057
  0
LWPOLYLINE
  5
1D5
330
1F
100
AcDbEntity
  8
0
  6
Continuous
 62
     7
370
    15
100
AcDbPolyline
 90
       17
 70
   128
 43
0.0
 10
-7.675870406925934
 20
10.11676807410097
 10
-7.65620383122419
 20
10.136036281556
 10
-7.628490530125727
 20
10.14936984254592
 10
-7.596950621313246
 20
10.15474020751515
 10
-7.566382401136207
 20
10.15132834165342
 10
-7.541443766147703
 20
10.13965463364919
 10
-7.525927891555125
 20
10.12149551503394
 10
-7.522200798228356
 20
10.0996171285254
 10
-7.530826189802949
 20
10.07734816380857
 10
-7.550492765504692
 20
10.05807995635353
 10
-7.578204264984075
 20
10.04474455835129
 10
-7.609746249207105
 20
10.03937475743418
 10
-7.640312393973594
 20
10.04278605924379
 10
-7.665253104372649
 20
10.05446033130014
 10
-7.680766903554677
 20
10.07261888586327
 10
-7.684495798500527
 20
10.09449910938413
 10
-7.675870406925934
 20
10.11676807410097
  0
LWPOLYLINE
  5
1D6
330
1F
100
AcDbEntity
  8
0
  6
Continuous
 62
     7
370
    15
100
AcDbPolyline
 90
       17
 70
   128
 43
0.0
 10
-9.028249934042545
 20
8.131250414031161
 10
-9.008583084549336
 20
8.150518888715058
 10
-8.980869783450872
 20
8.163852449704975
 10
-8.949330148429858
 20
8.169222547445341
 10
-8.918761654461354
 20
8.165810948812474
 10
-8.893823293264311
 20
8.154136973579383
 10
-8.878307144880269
 20
8.135978122192993
 10
-8.8745800515535
 20
8.114099735684462
 10
-8.88320571691956
 20
8.091830503738762
 10
-8.902872018829837
 20
8.072562563512594
 10
-8.930583792100685
 20
8.059226898281483
 10
-8.962125502532252
 20
8.053857364593236
 10
-8.992691921090203
 20
8.057269404905337
 10
-9.017632357697793
 20
8.068942938459194
 10
-9.033146430671289
 20
8.087101225793464
 10
-9.036875051825671
 20
8.108981716543189
 10
-9.028249934042545
 20
8.131250414031161
  0
LWPOLYLINE
  5
1D7
330
1F
100
AcDbEntity
  8
0
  6
Continuous
 62
     7
370
    15
100
AcDbPolyline
 90
       17
 70
   128
 43
0.0
 10
-4.847682694945188
 20
15.23078983327212
 10
-4.828016187691312
 20
15.25005797391994
 10
-4.800302647025311
 20
15.26339176873511
 10
-4.768762772436764
 20
15.26876210030074
 10
-4.738194518035794
 20
15.26535026784261
 10
-4.713255917271221
 20
15.25367652643478
 10
-4.697742083865259
 20
15.23551800527525
 10
-4.694013154695477
 20
15.21363882088935
 10
-4.702638477822202
 20
15.19136992297973
 10
-4.722304985076081
 20
15.17210178233191
 10
-4.750018525742079
 20
15.15876798751674
 10
-4.781558400330625
 20
15.15339765595111
 10
-4.812124579321046
 20
15.15680892435712
 10
-4.837065255496169
 20
15.16848322981707
 10
-4.852579088902132
 20
15.1866417509766
 10
-4.856308018071915
 20
15.20852093536251
 10
-4.847682694945188
 20
15.23078983327212
  0
LWPOLYLINE
  5
1D8
330
1F
100
AcDbEntity
  8
0
  6
Continuous
 62
     7
370
    15
100
AcDbPolyline
 90
       17
 70
   128
 43
0.0
 10
-6.200062085166066
 20
13.24527230681675
 10
-6.180395646360055
 20
13.26454038065735
 10
-6.152682071470123
 20
13.27787420887613
 10
-6.121142162657642
 20
13.28324457384536
 10
-6.090573942480606
 20
13.27983270798363
 10
-6.065635307492099
 20
13.2681589999794
 10
-6.05012150831007
 20
13.25000044541627
 10
-6.04639261336422
 20
13.22812122762676
 10
-6.05501786804308
 20
13.20585239652435
 10
-6.074684306849093
 20
13.18658432268375
 10
-6.102397881739022
 20
13.17325049446497
 10
-6.133937790551503
 20
13.16788012949574
 10
-6.16450393531799
 20
13.17129143130536
 10
-6.189444645717046
 20
13.1829657033617
 10
-6.204958444899076
 20
13.20112425792484
 10
-6.208687339844927
 20
13.22300347571434
 10
-6.200062085166066
 20
13.24527230681675
  0
LWPOLYLINE
  5
1D9
330
1F
100
AcDbEntity
  8
0
  6
Continuous
 62
     7
370
    15
100
AcDbPolyline
 90
       17
 70
   128
 43
0.0
 10
-7.552441475386943
 20
11.25975478036137
 10
-7.532774899685199
 20
11.27902298781641
 10
-7.505061324795267
 20
11.29235681603519
 10
-7.473521415982789
 20
11.29772718100442
 10
-7.442953195805753
 20
11.29431531514268
 10
-7.418014560817243
 20
11.28264160713846
 10
-7.402500761635217
 20
11.26448305257532
 10
-7.398771866689365
 20
11.24260383478581
 10
-7.407397258263958
 20
11.22033487006897
 10
-7.427063833965702
 20
11.20106666261394
 10
-7.454777408855633
 20
11.18773283439516
 10
-7.486317043876648
 20
11.1823627366548
 10
-7.516883462434601
 20
11.18577377123555
 10
-7.541823899042191
 20
11.19744831052075
 10
-7.557337972015687
 20
11.21560659785503
 10
-7.561066866961536
 20
11.23748581564454
 10
-7.552441475386943
 20
11.25975478036137
  0
LWPOLYLINE
  5
1DA
330
1F
100
AcDbEntity
  8
0
  6
Continuous
 62
     7
370
    15
100
AcDbPolyline
 90
       17
 70
   128
 43
0.0
 10
-8.90482072871209
 20
9.274237387520429
 10
-8.885154426801813
 20
9.293505327746599
 10
-8.857440851911878
 20
9.306839155965379
 10
-8.825900943099398
 20
9.31220952093461
 10
-8.795332722922362
 20
9.308797655072876
 10
-8.770394087933855
 20
9.297123947068653
 10
-8.754880288751826
 20
9.278965392505517
 10
-8.751151393805978
 20
9.257086174716002
 10
-8.759776511589105
 20
9.234817477228032
 10
-8.779443087290848
 20
9.215549269772999
 10
-8.807156662180778
 20
9.202215441554216
 10
-8.838696570993258
 20
9.19684507658499
 10
-8.869262715759745
 20
9.200256378394604
 10
-8.894203426158803
 20
9.211930650450948
 10
-8.90971722534083
 20
9.230089205014079
 10
-8.913446120286682
 20
9.251968422803594
 10
-8.90482072871209
 20
9.274237387520429
  0
LWPOLYLINE
  5
1DB
330
1F
100
AcDbEntity
  8
0
  6
Continuous
 62
     7
370
    15
100
AcDbPolyline
 90
       17
 70
   128
 43
0.0
 10
-8.966535605168784
 20
8.70274363354693
 10
-8.946868755675573
 20
8.722012108230828
 10
-8.919155454577106
 20
8.735345669220746
 10
-8.887615271973162
 20
8.740716301418839
 10
-8.857047325587588
 20
8.737304168328243
 10
-8.832108416807621
 20
8.72563072755288
 10
-8.816592816006503
 20
8.707471341708766
 10
-8.81286572267974
 20
8.685592955200233
 10
-8.821491388045798
 20
8.663323723254531
 10
-8.841157689956077
 20
8.644055783028363
 10
-8.868868915643989
 20
8.630721657986329
 10
-8.900411173658488
 20
8.625351589840354
 10
-8.930977044633509
 20
8.628763158878832
 10
-8.955918028824029
 20
8.640437163706312
 10
-8.971431554214593
 20
8.65859598549831
 10
-8.97516072295191
 20
8.68047493605896
 10
-8.966535605168784
 20
8.70274363354693
  0
LWPOLYLINE
  5
1DC
330
1F
100
AcDbEntity
  8
0
  6
Continuous
 62
     7
370
    15
100
AcDbPolyline
 90
       30
 70
   128
 43
0.0
 10
-8.494202906009766
 20
9.75090611351114
 10
-8.457458626571943
 20
9.793611802261212
 10
-8.409507749626284
 20
9.830807846529769
 10
-8.352594569043912
 20
9.860755126060663
 10
-8.289379982099028
 20
9.882054370865722
 10
-8.222819655534145
 20
9.893708931222821
 10
-8.156025067780907
 20
9.895173611951422
 10
-8.092119879799826
 20
9.886380886502028
 10
-8.034092844625925
 20
9.867740720061158
 10
-7.984655831054014
 20
9.840125042233522
 10
-7.946123953460582
 20
9.804826343830271
 10
-7.920293768159239
 20
9.7634929926453
 10
-7.908376119957511
 20
9.718058980363004
 10
-7.910928971787442
 20
9.670649523583385
 10
-7.927832087310714
 20
9.623479782926944
 10
-7.958294125741099
 20
9.57875646809069
 10
-8.00089082387605
 20
9.538570698372568
 10
-8.053631253631321
 20
9.504800144151998
 10
-8.11404996474684
 20
9.479026610082787
 10
-8.179321727166339
 20
9.462453157849246
 10
-8.246391162980488
 20
9.455854292028227
 10
-8.3121269824823
 20
9.459540122374734
 10
-8.373452383438788
 20
9.473337732300269
 10
-8.427501078668713
 20
9.496602344861637
 10
-8.47174537996463
 20
9.528244674718692
 10
-8.504115723507469
 20
9.566786471383229
 10
-8.523099846814464
 20
9.610425564329442
 10
-8.527809756289123
 20
9.657120679314742
 10
-8.518025679361945
 20
9.704689642012723
 10
-8.494202906009766
 20
9.75090611351114
  0
LINE
  5
1DD
330
1F
100
AcDbEntity
  8
0
  6
Continuous
 62
     7
370
    15
100
AcDbLine
 10
-3.447597716335951
 20
15.71750062743539
 30
0.0
 11
-8.735695461689426
 21
7.953695511900995
 31
0.0
  0
LINE
  5
1DE
330
1F
100
AcDbEntity
  8
0
  6
Continuous
 62
     7
370
    15
100
AcDbLine
 10
-8.735695461689426
 20
7.953695511900995
 30
0.0
 11
-9.069497915190552
 21
7.848327463967571
 31
0.0
  0
LINE
  5
1DF
330
1F
100
AcDbEntity
  8
0
  6
Continuous
 62
     7
370
    15
100
AcDbLine
 10
-9.732811579503069
 20
8.028601904835147
 30
0.0
 11
-9.069497915190552
 21
7.848327463967571
 31
0.0
  0
LINE
  5
1E0
330
1F
100
AcDbEntity
  8
0
  6
Continuous
 62
     7
370
    15
100
AcDbLine
 10
-9.732811579503069
 20
8.028601904835147
 30
0.0
 11
-9.841218927347139
 21
8.254153101364327
 31
0.0
  0
LINE
  5
1E1
330
1F
100
AcDbEntity
  8
0
  6
Continuous
 62
     7
370
    15
100
AcDbLine
 10
-9.841218927347139
 20
8.254153101364327
 30
0.0
 11
-4.553121181993664
 21
16.01795821689872
 31
0.0
  0
LINE
  5
1E2
330
1F
100
AcDbEntity
  8
0
  6
Continuous
 62
     7
370
    15
100
AcDbLine
 10
-4.553121181993664
 20
16.01795821689872
 30
0.0
 11
-3.447597716335951
 21
15.71750062743539
 31
0.0
  0
LINE
  5
1E3
330
1F
100
AcDbEntity
  8
0
  6
Continuous
 62
     7
370
    15
100
AcDbLine
 10
-8.729921747268967
 20
7.919754299907006
 30
0.0
 11
-9.063723653187166
 21
7.814386786431311
 31
0.0
  0
LINE
  5
1E4
330
1F
100
AcDbEntity
  8
0
  6
Continuous
 62
     7
370
    15
100
AcDbLine
 10
-9.069497915190552
 20
7.848327463967571
 30
0.0
 11
-9.063723653187166
 21
7.814386786431311
 31
0.0
  0
LINE
  5
1E5
330
1F
100
AcDbEntity
  8
0
  6
Continuous
 62
     7
370
    15
100
AcDbLine
 10
-8.735695461689426
 20
7.953695511900995
 30
0.0
 11
-8.729921747268967
 21
7.919754299907006
 31
0.0
  0
LINE
  5
1E6
330
1F
100
AcDbEntity
  8
0
  6
Continuous
 62
     7
370
    15
100
AcDbLine
 10
-9.732811579503069
 20
8.028601904835147
 30
0.0
 11
-9.727037317499682
 21
7.994661227298887
 31
0.0
  0
LINE
  5
1E7
330
1F
100
AcDbEntity
  8
0
  6
Continuous
 62
     7
370
    15
100
AcDbLine
 10
-9.727037317499682
 20
7.994661227298887
 30
0.0
 11
-9.063723653187166
 21
7.814386786431311
 31
0.0
  0
LINE
  5
1E8
330
1F
100
AcDbEntity
  8
0
  6
Continuous
 62
     7
370
    15
100
AcDbLine
 10
-3.447597716335951
 20
15.71750062743539
 30
0.0
 11
-3.441823967691562
 21
15.68355944884501
 31
0.0
  0
LINE
  5
1E9
330
1F
100
AcDbEntity
  8
0
  6
Continuous
 62
     7
370
    15
100
AcDbLine
 10
-3.441823967691562
 20
15.68355944884501
 30
0.0
 11
-8.729921747268967
 21
7.919754299907006
 31
0.0
  0
ARC
  5
1EA
330
1F
100
AcDbEntity
  8
0
  6
Continuous
 62
     7
370
    15
100
AcDbCircle
 10
-8.944338966855097
 20
8.044594652549925
 30
0.0
 40
0.0931548300821037
100
AcDbArc
 50
42.6229678180003
 51
156.6857548484635
  0
LINE
  5
1EB
330
1F
100
AcDbEntity
  8
0
  6
Continuous
 62
     7
370
    15
100
AcDbLine
 10
-9.841218927347139
 20
8.254153101364327
 30
0.0
 11
-9.83544521292668
 21
8.220211889370338
 31
0.0
  0
LINE
  5
1EC
330
1F
100
AcDbEntity
  8
0
  6
Continuous
 62
     7
370
    15
100
AcDbLine
 10
-9.727037317499682
 20
7.994661227298887
 30
0.0
 11
-9.83544521292668
 21
8.220211889370338
 31
0.0
  0
ARC
  5
1ED
330
1F
100
AcDbEntity
  8
0
  6
Continuous
 62
     7
370
    15
100
AcDbCircle
 10
-8.882624980233643
 20
8.616085035471444
 30
0.0
 40
0.0931577676432693
100
AcDbArc
 50
42.6241228243125
 51
156.6842559718452
  0
ARC
  5
1EE
330
1F
100
AcDbEntity
  8
0
  6
Continuous
 62
     7
370
    15
100
AcDbCircle
 10
-8.820910596163487
 20
9.187578448176841
 30
0.0
 40
0.0931575962038842
100
AcDbArc
 50
42.62405838455439
 51
156.6841609402696
  0
LWPOLYLINE
  5
1EF
330
1F
100
AcDbEntity
  8
0
  6
Continuous
 62
     7
370
    15
100
AcDbPolyline
 90
       13
 70
   128
 43
0.0
 10
-8.488429191589311
 20
9.716964901517153
 10
-8.451684912151488
 20
9.759670590267225
 10
-8.403734035205827
 20
9.796866634535781
 10
-8.346820854623453
 20
9.826813914066676
 10
-8.283605993887105
 20
9.848113426100599
 10
-8.217045941113688
 20
9.859767719228834
 10
-8.150251353360449
 20
9.861232399957435
 10
-8.086346165379369
 20
9.85243967450804
 10
-8.028319130205469
 20
9.833799508067171
 10
-7.978882116633558
 20
9.806183830239534
 10
-7.940350239040126
 20
9.770885131836287
 10
-7.914519779947316
 20
9.729552047880178
 10
-7.907834591966169
 20
9.711062924558259
  0
ARC
  5
1F0
330
1F
100
AcDbEntity
  8
0
  6
Continuous
 62
     7
370
    15
100
AcDbCircle
 10
-8.346195169050673
 20
9.613351086130169
 30
0.0
 40
0.175972554412811
100
AcDbArc
 50
143.9276278113781
 51
182.2048477735418
  0
ARC
  5
1F1
330
1F
100
AcDbEntity
  8
0
  6
Continuous
 62
     7
370
    15
100
AcDbCircle
 10
-7.591959488417851
 20
10.03011208109817
 30
0.0
 40
0.0931550226814193
100
AcDbArc
 50
42.6230523241116
 51
156.6858298149844
  0
ARC
  5
1F2
330
1F
100
AcDbEntity
  8
0
  6
Continuous
 62
     7
370
    15
100
AcDbCircle
 10
-7.468531463670676
 20
11.17309706901581
 30
0.0
 40
0.0931568535372364
100
AcDbArc
 50
42.62345231637112
 51
156.684607536476
  0
ARC
  5
1F3
330
1F
100
AcDbEntity
  8
0
  6
Continuous
 62
     7
370
    15
100
AcDbCircle
 10
-6.239579809519529
 20
12.01563026340299
 30
0.0
 40
0.0931545573541452
100
AcDbArc
 50
42.62287918979038
 51
156.6867298201151
  0
ARC
  5
1F4
330
1F
100
AcDbEntity
  8
0
  6
Continuous
 62
     7
370
    15
100
AcDbCircle
 10
-6.116151818982622
 20
13.15861352025702
 30
0.0
 40
0.0931575856220435
100
AcDbArc
 50
42.6240483511782
 51
156.6841709736457
  0
ARC
  5
1F5
330
1F
100
AcDbEntity
  8
0
  6
Continuous
 62
     7
370
    15
100
AcDbCircle
 10
-4.887200381018369
 20
14.00114722510395
 30
0.0
 40
0.0931548160165838
100
AcDbArc
 50
42.62314900171864
 51
156.686420140498
  0
ARC
  5
1F6
330
1F
100
AcDbEntity
  8
0
  6
Continuous
 62
     7
370
    15
100
AcDbCircle
 10
-4.763772491563928
 20
15.1441313107256
 30
0.0
 40
0.0931574052444265
100
AcDbArc
 50
42.62390185053897
 51
156.6842776063503
  0
ARC
  5
1F7
330
1F
100
AcDbEntity
  8
0
  6
Continuous
 62
     7
370
    15
100
AcDbCircle
 10
-3.41963756886038
 20
15.67543152091839
 30
0.0
 40
0.0223352118834888
100
AcDbArc
 50
116.906365868531
 51
131.7927285013649
  0
ARC
  5
1F8
330
1F
100
AcDbEntity
  8
0
  6
Continuous
 62
     7
370
    15
100
AcDbCircle
 10
-3.401698153386374
 20
15.6567725429137
 30
0.0
 40
0.0482454070666563
100
AcDbArc
 50
134.9524551499431
 51
146.2740008620461
  0
ARC
  5
1F9
330
1F
100
AcDbEntity
  8
0
  6
Continuous
 62
     7
370
    15
100
AcDbCircle
 10
-3.390543655879752
 20
15.68267884613208
 30
0.0
 40
0.0668410223416385
100
AcDbArc
 50
120.0070191909444
 51
148.6030480471087
  0
LINE
  5
1FA
330
1F
100
AcDbEntity
  8
0
  6
Continuous
 62
     7
370
    15
100
AcDbLine
 10
-3.423971258300296
 20
15.74056077478075
 30
0.0
 11
-3.429745006944684
 21
15.69534888483163
 31
0.0
  0
ARC
  5
1FB
330
1F
100
AcDbEntity
  8
0
  6
Continuous
 62
     7
370
    15
100
AcDbCircle
 10
-4.49606712153747
 20
15.98313643559541
 30
0.0
 40
0.0668410223416322
100
AcDbArc
 50
120.0070191909414
 51
148.6030480471087
  0
LINE
  5
1FC
330
1F
100
AcDbEntity
  8
0
  6
Continuous
 62
     7
370
    15
100
AcDbLine
 10
-4.529494723958008
 20
16.04101836424408
 30
0.0
 11
-3.423971258300296
 21
15.74056077478075
 31
0.0
  0
LINE
  5
1FD
330
1F
100
AcDbEntity
  8
0
  6
Continuous
 62
     7
370
    15
100
AcDbLine
 10
1.864126333045476
 20
18.29944653612109
 30
0.0
 11
1.858352618625022
 21
18.25423467957557
 31
0.0
  0
LINE
  5
1FE
330
1F
100
AcDbEntity
  8
0
  6
Continuous
 62
     7
370
    15
100
AcDbLine
 10
1.858352618625022
 20
18.25423467957557
 30
0.0
 11
-3.429745006944684
 21
15.69534888483163
 31
0.0
  0
LINE
  5
1FF
330
1F
100
AcDbEntity
  8
0
  6
Continuous
 62
     7
370
    15
100
AcDbLine
 10
1.864126333045476
 20
18.29944653612109
 30
0.0
 11
-3.423971258300296
 21
15.74056077478075
 31
0.0
  0
LINE
  5
200
330
1F
100
AcDbEntity
  8
0
  6
Continuous
 62
     7
370
    15
100
AcDbLine
 10
0.7586028673877642
 20
18.59990412558442
 30
0.0
 11
1.092407396299442
 21
18.59434748764724
 31
0.0
  0
LINE
  5
201
330
1F
100
AcDbEntity
  8
0
  6
Continuous
 62
     7
370
    15
100
AcDbLine
 10
1.755721060611961
 20
18.41407304677966
 30
0.0
 11
1.092407396299442
 21
18.59434748764724
 31
0.0
  0
LINE
  5
202
330
1F
100
AcDbEntity
  8
0
  6
Continuous
 62
     7
370
    15
100
AcDbLine
 10
1.755721060611961
 20
18.41407304677966
 30
0.0
 11
1.864126333045476
 21
18.29944653612109
 31
0.0
  0
LINE
  5
203
330
1F
100
AcDbEntity
  8
0
  6
Continuous
 62
     7
370
    15
100
AcDbLine
 10
-4.529494723958008
 20
16.04101836424408
 30
0.0
 11
0.7586028673877642
 21
18.59990412558442
 31
0.0
  0
LWPOLYLINE
  5
204
330
1F
100
AcDbEntity
  8
0
  6
Continuous
 62
     7
370
    15
100
AcDbPolyline
 90
       17
 70
   128
 43
0.0
 10
-2.598264216025417
 20
16.40377393688821
 10
-2.578597777219405
 20
16.409118665949
 10
-2.550884202329477
 20
16.41064923106926
 10
-2.519344293516994
 20
16.40813265080855
 10
-2.488776073339958
 20
16.4019510008148
 10
-2.463837438351453
 20
16.39304707694259
 10
-2.448321563758874
 20
16.38277490355728
 10
-2.44459474422357
 20
16.3726995129184
 10
-2.453219998902432
 20
16.36435402659581
 10
-2.472886574604176
 20
16.35900916392059
 10
-2.50059807408356
 20
16.35747904047956
 10
-2.532139921410855
 20
16.35999631840682
 10
-2.562706203073075
 20
16.36617727073402
 10
-2.587646776576401
 20
16.37508189227278
 10
-2.603160712654163
 20
16.38535336799154
 10
-2.60688960760001
 20
16.39542831695119
 10
-2.598264216025417
 20
16.40377393688821
  0
LWPOLYLINE
  5
205
330
1F
100
AcDbEntity
  8
0
  6
Continuous
 62
     7
370
    15
100
AcDbPolyline
 90
       17
 70
   128
 43
0.0
 10
-1.245884962700271
 20
17.05818376474306
 10
-1.226218386998527
 20
17.06352862741828
 10
-1.198504812108599
 20
17.06505919253855
 10
-1.166964903296116
 20
17.06254261227783
 10
-1.13639668311908
 20
17.05636096228409
 10
-1.111458048130575
 20
17.04745703841188
 10
-1.095942173537997
 20
17.03718486502657
 10
-1.092215354002692
 20
17.02710947438769
 10
-1.100840745577285
 20
17.01876385445066
 10
-1.120507047487567
 20
17.01342026473566
 10
-1.148218546966947
 20
17.01188913556328
 10
-1.179760531189977
 20
17.0144062798761
 10
-1.210326675956466
 20
17.02058736581773
 10
-1.235267386355523
 20
17.02949185374206
 10
-1.250781185537549
 20
17.03976346307526
 10
-1.254510080483401
 20
17.04983941776625
 10
-1.245884962700271
 20
17.05818376474306
  0
LWPOLYLINE
  5
206
330
1F
100
AcDbEntity
  8
0
  6
Continuous
 62
     7
370
    15
100
AcDbPolyline
 90
       17
 70
   128
 43
0.0
 10
0.1064945644163377
 20
17.71259486555813
 10
0.1261611401180816
 20
17.71793972823335
 10
0.1538744412165471
 20
17.7194690203934
 10
0.1854143500290255
 20
17.71695244013269
 10
0.2159825702060621
 20
17.71077079013894
 10
0.2409212051945711
 20
17.70186686626673
 10
0.2564370797871498
 20
17.69159469288142
 10
0.2601641731139157
 20
17.68152057520275
 10
0.2515387815393232
 20
17.67317495526573
 10
0.2318722058375792
 20
17.66783009259051
 10
0.2041607063581994
 20
17.66629896341813
 10
0.1726187221351646
 20
17.66881610773096
 10
0.1420525773686801
 20
17.67499719367259
 10
0.1171118669696234
 20
17.68390168159692
 10
0.1015980677875968
 20
17.69417329093011
 10
0.0978691728417451
 20
17.7042492456211
 10
0.1064945644163377
 20
17.71259486555813
  0
LWPOLYLINE
  5
207
330
1F
100
AcDbEntity
  8
0
  6
Continuous
 62
     7
370
    15
100
AcDbPolyline
 90
       17
 70
   128
 43
0.0
 10
1.458873817741484
 20
18.36700469341298
 10
1.478540119651762
 20
18.37234928885934
 10
1.506253968333155
 20
18.37387911547711
 10
1.537793603354172
 20
18.37136226798754
 10
1.568362097322675
 20
18.36518189095401
 10
1.593300458519717
 20
18.35627669412158
 10
1.608816606903758
 20
18.34600478796513
 10
1.612543152647596
 20
18.33593013582874
 10
1.603918034864469
 20
18.32758478312058
 10
1.584251732954192
 20
18.32224018767422
 10
1.556539959683341
 20
18.32070879127298
 10
1.524998249251777
 20
18.32322620281468
 10
1.494431830693826
 20
18.32940702152744
 10
1.469491394086236
 20
18.33831177668063
 10
1.453977321112739
 20
18.34858311878496
 10
1.450248699958353
 20
18.35865934070482
 10
1.458873817741484
 20
18.36700469341298
  0
LWPOLYLINE
  5
208
330
1F
100
AcDbEntity
  8
0
  6
Continuous
 62
     7
370
    15
100
AcDbPolyline
 90
       17
 70
   128
 43
0.0
 10
-3.827214674707304
 20
16.22679790491763
 10
-3.807548167453428
 20
16.23214270078564
 10
-3.779834592563496
 20
16.2336732659059
 10
-3.748294752198881
 20
16.23115661883797
 10
-3.717726463573979
 20
16.22497503565145
 10
-3.692787897033337
 20
16.21607104497201
 10
-3.677274029403443
 20
16.20579950244604
 10
-3.673545134457594
 20
16.19572354775504
 10
-3.682170457584319
 20
16.18737799462524
 10
-3.701836964838197
 20
16.18203319875723
 10
-3.729550471280261
 20
16.18050270044419
 10
-3.761090380092742
 20
16.1830192807049
 10
-3.791656524859229
 20
16.18920036664652
 10
-3.816597235258285
 20
16.19810485457085
 10
-3.832111034440314
 20
16.20837646390405
 10
-3.835839997834031
 20
16.21845235178782
 10
-3.827214674707304
 20
16.22679790491763
  0
LWPOLYLINE
  5
209
330
1F
100
AcDbEntity
  8
0
  6
Continuous
 62
     7
370
    15
100
AcDbPolyline
 90
       17
 70
   128
 43
0.0
 10
-2.474835284486429
 20
16.88120786638692
 10
-2.455168708784685
 20
16.88655272906214
 10
-2.427455270790484
 20
16.88808316056797
 10
-2.395915361978005
 20
16.88556658030726
 10
-2.365347141800969
 20
16.87938493031351
 10
-2.34040850681246
 20
16.8704810064413
 10
-2.324894707630433
 20
16.86020939710811
 10
-2.32116567578885
 20
16.85013357603154
 10
-2.329791067363443
 20
16.84178795609452
 10
-2.349457506169452
 20
16.83644322703373
 10
-2.377171081059383
 20
16.83491266191347
 10
-2.408710989871862
 20
16.83742924217418
 10
-2.439277134638351
 20
16.84361032811581
 10
-2.464217845037408
 20
16.85251481604014
 10
-2.479731644219434
 20
16.86278642537333
 10
-2.483460539165286
 20
16.87286238006433
 10
-2.474835284486429
 20
16.88120786638692
  0
LWPOLYLINE
  5
20A
330
1F
100
AcDbEntity
  8
0
  6
Continuous
 62
     7
370
    15
100
AcDbPolyline
 90
       17
 70
   128
 43
0.0
 10
-1.122455757369815
 20
17.53561796147063
 10
-1.102789455459538
 20
17.54096255691699
 10
-1.075075880569606
 20
17.54249312203725
 10
-1.043535971757123
 20
17.53997654177655
 10
-1.012967751580091
 20
17.5337948917828
 10
-0.9880291165915824
 20
17.52489096791059
 10
-0.9725153174095558
 20
17.51461935857739
 10
-0.9687864224637042
 20
17.50454340388639
 10
-0.9774115402468304
 20
17.49619805117824
 10
-0.9970781159485742
 20
17.49085318850301
 10
-1.024791690838506
 20
17.48932262338275
 10
-1.056331599650984
 20
17.49183920364346
 10
-1.086897744417473
 20
17.49802028958509
 10
-1.11183845481653
 20
17.50692477750942
 10
-1.127352253998556
 20
17.51719638684261
 10
-1.131081148944408
 20
17.52727234153361
 10
-1.122455757369815
 20
17.53561796147063
  0
LWPOLYLINE
  5
20B
330
1F
100
AcDbEntity
  8
0
  6
Continuous
 62
     7
370
    15
100
AcDbPolyline
 90
       17
 70
   128
 43
0.0
 10
0.2299237697467928
 20
18.19002805655435
 10
0.2495900716570704
 20
18.19537265200071
 10
0.2773033727555403
 20
18.1969029498921
 10
0.308843555359485
 20
18.19438663686026
 10
0.3394115017450553
 20
18.18820471963765
 10
0.3643504105250262
 20
18.1793010629943
 10
0.3798639359155909
 20
18.16902918643224
 10
0.3835931046529046
 20
18.15895349897011
 10
0.3749679868697783
 20
18.15060814626195
 10
0.355301137376568
 20
18.14526301635787
 10
0.3275878362781024
 20
18.14373271846647
 10
0.2960476536741577
 20
18.14624903149832
 10
0.2654817826991396
 20
18.15243038466881
 10
0.2405407985086166
 20
18.16133460536428
 10
0.2250272731180519
 20
18.17160648192633
 10
0.2212981043807339
 20
18.18168216938846
 10
0.2299237697467928
 20
18.19002805655435
  0
LWPOLYLINE
  5
20C
330
1F
100
AcDbEntity
  8
0
  6
Continuous
 62
     7
370
    15
100
AcDbPolyline
 90
       17
 70
   128
 43
0.0
 10
0.8443987937441407
 20
18.27851637498367
 10
0.8640650956544183
 20
18.28386097043002
 10
0.891778944335812
 20
18.28539180277915
 10
0.9233185793568287
 20
18.28287495528958
 10
0.9538870733253315
 20
18.27669357252469
 10
0.9788254345223698
 20
18.26778938142362
 10
0.9943415829064148
 20
18.25751747526717
 10
0.9980681286502527
 20
18.24744181739943
 10
0.9894430108671262
 20
18.23909646469127
 10
0.969776161373916
 20
18.23375133478718
 10
0.9420649356859982
 20
18.23222047284367
 10
0.910523225254434
 20
18.23473788438536
 10
0.8799568066964832
 20
18.24091870309812
 10
0.8550163700888928
 20
18.24982345825132
 10
0.8395022971153956
 20
18.26009480035565
 10
0.8357731283780818
 20
18.27017048781778
 10
0.8443987937441407
 20
18.27851637498367
  0
LWPOLYLINE
  5
20D
330
1F
100
AcDbEntity
  8
0
  6
Continuous
 62
     7
370
    15
100
AcDbPolyline
 90
       30
 70
   128
 43
0.0
 10
-0.0356483080049235
 20
18.00671471014225
 10
0.001095971432903
 20
18.01961353893571
 10
0.0490468483785596
 20
18.02839566116445
 10
0.1059600289609333
 20
18.03265253914553
 10
0.1691748896972816
 20
18.03218400188631
 10
0.2357349424707005
 20
18.0270124095648
 10
0.302529530223938
 20
18.01737985060109
 10
0.3664347182050199
 20
18.0037354771296
 10
0.4244617533789208
 20
17.98671856108418
 10
0.4738987669508316
 20
17.9671245964871
 10
0.5124306445442608
 20
17.9458699306254
 10
0.5382611036370728
 20
17.92394746168305
 10
0.550178478047334
 20
17.90238220425072
 10
0.5476256262174051
 20
17.88218482055022
 10
0.5307225106941288
 20
17.86429694808681
 10
0.5002604722637465
 20
17.84955649619304
 10
0.4576637741287962
 20
17.83865259466795
 10
0.4049233443735273
 20
17.8320941135265
 10
0.3445046332580069
 20
17.83018960153612
 10
0.279232870838507
 20
17.83302676431633
 10
0.2121637088158198
 20
17.84047219826573
 10
0.1464276155225473
 20
17.85217947461392
 10
0.0851022145660553
 20
17.86760033493491
 10
0.0310535193361323
 20
17.88601329947419
 10
-0.0131907819597819
 20
17.90655838963893
 10
-0.0455611255026247
 20
17.92827430085372
 10
-0.0645452488096197
 20
17.95014534450679
 10
-0.0692548844928117
 20
17.97115032517114
 10
-0.0594708075656332
 20
17.99030536582931
 10
-0.0356483080049235
 20
18.00671471014225
  0
ARC
  5
20E
330
1F
100
AcDbEntity
  8
0
  6
Continuous
 62
     7
370
    15
100
AcDbCircle
 10
-3.790095085523388
 20
15.92985366204802
 30
0.0
 40
0.2586407430469252
100
AcDbArc
 50
75.6922694300254
 51
89.75354440606549
  0
ARC
  5
20F
330
1F
100
AcDbEntity
  8
0
  6
Continuous
 62
     7
370
    15
100
AcDbCircle
 10
-2.561189087391382
 20
16.10651819479984
 30
0.0
 40
0.258953372827767
100
AcDbArc
 50
75.69931618461095
 51
89.74401970031413
  0
ARC
  5
210
330
1F
100
AcDbEntity
  8
0
  6
Continuous
 62
     7
370
    15
100
AcDbCircle
 10
-2.437712580826148
 20
16.58428584941871
 30
0.0
 40
0.2586184368717763
100
AcDbArc
 50
75.69172114700357
 51
89.75422831821843
  0
ARC
  5
211
330
1F
100
AcDbEntity
  8
0
  6
Continuous
 62
     7
370
    15
100
AcDbCircle
 10
-1.208802596331572
 20
16.76097415131803
 30
0.0
 40
0.2589072123843776
100
AcDbArc
 50
75.69830261323082
 51
89.74557577717098
  0
ARC
  5
212
330
1F
100
AcDbEntity
  8
0
  6
Continuous
 62
     7
370
    15
100
AcDbCircle
 10
-1.085339420549706
 20
17.23865135174354
 30
0.0
 40
0.258663056604765
100
AcDbArc
 50
75.6928178074983
 51
89.75286039921519
  0
ARC
  5
213
330
1F
100
AcDbEntity
  8
0
  6
Continuous
 62
     7
370
    15
100
AcDbCircle
 10
0.1435612696229292
 20
17.41524069170273
 30
0.0
 40
0.2590508356474974
100
AcDbArc
 50
75.70288845684669
 51
89.74225293140577
  0
LWPOLYLINE
  5
214
330
1F
100
AcDbEntity
  8
0
  6
Continuous
 62
     7
370
    15
100
AcDbPolyline
 90
       14
 70
   128
 43
0.0
 10
-0.0629196701424156
 20
17.9474045433647
 10
-0.0414220224253775
 20
17.96150285359673
 10
-0.0046777429875553
 20
17.9744016823902
 10
0.0432731339581056
 20
17.98318380461893
 10
0.1001863145404793
 20
17.98744068260002
 10
0.1634011752768276
 20
17.9869721453408
 10
0.2299612280502465
 20
17.98180055301929
 10
0.2967558158034841
 20
17.97216799405557
 10
0.3606610037845659
 20
17.95852362058409
 10
0.4186880389584668
 20
17.94150670453866
 10
0.4681250525303776
 20
17.92191273994158
 10
0.5066569301238069
 20
17.90065807407989
 10
0.5324873892166189
 20
17.87873560513754
 10
0.5386094056932983
 20
17.87058681159181
  0
ARC
  5
215
330
1F
100
AcDbEntity
  8
0
  6
Continuous
 62
     7
370
    15
100
AcDbCircle
 10
0.2669830948916743
 20
17.89265802505086
 30
0.0
 40
0.2590677321586263
100
AcDbArc
 50
75.70269257519601
 51
89.74063754057878
  0
ARC
  5
216
330
1F
100
AcDbEntity
  8
0
  6
Continuous
 62
     7
370
    15
100
AcDbCircle
 10
0.8815272329265068
 20
17.98165614991373
 30
0.0
 40
0.258556620997266
100
AcDbArc
 50
75.68915833059809
 51
89.75544055379131
  0
ARC
  5
217
330
1F
100
AcDbEntity
  8
0
  6
Continuous
 62
     7
370
    15
100
AcDbCircle
 10
1.496000339227463
 20
18.0701083925264
 30
0.0
 40
0.2585927046767023
100
AcDbArc
 50
75.69063411191597
 51
89.75504977612564
  0
LINE
  5
218
330
1F
100
AcDbEntity
  8
0
  6
Continuous
 62
     7
370
    15
100
AcDbLine
 10
-6.073705829991086
 20
9.660000103709302
 30
0.0
 11
-5.134617531465939
 21
4.139541914067633
 31
0.0
  0
LINE
  5
219
330
1F
100
AcDbEntity
  8
0
  6
Continuous
 62
     7
370
    15
100
AcDbLine
 10
-5.694042848311726
 20
10.21741075912924
 30
0.0
 11
-4.637133320936823
 21
4.00433636544301
 31
0.0
  0
LINE
  5
21A
330
1F
100
AcDbEntity
  8
0
  6
Continuous
 62
     7
370
    15
100
AcDbLine
 10
-5.134617531465939
 20
4.139541914067633
 30
0.0
 11
-4.637133320936823
 21
4.00433636544301
 31
0.0
  0
LINE
  5
21B
330
1F
100
AcDbEntity
  8
0
  6
Continuous
 62
     7
370
    15
100
AcDbLine
 10
-5.694042848311726
 20
10.21741075912924
 30
0.0
 11
-3.2146806243508
 21
13.85752572978266
 31
0.0
  0
LINE
  5
21C
330
1F
100
AcDbEntity
  8
0
  6
Continuous
 62
     7
370
    15
100
AcDbLine
 10
-3.2146806243508
 20
13.85752572978266
 30
0.0
 11
-2.382934194896653
 21
8.968079067665172
 31
0.0
  0
LINE
  5
21D
330
1F
100
AcDbEntity
  8
0
  6
Continuous
 62
     7
370
    15
100
AcDbLine
 10
-4.637133320936823
 20
4.00433636544301
 30
0.0
 11
-4.018998094339238
 21
4.911861371530062
 31
0.0
  0
LINE
  5
21E
330
1F
100
AcDbEntity
  8
0
  6
Continuous
 62
     7
370
    15
100
AcDbLine
 10
-3.348238636908533
 20
5.896647828119426
 30
0.0
 11
-2.64293012964401
 21
6.932157607797975
 31
0.0
  0
LINE
  5
21F
330
1F
100
AcDbEntity
  8
0
  6
Continuous
 62
     7
370
    15
100
AcDbLine
 10
10.22548509518869
 20
5.890824178307433
 30
0.0
 11
12.70484731914962
 21
9.530939148960852
 31
0.0
  0
LINE
  5
220
330
1F
100
AcDbEntity
  8
0
  6
Continuous
 62
     7
370
    15
100
AcDbLine
 10
10.22548509518869
 20
5.890824178307433
 30
0.0
 11
11.28239462256359
 21
-0.3222502153788019
 31
0.0
  0
LINE
  5
221
330
1F
100
AcDbEntity
  8
0
  6
Continuous
 62
     7
370
    15
100
AcDbLine
 10
12.70484731914962
 20
9.530939148960852
 30
0.0
 11
13.76175676952067
 21
3.317865182982171
 31
0.0
  0
LINE
  5
222
330
1F
100
AcDbEntity
  8
0
  6
Continuous
 62
     7
370
    15
100
AcDbLine
 10
11.28239462256359
 20
-0.3222502153788019
 30
0.0
 11
11.89792027425744
 21
0.5814434466707668
 31
0.0
  0
LINE
  5
223
330
1F
100
AcDbEntity
  8
0
  6
Continuous
 62
     7
370
    15
100
AcDbLine
 10
12.56446234100283
 20
1.560038274024858
 30
0.0
 11
13.76175676952067
 21
3.317865182982171
 31
0.0
  0
LINE
  5
224
330
1F
100
AcDbEntity
  8
0
  6
Continuous
 62
     7
370
    15
100
AcDbLine
 10
9.845817962688231
 20
5.333414650991722
 30
0.0
 11
10.78490626121338
 21
-0.1870435386499463
 31
0.0
  0
LINE
  5
225
330
1F
100
AcDbEntity
  8
0
  6
Continuous
 62
     7
370
    15
100
AcDbLine
 10
10.78490626121338
 20
-0.1870435386499463
 30
0.0
 11
11.28239462256359
 21
-0.3222502153788019
 31
0.0
  0
LINE
  5
226
330
1F
100
AcDbEntity
  8
0
  6
Continuous
 62
     7
370
    15
100
AcDbLine
 10
12.69718220618434
 20
12.47162154403712
 30
0.0
 11
13.48607014958925
 21
12.85336090625676
 31
0.0
  0
LINE
  5
227
330
1F
100
AcDbEntity
  8
0
  6
Continuous
 62
     7
370
    15
100
AcDbLine
 10
12.69718220618434
 20
12.47162154403712
 30
0.0
 11
-1.67461247031317
 21
16.37756738679984
 31
0.0
  0
LINE
  5
228
330
1F
100
AcDbEntity
  8
0
  6
Continuous
 62
     7
370
    15
100
AcDbLine
 10
-1.67461247031317
 20
16.37756738679984
 30
0.0
 11
-0.88572452690826
 21
16.75930674901949
 31
0.0
  0
LINE
  5
229
330
1F
100
AcDbEntity
  8
0
  6
Continuous
 62
     7
370
    15
100
AcDbLine
 10
13.48607014958925
 20
12.85336090625676
 30
0.0
 11
-0.88572452690826
 21
16.75930674901949
 31
0.0
  0
LINE
  5
22A
330
1F
100
AcDbEntity
  8
0
  6
Continuous
 62
     7
370
    15
100
AcDbLine
 10
-1.67461247031317
 20
16.37756738679984
 30
0.0
 11
-1.91619182214646
 21
14.48585896662995
 31
0.0
  0
LINE
  5
22B
330
1F
100
AcDbEntity
  8
0
  6
Continuous
 62
     7
370
    15
100
AcDbLine
 10
-1.91619182214646
 20
14.48585896662995
 30
0.0
 11
10.70102171945026
 21
11.05677068020728
 31
0.0
  0
LINE
  5
22C
330
1F
100
AcDbEntity
  8
0
  6
Continuous
 62
     7
370
    15
100
AcDbLine
 10
-2.719530205298964
 20
6.332333935224496
 30
0.0
 11
5.889457468538338
 21
3.992595553767512
 31
0.0
  0
LINE
  5
22D
330
1F
100
AcDbEntity
  8
0
  6
Continuous
 62
     7
370
    15
100
AcDbLine
 10
-1.686270237114601
 20
14.42337053497633
 30
0.0
 11
-2.719530205298964
 21
6.332333935224496
 31
0.0
  0
LINE
  5
22E
330
1F
100
AcDbEntity
  8
0
  6
Continuous
 62
     7
370
    15
100
AcDbLine
 10
-2.973101315297427
 20
6.209632406792756
 30
0.0
 11
5.779330434128645
 21
3.83090899922549
 31
0.0
  0
LINE
  5
22F
330
1F
100
AcDbEntity
  8
0
  6
Continuous
 62
     7
370
    15
100
AcDbLine
 10
-2.719530205298964
 20
6.332333935224496
 30
0.0
 11
-2.973101315297427
 21
6.209632406792756
 31
0.0
  0
LINE
  5
230
330
1F
100
AcDbEntity
  8
0
  6
Continuous
 62
     7
370
    15
100
AcDbLine
 10
-2.973101315297427
 20
6.209632406792756
 30
0.0
 11
-3.2146806243508
 21
4.317923525511699
 31
0.0
  0
LINE
  5
231
330
1F
100
AcDbEntity
  8
0
  6
Continuous
 62
     8
370
    15
100
AcDbLine
 10
-3.952839576094204
 20
4.919903220380929
 30
0.0
 11
-3.952839576094204
 21
5.081143075801644
 31
0.0
  0
LINE
  5
232
330
1F
100
AcDbEntity
  8
0
  6
Continuous
 62
     8
370
    15
100
AcDbLine
 10
11.95511863949425
 20
0.5936729245130822
 30
0.0
 11
11.95511863949425
 21
0.7104157050446288
 31
0.0
  0
ENDSEC
  0
SECTION
  2
OBJECTS
  0
DICTIONARY
  5
C
330
0
100
AcDbDictionary
281
     1
  3
ACAD_COLOR
350
235
  3
ACAD_GROUP
350
D
  3
ACAD_LAYOUT
350
1A
  3
ACAD_MATERIAL
350
234
  3
ACAD_MLINESTYLE
350
17
  3
ACAD_PLOTSETTINGS
350
19
  3
ACAD_PLOTSTYLENAME
350
E
  3
ACAD_SCALELIST
350
47
  0
DICTIONARY
  5
235
102
{ACAD_REACTORS
330
C
102
}
330
C
100
AcDbDictionary
281
     1
  0
DICTIONARY
  5
D
102
{ACAD_REACTORS
330
C
102
}
330
C
100
AcDbDictionary
281
     1
  0
DICTIONARY
  5
1A
102
{ACAD_REACTORS
330
C
102
}
330
C
100
AcDbDictionary
281
     1
  3
Layout1
350
1E
  3
Layout2
350
26
  3
Model
350
22
  0
DICTIONARY
  5
234
102
{ACAD_REACTORS
330
C
102
}
330
C
100
AcDbDictionary
281
     1
  0
DICTIONARY
  5
17
102
{ACAD_REACTORS
330
C
102
}
330
C
100
AcDbDictionary
281
     1
  3
Standard
350
18
  0
DICTIONARY
  5
19
102
{ACAD_REACTORS
330
C
102
}
330
C
100
AcDbDictionary
281
     1
  0
ACDBDICTIONARYWDFLT
  5
E
102
{ACAD_REACTORS
330
C
102
}
330
C
100
AcDbDictionary
281
     1
  3
Normal
350
F
100
AcDbDictionaryWithDefault
340
F
  0
DICTIONARY
  5
47
102
{ACAD_REACTORS
330
C
102
}
330
C
100
AcDbDictionary
281
     1
  3
A0
350
48
  3
A1
350
49
  3
A2
350
4A
  3
A3
350
4B
  3
A4
350
4C
  3
A5
350
4D
  3
A6
350
4E
  3
A7
350
4F
  3
A8
350
50
  3
A9
350
51
  3
B0
350
52
  3
B1
350
53
  3
B2
350
54
  3
B3
350
55
  3
B4
350
56
  3
B5
350
57
  3
B6
350
58
  3
B7
350
59
  3
B8
350
5A
  3
B9
350
5B
  3
C0
350
5C
  3
C1
350
5D
  3
C2
350
5E
  3
C3
350
5F
  3
C4
350
60
  3
C5
350
61
  3
C6
350
62
  3
C7
350
63
  3
C8
350
64
  3
C9
350
65
  3
D0
350
66
  3
D1
350
67
  3
D2
350
68
  0
LAYOUT
  5
1E
102
{ACAD_REACTORS
330
1A
102
}
330
1A
100
AcDbPlotSettings
  1

  2
none_device
  4

  6

 40
0.0
 41
0.0
 42
0.0
 43
0.0
 44
0.0
 45
0.0
 46
0.0
 47
0.0
 48
0.0
 49
0.0
140
0.0
141
0.0
142
1.0
143
1.0
 70
   688
 72
     0
 73
     0
 74
     5
  7

 75
    16
147
1.0
 76
     0
 77
     2
 78
   300
148
0.0
149
0.0
100
AcDbLayout
  1
Layout1
 70
     1
 71
     1
 10
0.0
 20
0.0
 11
12.0
 21
9.0
 12
0.0
 22
0.0
 32
0.0
 14
1.000000000000000E+20
 24
1.000000000000000E+20
 34
1.000000000000000E+20
 15
-1.000000000000000E+20
 25
-1.000000000000000E+20
 35
-1.000000000000000E+20
146
0.0
 13
0.0
 23
0.0
 33
0.0
 16
1.0
 26
0.0
 36
0.0
 17
0.0
 27
1.0
 37
0.0
 76
     0
330
1B
  0
LAYOUT
  5
26
102
{ACAD_REACTORS
330
1A
102
}
330
1A
100
AcDbPlotSettings
  1

  2
none_device
  4

  6

 40
0.0
 41
0.0
 42
0.0
 43
0.0
 44
0.0
 45
0.0
 46
0.0
 47
0.0
 48
0.0
 49
0.0
140
0.0
141
0.0
142
1.0
143
1.0
 70
   688
 72
     0
 73
     0
 74
     5
  7

 75
    16
147
1.0
 76
     0
 77
     2
 78
   300
148
0.0
149
0.0
100
AcDbLayout
  1
Layout2
 70
     1
 71
     2
 10
0.0
 20
0.0
 11
0.0
 21
0.0
 12
0.0
 22
0.0
 32
0.0
 14
0.0
 24
0.0
 34
0.0
 15
0.0
 25
0.0
 35
0.0
146
0.0
 13
0.0
 23
0.0
 33
0.0
 16
1.0
 26
0.0
 36
0.0
 17
0.0
 27
1.0
 37
0.0
 76
     0
330
23
  0
LAYOUT
  5
22
102
{ACAD_REACTORS
330
1A
102
}
330
1A
100
AcDbPlotSettings
  1

  2
none_device
  4
Letter_(8.50_x_11.00_Inches)
  6

 40
6.349999999999999
 41
6.349999999999999
 42
6.350005079999999
 43
6.350005079999999
 44
215.9
 45
279.4
 46
0.0
 47
0.0
 48
0.0
 49
0.0
140
0.0
141
0.0
142
1.0
143
1.0
 70
  1712
 72
     0
 73
     0
 74
     0
  7

 75
     0
147
1.0
 76
     0
 77
     2
 78
   300
148
0.0
149
0.0
100
AcDbLayout
  1
Model
 70
     1
 71
     0
 10
0.0
 20
0.0
 11
11.0
 21
8.5
 12
0.0
 22
0.0
 32
0.0
 14
0.0
 24
0.0
 34
0.0
 15
11.0
 25
8.5
 35
0.0
146
0.0
 13
0.0
 23
0.0
 33
0.0
 16
1.0
 26
0.0
 36
0.0
 17
0.0
 27
1.0
 37
0.0
 76
     0
330
1F
  0
MLINESTYLE
  5
18
102
{ACAD_REACTORS
330
17
102
}
330
17
100
AcDbMlineStyle
  2
STANDARD
 70
     0
  3

 62
   256
 51
90.0
 52
90.0
 71
     2
 49
0.5
 62
   256
  6
BYLAYER
 49
-0.5
 62
   256
  6
BYLAYER
  0
ACDBPLACEHOLDER
  5
F
102
{ACAD_REACTORS
330
E
102
}
330
E
  0
ACAD_PROXY_OBJECT
  5
48
102
{ACAD_REACTORS
330
47
102
}
330
47
100
AcDbProxyObject
 90
      499
 91
      503
 95
   393239
 70
     0
 93
       41
310
903313A31580
 94
        0
  0
ACAD_PROXY_OBJECT
  5
49
102
{ACAD_REACTORS
330
47
102
}
330
47
100
AcDbProxyObject
 90
      499
 91
      503
 95
   393239
 70
     0
 93
      105
310
903313A324000000000000004000
 94
        0
  0
ACAD_PROXY_OBJECT
  5
4A
102
{ACAD_REACTORS
330
47
102
}
330
47
100
AcDbProxyObject
 90
      499
 91
      503
 95
   393239
 70
     0
 93
      105
310
903313A344000000000000104000
 94
        0
  0
ACAD_PROXY_OBJECT
  5
4B
102
{ACAD_REACTORS
330
47
102
}
330
47
100
AcDbProxyObject
 90
      499
 91
      503
 95
   393239
 70
     0
 93
      105
310
903313A354000000000000144000
 94
        0
  0
ACAD_PROXY_OBJECT
  5
4C
102
{ACAD_REACTORS
330
47
102
}
330
47
100
AcDbProxyObject
 90
      499
 91
      503
 95
   393239
 70
     0
 93
      105
310
903313A384000000000000204000
 94
        0
  0
ACAD_PROXY_OBJECT
  5
4D
102
{ACAD_REACTORS
330
47
102
}
330
47
100
AcDbProxyObject
 90
      499
 91
      503
 95
   393239
 70
     0
 93
      113
310
904313A31304000000000000244000
 94
        0
  0
ACAD_PROXY_OBJECT
  5
4E
102
{ACAD_REACTORS
330
47
102
}
330
47
100
AcDbProxyObject
 90
      499
 91
      503
 95
   393239
 70
     0
 93
      113
310
904313A31364000000000000304000
 94
        0
  0
ACAD_PROXY_OBJECT
  5
4F
102
{ACAD_REACTORS
330
47
102
}
330
47
100
AcDbProxyObject
 90
      499
 91
      503
 95
   393239
 70
     0
 93
      113
310
904313A32304000000000000344000
 94
        0
  0
ACAD_PROXY_OBJECT
  5
50
102
{ACAD_REACTORS
330
47
102
}
330
47
100
AcDbProxyObject
 90
      499
 91
      503
 95
   393239
 70
     0
 93
      113
310
904313A333040000000000003E4000
 94
        0
  0
ACAD_PROXY_OBJECT
  5
51
102
{ACAD_REACTORS
330
47
102
}
330
47
100
AcDbProxyObject
 90
      499
 91
      503
 95
   393239
 70
     0
 93
      113
310
904313A34304000000000000444000
 94
        0
  0
ACAD_PROXY_OBJECT
  5
52
102
{ACAD_REACTORS
330
47
102
}
330
47
100
AcDbProxyObject
 90
      499
 91
      503
 95
   393239
 70
     0
 93
      113
310
904313A35304000000000000494000
 94
        0
  0
ACAD_PROXY_OBJECT
  5
53
102
{ACAD_REACTORS
330
47
102
}
330
47
100
AcDbProxyObject
 90
      499
 91
      503
 95
   393239
 70
     0
 93
      121
310
905313A3130304000000000000594000
 94
        0
  0
ACAD_PROXY_OBJECT
  5
54
102
{ACAD_REACTORS
330
47
102
}
330
47
100
AcDbProxyObject
 90
      499
 91
      503
 95
   393239
 70
     0
 93
      105
310
903323A310000000000000010140
 94
        0
  0
ACAD_PROXY_OBJECT
  5
55
102
{ACAD_REACTORS
330
47
102
}
330
47
100
AcDbProxyObject
 90
      499
 91
      503
 95
   393239
 70
     0
 93
      105
310
903343A310000000000000410159
 94
        0
  0
ACAD_PROXY_OBJECT
  5
56
102
{ACAD_REACTORS
330
47
102
}
330
47
100
AcDbProxyObject
 90
      499
 91
      503
 95
   393239
 70
     0
 93
      105
310
903383A310000000000000810140
 94
        0
  0
ACAD_PROXY_OBJECT
  5
57
102
{ACAD_REACTORS
330
47
102
}
330
47
100
AcDbProxyObject
 90
      499
 91
      503
 95
   393239
 70
     0
 93
      113
310
90431303A310000000000000910140
 94
        0
  0
ACAD_PROXY_OBJECT
  5
58
102
{ACAD_REACTORS
330
47
102
}
330
47
100
AcDbProxyObject
 90
      499
 91
      503
 95
   393239
 70
     0
 93
      121
310
9053130303A310000000000001650100
 94
        0
  0
ACAD_PROXY_OBJECT
  5
59
102
{ACAD_REACTORS
330
47
102
}
330
47
100
AcDbProxyObject
 90
      499
 91
      503
 95
   393239
 70
     0
 93
      257
310
90E312F31323822203D2031272D3022000000000000200FC000000000000284000
 94
        0
  0
ACAD_PROXY_OBJECT
  5
5A
102
{ACAD_REACTORS
330
47
102
}
330
47
100
AcDbProxyObject
 90
      499
 91
      503
 95
   393239
 70
     0
 93
      249
310
90D312F363422203D2031272D3022000000000000240FC000000000000284000
 94
        0
  0
ACAD_PROXY_OBJECT
  5
5B
102
{ACAD_REACTORS
330
47
102
}
330
47
100
AcDbProxyObject
 90
      499
 91
      503
 95
   393239
 70
     0
 93
      249
310
90D312F333222203D2031272D3022000000000000280FC000000000000284040
 94
        0
  0
ACAD_PROXY_OBJECT
  5
5C
102
{ACAD_REACTORS
330
47
102
}
330
47
100
AcDbProxyObject
 90
      499
 91
      503
 95
   393239
 70
     0
 93
      249
310
90D312F313622203D2031272D30220000000000002C0FC000000000000284000
 94
        0
  0
ACAD_PROXY_OBJECT
  5
5D
102
{ACAD_REACTORS
330
47
102
}
330
47
100
AcDbProxyObject
 90
      499
 91
      503
 95
   393239
 70
     0
 93
      249
310
90D332F333222203D2031272D30220000000000002E0FC000000000000284040
 94
        0
  0
ACAD_PROXY_OBJECT
  5
5E
102
{ACAD_REACTORS
330
47
102
}
330
47
100
AcDbProxyObject
 90
      499
 91
      503
 95
   393239
 70
     0
 93
      241
310
90C312F3822203D2031272D3022000000000000300FC000000000000284040
 94
        0
  0
ACAD_PROXY_OBJECT
  5
5F
102
{ACAD_REACTORS
330
47
102
}
330
47
100
AcDbProxyObject
 90
      499
 91
      503
 95
   393239
 70
     0
 93
      249
310
90D332F313622203D2031272D3022000000000000320FC000000000000284040
 94
        0
  0
ACAD_PROXY_OBJECT
  5
60
102
{ACAD_REACTORS
330
47
102
}
330
47
100
AcDbProxyObject
 90
      499
 91
      503
 95
   393239
 70
     0
 93
      241
310
90C312F3422203D2031272D3022000000000000340FC000000000000284040
 94
        0
  0
ACAD_PROXY_OBJECT
  5
61
102
{ACAD_REACTORS
330
47
102
}
330
47
100
AcDbProxyObject
 90
      499
 91
      503
 95
   393239
 70
     0
 93
      241
310
90C332F3822203D2031272D3022000000000000360FC000000000000284040
 94
        0
  0
ACAD_PROXY_OBJECT
  5
62
102
{ACAD_REACTORS
330
47
102
}
330
47
100
AcDbProxyObject
 90
      499
 91
      503
 95
   393239
 70
     0
 93
      241
310
90C312F3222203D2031272D3022000000000000380FC000000000000284040
 94
        0
  0
ACAD_PROXY_OBJECT
  5
63
102
{ACAD_REACTORS
330
47
102
}
330
47
100
AcDbProxyObject
 90
      499
 91
      503
 95
   393239
 70
     0
 93
      241
310
90C332F3422203D2031272D30220000000000003A0FC000000000000284040
 94
        0
  0
ACAD_PROXY_OBJECT
  5
64
102
{ACAD_REACTORS
330
47
102
}
330
47
100
AcDbProxyObject
 90
      499
 91
      503
 95
   393239
 70
     0
 93
      161
310
90A3122203D2031272D30224000000000000284000
 94
        0
  0
ACAD_PROXY_OBJECT
  5
65
102
{ACAD_REACTORS
330
47
102
}
330
47
100
AcDbProxyObject
 90
      499
 91
      503
 95
   393239
 70
     0
 93
      257
310
90E312D312F3222203D2031272D30220000000000003E0FC000000000000284000
 94
        0
  0
ACAD_PROXY_OBJECT
  5
66
102
{ACAD_REACTORS
330
47
102
}
330
47
100
AcDbProxyObject
 90
      499
 91
      503
 95
   393239
 70
     0
 93
      225
310
90A3322203D2031272D302200000000000002100000000000000284028
 94
        0
  0
ACAD_PROXY_OBJECT
  5
67
102
{ACAD_REACTORS
330
47
102
}
330
47
100
AcDbProxyObject
 90
      499
 91
      503
 95
   393239
 70
     0
 93
      225
310
90A3622203D2031272D302200000000000006100000000000000284000
 94
        0
  0
ACAD_PROXY_OBJECT
  5
68
102
{ACAD_REACTORS
330
47
102
}
330
47
100
AcDbProxyObject
 90
      499
 91
      503
 95
   393239
 70
     0
 93
      249
310
90D31272D3022203D2031272D30220000000000000A100000000000000284000
 94
        0
  0
ENDSEC
  0
EOF
