  0
SECTION
  2
HEADER
  9
$ACADVER
  1
AC1015
  9
$ACADMAINTVER
 70
    20
  9
$DWGCODEPAGE
  3
ANSI_1252
  9
$INSBASE
 10
0.0
 20
0.0
 30
0.0
  9
$EXTMIN
 10
2.18008856493093
 20
0.846324908636795
 30
0.0
  9
$EXTMAX
 10
11.06692680939735
 20
9.248803685732633
 30
0.0
  9
$LIMMIN
 10
0.0
 20
0.0
  9
$LIMMAX
 10
8.5
 20
11.0
  9
$ORTHOMODE
 70
     0
  9
$REGENMODE
 70
     1
  9
$FILLMODE
 70
     1
  9
$QTEXTMODE
 70
     0
  9
$MIRRTEXT
 70
     1
  9
$LTSCALE
 40
1.0
  9
$ATTMODE
 70
     1
  9
$TEXTSIZE
 40
0.25
  9
$TRACEWID
 40
0.05
  9
$TEXTSTYLE
  7
Standard
  9
$CLAYER
  8
0
  9
$CELTYPE
  6
ByLayer
  9
$CECOLOR
 62
   256
  9
$CELTSCALE
 40
1.0
  9
$DISPSILH
 70
     0
  9
$DIMSCALE
 40
1.0
  9
$DIMASZ
 40
0.156
  9
$DIMEXO
 40
0.05
  9
$DIMDLI
 40
0.38
  9
$DIMRND
 40
0.0
  9
$DIMDLE
 40
0.0
  9
$DIMEXE
 40
0.125
  9
$DIMTP
 40
0.0
  9
$DIMTM
 40
0.0
  9
$DIMTXT
 40
0.125
  9
$DIMCEN
 40
0.09
  9
$DIMTSZ
 40
0.0
  9
$DIMTOL
 70
     0
  9
$DIMLIM
 70
     0
  9
$DIMTIH
 70
     1
  9
$DIMTOH
 70
     1
  9
$DIMSE1
 70
     0
  9
$DIMSE2
 70
     0
  9
$DIMTAD
 70
     0
  9
$DIMZIN
 70
     0
  9
$DIMBLK
  1

  9
$DIMASO
 70
     1
  9
$DIMSHO
 70
     1
  9
$DIMPOST
  1

  9
$DIMAPOST
  1

  9
$DIMALT
 70
     0
  9
$DIMALTD
 70
     2
  9
$DIMALTF
 40
25.4
  9
$DIMLFAC
 40
4.0
  9
$DIMTOFL
 70
     0
  9
$DIMTVP
 40
0.0
  9
$DIMTIX
 70
     0
  9
$DIMSOXD
 70
     0
  9
$DIMSAH
 70
     0
  9
$DIMBLK1
  1

  9
$DIMBLK2
  1

  9
$DIMSTYLE
  2
Standard
  9
$DIMCLRD
 70
     0
  9
$DIMCLRE
 70
     0
  9
$DIMCLRT
 70
     0
  9
$DIMTFAC
 40
1.0
  9
$DIMGAP
 40
0.06
  9
$DIMJUST
 70
     0
  9
$DIMSD1
 70
     0
  9
$DIMSD2
 70
     0
  9
$DIMTOLJ
 70
     1
  9
$DIMTZIN
 70
     0
  9
$DIMALTZ
 70
     0
  9
$DIMALTTZ
 70
     0
  9
$DIMUPT
 70
     0
  9
$DIMDEC
 70
     3
  9
$DIMTDEC
 70
     3
  9
$DIMALTU
 70
     2
  9
$DIMALTTD
 70
     2
  9
$DIMTXSTY
  7
Standard
  9
$DIMAUNIT
 70
     0
  9
$DIMADEC
 70
     0
  9
$DIMALTRND
 40
0.0
  9
$DIMAZIN
 70
     0
  9
$DIMDSEP
 70
    46
  9
$DIMATFIT
 70
     3
  9
$DIMFRAC
 70
     0
  9
$DIMLDRBLK
  1

  9
$DIMLUNIT
 70
     2
  9
$DIMLWD
 70
    -2
  9
$DIMLWE
 70
    -2
  9
$DIMTMOVE
 70
     0
  9
$LUNITS
 70
     2
  9
$LUPREC
 70
     3
  9
$SKETCHINC
 40
0.1
  9
$FILLETRAD
 40
0.5
  9
$AUNITS
 70
     0
  9
$AUPREC
 70
     0
  9
$MENU
  1
.
  9
$ELEVATION
 40
0.0
  9
$PELEVATION
 40
0.0
  9
$THICKNESS
 40
0.0
  9
$LIMCHECK
 70
     0
  9
$CHAMFERA
 40
0.5
  9
$CHAMFERB
 40
0.5
  9
$CHAMFERC
 40
1.0
  9
$CHAMFERD
 40
0.0
  9
$SKPOLY
 70
     0
  9
$TDCREATE
 40
2456493.601991990
  9
$TDUCREATE
 40
2456493.810325324
  9
$TDUPDATE
 40
2456573.401319236
  9
$TDUUPDATE
 40
2456573.609652570
  9
$TDINDWG
 40
0.0009301968
  9
$TDUSRTIMER
 40
0.0009301968
  9
$USRTIMER
 70
     1
  9
$ANGBASE
 50
0.0
  9
$ANGDIR
 70
     0
  9
$PDMODE
 70
     0
  9
$PDSIZE
 40
-1.0
  9
$PLINEWID
 40
0.0
  9
$SPLFRAME
 70
     0
  9
$SPLINETYPE
 70
     6
  9
$SPLINESEGS
 70
     8
  9
$HANDSEED
  5
1F2
  9
$SURFTAB1
 70
     6
  9
$SURFTAB2
 70
     6
  9
$SURFTYPE
 70
     6
  9
$SURFU
 70
     6
  9
$SURFV
 70
     6
  9
$UCSBASE
  2

  9
$UCSNAME
  2

  9
$UCSORG
 10
0.0
 20
0.0
 30
0.0
  9
$UCSXDIR
 10
1.0
 20
0.0
 30
0.0
  9
$UCSYDIR
 10
0.0
 20
1.0
 30
0.0
  9
$UCSORTHOREF
  2

  9
$UCSORTHOVIEW
 70
     0
  9
$UCSORGTOP
 10
0.0
 20
0.0
 30
0.0
  9
$UCSORGBOTTOM
 10
0.0
 20
0.0
 30
0.0
  9
$UCSORGLEFT
 10
0.0
 20
0.0
 30
0.0
  9
$UCSORGRIGHT
 10
0.0
 20
0.0
 30
0.0
  9
$UCSORGFRONT
 10
0.0
 20
0.0
 30
0.0
  9
$UCSORGBACK
 10
0.0
 20
0.0
 30
0.0
  9
$PUCSBASE
  2

  9
$PUCSNAME
  2

  9
$PUCSORG
 10
0.0
 20
0.0
 30
0.0
  9
$PUCSXDIR
 10
1.0
 20
0.0
 30
0.0
  9
$PUCSYDIR
 10
0.0
 20
1.0
 30
0.0
  9
$PUCSORTHOREF
  2

  9
$PUCSORTHOVIEW
 70
     0
  9
$PUCSORGTOP
 10
0.0
 20
0.0
 30
0.0
  9
$PUCSORGBOTTOM
 10
0.0
 20
0.0
 30
0.0
  9
$PUCSORGLEFT
 10
0.0
 20
0.0
 30
0.0
  9
$PUCSORGRIGHT
 10
0.0
 20
0.0
 30
0.0
  9
$PUCSORGFRONT
 10
0.0
 20
0.0
 30
0.0
  9
$PUCSORGBACK
 10
0.0
 20
0.0
 30
0.0
  9
$USERI1
 70
     0
  9
$USERI2
 70
     0
  9
$USERI3
 70
     0
  9
$USERI4
 70
     0
  9
$USERI5
 70
     0
  9
$USERR1
 40
0.0
  9
$USERR2
 40
0.0
  9
$USERR3
 40
0.0
  9
$USERR4
 40
0.0
  9
$USERR5
 40
0.0
  9
$WORLDVIEW
 70
     1
  9
$SHADEDGE
 70
     3
  9
$SHADEDIF
 70
    70
  9
$TILEMODE
 70
     1
  9
$MAXACTVP
 70
    64
  9
$PINSBASE
 10
0.0
 20
0.0
 30
0.0
  9
$PLIMCHECK
 70
     0
  9
$PEXTMIN
 10
1.000000000000000E+20
 20
1.000000000000000E+20
 30
1.000000000000000E+20
  9
$PEXTMAX
 10
-1.000000000000000E+20
 20
-1.000000000000000E+20
 30
-1.000000000000000E+20
  9
$PLIMMIN
 10
0.0
 20
0.0
  9
$PLIMMAX
 10
12.0
 20
9.0
  9
$UNITMODE
 70
     0
  9
$VISRETAIN
 70
     1
  9
$PLINEGEN
 70
     0
  9
$PSLTSCALE
 70
     1
  9
$TREEDEPTH
 70
  3020
  9
$CMLSTYLE
  2
Standard
  9
$CMLJUST
 70
     0
  9
$CMLSCALE
 40
1.0
  9
$PROXYGRAPHICS
 70
     1
  9
$MEASUREMENT
 70
     0
  9
$CELWEIGHT
370
    -1
  9
$ENDCAPS
280
     0
  9
$JOINSTYLE
280
     0
  9
$LWDISPLAY
290
     1
  9
$INSUNITS
 70
     1
  9
$HYPERLINKBASE
  1

  9
$STYLESHEET
  1

  9
$XEDIT
290
     1
  9
$CEPSNTYPE
380
     0
  9
$PSTYLEMODE
290
     1
  9
$FINGERPRINTGUID
  2
{073FDBD3-A665-4968-9D97-AE4FFD0A5E25}
  9
$VERSIONGUID
  2
{69592914-AB70-4D23-AD6E-14BEA222BFAE}
  9
$EXTNAMES
290
     1
  9
$PSVPSCALE
 40
0.0
  9
$OLESTARTUP
290
     0
  0
ENDSEC
  0
SECTION
  2
CLASSES
  0
CLASS
  1
ACDBDICTIONARYWDFLT
  2
AcDbDictionaryWithDefault
  3
ObjectDBX Classes
 90
        0
280
     0
281
     0
  0
CLASS
  1
VISUALSTYLE
  2
AcDbVisualStyle
  3
ObjectDBX Classes
 90
    36863
280
     0
281
     0
  0
CLASS
  1
MATERIAL
  2
AcDbMaterial
  3
ObjectDBX Classes
 90
    32768
280
     0
281
     0
  0
CLASS
  1
ACDBPLACEHOLDER
  2
AcDbPlaceHolder
  3
ObjectDBX Classes
 90
        0
280
     0
281
     0
  0
CLASS
  1
LAYOUT
  2
AcDbLayout
  3
ObjectDBX Classes
 90
        0
280
     0
281
     0
  0
CLASS
  1
DICTIONARYVAR
  2
AcDbDictionaryVar
  3
ObjectDBX Classes
 90
        0
280
     0
281
     0
  0
ENDSEC
  0
SECTION
  2
TABLES
  0
TABLE
  2
VPORT
  5
8
330
0
100
AcDbSymbolTable
 70
     3
  0
VPORT
  5
1E8
330
8
100
AcDbSymbolTableRecord
100
AcDbViewportTableRecord
  2
*Active
 70
     0
 10
0.0
 20
0.0
 11
1.0
 21
1.0
 12
5.542380439267404
 22
5.527549357644794
 13
0.0
 23
0.0
 14
0.5
 24
0.5
 15
0.5
 25
0.5
 16
0.0
 26
0.0
 36
1.0
 17
0.0
 27
0.0
 37
0.0
 40
12.28591880275492
 41
2.144329896907216
 42
50.0
 43
0.0
 44
0.0
 50
0.0
 51
0.0
 71
     0
 72
  2000
 73
     1
 74
     3
 75
     0
 76
     0
 77
     0
 78
     0
281
     0
 65
     1
110
0.0
120
0.0
130
0.0
111
1.0
121
0.0
131
0.0
112
0.0
122
1.0
132
0.0
 79
     0
146
0.0
  0
ENDTAB
  0
TABLE
  2
LTYPE
  5
5
330
0
100
AcDbSymbolTable
 70
     6
  0
LTYPE
  5
14
330
5
100
AcDbSymbolTableRecord
100
AcDbLinetypeTableRecord
  2
ByBlock
 70
     0
  3

 72
    65
 73
     0
 40
0.0
  0
LTYPE
  5
15
330
5
100
AcDbSymbolTableRecord
100
AcDbLinetypeTableRecord
  2
ByLayer
 70
     0
  3

 72
    65
 73
     0
 40
0.0
  0
LTYPE
  5
16
330
5
100
AcDbSymbolTableRecord
100
AcDbLinetypeTableRecord
  2
Continuous
 70
     0
  3
Solid line
 72
    65
 73
     0
 40
0.0
  0
LTYPE
  5
3F
330
5
100
AcDbSymbolTableRecord
100
AcDbLinetypeTableRecord
  2
HIDDEN
 70
     0
  3
Hidden __ __ __ __ __ __ __ __ __ __ __ __ __ __
 72
    65
 73
     2
 40
0.075
 49
0.05
 74
     0
 49
-0.025
 74
     0
  0
LTYPE
  5
40
330
5
100
AcDbSymbolTableRecord
100
AcDbLinetypeTableRecord
  2
PHANTOM
 70
     0
  3
Phantom ______  __  __  ______  __  __  ______
 72
    65
 73
     6
 40
0.5
 49
0.25
 74
     0
 49
-0.05
 74
     0
 49
0.05
 74
     0
 49
-0.05
 74
     0
 49
0.05
 74
     0
 49
-0.05
 74
     0
  0
LTYPE
  5
41
330
5
100
AcDbSymbolTableRecord
100
AcDbLinetypeTableRecord
  2
CENTER
 70
     0
  3
Center ____ _ ____ _ ____ _ ____ _ ____ _ ____
 72
    65
 73
     4
 40
0.4
 49
0.25
 74
     0
 49
-0.05
 74
     0
 49
0.05
 74
     0
 49
-0.05
 74
     0
  0
LTYPE
  5
42
330
5
100
AcDbSymbolTableRecord
100
AcDbLinetypeTableRecord
  2
CENTERX2
 70
     0
  3
Center (2x) ________  __  ________  __  _____
 72
    65
 73
     4
 40
0.8
 49
0.5
 74
     0
 49
-0.1
 74
     0
 49
0.1
 74
     0
 49
-0.1
 74
     0
  0
LTYPE
  5
43
330
5
100
AcDbSymbolTableRecord
100
AcDbLinetypeTableRecord
  2
DOT2
 70
     0
  3
Dot (.5x) ........................................
 72
    65
 73
     2
 40
0.025
 49
0.0
 74
     0
 49
-0.025
 74
     0
  0
ENDTAB
  0
TABLE
  2
LAYER
  5
2
330
0
100
AcDbSymbolTable
 70
     7
  0
LAYER
  5
10
330
2
100
AcDbSymbolTableRecord
100
AcDbLayerTableRecord
  2
0
 70
     0
 62
     7
  6
Continuous
370
    -3
390
F
  0
LAYER
  5
44
330
2
100
AcDbSymbolTableRecord
100
AcDbLayerTableRecord
  2
SLD-0
 70
     0
 62
   179
  6
Continuous
370
    -3
390
F
  0
LAYER
  5
45
330
2
100
AcDbSymbolTableRecord
100
AcDbLayerTableRecord
  2
SLD-DEFPOINTS
 70
     0
 62
   179
  6
Continuous
370
    -3
390
F
  0
LAYER
  5
46
330
2
100
AcDbSymbolTableRecord
100
AcDbLayerTableRecord
  2
OBJ
 70
     0
 62
   179
  6
Continuous
370
    -3
390
F
  0
LAYER
  5
47
330
2
100
AcDbSymbolTableRecord
100
AcDbLayerTableRecord
  2
FORMAT
 70
     0
 62
     7
  6
Continuous
370
    -3
390
F
  0
LAYER
  5
48
330
2
100
AcDbSymbolTableRecord
100
AcDbLayerTableRecord
  2
TOLERANCES
 70
     0
 62
     7
  6
Continuous
370
    -3
390
F
  0
LAYER
  5
49
330
2
100
AcDbSymbolTableRecord
100
AcDbLayerTableRecord
  2
QTY-BLANK-SIZE-1
 70
     0
 62
     7
  6
Continuous
370
    -3
390
F
  0
ENDTAB
  0
TABLE
  2
STYLE
  5
3
330
0
100
AcDbSymbolTable
 70
     2
  0
STYLE
  5
11
330
3
100
AcDbSymbolTableRecord
100
AcDbTextStyleTableRecord
  2
Standard
 70
     0
 40
0.0
 41
1.0
 50
0.0
 71
     0
 42
0.25
  3
txt
  4

  0
STYLE
  5
1DB
330
3
100
AcDbSymbolTableRecord
100
AcDbTextStyleTableRecord
  2
SLDTEXTSTYLE0
 70
     0
 40
0.0
 41
0.7
 50
0.0
 71
     0
 42
0.2
  3
TXT
  4

  0
ENDTAB
  0
TABLE
  2
VIEW
  5
6
330
0
100
AcDbSymbolTable
 70
     0
  0
ENDTAB
  0
TABLE
  2
UCS
  5
7
330
0
100
AcDbSymbolTable
 70
     0
  0
ENDTAB
  0
TABLE
  2
APPID
  5
9
330
0
100
AcDbSymbolTable
 70
     1
  0
APPID
  5
12
330
9
100
AcDbSymbolTableRecord
100
AcDbRegAppTableRecord
  2
ACAD
 70
     0
  0
ENDTAB
  0
TABLE
  2
DIMSTYLE
  5
A
330
0
100
AcDbSymbolTable
 70
     1
100
AcDbDimStyleTable
 71
     0
  0
DIMSTYLE
105
27
330
A
100
AcDbSymbolTableRecord
100
AcDbDimStyleTableRecord
  2
Standard
 70
     0
340
11
  0
ENDTAB
  0
TABLE
  2
BLOCK_RECORD
  5
1
330
0
100
AcDbSymbolTable
 70
     1
  0
BLOCK_RECORD
  5
1F
330
1
100
AcDbSymbolTableRecord
100
AcDbBlockTableRecord
  2
*Model_Space
340
22
  0
BLOCK_RECORD
  5
1B
330
1
100
AcDbSymbolTableRecord
100
AcDbBlockTableRecord
  2
*Paper_Space
340
1E
  0
BLOCK_RECORD
  5
23
330
1
100
AcDbSymbolTableRecord
100
AcDbBlockTableRecord
  2
*Paper_Space0
340
26
  0
ENDTAB
  0
ENDSEC
  0
SECTION
  2
BLOCKS
  0
BLOCK
  5
20
330
1F
100
AcDbEntity
  8
0
100
AcDbBlockBegin
  2
*Model_Space
 70
     0
 10
0.0
 20
0.0
 30
0.0
  3
*Model_Space
  1

  0
ENDBLK
  5
21
330
1F
100
AcDbEntity
  8
0
100
AcDbBlockEnd
  0
BLOCK
  5
1C
330
1B
100
AcDbEntity
 67
     1
  8
0
100
AcDbBlockBegin
  2
*Paper_Space
 70
     0
 10
0.0
 20
0.0
 30
0.0
  3
*Paper_Space
  1

  0
ENDBLK
  5
1D
330
1B
100
AcDbEntity
 67
     1
  8
0
100
AcDbBlockEnd
  0
BLOCK
  5
24
330
23
100
AcDbEntity
  8
0
100
AcDbBlockBegin
  2
*Paper_Space0
 70
     0
 10
0.0
 20
0.0
 30
0.0
  3
*Paper_Space0
  1

  0
ENDBLK
  5
25
330
23
100
AcDbEntity
  8
0
100
AcDbBlockEnd
  0
ENDSEC
  0
SECTION
  2
ENTITIES
  0
LINE
  5
4A
330
1F
100
AcDbEntity
  8
0
  6
Continuous
 62
     7
370
    15
100
AcDbLine
 10
4.380252354906078
 20
7.933727631251096
 30
0.0
 11
4.392626717334462
 21
7.93041240279673
 31
0.0
  0
LINE
  5
4B
330
1F
100
AcDbEntity
  8
0
  6
Continuous
 62
     7
370
    15
100
AcDbLine
 10
4.420791110323935
 20
8.03553834005895
 30
0.0
 11
4.40841674789555
 21
8.038853568513316
 31
0.0
  0
LINE
  5
4C
330
1F
100
AcDbEntity
  8
0
  6
Continuous
 62
     7
370
    15
100
AcDbLine
 10
4.75961310662805
 20
7.825236700255835
 30
0.0
 11
4.754075127577836
 21
7.826720386048394
 31
0.0
  0
LINE
  5
4D
330
1F
100
AcDbEntity
  8
0
  6
Continuous
 62
     7
370
    15
100
AcDbLine
 10
4.380252354906078
 20
7.331575659985044
 30
0.0
 11
4.392626717334462
 21
7.328260431530678
 31
0.0
  0
LINE
  5
4E
330
1F
100
AcDbEntity
  8
0
  6
Continuous
 62
     7
370
    15
100
AcDbLine
 10
4.420791110323935
 20
7.433386368792898
 30
0.0
 11
4.40841674789555
 21
7.436701597247264
 31
0.0
  0
LINE
  5
4F
330
1F
100
AcDbEntity
  8
0
  6
Continuous
 62
     7
370
    15
100
AcDbLine
 10
4.719074351210192
 20
7.121273643372766
 30
0.0
 11
4.731448713638577
 21
7.1179584149184
 31
0.0
  0
LINE
  5
50
330
1F
100
AcDbEntity
  8
0
  6
Continuous
 62
     7
370
    15
100
AcDbLine
 10
4.75961310662805
 20
7.223084352180619
 30
0.0
 11
4.747238744199664
 21
7.226399580634985
 31
0.0
  0
LINE
  5
51
330
1F
100
AcDbEntity
  8
0
  6
Continuous
 62
     7
370
    15
100
AcDbLine
 10
4.619398748375937
 20
5.274059540016774
 30
0.0
 11
4.619398748375937
 21
5.233916081545856
 31
0.0
  0
LINE
  5
52
330
1F
100
AcDbEntity
  8
0
  6
Continuous
 62
     7
370
    15
100
AcDbLine
 10
5.03606542422835
 20
5.233916081545856
 30
0.0
 11
5.03606542422835
 21
5.274059540016773
 31
0.0
  0
SPLINE
  5
53
330
1F
100
AcDbEntity
  8
0
  6
Continuous
 62
     7
370
    15
100
AcDbSpline
210
0.0
220
0.0
230
1.0
 70
     8
 71
     3
 72
     9
 73
     5
 74
     0
 42
0.0000000001
 43
0.0000000001
 40
0.0
 40
0.0
 40
0.0
 40
0.0
 40
0.8143341459537419
 40
1.0
 40
1.0
 40
1.0
 40
1.0
 10
4.852748813710945
 20
6.510429618356742
 30
0.0
 10
4.852460643844125
 20
6.510964836902561
 30
0.0
 10
4.852106772072628
 20
6.511622083744632
 30
0.0
 10
4.852237897198146
 20
6.512370030370019
 30
0.0
 10
4.852262242656562
 20
6.512508898519002
 30
0.0
  0
LINE
  5
54
330
1F
100
AcDbEntity
  8
0
  6
Continuous
 62
     7
370
    15
100
AcDbLine
 10
4.851427321434785
 20
6.515294287442572
 30
0.0
 11
4.847462066797831
 21
6.52200161817713
 31
0.0
  0
SPLINE
  5
55
330
1F
100
AcDbEntity
  8
0
  6
Continuous
 62
     7
370
    15
100
AcDbSpline
210
0.0
220
0.0
230
1.0
 70
     8
 71
     3
 72
    11
 73
     7
 74
     0
 42
0.0000000001
 43
0.0000000001
 40
0.0
 40
0.0
 40
0.0
 40
0.0
 40
0.3232292937765931
 40
0.6535287181375493
 40
0.910065726222783
 40
1.0
 40
1.0
 40
1.0
 40
1.0
 10
4.832741082130351
 20
6.519267859231527
 30
0.0
 10
4.832710996918032
 20
6.518713376128663
 30
0.0
 10
4.83265016842686
 20
6.517592281480309
 30
0.0
 10
4.831855387353787
 20
6.516514570500241
 30
0.0
 10
4.831404989313472
 20
6.516184818727939
 30
0.0
 10
4.831450764034507
 20
6.516211190888199
 30
0.0
 10
4.831462645874386
 20
6.51621803636488
 30
0.0
  0
LINE
  5
56
330
1F
100
AcDbEntity
  8
0
  6
Continuous
 62
     7
370
    15
100
AcDbLine
 10
4.911065401595299
 20
5.783173095418542
 30
0.0
 11
4.911065401595299
 21
6.260989346895617
 31
0.0
  0
LINE
  5
57
330
1F
100
AcDbEntity
  8
0
  6
Continuous
 62
     7
370
    15
100
AcDbLine
 10
4.911065401595299
 20
5.751880036385371
 30
0.0
 11
4.911065401595299
 21
5.760310953021486
 31
0.0
  0
LINE
  5
58
330
1F
100
AcDbEntity
  8
0
  6
Continuous
 62
     7
370
    15
100
AcDbLine
 10
4.911065401595299
 20
5.720587165756784
 30
0.0
 11
4.911065401595299
 21
5.729017893988316
 31
0.0
  0
LINE
  5
59
330
1F
100
AcDbEntity
  8
0
  6
Continuous
 62
     7
370
    15
100
AcDbLine
 10
4.911065401595299
 20
5.689294295128195
 30
0.0
 11
4.911065401595299
 21
5.697725023359727
 31
0.0
  0
LINE
  5
5A
330
1F
100
AcDbEntity
  8
0
  6
Continuous
 62
     7
370
    15
100
AcDbLine
 10
4.911065401595299
 20
5.658001236095025
 30
0.0
 11
4.911065401595299
 21
5.666431964326558
 31
0.0
  0
LINE
  5
5B
330
1F
100
AcDbEntity
  8
0
  6
Continuous
 62
     7
370
    15
100
AcDbLine
 10
4.911065401595299
 20
5.626708365466439
 30
0.0
 11
4.911065401595299
 21
5.63513909369797
 31
0.0
  0
LINE
  5
5C
330
1F
100
AcDbEntity
  8
0
  6
Continuous
 62
     7
370
    15
100
AcDbLine
 10
4.911065401595299
 20
5.595415306433269
 30
0.0
 11
4.911065401595299
 21
5.6038460346648
 31
0.0
  0
LINE
  5
5D
330
1F
100
AcDbEntity
  8
0
  6
Continuous
 62
     7
370
    15
100
AcDbLine
 10
4.911065401595299
 20
5.564122435804681
 30
0.0
 11
4.911065401595299
 21
5.572553164036213
 31
0.0
  0
LINE
  5
5E
330
1F
100
AcDbEntity
  8
0
  6
Continuous
 62
     7
370
    15
100
AcDbLine
 10
4.911065401595299
 20
5.53282937677151
 30
0.0
 11
4.911065401595299
 21
5.541260293407624
 31
0.0
  0
LINE
  5
5F
330
1F
100
AcDbEntity
  8
0
  6
Continuous
 62
     7
370
    15
100
AcDbLine
 10
4.911065401595299
 20
5.501536506142922
 30
0.0
 11
4.911065401595299
 21
5.509967234374454
 31
0.0
  0
LINE
  5
60
330
1F
100
AcDbEntity
  8
0
  6
Continuous
 62
     7
370
    15
100
AcDbLine
 10
4.911065401595299
 20
5.470243447109752
 30
0.0
 11
4.911065401595299
 21
5.478674363745867
 31
0.0
  0
LINE
  5
61
330
1F
100
AcDbEntity
  8
0
  6
Continuous
 62
     7
370
    15
100
AcDbLine
 10
4.911065401595299
 20
5.438950576481165
 30
0.0
 11
4.911065401595299
 21
5.447381304712696
 31
0.0
  0
LINE
  5
62
330
1F
100
AcDbEntity
  8
0
  6
Continuous
 62
     7
370
    15
100
AcDbLine
 10
4.911065401595299
 20
5.407657705852576
 30
0.0
 11
4.911065401595299
 21
5.416088434084109
 31
0.0
  0
LINE
  5
63
330
1F
100
AcDbEntity
  8
0
  6
Continuous
 62
     7
370
    15
100
AcDbLine
 10
4.911065401595299
 20
5.376364646819407
 30
0.0
 11
4.911065401595299
 21
5.38479546925323
 31
0.0
  0
LINE
  5
64
330
1F
100
AcDbEntity
  8
0
  6
Continuous
 62
     7
370
    15
100
AcDbLine
 10
4.911065401595299
 20
5.345071681988528
 30
0.0
 11
4.911065401595299
 21
5.353502504422351
 31
0.0
  0
LINE
  5
65
330
1F
100
AcDbEntity
  8
0
  6
Continuous
 62
     7
370
    15
100
AcDbLine
 10
4.911065401595299
 20
5.31377881135994
 30
0.0
 11
4.911065401595299
 21
5.322209539591471
 31
0.0
  0
LINE
  5
66
330
1F
100
AcDbEntity
  8
0
  6
Continuous
 62
     7
370
    15
100
AcDbLine
 10
4.911065401595299
 20
5.282485846529061
 30
0.0
 11
4.911065401595299
 21
5.290916574760593
 31
0.0
  0
LINE
  5
67
330
1F
100
AcDbEntity
  8
0
  6
Continuous
 62
     7
370
    15
100
AcDbLine
 10
4.911065401595299
 20
5.032142222084321
 30
0.0
 11
4.911065401595299
 21
5.040572950315852
 31
0.0
  0
LINE
  5
68
330
1F
100
AcDbEntity
  8
0
  6
Continuous
 62
     7
370
    15
100
AcDbLine
 10
4.911065401595299
 20
5.000849257253442
 30
0.0
 11
4.911065401595299
 21
5.009279985484973
 31
0.0
  0
LINE
  5
69
330
1F
100
AcDbEntity
  8
0
  6
Continuous
 62
     7
370
    15
100
AcDbLine
 10
4.744398736439723
 20
4.993633547855308
 30
0.0
 11
4.744398736439723
 21
4.99033505463743
 31
0.0
  0
LINE
  5
6A
330
1F
100
AcDbEntity
  8
0
  6
Continuous
 62
     7
370
    15
100
AcDbLine
 10
4.744398736439723
 20
5.024926512686187
 30
0.0
 11
4.744398736439723
 21
5.016495690252363
 31
0.0
  0
LINE
  5
6B
330
1F
100
AcDbEntity
  8
0
  6
Continuous
 62
     7
370
    15
100
AcDbLine
 10
4.744398736439723
 20
5.049166646195368
 30
0.0
 11
4.744398736439723
 21
5.047788655083242
 31
0.0
  0
LINE
  5
6C
330
1F
100
AcDbEntity
  8
0
  6
Continuous
 62
     7
370
    15
100
AcDbLine
 10
4.744398736439723
 20
5.275270137130927
 30
0.0
 11
4.744398736439723
 21
5.274059543489832
 31
0.0
  0
LINE
  5
6D
330
1F
100
AcDbEntity
  8
0
  6
Continuous
 62
     7
370
    15
100
AcDbLine
 10
4.744398736439723
 20
5.306563007759514
 30
0.0
 11
4.744398736439723
 21
5.298132279527982
 31
0.0
  0
LINE
  5
6E
330
1F
100
AcDbEntity
  8
0
  6
Continuous
 62
     7
370
    15
100
AcDbLine
 10
4.744398736439723
 20
5.337855972590393
 30
0.0
 11
4.744398736439723
 21
5.329425244358861
 31
0.0
  0
LINE
  5
6F
330
1F
100
AcDbEntity
  8
0
  6
Continuous
 62
     7
370
    15
100
AcDbLine
 10
4.744398736439723
 20
5.369148937421273
 30
0.0
 11
4.744398736439723
 21
5.36071820918974
 31
0.0
  0
LINE
  5
70
330
1F
100
AcDbEntity
  8
0
  6
Continuous
 62
     7
370
    15
100
AcDbLine
 10
4.744398736439723
 20
5.400441996454443
 30
0.0
 11
4.744398736439723
 21
5.39201117402062
 31
0.0
  0
LINE
  5
71
330
1F
100
AcDbEntity
  8
0
  6
Continuous
 62
     7
370
    15
100
AcDbLine
 10
4.744398736439723
 20
5.43173486708303
 30
0.0
 11
4.744398736439723
 21
5.423304138851499
 31
0.0
  0
LINE
  5
72
330
1F
100
AcDbEntity
  8
0
  6
Continuous
 62
     7
370
    15
100
AcDbLine
 10
4.744398736439723
 20
5.463027737711619
 30
0.0
 11
4.744398736439723
 21
5.454597009480087
 31
0.0
  0
LINE
  5
73
330
1F
100
AcDbEntity
  8
0
  6
Continuous
 62
     7
370
    15
100
AcDbLine
 10
4.744398736439723
 20
5.494320796744788
 30
0.0
 11
4.744398736439723
 21
5.485890068513256
 31
0.0
  0
LINE
  5
74
330
1F
100
AcDbEntity
  8
0
  6
Continuous
 62
     7
370
    15
100
AcDbLine
 10
4.744398736439723
 20
5.525613667373376
 30
0.0
 11
4.744398736439723
 21
5.517182939141845
 31
0.0
  0
LINE
  5
75
330
1F
100
AcDbEntity
  8
0
  6
Continuous
 62
     7
370
    15
100
AcDbLine
 10
4.744398736439723
 20
5.556906726406547
 30
0.0
 11
4.744398736439723
 21
5.548475998175015
 31
0.0
  0
LINE
  5
76
330
1F
100
AcDbEntity
  8
0
  6
Continuous
 62
     7
370
    15
100
AcDbLine
 10
4.744398736439723
 20
5.588199597035135
 30
0.0
 11
4.744398736439723
 21
5.579768868803602
 31
0.0
  0
LINE
  5
77
330
1F
100
AcDbEntity
  8
0
  6
Continuous
 62
     7
370
    15
100
AcDbLine
 10
4.744398736439723
 20
5.619492656068303
 30
0.0
 11
4.744398736439723
 21
5.61106173943219
 31
0.0
  0
LINE
  5
78
330
1F
100
AcDbEntity
  8
0
  6
Continuous
 62
     7
370
    15
100
AcDbLine
 10
4.744398736439723
 20
5.650785526696892
 30
0.0
 11
4.744398736439723
 21
5.64235479846536
 31
0.0
  0
LINE
  5
79
330
1F
100
AcDbEntity
  8
0
  6
Continuous
 62
     7
370
    15
100
AcDbLine
 10
4.744398736439723
 20
5.68207839732548
 30
0.0
 11
4.744398736439723
 21
5.673647669093948
 31
0.0
  0
LINE
  5
7A
330
1F
100
AcDbEntity
  8
0
  6
Continuous
 62
     7
370
    15
100
AcDbLine
 10
4.744398736439723
 20
5.713371456358649
 30
0.0
 11
4.744398736439723
 21
5.704940728127118
 31
0.0
  0
LINE
  5
7B
330
1F
100
AcDbEntity
  8
0
  6
Continuous
 62
     7
370
    15
100
AcDbLine
 10
4.744398736439723
 20
5.744664326987238
 30
0.0
 11
4.744398736439723
 21
5.736233598755706
 31
0.0
  0
LINE
  5
7C
330
1F
100
AcDbEntity
  8
0
  6
Continuous
 62
     7
370
    15
100
AcDbLine
 10
4.744398736439723
 20
5.775957386020408
 30
0.0
 11
4.744398736439723
 21
5.767526657788876
 31
0.0
  0
LINE
  5
7D
330
1F
100
AcDbEntity
  8
0
  6
Continuous
 62
     7
370
    15
100
AcDbLine
 10
4.744398736439723
 20
6.276776141308066
 30
0.0
 11
4.744398736439723
 21
5.798819528417464
 31
0.0
  0
SPLINE
  5
7E
330
1F
100
AcDbEntity
  8
0
  6
Continuous
 62
     7
370
    15
100
AcDbSpline
210
0.0
220
0.0
230
1.0
 70
     8
 71
     3
 72
    11
 73
     7
 74
     0
 42
0.0000000001
 43
0.0000000001
 40
0.0
 40
0.0
 40
0.0
 40
0.0
 40
0.2680666990861219
 40
0.6112452271583237
 40
0.8772025852194094
 40
0.9999999999999998
 40
0.9999999999999998
 40
0.9999999999999998
 40
0.9999999999999998
 10
4.724500861663766
 20
6.52787458935902
 30
0.0
 10
4.724505249292162
 20
6.527416239759324
 30
0.0
 10
4.724515253954903
 20
6.526371111788787
 30
0.0
 10
4.723755462566225
 20
6.525231315585931
 30
0.0
 10
4.723228193848797
 20
6.524805925859844
 30
0.0
 10
4.72325047842238
 20
6.524821441810846
 30
0.0
 10
4.723257517533451
 20
6.52482634289195
 30
0.0
  0
SPLINE
  5
7F
330
1F
100
AcDbEntity
  8
0
  6
Continuous
 62
     7
370
    15
100
AcDbSpline
210
0.0
220
0.0
230
1.0
 70
     8
 71
     3
 72
    14
 73
    10
 74
     0
 42
0.0000000001
 43
0.0000000001
 40
0.0
 40
0.0
 40
0.0
 40
0.0
 40
0.1073934416045549
 40
0.2213344633607214
 40
0.3412965761140823
 40
0.4665576178591472
 40
0.5962309469366666
 40
0.7293219249940531
 40
1.0
 40
1.0
 40
1.0
 40
1.0
 10
4.729986546057578
 20
6.533403723435952
 30
0.0
 10
4.729649418876865
 20
6.533292795985708
 30
0.0
 10
4.728954610492738
 20
6.533064178043077
 30
0.0
 10
4.727918041621058
 20
6.532564806745132
 30
0.0
 10
4.726929356493464
 20
6.531948096541902
 30
0.0
 10
4.726049452483539
 20
6.531214024579272
 30
0.0
 10
4.72534576624617
 20
6.530384375709627
 30
0.0
 10
4.724662365041299
 20
6.529174129640463
 30
0.0
 10
4.724679927679625
 20
6.528208222678999
 30
0.0
 10
4.724691701294018
 20
6.527560699460019
 30
0.0
  0
LINE
  5
80
330
1F
100
AcDbEntity
  8
0
  6
Continuous
 62
     7
370
    15
100
AcDbLine
 10
4.753062930841359
 20
6.536689396867792
 30
0.0
 11
4.730477926561024
 21
6.533606375920774
 31
0.0
  0
SPLINE
  5
81
330
1F
100
AcDbEntity
  8
0
  6
Continuous
 62
     7
370
    15
100
AcDbSpline
210
0.0
220
0.0
230
1.0
 70
     8
 71
     3
 72
    11
 73
     7
 74
     0
 42
0.0000000001
 43
0.0000000001
 40
0.0
 40
0.0
 40
0.0
 40
0.0
 40
0.231386013059483
 40
0.4985445625935593
 40
0.854334528438475
 40
1.0
 40
1.0
 40
1.0
 40
1.0
 10
4.76399305849523
 20
6.527885788691862
 30
0.0
 10
4.763952996837439
 20
6.527907083036487
 30
0.0
 10
4.763866679944748
 20
6.527952963855238
 30
0.0
 10
4.76318432032572
 20
6.528670538430563
 30
0.0
 10
4.762573832318559
 20
6.529839179055444
 30
0.0
 10
4.762678879087595
 20
6.530670354861233
 30
0.0
 10
4.762709393637855
 20
6.530911799278162
 30
0.0
  0
LINE
  5
82
330
1F
100
AcDbEntity
  8
0
  6
Continuous
 62
     7
370
    15
100
AcDbLine
 10
4.667793853350865
 20
6.416173616060297
 30
0.0
 11
4.680903988026384
 21
6.404040911576732
 31
0.0
  0
SPLINE
  5
83
330
1F
100
AcDbEntity
  8
0
  6
Continuous
 62
     7
370
    15
100
AcDbSpline
210
0.0
220
0.0
230
1.0
 70
     8
 71
     3
 72
    11
 73
     7
 74
     0
 42
0.0000000001
 43
0.0000000001
 40
0.0
 40
0.0
 40
0.0
 40
0.0
 40
0.199100869015719
 40
0.4585459520442224
 40
0.8033294811700372
 40
1.0
 40
1.0
 40
1.0
 40
1.0
 10
4.942576825440803
 20
6.533356545572723
 30
0.0
 10
4.942557920053737
 20
6.533364984458118
 30
0.0
 10
4.942514379366272
 20
6.53338441991692
 30
0.0
 10
4.941886270621874
 20
6.533993279249834
 30
0.0
 10
4.941228264072669
 20
6.535143789676792
 30
0.0
 10
4.941301798130718
 20
6.536055684849997
 30
0.0
 10
4.941328507657413
 20
6.536386909443312
 30
0.0
  0
SPLINE
  5
84
330
1F
100
AcDbEntity
  8
0
  6
Continuous
 62
     7
370
    15
100
AcDbSpline
210
0.0
220
0.0
230
1.0
 70
     8
 71
     3
 72
    11
 73
     7
 74
     0
 42
0.0000000001
 43
0.0000000001
 40
0.0
 40
0.0
 40
0.0
 40
0.0
 40
0.2175390082445056
 40
0.5726148751549366
 40
0.8476406535410729
 40
1.0
 40
1.0
 40
1.0
 40
1.0
 10
4.900646583626442
 20
6.537453014566865
 30
0.0
 10
4.900668401207524
 20
6.53708508174845
 30
0.0
 10
4.900725830316758
 20
6.536116594273112
 30
0.0
 10
4.900006852931315
 20
6.534939177318332
 30
0.0
 10
4.899414239563204
 20
6.534420789654942
 30
0.0
 10
4.899410989901209
 20
6.534423616826578
 30
0.0
 10
4.899409831422945
 20
6.534424624690442
 30
0.0
  0
LINE
  5
85
330
1F
100
AcDbEntity
  8
0
  6
Continuous
 62
     7
370
    15
100
AcDbLine
 10
4.934115634729721
 20
6.542251294662899
 30
0.0
 11
4.909079974166315
 21
6.543313630782447
 31
0.0
  0
SPLINE
  5
86
330
1F
100
AcDbEntity
  8
0
  6
Continuous
 62
     7
370
    15
100
AcDbSpline
210
0.0
220
0.0
230
1.0
 70
     8
 71
     3
 72
    20
 73
    16
 74
     0
 42
0.0000000001
 43
0.0000000001
 40
0.0
 40
0.0
 40
0.0
 40
0.0
 40
0.0381305412202988
 40
0.1131370459410927
 40
0.1909961965056139
 40
0.2715192276790412
 40
0.354508292193513
 40
0.4397496694020671
 40
0.5270243403301535
 40
0.6160957299076343
 40
0.7067263046263698
 40
0.7986678572577039
 40
0.8916616336822798
 40
0.9854541502902296
 40
1.0
 40
1.0
 40
1.0
 40
1.0
 10
4.906272413983215
 20
6.542768911789493
 30
0.0
 10
4.906044092427008
 20
6.542722594352812
 30
0.0
 10
4.905366640034063
 20
6.542585165987155
 30
0.0
 10
4.904319477923787
 20
6.542250513737719
 30
0.0
 10
4.903208541722462
 20
6.541775745402314
 30
0.0
 10
4.902314226855092
 20
6.541208206516108
 30
0.0
 10
4.901701332787424
 20
6.540570102967945
 30
0.0
 10
4.901424079132064
 20
6.539880996224733
 30
0.0
 10
4.90151522435788
 20
6.539165020371945
 30
0.0
 10
4.901984608999098
 20
6.538449166380986
 30
0.0
 10
4.902818012721747
 20
6.537759583153408
 30
0.0
 10
4.90397540494353
 20
6.53711874621043
 30
0.0
 10
4.905402599731488
 20
6.53656108481747
 30
0.0
 10
4.906545350150704
 20
6.536199197916596
 30
0.0
 10
4.907194408839836
 20
6.536058520209007
 30
0.0
 10
4.907281553500272
 20
6.536039632377654
 30
0.0
  0
LINE
  5
87
330
1F
100
AcDbEntity
  8
0
  6
Continuous
 62
     7
370
    15
100
AcDbLine
 10
4.987670353822688
 20
6.535114287900666
 30
0.0
 11
4.974560184577904
 21
6.547247001645721
 31
0.0
  0
SPLINE
  5
88
330
1F
100
AcDbEntity
  8
0
  6
Continuous
 62
     7
370
    15
100
AcDbSpline
210
0.0
220
0.0
230
1.0
 70
     8
 71
     3
 72
    12
 73
     8
 74
     0
 42
0.0000000001
 43
0.0000000001
 40
0.0
 40
0.0
 40
0.0
 40
0.0
 40
0.0149756325320971
 40
0.2559932498777528
 40
0.5288954690357592
 40
0.8921322901133862
 40
1.0
 40
1.0
 40
1.0
 40
1.0
 10
4.779020944240612
 20
6.553313465113737
 30
0.0
 10
4.779025762014071
 20
6.553311195026131
 30
0.0
 10
4.779108116965159
 20
6.553272390180815
 30
0.0
 10
4.778788402248821
 20
6.553446901680235
 30
0.0
 10
4.778163093304708
 20
6.554205326085571
 30
0.0
 10
4.777566350939128
 20
6.555407672900328
 30
0.0
 10
4.777693841343103
 20
6.556180021944433
 30
0.0
 10
4.777723032524689
 20
6.55635686491058
 30
0.0
  0
SPLINE
  5
89
330
1F
100
AcDbEntity
  8
0
  6
Continuous
 62
     7
370
    15
100
AcDbSpline
210
0.0
220
0.0
230
1.0
 70
     8
 71
     3
 72
    11
 73
     7
 74
     0
 42
0.0000000001
 43
0.0000000001
 40
0.0
 40
0.0
 40
0.0
 40
0.0
 40
0.3834220404730343
 40
0.6999962533612415
 40
0.9472771584678707
 40
1.0
 40
1.0
 40
1.0
 40
1.0
 10
4.857126414868071
 20
6.56041121041752
 30
0.0
 10
4.85704441096143
 20
6.559757328411729
 30
0.0
 10
4.856894700143191
 20
6.558563565649344
 30
0.0
 10
4.856060945583066
 20
6.557551868695314
 30
0.0
 10
4.855727481385584
 20
6.557328246079483
 30
0.0
 10
4.855751559517675
 20
6.557341887184976
 30
0.0
 10
4.855755791023304
 20
6.557344284481179
 30
0.0
  0
LINE
  5
8A
330
1F
100
AcDbEntity
  8
0
  6
Continuous
 62
     7
370
    15
100
AcDbLine
 10
4.773038585114354
 20
6.561865415699991
 30
0.0
 11
4.755115008624465
 21
6.566667339930607
 31
0.0
  0
SPLINE
  5
8B
330
1F
100
AcDbEntity
  8
0
  6
Continuous
 62
     7
370
    15
100
AcDbSpline
210
0.0
220
0.0
230
1.0
 70
     8
 71
     3
 72
    11
 73
     7
 74
     0
 42
0.0000000001
 43
0.0000000001
 40
0.0
 40
0.0
 40
0.0
 40
0.0
 40
0.2289728030469393
 40
0.4754001886590666
 40
0.7344175518097286
 40
1.0
 40
1.0
 40
1.0
 40
1.0
 10
4.859793615190882
 20
6.565055512328773
 30
0.0
 10
4.859325225189554
 20
6.564708000207262
 30
0.0
 10
4.858352739846167
 20
6.563986485136783
 30
0.0
 10
4.857570751732686
 20
6.562578090364531
 30
0.0
 10
4.857369030584512
 20
6.56101300367913
 30
0.0
 10
4.857819745680766
 20
6.559956239419659
 30
0.0
 10
4.858047923457637
 20
6.559421244871201
 30
0.0
  0
SPLINE
  5
8C
330
1F
100
AcDbEntity
  8
0
  6
Continuous
 62
     7
370
    15
100
AcDbSpline
210
0.0
220
0.0
230
1.0
 70
     8
 71
     3
 72
    11
 73
     7
 74
     0
 42
0.0000000001
 43
0.0000000001
 40
0.0
 40
0.0
 40
0.0
 40
0.0
 40
0.3043170718287052
 40
0.639996416574895
 40
0.9004810799173135
 40
0.9999999999999998
 40
0.9999999999999998
 40
0.9999999999999998
 40
0.9999999999999998
 10
4.744214033394244
 20
6.561170840801122
 30
0.0
 10
4.744195966051329
 20
6.560651309500273
 30
0.0
 10
4.744157969383405
 20
6.559558705103012
 30
0.0
 10
4.743374707368857
 20
6.558465414763685
 30
0.0
 10
4.742901206599824
 20
6.558107889476038
 30
0.0
 10
4.742940295287877
 20
6.558131149330911
 30
0.0
 10
4.742951100913714
 20
6.558137579254791
 30
0.0
  0
LWPOLYLINE
  5
8D
330
1F
100
AcDbEntity
  8
0
  6
Continuous
 62
     7
370
    15
100
AcDbPolyline
 90
       16
 70
   128
 43
0.0
 10
4.755502199522241
 20
6.566426652028853
 10
4.754949789141114
 20
6.566485030081475
 10
4.753900673509362
 20
6.566502127445344
 10
4.752643453329886
 20
6.566435506942688
 10
4.751245715837918
 20
6.566271185146844
 10
4.749788808456798
 20
6.566000612647044
 10
4.748362632274981
 20
6.565621162157352
 10
4.747059208187528
 20
6.565136683140973
 10
4.745966300444853
 20
6.564557667483943
 10
4.745160940401282
 20
6.563900622639573
 10
4.744703663558551
 20
6.563186780640744
 10
4.744633731554857
 20
6.56244194844547
 10
4.744966176349175
 20
6.561693696510833
 10
4.745689986550154
 20
6.560970027183162
 10
4.746611549154197
 20
6.560395318560851
 10
4.746611549154197
 20
6.560395318560851
  0
LINE
  5
8E
330
1F
100
AcDbEntity
  8
0
  6
Continuous
 62
     7
370
    15
100
AcDbLine
 10
4.871708560722942
 20
6.571353827366992
 30
0.0
 11
4.860200931882922
 21
6.565303055113838
 31
0.0
  0
SPLINE
  5
8F
330
1F
100
AcDbEntity
  8
0
  6
Continuous
 62
     7
370
    15
100
AcDbSpline
210
0.0
220
0.0
230
1.0
 70
     8
 71
     3
 72
    12
 73
     8
 74
     0
 42
0.0000000001
 43
0.0000000001
 40
0.0
 40
0.0
 40
0.0
 40
0.0
 40
0.0431804968229458
 40
0.2855825836982013
 40
0.597343088573189
 40
0.9824998113279496
 40
0.9999999999999998
 40
0.9999999999999998
 40
0.9999999999999998
 40
0.9999999999999998
 10
4.885419409846403
 20
6.563403246080212
 30
0.0
 10
4.885431062279529
 20
6.563397507690147
 30
0.0
 10
4.88550812790414
 20
6.563359555735412
 30
0.0
 10
4.885130147200317
 20
6.563586992221978
 30
0.0
 10
4.884445986581466
 20
6.564507106140536
 30
0.0
 10
4.883920713837311
 20
6.565757829149176
 30
0.0
 10
4.884061329053067
 20
6.566392422681505
 30
0.0
 10
4.884067440441537
 20
6.56642000325005
 30
0.0
  0
SPLINE
  5
90
330
1F
100
AcDbEntity
  8
0
  6
Continuous
 62
     7
370
    15
100
AcDbSpline
210
0.0
220
0.0
230
1.0
 70
     8
 71
     3
 72
     9
 73
     5
 74
     0
 42
0.0000000001
 43
0.0000000001
 40
0.0
 40
0.0
 40
0.0
 40
0.0
 40
0.5003815894623473
 40
1.0
 40
1.0
 40
1.0
 40
1.0
 10
4.75026629454616
 20
5.792489382444807
 30
0.0
 10
4.753173848419474
 20
5.790994546940044
 30
0.0
 10
4.758984521582806
 20
5.788007155844444
 30
0.0
 10
4.764947940005723
 20
5.78492963137519
 30
0.0
 10
4.767927373639551
 20
5.78339204349147
 30
0.0
  0
SPLINE
  5
91
330
1F
100
AcDbEntity
  8
0
  6
Continuous
 62
     7
370
    15
100
AcDbSpline
210
0.0
220
0.0
230
1.0
 70
     8
 71
     3
 72
     9
 73
     5
 74
     0
 42
0.0000000001
 43
0.0000000001
 40
0.0
 40
0.0
 40
0.0
 40
0.0
 40
0.5004753752216651
 40
1.0
 40
1.0
 40
1.0
 40
1.0
 10
4.75082041394535
 20
5.760918589579578
 30
0.0
 10
4.753678632367205
 20
5.75944740150498
 30
0.0
 10
4.759389639468381
 20
5.756507820164047
 30
0.0
 10
4.765280739909418
 20
5.753467836940496
 30
0.0
 10
4.768223489646759
 20
5.751949290461419
 30
0.0
  0
SPLINE
  5
92
330
1F
100
AcDbEntity
  8
0
  6
Continuous
 62
     7
370
    15
100
AcDbSpline
210
0.0
220
0.0
230
1.0
 70
     8
 71
     3
 72
     9
 73
     5
 74
     0
 42
0.0000000001
 43
0.0000000001
 40
0.0
 40
0.0
 40
0.0
 40
0.0
 40
0.500272460741777
 40
1.0
 40
1.0
 40
1.0
 40
1.0
 10
4.750555090511396
 20
5.729756915363225
 30
0.0
 10
4.753473567866306
 20
5.72825605803986
 30
0.0
 10
4.759307343626383
 20
5.725255978201088
 30
0.0
 10
4.765268676282022
 20
5.722180974315087
 30
0.0
 10
4.768247718380724
 20
5.720644310189927
 30
0.0
  0
SPLINE
  5
93
330
1F
100
AcDbEntity
  8
0
  6
Continuous
 62
     7
370
    15
100
AcDbSpline
210
0.0
220
0.0
230
1.0
 70
     8
 71
     3
 72
     9
 73
     5
 74
     0
 42
0.0000000001
 43
0.0000000001
 40
0.0
 40
0.0
 40
0.0
 40
0.0
 40
0.5003923477941344
 40
1.0
 40
1.0
 40
1.0
 40
1.0
 10
4.750270771266044
 20
5.698608311896864
 30
0.0
 10
4.753176207237514
 20
5.69711449870463
 30
0.0
 10
4.758982522990097
 20
5.694129214859226
 30
0.0
 10
4.76494377554365
 20
5.691052873810705
 30
0.0
 10
4.767922062936137
 20
5.689515910282071
 30
0.0
  0
SPLINE
  5
94
330
1F
100
AcDbEntity
  8
0
  6
Continuous
 62
     7
370
    15
100
AcDbSpline
210
0.0
220
0.0
230
1.0
 70
     8
 71
     3
 72
     9
 73
     5
 74
     0
 42
0.0000000001
 43
0.0000000001
 40
0.0
 40
0.0
 40
0.0
 40
0.0
 40
0.5004723240393185
 40
1.0
 40
1.0
 40
1.0
 40
1.0
 10
4.750866650337972
 20
5.667017118865505
 30
0.0
 10
4.753722588964815
 20
5.665546969739565
 30
0.0
 10
4.75942907559687
 20
5.662609446413449
 30
0.0
 10
4.765315809007004
 20
5.659571558969869
 30
0.0
 10
4.768256395266368
 20
5.658054050115348
 30
0.0
  0
SPLINE
  5
95
330
1F
100
AcDbEntity
  8
0
  6
Continuous
 62
     7
370
    15
100
AcDbSpline
210
0.0
220
0.0
230
1.0
 70
     8
 71
     3
 72
     9
 73
     5
 74
     0
 42
0.0000000001
 43
0.0000000001
 40
0.0
 40
0.0
 40
0.0
 40
0.0
 40
0.5002759447120068
 40
1.0
 40
1.0
 40
1.0
 40
1.0
 10
4.750513058605693
 20
5.635899025515588
 30
0.0
 10
4.753432328183095
 20
5.634397861214227
 30
0.0
 10
4.759267646887219
 20
5.631397188650961
 30
0.0
 10
4.765231504726019
 20
5.628320641443932
 30
0.0
 10
4.768211787950384
 20
5.626783216797351
 30
0.0
  0
SPLINE
  5
96
330
1F
100
AcDbEntity
  8
0
  6
Continuous
 62
     7
370
    15
100
AcDbSpline
210
0.0
220
0.0
230
1.0
 70
     8
 71
     3
 72
     9
 73
     5
 74
     0
 42
0.0000000001
 43
0.0000000001
 40
0.0
 40
0.0
 40
0.0
 40
0.0
 40
0.5004012558890478
 40
1.0
 40
1.0
 40
1.0
 40
1.0
 10
4.750279301232308
 20
5.604725076738994
 30
0.0
 10
4.753182466500647
 20
5.603232425522181
 30
0.0
 10
4.758984141125107
 20
5.600249516907852
 30
0.0
 10
4.764942825708859
 20
5.597174514883595
 30
0.0
 10
4.767919777043455
 20
5.595638247734138
 30
0.0
  0
SPLINE
  5
97
330
1F
100
AcDbEntity
  8
0
  6
Continuous
 62
     7
370
    15
100
AcDbSpline
210
0.0
220
0.0
230
1.0
 70
     8
 71
     3
 72
     9
 73
     5
 74
     0
 42
0.0000000001
 43
0.0000000001
 40
0.0
 40
0.0
 40
0.0
 40
0.0
 40
0.500472284593829
 40
1.0
 40
1.0
 40
1.0
 40
1.0
 10
4.750912407082033
 20
5.573116075337582
 30
0.0
 10
4.753766245258774
 20
5.571646812808388
 30
0.0
 10
4.759468535404684
 20
5.568711060770916
 30
0.0
 10
4.765351197519638
 20
5.565675380162991
 30
0.0
 10
4.768289750286427
 20
5.564158973564212
 30
0.0
  0
SPLINE
  5
98
330
1F
100
AcDbEntity
  8
0
  6
Continuous
 62
     7
370
    15
100
AcDbSpline
210
0.0
220
0.0
230
1.0
 70
     8
 71
     3
 72
     9
 73
     5
 74
     0
 42
0.0000000001
 43
0.0000000001
 40
0.0
 40
0.0
 40
0.0
 40
0.0
 40
0.5002852727645141
 40
1.0
 40
1.0
 40
1.0
 40
1.0
 10
4.750475321931229
 20
5.542039357128679
 30
0.0
 10
4.753395140472125
 20
5.540537825251071
 30
0.0
 10
4.759231447674935
 20
5.53753647390345
 30
0.0
 10
4.76519758197416
 20
5.534458745716694
 30
0.0
 10
4.768178947148149
 20
5.532920759615344
 30
0.0
  0
SPLINE
  5
99
330
1F
100
AcDbEntity
  8
0
  6
Continuous
 62
     7
370
    15
100
AcDbSpline
210
0.0
220
0.0
230
1.0
 70
     8
 71
     3
 72
     9
 73
     5
 74
     0
 42
0.0000000001
 43
0.0000000001
 40
0.0
 40
0.0
 40
0.0
 40
0.0
 40
0.5004092637175112
 40
1.0
 40
1.0
 40
1.0
 40
1.0
 10
4.750291720240943
 20
5.510839781162941
 30
0.0
 10
4.753192459490295
 20
5.509348346928239
 30
0.0
 10
4.758989193203423
 20
5.506367918021664
 30
0.0
 10
4.764945042026347
 20
5.503294393711978
 30
0.0
 10
4.76792052892498
 20
5.501758889439122
 30
0.0
  0
SPLINE
  5
9A
330
1F
100
AcDbEntity
  8
0
  6
Continuous
 62
     7
370
    15
100
AcDbSpline
210
0.0
220
0.0
230
1.0
 70
     8
 71
     3
 72
     9
 73
     5
 74
     0
 42
0.0000000001
 43
0.0000000001
 40
0.0
 40
0.0
 40
0.0
 40
0.0
 40
0.5004716049518968
 40
0.9999999999999998
 40
0.9999999999999998
 40
0.9999999999999998
 40
0.9999999999999998
 10
4.750957338484881
 20
5.47921549286694
 30
0.0
 10
4.753809291947775
 20
5.477746984988364
 30
0.0
 10
4.75950782396173
 20
5.474812736843119
 30
0.0
 10
4.765386667677274
 20
5.471779073634129
 30
0.0
 10
4.768323317043238
 20
5.470263672720226
 30
0.0
  0
SPLINE
  5
9B
330
1F
100
AcDbEntity
  8
0
  6
Continuous
 62
     7
370
    15
100
AcDbSpline
210
0.0
220
0.0
230
1.0
 70
     8
 71
     3
 72
     9
 73
     5
 74
     0
 42
0.0000000001
 43
0.0000000001
 40
0.0
 40
0.0
 40
0.0
 40
0.0
 40
0.5002887856102694
 40
1.0
 40
1.0
 40
1.0
 40
1.0
 10
4.75044177678021
 20
5.448177354250237
 30
0.0
 10
4.753361996474602
 20
5.446675705449635
 30
0.0
 10
4.759199064540859
 20
5.443674141465404
 30
0.0
 10
4.765166967792687
 20
5.440595275544584
 30
0.0
 10
4.768149195974018
 20
5.439056731716347
 30
0.0
  0
SPLINE
  5
9C
330
1F
100
AcDbEntity
  8
0
  6
Continuous
 62
     7
370
    15
100
AcDbSpline
210
0.0
220
0.0
230
1.0
 70
     8
 71
     3
 72
     9
 73
     5
 74
     0
 42
0.0000000001
 43
0.0000000001
 40
0.0
 40
0.0
 40
0.0
 40
0.0
 40
0.5004151969581377
 40
0.9999999999999998
 40
0.9999999999999998
 40
0.9999999999999998
 40
0.9999999999999998
 10
4.750307933226468
 20
5.416952510837471
 30
0.0
 10
4.753206119881115
 20
5.415462415062488
 30
0.0
 10
4.758997683910872
 20
5.412484696192152
 30
0.0
 10
4.764950346475616
 20
5.40941277263961
 30
0.0
 10
4.767924206230598
 20
5.407878086316653
 30
0.0
  0
SPLINE
  5
9D
330
1F
100
AcDbEntity
  8
0
  6
Continuous
 62
     7
370
    15
100
AcDbSpline
210
0.0
220
0.0
230
1.0
 70
     8
 71
     3
 72
     9
 73
     5
 74
     0
 42
0.0000000001
 43
0.0000000001
 40
0.0
 40
0.0
 40
0.0
 40
0.0
 40
0.5004649275659387
 40
0.9999999999999998
 40
0.9999999999999998
 40
0.9999999999999998
 40
0.9999999999999998
 10
4.751000995146063
 20
5.385315433109186
 30
0.0
 10
4.753851339042856
 20
5.383847688551589
 30
0.0
 10
4.759546730947052
 20
5.380914926480261
 30
0.0
 10
4.765421946884805
 20
5.377882987854279
 30
0.0
 10
4.768356823303835
 20
5.376368428173134
 30
0.0
  0
SPLINE
  5
9E
330
1F
100
AcDbEntity
  8
0
  6
Continuous
 62
     7
370
    15
100
AcDbSpline
210
0.0
220
0.0
230
1.0
 70
     8
 71
     3
 72
     9
 73
     5
 74
     0
 42
0.0000000001
 43
0.0000000001
 40
0.0
 40
0.0
 40
0.0
 40
0.0
 40
0.5002948762638533
 40
1.0
 40
1.0
 40
1.0
 40
1.0
 10
4.750412401546842
 20
5.354313387900997
 30
0.0
 10
4.753332809084646
 20
5.352811635955824
 30
0.0
 10
4.759170181555086
 20
5.349809902345464
 30
0.0
 10
4.765139587413649
 20
5.3467301671026
 30
0.0
 10
4.768122530106834
 20
5.345191207621989
 30
0.0
  0
SPLINE
  5
9F
330
1F
100
AcDbEntity
  8
0
  6
Continuous
 62
     7
370
    15
100
AcDbSpline
210
0.0
220
0.0
230
1.0
 70
     8
 71
     3
 72
     9
 73
     5
 74
     0
 42
0.0000000001
 43
0.0000000001
 40
0.0
 40
0.0
 40
0.0
 40
0.0
 40
0.5004231761752786
 40
1.0
 40
1.0
 40
1.0
 40
1.0
 10
4.750327767342555
 20
5.323063574566516
 30
0.0
 10
4.753223286254515
 20
5.321574804215675
 30
0.0
 10
4.759009426964644
 20
5.31859978143152
 30
0.0
 10
4.764958629958748
 20
5.315529664685345
 30
0.0
 10
4.767930713894831
 20
5.31399590551252
 30
0.0
  0
SPLINE
  5
A0
330
1F
100
AcDbEntity
  8
0
  6
Continuous
 62
     7
370
    15
100
AcDbSpline
210
0.0
220
0.0
230
1.0
 70
     8
 71
     3
 72
     9
 73
     5
 74
     0
 42
0.0000000001
 43
0.0000000001
 40
0.0
 40
0.0
 40
0.0
 40
0.0
 40
0.5004609470726218
 40
1.0
 40
1.0
 40
1.0
 40
1.0
 10
4.751043061621031
 20
5.291416390527733
 30
0.0
 10
4.753892052923573
 20
5.289949207191947
 30
0.0
 10
4.759584787430044
 20
5.287017543204239
 30
0.0
 10
4.765456728588802
 20
5.283987262772146
 30
0.0
 10
4.768389992514093
 20
5.282473519354992
 30
0.0
  0
SPLINE
  5
A1
330
1F
100
AcDbEntity
  8
0
  6
Continuous
 62
     7
370
    15
100
AcDbSpline
210
0.0
220
0.0
230
1.0
 70
     8
 71
     3
 72
     9
 73
     5
 74
     0
 42
0.0000000001
 43
0.0000000001
 40
0.0
 40
0.0
 40
0.0
 40
0.0
 40
0.5004442511072639
 40
0.9999999999999998
 40
0.9999999999999998
 40
0.9999999999999998
 40
0.9999999999999998
 10
4.750407423572609
 20
5.041386395788976
 30
0.0
 10
4.753294350147861
 20
5.039901852586416
 30
0.0
 10
4.759063077771098
 20
5.036935401879314
 30
0.0
 10
4.765000501186078
 20
5.033871500017405
 30
0.0
 10
4.76796657518664
 20
5.032340910228245
 30
0.0
  0
SPLINE
  5
A2
330
1F
100
AcDbEntity
  8
0
  6
Continuous
 62
     7
370
    15
100
AcDbSpline
210
0.0
220
0.0
230
1.0
 70
     8
 71
     3
 72
     9
 73
     5
 74
     0
 42
0.0000000001
 43
0.0000000001
 40
0.0
 40
0.0
 40
0.0
 40
0.0
 40
0.5004442696781277
 40
0.9999999999999998
 40
0.9999999999999998
 40
0.9999999999999998
 40
0.9999999999999998
 10
4.751155982126823
 20
5.009725948955802
 30
0.0
 10
4.754002591231766
 20
5.008259628558046
 30
0.0
 10
4.759690755284027
 20
5.005329591216028
 30
0.0
 10
4.765555254114944
 20
5.002303153624035
 30
0.0
 10
4.768484898111394
 20
5.000791279382492
 30
0.0
  0
SPLINE
  5
A3
330
1F
100
AcDbEntity
  8
0
  6
Continuous
 62
     7
370
    15
100
AcDbSpline
210
0.0
220
0.0
230
1.0
 70
     8
 71
     3
 72
     9
 73
     5
 74
     0
 42
0.0000000001
 43
0.0000000001
 40
0.0
 40
0.0
 40
0.0
 40
0.0
 40
0.0765133014844194
 40
1.0
 40
1.0
 40
1.0
 40
1.0
 10
4.758400835946271
 20
4.974687526367865
 30
0.0
 10
4.758643209510474
 20
4.974562835384051
 30
0.0
 10
4.76181094060429
 20
4.972933171242073
 30
0.0
 10
4.765052585357596
 20
4.971259730389522
 30
0.0
 10
4.768046201168586
 20
4.96971433002144
 30
0.0
  0
SPLINE
  5
A4
330
1F
100
AcDbEntity
  8
0
  6
Continuous
 62
     7
370
    15
100
AcDbSpline
210
0.0
220
0.0
230
1.0
 70
     8
 71
     3
 72
     9
 73
     5
 74
     0
 42
0.0000000001
 43
0.0000000001
 40
0.0
 40
0.0
 40
0.0
 40
0.0
 40
0.4996933984257017
 40
1.0
 40
1.0
 40
1.0
 40
1.0
 10
4.879760955285449
 20
4.97662004621111
 30
0.0
 10
4.882663780396597
 20
4.97811823030728
 30
0.0
 10
4.88847299284626
 20
4.98111643700941
 30
0.0
 10
4.894424976944862
 20
4.984177783839725
 30
0.0
 10
4.897402793881859
 20
4.98570939586864
 30
0.0
  0
SPLINE
  5
A5
330
1F
100
AcDbEntity
  8
0
  6
Continuous
 62
     7
370
    15
100
AcDbSpline
210
0.0
220
0.0
230
1.0
 70
     8
 71
     3
 72
     9
 73
     5
 74
     0
 42
0.0000000001
 43
0.0000000001
 40
0.0
 40
0.0
 40
0.0
 40
0.0
 40
0.4996091611091463
 40
0.9999999999999998
 40
0.9999999999999998
 40
0.9999999999999998
 40
0.9999999999999998
 10
4.878956322681851
 20
5.007503170827432
 30
0.0
 10
4.881850114038819
 20
5.008997714178328
 30
0.0
 10
4.887642224316668
 20
5.011989139210606
 30
0.0
 10
4.893598318083626
 20
5.0150509169787
 30
0.0
 10
4.896578692840186
 20
5.016583002524575
 30
0.0
  0
SPLINE
  5
A6
330
1F
100
AcDbEntity
  8
0
  6
Continuous
 62
     7
370
    15
100
AcDbSpline
210
0.0
220
0.0
230
1.0
 70
     8
 71
     3
 72
     9
 73
     5
 74
     0
 42
0.0000000001
 43
0.0000000001
 40
0.0
 40
0.0
 40
0.0
 40
0.0
 40
0.5831368627633868
 40
1.0
 40
1.0
 40
1.0
 40
1.0
 10
4.879157453690476
 20
5.038896928914943
 30
0.0
 10
4.881995805774742
 20
5.040363687235173
 30
0.0
 10
4.88686319157302
 20
5.042878977236357
 30
0.0
 10
4.891837556391256
 20
5.045438631605247
 30
0.0
 10
4.893911185715145
 20
5.046505657155706
 30
0.0
  0
SPLINE
  5
A7
330
1F
100
AcDbEntity
  8
0
  6
Continuous
 62
     7
370
    15
100
AcDbSpline
210
0.0
220
0.0
230
1.0
 70
     8
 71
     3
 72
     9
 73
     5
 74
     0
 42
0.0000000001
 43
0.0000000001
 40
0.0
 40
0.0
 40
0.0
 40
0.0
 40
0.4996707196175855
 40
1.0
 40
1.0
 40
1.0
 40
1.0
 10
4.879692538927989
 20
5.258221087586205
 30
0.0
 10
4.882599328505865
 20
5.259721393736263
 30
0.0
 10
4.888416738779779
 20
5.262723983424136
 30
0.0
 10
4.894381438109991
 20
5.265791870370181
 30
0.0
 10
4.897365751833574
 20
5.26732682403819
 30
0.0
  0
SPLINE
  5
A8
330
1F
100
AcDbEntity
  8
0
  6
Continuous
 62
     7
370
    15
100
AcDbSpline
210
0.0
220
0.0
230
1.0
 70
     8
 71
     3
 72
     9
 73
     5
 74
     0
 42
0.0000000001
 43
0.0000000001
 40
0.0
 40
0.0
 40
0.0
 40
0.0
 40
0.4996087278278634
 40
1.0
 40
1.0
 40
1.0
 40
1.0
 10
4.878791318176119
 20
5.289057767293598
 30
0.0
 10
4.881677077273117
 20
5.290548492007639
 30
0.0
 10
4.887453115473137
 20
5.293532276379304
 30
0.0
 10
4.893393972101106
 20
5.29658601376576
 30
0.0
 10
4.896366724906969
 20
5.29811407730145
 30
0.0
  0
SPLINE
  5
A9
330
1F
100
AcDbEntity
  8
0
  6
Continuous
 62
     7
370
    15
100
AcDbSpline
210
0.0
220
0.0
230
1.0
 70
     8
 71
     3
 72
     9
 73
     5
 74
     0
 42
0.0000000001
 43
0.0000000001
 40
0.0
 40
0.0
 40
0.0
 40
0.0
 40
0.4997813963428189
 40
1.0
 40
1.0
 40
1.0
 40
1.0
 10
4.879397659312168
 20
5.320655320583748
 30
0.0
 10
4.882253353682056
 20
5.322130077221189
 30
0.0
 10
4.887967240574975
 20
5.325080880608899
 30
0.0
 10
4.893807516299967
 20
5.328085048372681
 30
0.0
 10
4.896728930868097
 20
5.329587788976632
 30
0.0
  0
SPLINE
  5
AA
330
1F
100
AcDbEntity
  8
0
  6
Continuous
 62
     7
370
    15
100
AcDbSpline
210
0.0
220
0.0
230
1.0
 70
     8
 71
     3
 72
     9
 73
     5
 74
     0
 42
0.0000000001
 43
0.0000000001
 40
0.0
 40
0.0
 40
0.0
 40
0.0
 40
0.4996651382974188
 40
1.0
 40
1.0
 40
1.0
 40
1.0
 10
4.879661583231014
 20
5.352083948759839
 30
0.0
 10
4.882569198507143
 20
5.35358467588937
 30
0.0
 10
4.888388326265459
 20
5.356588141639741
 30
0.0
 10
4.894356178628415
 20
5.359657685362523
 30
0.0
 10
4.897342103215096
 20
5.361193485096552
 30
0.0
  0
SPLINE
  5
AB
330
1F
100
AcDbEntity
  8
0
  6
Continuous
 62
     7
370
    15
100
AcDbSpline
210
0.0
220
0.0
230
1.0
 70
     8
 71
     3
 72
     9
 73
     5
 74
     0
 42
0.0000000001
 43
0.0000000001
 40
0.0
 40
0.0
 40
0.0
 40
0.0
 40
0.4996140876986628
 40
1.0
 40
1.0
 40
1.0
 40
1.0
 10
4.878740038451748
 20
5.382911324842482
 30
0.0
 10
4.881622875311902
 20
5.384400699758322
 30
0.0
 10
4.887393002558377
 20
5.387381750438261
 30
0.0
 10
4.893328044881121
 20
5.390432382029045
 30
0.0
 10
4.896297856448334
 20
5.391958875100695
 30
0.0
  0
SPLINE
  5
AC
330
1F
100
AcDbEntity
  8
0
  6
Continuous
 62
     7
370
    15
100
AcDbSpline
210
0.0
220
0.0
230
1.0
 70
     8
 71
     3
 72
     9
 73
     5
 74
     0
 42
0.0000000001
 43
0.0000000001
 40
0.0
 40
0.0
 40
0.0
 40
0.0
 40
0.4997767846358359
 40
1.0
 40
1.0
 40
1.0
 40
1.0
 10
4.879470936972589
 20
5.414571629000036
 30
0.0
 10
4.882331466126491
 20
5.416048697738504
 30
0.0
 10
4.888055079631239
 20
5.419004154622208
 30
0.0
 10
4.893905590950626
 20
5.422013477201575
 30
0.0
 10
4.896832152534333
 20
5.423518810218294
 30
0.0
  0
SPLINE
  5
AD
330
1F
100
AcDbEntity
  8
0
  6
Continuous
 62
     7
370
    15
100
AcDbSpline
210
0.0
220
0.0
230
1.0
 70
     8
 71
     3
 72
     9
 73
     5
 74
     0
 42
0.0000000001
 43
0.0000000001
 40
0.0
 40
0.0
 40
0.0
 40
0.0
 40
0.4996579080318242
 40
0.9999999999999998
 40
0.9999999999999998
 40
0.9999999999999998
 40
0.9999999999999998
 10
4.879626838418452
 20
5.445944746388986
 30
0.0
 10
4.882535021630556
 20
5.447445824196918
 30
0.0
 10
4.888355370243789
 20
5.450450035245723
 30
0.0
 10
4.894325907388183
 20
5.453520911500572
 30
0.0
 10
4.897313218433183
 20
5.455057400150098
 30
0.0
  0
SPLINE
  5
AE
330
1F
100
AcDbEntity
  8
0
  6
Continuous
 62
     7
370
    15
100
AcDbSpline
210
0.0
220
0.0
230
1.0
 70
     8
 71
     3
 72
     9
 73
     5
 74
     0
 42
0.0000000001
 43
0.0000000001
 40
0.0
 40
0.0
 40
0.0
 40
0.0
 40
0.4996172977954381
 40
0.9999999999999998
 40
0.9999999999999998
 40
0.9999999999999998
 40
0.9999999999999998
 10
4.878691299568391
 20
5.476766142085252
 30
0.0
 10
4.881571128906313
 20
5.478254076699866
 30
0.0
 10
4.887335199427147
 20
5.481232225417254
 30
0.0
 10
4.893264072500171
 20
5.48427965966008
 30
0.0
 10
4.896230778029479
 20
5.485804543041297
 30
0.0
  0
SPLINE
  5
AF
330
1F
100
AcDbEntity
  8
0
  6
Continuous
 62
     7
370
    15
100
AcDbSpline
210
0.0
220
0.0
230
1.0
 70
     8
 71
     3
 72
     9
 73
     5
 74
     0
 42
0.0000000001
 43
0.0000000001
 40
0.0
 40
0.0
 40
0.0
 40
0.0
 40
0.4997751439838537
 40
1.0
 40
1.0
 40
1.0
 40
1.0
 10
4.87954089112222
 20
5.508486429403193
 30
0.0
 10
4.882406089819217
 20
5.509965696924679
 30
0.0
 10
4.888139065401312
 20
5.512925563055063
 30
0.0
 10
4.893999426300783
 20
5.515939871601069
 30
0.0
 10
4.896930924487925
 20
5.517447703659484
 30
0.0
  0
SPLINE
  5
B0
330
1F
100
AcDbEntity
  8
0
  6
Continuous
 62
     7
370
    15
100
AcDbSpline
210
0.0
220
0.0
230
1.0
 70
     8
 71
     3
 72
     9
 73
     5
 74
     0
 42
0.0000000001
 43
0.0000000001
 40
0.0
 40
0.0
 40
0.0
 40
0.0
 40
0.4996519010136187
 40
1.0
 40
1.0
 40
1.0
 40
1.0
 10
4.879588579423993
 20
5.539803930940583
 30
0.0
 10
4.882497050100428
 20
5.541305235206599
 30
0.0
 10
4.888318044017464
 20
5.544309935604957
 30
0.0
 10
4.894290741137242
 20
5.547381669180902
 30
0.0
 10
4.897279168786944
 20
5.548918605236218
 30
0.0
  0
SPLINE
  5
B1
330
1F
100
AcDbEntity
  8
0
  6
Continuous
 62
     7
370
    15
100
AcDbSpline
210
0.0
220
0.0
230
1.0
 70
     8
 71
     3
 72
     9
 73
     5
 74
     0
 42
0.0000000001
 43
0.0000000001
 40
0.0
 40
0.0
 40
0.0
 40
0.0
 40
0.4996169176255899
 40
1.0
 40
1.0
 40
1.0
 40
1.0
 10
4.878645532561579
 20
5.570622635630941
 30
0.0
 10
4.881522292347946
 20
5.572109035690077
 30
0.0
 10
4.887280223444512
 20
5.575084115209404
 30
0.0
 10
4.893202553763853
 20
5.578128434019837
 30
0.0
 10
4.896165987663884
 20
5.579651759649931
 30
0.0
  0
SPLINE
  5
B2
330
1F
100
AcDbEntity
  8
0
  6
Continuous
 62
     7
370
    15
100
AcDbSpline
210
0.0
220
0.0
230
1.0
 70
     8
 71
     3
 72
     9
 73
     5
 74
     0
 42
0.0000000001
 43
0.0000000001
 40
0.0
 40
0.0
 40
0.0
 40
0.0
 40
0.4997682903825208
 40
1.0
 40
1.0
 40
1.0
 40
1.0
 10
4.879607597921471
 20
5.602399723674458
 30
0.0
 10
4.882477268578718
 20
5.603881056143957
 30
0.0
 10
4.88821927084751
 20
5.606845094675421
 30
0.0
 10
4.894089078084878
 20
5.609864203669641
 30
0.0
 10
4.897025341794351
 20
5.611374457723341
 30
0.0
  0
SPLINE
  5
B3
330
1F
100
AcDbEntity
  8
0
  6
Continuous
 62
     7
370
    15
100
AcDbSpline
210
0.0
220
0.0
230
1.0
 70
     8
 71
     3
 72
     9
 73
     5
 74
     0
 42
0.0000000001
 43
0.0000000001
 40
0.0
 40
0.0
 40
0.0
 40
0.0
 40
0.4996480461125056
 40
1.0
 40
1.0
 40
1.0
 40
1.0
 10
4.879546967210778
 20
5.63366133702347
 30
0.0
 10
4.882455509135211
 20
5.635162726182965
 30
0.0
 10
4.888276690558941
 20
5.638167619669843
 30
0.0
 10
4.894250956368983
 20
5.64124014141961
 30
0.0
 10
4.89724019194008
 20
5.642777483680467
 30
0.0
  0
SPLINE
  5
B4
330
1F
100
AcDbEntity
  8
0
  6
Continuous
 62
     7
370
    15
100
AcDbSpline
210
0.0
220
0.0
230
1.0
 70
     8
 71
     3
 72
     9
 73
     5
 74
     0
 42
0.0000000001
 43
0.0000000001
 40
0.0
 40
0.0
 40
0.0
 40
0.0
 40
0.4996219319758303
 40
1.0
 40
1.0
 40
1.0
 40
1.0
 10
4.878603118233376
 20
5.664480567737419
 30
0.0
 10
4.881476743402242
 20
5.665965538668461
 30
0.0
 10
4.887228342731564
 20
5.668937727909971
 30
0.0
 10
4.893144032608444
 20
5.671978561646104
 30
0.0
 10
4.896104114080068
 20
5.673500128156171
 30
0.0
  0
SPLINE
  5
B5
330
1F
100
AcDbEntity
  8
0
  6
Continuous
 62
     7
370
    15
100
AcDbSpline
210
0.0
220
0.0
230
1.0
 70
     8
 71
     3
 72
     9
 73
     5
 74
     0
 42
0.0000000001
 43
0.0000000001
 40
0.0
 40
0.0
 40
0.0
 40
0.0
 40
0.499765870563609
 40
1.0
 40
1.0
 40
1.0
 40
1.0
 10
4.879663986335112
 20
5.696307671966884
 30
0.0
 10
4.882537732595642
 20
5.697791042875297
 30
0.0
 10
4.888287917691896
 20
5.700759174546113
 30
0.0
 10
4.894166585518023
 20
5.703782735192124
 30
0.0
 10
4.897107295800272
 20
5.705295223419679
 30
0.0
  0
SPLINE
  5
B6
330
1F
100
AcDbEntity
  8
0
  6
Continuous
 62
     7
370
    15
100
AcDbSpline
210
0.0
220
0.0
230
1.0
 70
     8
 71
     3
 72
     9
 73
     5
 74
     0
 42
0.0000000001
 43
0.0000000001
 40
0.0
 40
0.0
 40
0.0
 40
0.0
 40
0.4996404374758331
 40
1.0
 40
1.0
 40
1.0
 40
1.0
 10
4.879502288055539
 20
5.727517248261904
 30
0.0
 10
4.882410653485081
 20
5.729018543145747
 30
0.0
 10
4.888231570311259
 20
5.732023293704828
 30
0.0
 10
4.894206842516789
 20
5.735096319909316
 30
0.0
 10
4.89719662710351
 20
5.736633937956619
 30
0.0
  0
SPLINE
  5
B7
330
1F
100
AcDbEntity
  8
0
  6
Continuous
 62
     7
370
    15
100
AcDbSpline
210
0.0
220
0.0
230
1.0
 70
     8
 71
     3
 72
     9
 73
     5
 74
     0
 42
0.0000000001
 43
0.0000000001
 40
0.0
 40
0.0
 40
0.0
 40
0.0
 40
0.4996278121562484
 40
1.0
 40
1.0
 40
1.0
 40
1.0
 10
4.878564456290916
 20
5.758340629227368
 30
0.0
 10
4.881434938174429
 20
5.75982409886944
 30
0.0
 10
4.887180178558718
 20
5.762793248316242
 30
0.0
 10
4.893088971204221
 20
5.765830618858736
 30
0.0
 10
4.896045566707767
 20
5.767350434602374
 30
0.0
  0
SPLINE
  5
B8
330
1F
100
AcDbEntity
  8
0
  6
Continuous
 62
     7
370
    15
100
AcDbSpline
210
0.0
220
0.0
230
1.0
 70
     8
 71
     3
 72
     9
 73
     5
 74
     0
 42
0.0000000001
 43
0.0000000001
 40
0.0
 40
0.0
 40
0.0
 40
0.0
 40
0.0840683081392433
 40
0.9999999999999998
 40
0.9999999999999998
 40
0.9999999999999998
 40
0.9999999999999998
 10
4.76014470415076
 20
5.787405821373746
 30
0.0
 10
4.759874393046937
 20
5.787266336679922
 30
0.0
 10
4.756659018433059
 20
5.785607153845032
 30
0.0
 10
4.753540082966995
 20
5.784002340792143
 30
0.0
 10
4.750683351128758
 20
5.782532441657492
 30
0.0
  0
SPLINE
  5
B9
330
1F
100
AcDbEntity
  8
0
  6
Continuous
 62
     7
370
    15
100
AcDbSpline
210
0.0
220
0.0
230
1.0
 70
     8
 71
     3
 72
     9
 73
     5
 74
     0
 42
0.0000000001
 43
0.0000000001
 40
0.0
 40
0.0
 40
0.0
 40
0.0
 40
0.1224295612774733
 40
1.0
 40
1.0
 40
1.0
 40
1.0
 10
4.760146106366591
 20
5.756115803205414
 30
0.0
 10
4.75972985007923
 20
5.75590100493316
 30
0.0
 10
4.75632988455605
 20
5.754146540815078
 30
0.0
 10
4.753015652733699
 20
5.752443160401658
 30
0.0
 10
4.75010718085933
 20
5.750948324104943
 30
0.0
  0
SPLINE
  5
BA
330
1F
100
AcDbEntity
  8
0
  6
Continuous
 62
     7
370
    15
100
AcDbSpline
210
0.0
220
0.0
230
1.0
 70
     8
 71
     3
 72
     9
 73
     5
 74
     0
 42
0.0000000001
 43
0.0000000001
 40
0.0
 40
0.0
 40
0.0
 40
0.0
 40
0.0569652429924306
 40
0.9999999999999998
 40
0.9999999999999998
 40
0.9999999999999998
 40
0.9999999999999998
 10
4.760153990319707
 20
5.724817067354335
 30
0.0
 10
4.759974924006406
 20
5.724724771185861
 30
0.0
 10
4.756831492961535
 20
5.72310455219575
 30
0.0
 10
4.753753014096898
 20
5.721520983422708
 30
0.0
 10
4.750849901528832
 20
5.720027623029619
 30
0.0
  0
SPLINE
  5
BB
330
1F
100
AcDbEntity
  8
0
  6
Continuous
 62
     7
370
    15
100
AcDbSpline
210
0.0
220
0.0
230
1.0
 70
     8
 71
     3
 72
     9
 73
     5
 74
     0
 42
0.0000000001
 43
0.0000000001
 40
0.0
 40
0.0
 40
0.0
 40
0.0
 40
0.0881612801813531
 40
1.0
 40
1.0
 40
1.0
 40
1.0
 10
4.760144004123133
 20
5.693527326141404
 30
0.0
 10
4.759858978308987
 20
5.693380288247569
 30
0.0
 10
4.756625973824932
 20
5.691712459768534
 30
0.0
 10
4.753489729507455
 20
5.690098774140893
 30
0.0
 10
4.750629980503967
 20
5.688627353103995
 30
0.0
  0
SPLINE
  5
BC
330
1F
100
AcDbEntity
  8
0
  6
Continuous
 62
     7
370
    15
100
AcDbSpline
210
0.0
220
0.0
230
1.0
 70
     8
 71
     3
 72
     9
 73
     5
 74
     0
 42
0.0000000001
 43
0.0000000001
 40
0.0
 40
0.0
 40
0.0
 40
0.0
 40
0.1219051343805714
 40
1.0
 40
1.0
 40
1.0
 40
1.0
 10
4.760146860408696
 20
5.662237353660307
 30
0.0
 10
4.759732528547353
 20
5.662023567065302
 30
0.0
 10
4.756333722882216
 20
5.660269854261556
 30
0.0
 10
4.753019631318847
 20
5.658566473423003
 30
0.0
 10
4.750109544532859
 20
5.657070743454475
 30
0.0
  0
LINE
  5
BD
330
1F
100
AcDbEntity
  8
0
  6
Continuous
 62
     7
370
    15
100
AcDbLine
 10
4.760156807714847
 20
5.630936225137327
 30
0.0
 11
4.750936197218442
 21
5.626190347835911
 31
0.0
  0
SPLINE
  5
BE
330
1F
100
AcDbEntity
  8
0
  6
Continuous
 62
     7
370
    15
100
AcDbSpline
210
0.0
220
0.0
230
1.0
 70
     8
 71
     3
 72
     9
 73
     5
 74
     0
 42
0.0000000001
 43
0.0000000001
 40
0.0
 40
0.0
 40
0.0
 40
0.0
 40
0.0920939371364169
 40
1.0
 40
1.0
 40
1.0
 40
1.0
 10
4.760143405642724
 20
5.599648746450903
 30
0.0
 10
4.759844102651704
 20
5.599494317358133
 30
0.0
 10
4.756594127676954
 20
5.597817452435519
 30
0.0
 10
4.753440747454127
 20
5.59619535739018
 30
0.0
 10
4.75057777443131
 20
5.594722647463976
 30
0.0
  0
SPLINE
  5
BF
330
1F
100
AcDbEntity
  8
0
  6
Continuous
 62
     7
370
    15
100
AcDbSpline
210
0.0
220
0.0
230
1.0
 70
     8
 71
     3
 72
     9
 73
     5
 74
     0
 42
0.0000000001
 43
0.0000000001
 40
0.0
 40
0.0
 40
0.0
 40
0.0
 40
0.1210706188399878
 40
1.0
 40
1.0
 40
1.0
 40
1.0
 10
4.760147692231647
 20
5.568359040863279
 30
0.0
 10
4.75973652060742
 20
5.568146874391816
 30
0.0
 10
4.756340390083215
 20
5.566394455237649
 30
0.0
 10
4.753027780987594
 20
5.564691871031182
 30
0.0
 10
4.750116231525156
 20
5.563195419748217
 30
0.0
  0
LINE
  5
C0
330
1F
100
AcDbEntity
  8
0
  6
Continuous
 62
     7
370
    15
100
AcDbLine
 10
4.760158642046498
 20
5.537055995327976
 30
0.0
 11
4.751027362853331
 21
5.532355182840887
 31
0.0
  0
SPLINE
  5
C1
330
1F
100
AcDbEntity
  8
0
  6
Continuous
 62
     7
370
    15
100
AcDbSpline
210
0.0
220
0.0
230
1.0
 70
     8
 71
     3
 72
     9
 73
     5
 74
     0
 42
0.0000000001
 43
0.0000000001
 40
0.0
 40
0.0
 40
0.0
 40
0.0
 40
0.0958477415202049
 40
1.0
 40
1.0
 40
1.0
 40
1.0
 10
4.760142938957639
 20
5.505770105754206
 30
0.0
 10
4.759829841721503
 20
5.505608577744067
 30
0.0
 10
4.756563231249822
 20
5.503923321445092
 30
0.0
 10
4.753393214949651
 20
5.502292698002174
 30
0.0
 10
4.750527037552434
 20
5.500818366133529
 30
0.0
  0
SPLINE
  5
C2
330
1F
100
AcDbEntity
  8
0
  6
Continuous
 62
     7
370
    15
100
AcDbSpline
210
0.0
220
0.0
230
1.0
 70
     8
 71
     3
 72
     9
 73
     5
 74
     0
 42
0.0000000001
 43
0.0000000001
 40
0.0
 40
0.0
 40
0.0
 40
0.0
 40
0.1199155017806334
 40
1.0
 40
1.0
 40
1.0
 40
1.0
 10
4.760148573747917
 20
5.474480705930741
 30
0.0
 10
4.75974181402066
 20
5.474270831968792
 30
0.0
 10
4.756349761106586
 20
5.472520649891982
 30
0.0
 10
4.75304014307932
 20
5.470819507363943
 30
0.0
 10
4.750127399558496
 20
5.469322358195754
 30
0.0
  0
SPLINE
  5
C3
330
1F
100
AcDbEntity
  8
0
  6
Continuous
 62
     7
370
    15
100
AcDbSpline
210
0.0
220
0.0
230
1.0
 70
     8
 71
     3
 72
     9
 73
     5
 74
     0
 42
0.0000000001
 43
0.0000000001
 40
0.0
 40
0.0
 40
0.0
 40
0.0
 40
0.1589677661275487
 40
0.9999999999999998
 40
0.9999999999999998
 40
0.9999999999999998
 40
0.9999999999999998
 10
4.760158951009308
 20
5.443176631162932
 30
0.0
 10
4.759678640455978
 20
5.442928757555481
 30
0.0
 10
4.75665720683437
 20
5.441369487940711
 30
0.0
 10
4.753651435465519
 20
5.439822634977414
 30
0.0
 10
4.751123484856664
 20
5.438521681774219
 30
0.0
  0
SPLINE
  5
C4
330
1F
100
AcDbEntity
  8
0
  6
Continuous
 62
     7
370
    15
100
AcDbSpline
210
0.0
220
0.0
230
1.0
 70
     8
 71
     3
 72
     9
 73
     5
 74
     0
 42
0.0000000001
 43
0.0000000001
 40
0.0
 40
0.0
 40
0.0
 40
0.0
 40
0.0993937588580414
 40
1.0
 40
1.0
 40
1.0
 40
1.0
 10
4.760142547892823
 20
5.41189144139551
 30
0.0
 10
4.759816265229164
 20
5.411723146197847
 30
0.0
 10
4.756533537345566
 20
5.41002992924343
 30
0.0
 10
4.753347454593423
 20
5.408391072967141
 30
0.0
 10
4.750478048582047
 20
5.40691510877638
 30
0.0
  0
SPLINE
  5
C5
330
1F
100
AcDbEntity
  8
0
  6
Continuous
 62
     7
370
    15
100
AcDbSpline
210
0.0
220
0.0
230
1.0
 70
     8
 71
     3
 72
     9
 73
     5
 74
     0
 42
0.0000000001
 43
0.0000000001
 40
0.0
 40
0.0
 40
0.0
 40
0.0
 40
0.1184334821655286
 40
1.0
 40
1.0
 40
1.0
 40
1.0
 10
4.760149494154612
 20
5.380602364491453
 30
0.0
 10
4.759748426325946
 20
5.380395416183758
 30
0.0
 10
4.756361986770744
 20
5.378648036102451
 30
0.0
 10
4.753056777793221
 20
5.376949172633595
 30
0.0
 10
4.75014301622419
 20
5.375451511481079
 30
0.0
  0
SPLINE
  5
C6
330
1F
100
AcDbEntity
  8
0
  6
Continuous
 62
     7
370
    15
100
AcDbSpline
210
0.0
220
0.0
230
1.0
 70
     8
 71
     3
 72
     9
 73
     5
 74
     0
 42
0.0000000001
 43
0.0000000001
 40
0.0
 40
0.0
 40
0.0
 40
0.0
 40
0.0419358322959724
 40
1.0
 40
1.0
 40
1.0
 40
1.0
 10
4.760158054368984
 20
5.349298048887755
 30
0.0
 10
4.760030139889194
 20
5.349232036894218
 30
0.0
 10
4.756979896868209
 20
5.347657917819354
 30
0.0
 10
4.754021037561392
 20
5.346133222674618
 30
0.0
 10
4.751186260482253
 20
5.344672466889774
 30
0.0
  0
SPLINE
  5
C7
330
1F
100
AcDbEntity
  8
0
  6
Continuous
 62
     7
370
    15
100
AcDbSpline
210
0.0
220
0.0
230
1.0
 70
     8
 71
     3
 72
     9
 73
     5
 74
     0
 42
0.0000000001
 43
0.0000000001
 40
0.0
 40
0.0
 40
0.0
 40
0.0
 40
0.1027369107455953
 40
1.0
 40
1.0
 40
1.0
 40
1.0
 10
4.760142282141595
 20
5.318012744990408
 30
0.0
 10
4.759803471938529
 20
5.317837948571066
 30
0.0
 10
4.756505628927616
 20
5.316136550134286
 30
0.0
 10
4.75330391306912
 20
5.314490044910893
 30
0.0
 10
4.750431131607012
 20
5.313012696547678
 30
0.0
  0
SPLINE
  5
C8
330
1F
100
AcDbEntity
  8
0
  6
Continuous
 62
     7
370
    15
100
AcDbSpline
210
0.0
220
0.0
230
1.0
 70
     8
 71
     3
 72
     9
 73
     5
 74
     0
 42
0.0000000001
 43
0.0000000001
 40
0.0
 40
0.0
 40
0.0
 40
0.0
 40
0.1166232601669435
 40
1.0
 40
1.0
 40
1.0
 40
1.0
 10
4.760150505305627
 20
5.286724106116966
 30
0.0
 10
4.759756388191854
 20
5.286520757414342
 30
0.0
 10
4.756376984175802
 20
5.284777119804375
 30
0.0
 10
4.753077669265077
 20
5.283081209254639
 30
0.0
 10
4.750163131215559
 20
5.281583081322165
 30
0.0
  0
SPLINE
  5
C9
330
1F
100
AcDbEntity
  8
0
  6
Continuous
 62
     7
370
    15
100
AcDbSpline
210
0.0
220
0.0
230
1.0
 70
     8
 71
     3
 72
     9
 73
     5
 74
     0
 42
0.0000000001
 43
0.0000000001
 40
0.0
 40
0.0
 40
0.0
 40
0.0
 40
0.1113583840900669
 40
1.0
 40
1.0
 40
1.0
 40
1.0
 10
4.760142061762527
 20
5.03637630918292
 30
0.0
 10
4.759770293641815
 20
5.036184501100889
 30
0.0
 10
4.756431810206101
 20
5.034462061577379
 30
0.0
 10
4.753187971874283
 20
5.032794364263227
 30
0.0
 10
4.750305362137345
 20
5.031312379027131
 30
0.0
  0
SPLINE
  5
CA
330
1F
100
AcDbEntity
  8
0
  6
Continuous
 62
     7
370
    15
100
AcDbSpline
210
0.0
220
0.0
230
1.0
 70
     8
 71
     3
 72
     9
 73
     5
 74
     0
 42
0.0000000001
 43
0.0000000001
 40
0.0
 40
0.0
 40
0.0
 40
0.0
 40
0.1091241223834645
 40
1.0
 40
1.0
 40
1.0
 40
1.0
 10
4.760153823955117
 20
5.005089342891199
 30
0.0
 10
4.759788336924298
 20
5.004900809302119
 30
0.0
 10
4.756439058846854
 20
5.003173110742336
 30
0.0
 10
4.753166496422195
 20
5.001490612047984
 30
0.0
 10
4.75025104950007
 20
4.999991714547062
 30
0.0
  0
LINE
  5
CB
330
1F
100
AcDbEntity
  8
0
  6
Continuous
 62
     7
370
    15
100
AcDbLine
 10
4.764719229128868
 20
4.968362952113899
 30
0.0
 11
4.767697150973565
 21
4.96560703959631
 31
0.0
  0
LINE
  5
CC
330
1F
100
AcDbEntity
  8
0
  6
Continuous
 62
     7
370
    15
100
AcDbLine
 10
4.747685495781336
 20
4.984126740995487
 30
0.0
 11
4.757431643376091
 21
4.975107169949915
 31
0.0
  0
LINE
  5
CD
330
1F
100
AcDbEntity
  8
0
  6
Continuous
 62
     7
370
    15
100
AcDbLine
 10
4.88776700650667
 20
4.965607042490526
 30
0.0
 11
4.899049472756943
 21
4.976048319785638
 31
0.0
  0
LINE
  5
CE
330
1F
100
AcDbEntity
  8
0
  6
Continuous
 62
     7
370
    15
100
AcDbLine
 10
4.581178363464935
 20
7.771497095621268
 30
0.0
 11
4.598224680025113
 21
7.768517258288166
 31
0.0
  0
SPLINE
  5
CF
330
1F
100
AcDbEntity
  8
0
  6
Continuous
 62
     7
370
    15
100
AcDbSpline
210
0.0
220
0.0
230
1.0
 70
     8
 71
     3
 72
    17
 73
    13
 74
     0
 42
0.0000000001
 43
0.0000000001
 40
0.0
 40
0.0
 40
0.0
 40
0.0
 40
0.1085685537803882
 40
0.2059764934054749
 40
0.3055194298601145
 40
0.4153816207035178
 40
0.5395367512551301
 40
0.6622912423815024
 40
0.774510374084679
 40
0.8797035700685889
 40
0.9822948256561867
 40
1.0
 40
1.0
 40
1.0
 40
1.0
 10
4.598224680025113
 20
7.768517258288166
 30
0.0
 10
4.599057511329392
 20
7.768467774010941
 30
0.0
 10
4.600637560668546
 20
7.76837389233391
 30
0.0
 10
4.602832587048249
 20
7.769301127232343
 30
0.0
 10
4.604641023380279
 20
7.770812411134057
 30
0.0
 10
4.606039854983568
 20
7.7730102372532
 30
0.0
 10
4.606755353759443
 20
7.775736644754831
 30
0.0
 10
4.606552871348611
 20
7.778538784255577
 30
0.0
 10
4.605479355394032
 20
7.7809453206025
 30
0.0
 10
4.603735673781435
 20
7.782703245223526
 30
0.0
 10
4.602134478750468
 20
7.783431139894089
 30
0.0
 10
4.601238205054718
 20
7.783606451304261
 30
0.0
 10
4.601106291896097
 20
7.783632253558605
 30
0.0
  0
SPLINE
  5
D0
330
1F
100
AcDbEntity
  8
0
  6
Continuous
 62
     7
370
    15
100
AcDbSpline
210
0.0
220
0.0
230
1.0
 70
     8
 71
     3
 72
    11
 73
     7
 74
     0
 42
0.0000000001
 43
0.0000000001
 40
0.0
 40
0.0
 40
0.0
 40
0.0
 40
0.2742291899333578
 40
0.5493287059616688
 40
0.8095673626775653
 40
1.0
 40
1.0
 40
1.0
 40
1.0
 10
4.661606991092162
 20
7.870114157337599
 30
0.0
 10
4.661533500730269
 20
7.870963804326541
 30
0.0
 10
4.661386286768803
 20
7.872665794844301
 30
0.0
 10
4.660162793037859
 20
7.874868001082739
 30
0.0
 10
4.658502181012162
 20
7.876441737191608
 30
0.0
 10
4.657170628969025
 20
7.876834020720531
 30
0.0
 10
4.656607977274406
 20
7.876999781415697
 30
0.0
  0
SPLINE
  5
D1
330
1F
100
AcDbEntity
  8
0
  6
Continuous
 62
     7
370
    15
100
AcDbSpline
210
0.0
220
0.0
230
1.0
 70
     8
 71
     3
 72
    14
 73
    10
 74
     0
 42
0.0000000001
 43
0.0000000001
 40
0.0
 40
0.0
 40
0.0
 40
0.0
 40
0.0434957546378458
 40
0.2182260464661753
 40
0.3810739369211388
 40
0.5470404001819733
 40
0.7299363703322272
 40
0.9366707190071855
 40
1.0
 40
1.0
 40
1.0
 40
1.0
 10
4.652668473769462
 20
7.837864276988422
 30
0.0
 10
4.652852312681758
 20
7.837789603345301
 30
0.0
 10
4.65377466566427
 20
7.837414952208674
 30
0.0
 10
4.65559425818728
 20
7.837595620797965
 30
0.0
 10
4.657743443829998
 20
7.838394310558052
 30
0.0
 10
4.659570298828176
 20
7.83991313161601
 30
0.0
 10
4.660974903763903
 20
7.842081714142492
 30
0.0
 10
4.661557975316251
 20
7.844156661013697
 30
0.0
 10
4.661597680354751
 20
7.845401292335187
 30
0.0
 10
4.661606991092162
 20
7.845693155429779
 30
0.0
  0
LINE
  5
D2
330
1F
100
AcDbEntity
  8
0
  6
Continuous
 62
     7
370
    15
100
AcDbLine
 10
4.661606991092162
 20
7.845693155429779
 30
0.0
 11
4.661606991092162
 21
7.870114157337599
 31
0.0
  0
SPLINE
  5
D3
330
1F
100
AcDbEntity
  8
0
  6
Continuous
 62
     7
370
    15
100
AcDbSpline
210
0.0
220
0.0
230
1.0
 70
     8
 71
     3
 72
    12
 73
     8
 74
     0
 42
0.0000000001
 43
0.0000000001
 40
0.0
 40
0.0
 40
0.0
 40
0.0
 40
0.2296066842733946
 40
0.4583738210107425
 40
0.685266155212993
 40
0.9307604463990962
 40
1.0
 40
1.0
 40
1.0
 40
1.0
 10
4.608202031188763
 20
7.663655113935319
 30
0.0
 10
4.608952304431015
 20
7.663527265157951
 30
0.0
 10
4.610450107571813
 20
7.663272035077088
 30
0.0
 10
4.612661935159495
 20
7.663954647416236
 30
0.0
 10
4.614574041218125
 20
7.665261988389778
 30
0.0
 10
4.61570367529964
 20
7.666695106647213
 30
0.0
 10
4.616169575432466
 20
7.667632528262346
 30
0.0
 10
4.616272070660588
 20
7.667838755381683
 30
0.0
  0
LINE
  5
D4
330
1F
100
AcDbEntity
  8
0
  6
Continuous
 62
     7
370
    15
100
AcDbLine
 10
4.616272070660588
 20
7.667838755381683
 30
0.0
 11
4.626807274704104
 21
7.690418111056542
 31
0.0
  0
SPLINE
  5
D5
330
1F
100
AcDbEntity
  8
0
  6
Continuous
 62
     7
370
    15
100
AcDbSpline
210
0.0
220
0.0
230
1.0
 70
     8
 71
     3
 72
    13
 73
     9
 74
     0
 42
0.0000000001
 43
0.0000000001
 40
0.0
 40
0.0
 40
0.0
 40
0.0
 40
0.1782720983329361
 40
0.4166694604397616
 40
0.6164423750899242
 40
0.8024635106839664
 40
0.9834015813085464
 40
1.0
 40
1.0
 40
1.0
 40
1.0
 10
4.626807274704104
 20
7.690418111056542
 30
0.0
 10
4.627083081409706
 20
7.691157340392441
 30
0.0
 10
4.627727715271557
 20
7.692885116591921
 30
0.0
 10
4.627655923349996
 20
7.695665741302745
 30
0.0
 10
4.62667064641217
 20
7.698244138161947
 30
0.0
 10
4.624988960355265
 20
7.700025346407665
 30
0.0
 10
4.623510827509726
 20
7.700992178631071
 30
0.0
 10
4.622659311390362
 20
7.701057280100992
 30
0.0
 10
4.622587760958738
 20
7.70106275038883
 30
0.0
  0
SPLINE
  5
D6
330
1F
100
AcDbEntity
  8
0
  6
Continuous
 62
     7
370
    15
100
AcDbSpline
210
0.0
220
0.0
230
1.0
 70
     8
 71
     3
 72
    10
 73
     6
 74
     0
 42
0.0000000001
 43
0.0000000001
 40
0.0
 40
0.0
 40
0.0
 40
0.0
 40
0.1882121842048181
 40
0.589066374607973
 40
1.0
 40
1.0
 40
1.0
 40
1.0
 10
4.707642463630905
 20
7.798199290190713
 30
0.0
 10
4.707990350536054
 20
7.798083025460192
 30
0.0
 10
4.709079166750877
 20
7.797719140180436
 30
0.0
 10
4.711104212120779
 20
7.797982943215989
 30
0.0
 10
4.712477020477081
 20
7.79875731755637
 30
0.0
 10
4.71317194728412
 20
7.799149312174806
 30
0.0
  0
SPLINE
  5
D7
330
1F
100
AcDbEntity
  8
0
  6
Continuous
 62
     7
370
    15
100
AcDbSpline
210
0.0
220
0.0
230
1.0
 70
     8
 71
     3
 72
    10
 73
     6
 74
     0
 42
0.0000000001
 43
0.0000000001
 40
0.0
 40
0.0
 40
0.0
 40
0.0
 40
0.4843325277692835
 40
0.9551159987036694
 40
1.0
 40
1.0
 40
1.0
 40
1.0
 10
4.694459850169084
 20
7.716396083290475
 30
0.0
 10
4.693961594582063
 20
7.717019744060371
 30
0.0
 10
4.692979021958252
 20
7.718249618877647
 30
0.0
 10
4.691464061392273
 20
7.719195518338201
 30
0.0
 10
4.690610069258842
 20
7.719260724020172
 30
0.0
 10
4.690535737279247
 20
7.719266399561234
 30
0.0
  0
LINE
  5
D8
330
1F
100
AcDbEntity
  8
0
  6
Continuous
 62
     7
370
    15
100
AcDbLine
 10
4.71317194728412
 20
7.799149312174806
 30
0.0
 11
4.730218263844298
 21
7.811262942708078
 31
0.0
  0
LINE
  5
D9
330
1F
100
AcDbEntity
  8
0
  6
Continuous
 62
     7
370
    15
100
AcDbLine
 10
4.704995049891442
 20
7.699461344842617
 30
0.0
 11
4.694459850169084
 21
7.716396083290475
 31
0.0
  0
SPLINE
  5
DA
330
1F
100
AcDbEntity
  8
0
  6
Continuous
 62
     7
370
    15
100
AcDbSpline
210
0.0
220
0.0
230
1.0
 70
     8
 71
     3
 72
    14
 73
    10
 74
     0
 42
0.0000000001
 43
0.0000000001
 40
0.0
 40
0.0
 40
0.0
 40
0.0
 40
0.1538482583863441
 40
0.3073496552775991
 40
0.4814273777295565
 40
0.6415665298102883
 40
0.7874740480986196
 40
0.9270330426411332
 40
1.0
 40
1.0
 40
1.0
 40
1.0
 10
4.730218263844298
 20
7.811262942708078
 30
0.0
 10
4.730877707134547
 20
7.811844114454116
 30
0.0
 10
4.732195106954727
 20
7.813005147654457
 30
0.0
 10
4.733394935443519
 20
7.815576245923744
 30
0.0
 10
4.733788703302163
 20
7.818403659071796
 30
0.0
 10
4.733214848304154
 20
7.821137090233832
 30
0.0
 10
4.731838036777768
 20
7.823272838551544
 30
0.0
 10
4.73021206442269
 20
7.824621139382426
 30
0.0
 10
4.72903143060893
 20
7.824884335456823
 30
0.0
 10
4.728626081255713
 20
7.824974699088023
 30
0.0
  0
SPLINE
  5
DB
330
1F
100
AcDbEntity
  8
0
  6
Continuous
 62
     7
370
    15
100
AcDbSpline
210
0.0
220
0.0
230
1.0
 70
     8
 71
     3
 72
    14
 73
    10
 74
     0
 42
0.0000000001
 43
0.0000000001
 40
0.0
 40
0.0
 40
0.0
 40
0.0
 40
0.1263292100878446
 40
0.2527242120599543
 40
0.3780479470113576
 40
0.5136314681871849
 40
0.6667847647110792
 40
0.8390195592906579
 40
1.0
 40
1.0
 40
1.0
 40
1.0
 10
4.697225996372103
 20
7.687505649311153
 30
0.0
 10
4.697973182861296
 20
7.687377510977446
 30
0.0
 10
4.699467944972227
 20
7.687121167575967
 30
0.0
 10
4.701676462102174
 20
7.687802105056608
 30
0.0
 10
4.70359329359817
 20
7.6891065841153
 30
0.0
 10
4.705141781802315
 20
7.691093181333605
 30
0.0
 10
4.706116860643983
 20
7.693741795409144
 30
0.0
 10
4.706247970846719
 20
7.696775560456531
 30
0.0
 10
4.705403179256692
 20
7.69858647123461
 30
0.0
 10
4.704995049891442
 20
7.699461344842617
 30
0.0
  0
LWPOLYLINE
  5
DC
330
1F
100
AcDbEntity
  8
0
  6
Continuous
 62
     7
370
    15
100
AcDbPolyline
 90
        8
 70
   128
 43
0.0
 10
4.36823051256274
 20
7.972666770874986
 10
4.36993999731152
 20
7.988578081350012
 10
4.374916571489836
 20
8.003991588597651
 10
4.382718025053275
 20
8.017537436426678
 10
4.392651175089811
 20
8.028012528731656
 10
4.403833416397052
 20
8.034485946535491
 10
4.415271159145685
 20
8.036382512627545
 10
4.420791110323935
 20
8.03553834005895
  0
ARC
  5
DD
330
1F
100
AcDbEntity
  8
0
  6
Continuous
 62
     7
370
    15
100
AcDbCircle
 10
4.408506199296553
 20
7.967750608995255
 30
0.0
 40
0.0405746175522084
100
AcDbArc
 50
173.0407449136374
 51
246.9605445824232
  0
LWPOLYLINE
  5
DE
330
1F
100
AcDbEntity
  8
0
  6
Continuous
 62
     7
370
    15
100
AcDbPolyline
 90
       22
 70
   128
 43
0.0
 10
4.37058754879307
 20
7.972666770874986
 10
4.372244678389233
 20
7.958130685900113
 10
4.37706881939128
 20
7.945774345058073
 10
4.384631330191507
 20
7.936695105604917
 10
4.394260253406915
 20
7.931700559549752
 10
4.405099999716107
 20
7.931233335796625
 10
4.416187434812685
 20
7.935336093733161
 10
4.426537369198852
 20
7.943643528539642
 10
4.435230182631173
 20
7.955417904639701
 10
4.441493459441072
 20
7.969612375712912
 10
4.444770703592353
 20
7.984966640096724
 10
4.444770703592353
 20
8.000115875719345
 10
4.441493459441072
 20
8.013713743438408
 10
4.435230182631173
 20
8.024552589164242
 10
4.426537369198852
 20
8.031669163683636
 10
4.416187434812685
 20
8.034430874873823
 10
4.405099999716107
 20
8.032592740011907
 10
4.394260253406915
 20
8.026317340587459
 10
4.384631330191507
 20
8.016163404638332
 10
4.37706881939128
 20
8.003032004738694
 10
4.372244678389233
 20
7.988090782516234
 10
4.37058754879307
 20
7.972666770874986
  0
ARC
  5
DF
330
1F
100
AcDbEntity
  8
0
  6
Continuous
 62
     7
370
    15
100
AcDbCircle
 10
4.396131836868164
 20
7.971065837449619
 30
0.0
 40
0.0405746175522043
100
AcDbArc
 50
173.0407449136329
 51
246.9605445824275
  0
LWPOLYLINE
  5
E0
330
1F
100
AcDbEntity
  8
0
  6
Continuous
 62
     7
370
    15
100
AcDbPolyline
 90
        8
 70
   128
 43
0.0
 10
4.40841674789555
 20
8.038853568513316
 10
4.4028967967173
 20
8.03969774108191
 10
4.391459053968667
 20
8.037801174989855
 10
4.380276812661426
 20
8.031327757186021
 10
4.370343662624891
 20
8.020852664881044
 10
4.362542209061452
 20
8.007306817052016
 10
4.357565634883134
 20
7.991893309804377
 10
4.355856150134355
 20
7.975981999329352
  0
LWPOLYLINE
  5
E1
330
1F
100
AcDbEntity
  8
0
  6
Continuous
 62
     7
370
    15
100
AcDbPolyline
 90
        3
 70
   128
 43
0.0
 10
4.754075110293203
 20
7.82608131365584
 10
4.7540931554498
 20
7.826080496015268
 10
4.75961310662805
 20
7.825236700255835
  0
LWPOLYLINE
  5
E2
330
1F
100
AcDbEntity
  8
0
  6
Continuous
 62
     7
370
    15
100
AcDbPolyline
 90
       12
 70
   128
 43
0.0
 10
4.74543161856045
 20
7.721223851425364
 10
4.755009431116799
 20
7.725034077120882
 10
4.765359365502967
 20
7.733341511927363
 10
4.774052170292972
 20
7.745115885712049
 10
4.780315464387503
 20
7.759310738225168
 10
4.783592699896467
 20
7.774664623484445
 10
4.783592699896467
 20
7.789813859107066
 10
4.780315464387503
 20
7.803412105950665
 10
4.774052170292972
 20
7.81425057023659
 10
4.765359365502967
 20
7.821367147071358
 10
4.755009431116799
 20
7.824128858261544
 10
4.754075127577836
 20
7.824152111470599
  0
LWPOLYLINE
  5
E3
330
1F
100
AcDbEntity
  8
0
  6
Continuous
 62
     7
370
    15
100
AcDbPolyline
 90
        8
 70
   128
 43
0.0
 10
4.36823051256274
 20
7.37051442279977
 10
4.36993999731152
 20
7.386425733274796
 10
4.374916571489836
 20
7.401839240522436
 10
4.382718025053275
 20
7.415385088351462
 10
4.392651175089811
 20
7.42586018065644
 10
4.403833416397052
 20
7.432333598460274
 10
4.415271159145685
 20
7.43423016455233
 10
4.420791110323935
 20
7.433386368792898
  0
ARC
  5
E4
330
1F
100
AcDbEntity
  8
0
  6
Continuous
 62
     7
370
    15
100
AcDbCircle
 10
4.408505364071108
 20
7.365598111655472
 30
0.0
 40
0.0405738065664126
100
AcDbArc
 50
173.0403927779044
 51
246.9613392165085
  0
LWPOLYLINE
  5
E5
330
1F
100
AcDbEntity
  8
0
  6
Continuous
 62
     7
370
    15
100
AcDbPolyline
 90
       22
 70
   128
 43
0.0
 10
4.37058754879307
 20
7.37051442279977
 10
4.372244678389233
 20
7.355978337824897
 10
4.37706881939128
 20
7.343621996982857
 10
4.384631330191507
 20
7.334543134338865
 10
4.394260253406915
 20
7.329548211474536
 10
4.405099999716107
 20
7.329081364530575
 10
4.416187434812685
 20
7.333183745657945
 10
4.426537369198852
 20
7.341491180464426
 10
4.435230182631173
 20
7.353265556564485
 10
4.441493459441072
 20
7.367460404446859
 10
4.444770703592353
 20
7.382814292021509
 10
4.444770703592353
 20
7.39796352764413
 10
4.441493459441072
 20
7.411561772172357
 10
4.435230182631173
 20
7.42240061789819
 10
4.426537369198852
 20
7.42951681560842
 10
4.416187434812685
 20
7.432278526798607
 10
4.405099999716107
 20
7.430440391936691
 10
4.394260253406915
 20
7.424165369321407
 10
4.384631330191507
 20
7.414011056563116
 10
4.37706881939128
 20
7.400879656663478
 10
4.372244678389233
 20
7.385938434441018
 10
4.37058754879307
 20
7.37051442279977
  0
ARC
  5
E6
330
1F
100
AcDbEntity
  8
0
  6
Continuous
 62
     7
370
    15
100
AcDbCircle
 10
4.396131001642718
 20
7.368913340109834
 30
0.0
 40
0.0405738065664075
100
AcDbArc
 50
173.0403927778973
 51
246.9613392165129
  0
LWPOLYLINE
  5
E7
330
1F
100
AcDbEntity
  8
0
  6
Continuous
 62
     7
370
    15
100
AcDbPolyline
 90
        8
 70
   128
 43
0.0
 10
4.40841674789555
 20
7.436701597247264
 10
4.4028967967173
 20
7.437545393006695
 10
4.391459053968667
 20
7.43564882691464
 10
4.380276812661426
 20
7.429175409110805
 10
4.370343662624891
 20
7.418700316805828
 10
4.362542209061452
 20
7.405154468976801
 10
4.357565634883134
 20
7.389740961729161
 10
4.355856150134355
 20
7.373829651254136
  0
LWPOLYLINE
  5
E8
330
1F
100
AcDbEntity
  8
0
  6
Continuous
 62
     7
370
    15
100
AcDbPolyline
 90
        8
 70
   128
 43
0.0
 10
4.707052517509171
 20
7.160212408502864
 10
4.708762002257951
 20
7.176123718977891
 10
4.713738567793951
 20
7.191537223910157
 10
4.72154002135739
 20
7.205083071739184
 10
4.731473171393925
 20
7.215558164044162
 10
4.742655412701167
 20
7.222031581847996
 10
4.7540931554498
 20
7.223928147940052
 10
4.75961310662805
 20
7.223084352180619
  0
ARC
  5
E9
330
1F
100
AcDbEntity
  8
0
  6
Continuous
 62
     7
370
    15
100
AcDbCircle
 10
4.747327361915735
 20
7.155296087964521
 30
0.0
 40
0.0405738006552101
100
AcDbArc
 50
173.0403783947897
 51
246.9613333026225
  0
LWPOLYLINE
  5
EA
330
1F
100
AcDbEntity
  8
0
  6
Continuous
 62
     7
370
    15
100
AcDbPolyline
 90
       22
 70
   128
 43
0.0
 10
4.709409545097185
 20
7.160212406187492
 10
4.711066674693348
 20
7.145676698021782
 10
4.715890824337711
 20
7.133319982685951
 10
4.723453326495621
 20
7.124241117726586
 10
4.733082249711029
 20
7.119246194862257
 10
4.743922013304854
 20
7.11877935254904
 10
4.755009431116799
 20
7.122881729045666
 10
4.765359365502967
 20
7.131189163852147
 10
4.774052170292972
 20
7.142963537636833
 10
4.780315464387503
 20
7.157158390149954
 10
4.783592699896467
 20
7.172512275409229
 10
4.783592699896467
 20
7.18766151103185
 10
4.780315464387503
 20
7.201259757875449
 10
4.774052170292972
 20
7.212098598970539
 10
4.765359365502967
 20
7.219214798996141
 10
4.755009431116799
 20
7.221976510186328
 10
4.743922013304854
 20
7.220138379955156
 10
4.733082249711029
 20
7.213863352709127
 10
4.723453326495621
 20
7.203709039950836
 10
4.715890824337711
 20
7.190577642366572
 10
4.711066674693348
 20
7.175636417828739
 10
4.709409545097185
 20
7.160212406187492
  0
ARC
  5
EB
330
1F
100
AcDbEntity
  8
0
  6
Continuous
 62
     7
370
    15
100
AcDbCircle
 10
4.734952999487348
 20
7.158611316418885
 30
0.0
 40
0.0405738006552078
100
AcDbArc
 50
173.040378394788
 51
246.9613333026239
  0
LWPOLYLINE
  5
EC
330
1F
100
AcDbEntity
  8
0
  6
Continuous
 62
     7
370
    15
100
AcDbPolyline
 90
        8
 70
   128
 43
0.0
 10
4.747238744199664
 20
7.226399580634985
 10
4.741718793021415
 20
7.227243376394417
 10
4.730281050272783
 20
7.225346810302362
 10
4.719098808965541
 20
7.218873392498527
 10
4.709165658929005
 20
7.208398300193549
 10
4.701364205365567
 20
7.194852452364522
 10
4.696387639829565
 20
7.179438947432255
 10
4.694678155080787
 20
7.163527636957229
  0
LWPOLYLINE
  5
ED
330
1F
100
AcDbEntity
  8
0
  6
Continuous
 62
     7
370
    15
100
AcDbPolyline
 90
        6
 70
   128
 43
0.0
 10
4.781616755249129
 20
5.255463694056391
 10
4.766345764925055
 20
5.258960753310261
 10
4.754642314159389
 20
5.263335299217835
 10
4.747186579178008
 20
5.268333101610313
 10
4.744411851154826
 20
5.273663701692089
 10
4.744398736439723
 20
5.274059543489832
  0
LWPOLYLINE
  5
EE
330
1F
100
AcDbEntity
  8
0
  6
Continuous
 62
     7
370
    15
100
AcDbPolyline
 90
        3
 70
   128
 43
0.0
 10
4.746924881195774
 20
5.279514938653194
 10
4.753269056568705
 20
5.284082785134672
 10
4.753393678770872
 20
5.284148976991446
  0
LWPOLYLINE
  5
EF
330
1F
100
AcDbEntity
  8
0
  6
Continuous
 62
     7
370
    15
100
AcDbPolyline
 90
       11
 70
   128
 43
0.0
 10
4.909506340684232
 20
5.278357954175272
 10
4.911052321449461
 20
5.27445537834146
 10
4.908984783372573
 20
5.269101769828567
 10
4.902195081466317
 20
5.264036304160364
 10
4.891077902217491
 20
5.259553341679104
 10
4.876279319811689
 20
5.255913419771821
 10
4.858659339253833
 20
5.253328086893846
 10
4.839241953502106
 20
5.251947596655664
 10
4.819155650302165
 20
5.251852174384175
 10
4.799567818626258
 20
5.253047354397472
 10
4.781616755249129
 20
5.255463694056391
  0
LWPOLYLINE
  5
F0
330
1F
100
AcDbEntity
  8
0
  6
Continuous
 62
     7
370
    15
100
AcDbPolyline
 90
       16
 70
   128
 43
0.0
 10
4.712443741384974
 20
5.227569929746561
 10
4.687868675233499
 20
5.232692648777657
 10
4.666417910160367
 20
5.238739442063906
 10
4.648570645324092
 20
5.245575221537177
 10
4.634725559421495
 20
5.253047290724739
 10
4.625191883174887
 20
5.260988750661577
 10
4.620182666967611
 20
5.269222179016606
 10
4.619809742373596
 20
5.27756367041695
 10
4.624081440585829
 20
5.285826892979795
 10
4.632902393643083
 20
5.29382723977452
 10
4.646075483272255
 20
5.301386018488469
 10
4.663306496936321
 20
5.308334366142259
 10
4.684210507754322
 20
5.314517069960211
 10
4.708320548416218
 20
5.319796021109547
 10
4.735098057042659
 20
5.324053291106338
 10
4.747913216496731
 20
5.325615348770451
  0
LWPOLYLINE
  5
F1
330
1F
100
AcDbEntity
  8
0
  6
Continuous
 62
     7
370
    15
100
AcDbPolyline
 90
       25
 70
   128
 43
0.0
 10
4.912571666595614
 20
5.325036633098085
 10
4.915869997998858
 20
5.32463337169054
 10
4.943020396650048
 20
5.320549159548476
 10
4.96759549737079
 20
5.31542643125589
 10
4.989046227874656
 20
5.30937964723113
 10
5.006893527280195
 20
5.302543858496371
 10
5.020738647752057
 20
5.295071780047321
 10
5.030272254860135
 20
5.287130338633459
 10
5.035281540205942
 20
5.278896891755453
 10
5.035654464799956
 20
5.270555400355109
 10
5.031382697449193
 20
5.262292196315242
 10
5.022561778961205
 20
5.254291840259027
 10
5.009388689332032
 20
5.246733061545079
 10
4.992157675667966
 20
5.239784713891288
 10
4.971253664849966
 20
5.233602010073338
 10
4.94714362418807
 20
5.228323058924001
 10
4.920366080992363
 20
5.224065798188698
 10
4.891519286380547
 20
5.220925305076125
 10
4.861247594177111
 20
5.218971739990786
 10
4.830227209463557
 20
5.218248751169284
 10
4.799151116378631
 20
5.218772474439584
 10
4.76871350034306
 20
5.220531212541983
 10
4.739594174605429
 20
5.223485708343007
 10
4.712443741384974
 20
5.227569929746561
 10
4.712443741384974
 20
5.227569929746561
  0
LWPOLYLINE
  5
F2
330
1F
100
AcDbEntity
  8
0
  6
Continuous
 62
     7
370
    15
100
AcDbPolyline
 90
        8
 70
   128
 43
0.0
 10
4.712443741384974
 20
5.187426471275643
 10
4.687868675233499
 20
5.19254919030674
 10
4.666417910160367
 20
5.198595983592988
 10
4.648570645324092
 20
5.205431763066259
 10
4.634725559421495
 20
5.212903832253822
 10
4.625191883174887
 20
5.220845292190659
 10
4.620182666967611
 20
5.22907872054569
 10
4.619398748375937
 20
5.233916081545856
  0
LWPOLYLINE
  5
F3
330
1F
100
AcDbEntity
  8
0
  6
Continuous
 62
     7
370
    15
100
AcDbPolyline
 90
       16
 70
   128
 43
0.0
 10
5.03606542422835
 20
5.233916081545856
 10
5.035654464799956
 20
5.230411941884192
 10
5.031382697449193
 20
5.222148737844324
 10
5.022561778961205
 20
5.214148381788109
 10
5.009388689332032
 20
5.206589603074162
 10
4.992157675667966
 20
5.199641255420369
 10
4.971253664849966
 20
5.193458551602419
 10
4.94714362418807
 20
5.188179600453082
 10
4.920366080992363
 20
5.183922339717781
 10
4.891519286380547
 20
5.180781846605207
 10
4.861247594177111
 20
5.178828281519869
 10
4.830227209463557
 20
5.178105292698367
 10
4.799151116378631
 20
5.178629015968668
 10
4.76871350034306
 20
5.180387754071064
 10
4.739594174605429
 20
5.18334224987209
 10
4.712443741384974
 20
5.187426471275643
  0
SPLINE
  5
F4
330
1F
100
AcDbEntity
  8
0
  6
Continuous
 62
     7
370
    15
100
AcDbSpline
210
0.0
220
0.0
230
1.0
 70
     8
 71
     3
 72
     9
 73
     5
 74
     0
 42
0.0000000001
 43
0.0000000001
 40
0.0
 40
0.0
 40
0.0
 40
0.0
 40
0.2966303398838556
 40
0.9999999999999998
 40
0.9999999999999998
 40
0.9999999999999998
 40
0.9999999999999998
 10
4.798760855297963
 20
5.040647031982685
 30
0.0
 10
4.801599909769077
 20
5.041310901653448
 30
0.0
 10
4.81117092827051
 20
5.043548938635848
 30
0.0
 10
4.820330348309303
 20
5.046990125358433
 30
0.0
 10
4.826772806468849
 20
5.049410551693894
 30
0.0
  0
LINE
  5
F5
330
1F
100
AcDbEntity
  8
0
  6
Continuous
 62
     7
370
    15
100
AcDbLine
 10
4.798760855297963
 20
5.040647031982685
 30
0.0
 11
4.709433406532703
 21
5.054646442983782
 31
0.0
  0
LINE
  5
F6
330
1F
100
AcDbEntity
  8
0
  6
Continuous
 62
     7
370
    15
100
AcDbLine
 10
4.681421489931082
 20
5.072190034188457
 30
0.0
 11
4.709433406532703
 21
5.054646442983782
 31
0.0
  0
LINE
  5
F7
330
1F
100
AcDbEntity
  8
0
  6
Continuous
 62
     7
370
    15
100
AcDbLine
 10
4.681421489931082
 20
5.072190034188457
 30
0.0
 11
4.681421489931082
 21
5.194182095180702
 31
0.0
  0
LINE
  5
F8
330
1F
100
AcDbEntity
  8
0
  6
Continuous
 62
     7
370
    15
100
AcDbLine
 10
4.826772806468849
 20
5.175648686748758
 30
0.0
 11
4.822070072727276
 21
5.178593893365859
 31
0.0
  0
LINE
  5
F9
330
1F
100
AcDbEntity
  8
0
  6
Continuous
 62
     7
370
    15
100
AcDbLine
 10
4.826772806468849
 20
5.049410551693894
 30
0.0
 11
4.826772806468849
 21
5.175648686748758
 31
0.0
  0
LINE
  5
FA
330
1F
100
AcDbEntity
  8
0
  6
Continuous
 62
     7
370
    15
100
AcDbLine
 10
4.83113848987169
 20
5.178351665728023
 30
0.0
 11
4.826772806468849
 21
5.175648686748758
 31
0.0
  0
LINE
  5
FB
330
1F
100
AcDbEntity
  8
0
  6
Continuous
 62
     7
370
    15
100
AcDbLine
 10
4.944886637353722
 20
5.054287086095586
 30
0.0
 11
4.973083405000489
 21
5.071744904486589
 31
0.0
  0
LINE
  5
FC
330
1F
100
AcDbEntity
  8
0
  6
Continuous
 62
     7
370
    15
100
AcDbLine
 10
4.944886637353722
 20
5.054287086095586
 30
0.0
 11
4.854969647035161
 21
5.040561232397525
 31
0.0
  0
SPLINE
  5
FD
330
1F
100
AcDbEntity
  8
0
  6
Continuous
 62
     7
370
    15
100
AcDbSpline
210
0.0
220
0.0
230
1.0
 70
     8
 71
     3
 72
     9
 73
     5
 74
     0
 42
0.0000000001
 43
0.0000000001
 40
0.0
 40
0.0
 40
0.0
 40
0.0
 40
0.2374293541685366
 40
1.0
 40
1.0
 40
1.0
 40
1.0
 10
4.826772806468849
 20
5.049410551693894
 30
0.0
 10
4.828946018999316
 20
5.048554760582348
 30
0.0
 10
4.838099110191762
 20
5.044950357434546
 30
0.0
 10
4.847670662335388
 20
5.042460173538994
 30
0.0
 10
4.854969647035161
 20
5.040561232397525
 30
0.0
  0
LINE
  5
FE
330
1F
100
AcDbEntity
  8
0
  6
Continuous
 62
     7
370
    15
100
AcDbLine
 10
4.973083405000489
 20
5.071744904486589
 30
0.0
 11
4.973083405000489
 21
5.193930174377587
 31
0.0
  0
ARC
  5
FF
330
1F
100
AcDbEntity
  8
0
  6
Continuous
 62
     7
370
    15
100
AcDbCircle
 10
4.827737866081991
 20
5.612269251042697
 30
0.0
 40
0.5723562076863233
100
AcDbArc
 50
267.0980126225251
 51
272.7270698905989
  0
SPLINE
  5
100
330
1F
100
AcDbEntity
  8
0
  6
Continuous
 62
     7
370
    15
100
AcDbSpline
210
0.0
220
0.0
230
1.0
 70
     8
 71
     3
 72
     9
 73
     5
 74
     0
 42
0.0000000001
 43
0.0000000001
 40
0.0
 40
0.0
 40
0.0
 40
0.0
 40
0.2966310741114773
 40
1.0
 40
1.0
 40
1.0
 40
1.0
 10
4.973857832168202
 20
5.095010889253877
 30
0.0
 10
4.973876560865768
 20
5.097000876765718
 30
0.0
 10
4.973939698881981
 20
5.103709504706339
 30
0.0
 10
4.974000157770047
 20
5.111429050196438
 30
0.0
 10
4.974042682673205
 20
5.116858738616157
 30
0.0
  0
LINE
  5
101
330
1F
100
AcDbEntity
  8
0
  6
Continuous
 62
     7
370
    15
100
AcDbLine
 10
4.973083405000489
 20
5.071744904486589
 30
0.0
 11
4.973268287914179
 21
5.067285623831166
 31
0.0
  0
LINE
  5
102
330
1F
100
AcDbEntity
  8
0
  6
Continuous
 62
     7
370
    15
100
AcDbLine
 10
4.974042682673205
 20
5.116858738616157
 30
0.0
 11
4.974042682673205
 21
5.19418205148447
 31
0.0
  0
LINE
  5
103
330
1F
100
AcDbEntity
  8
0
  6
Continuous
 62
     7
370
    15
100
AcDbLine
 10
4.973857832168202
 20
5.095010889253877
 30
0.0
 11
4.973268287914179
 21
5.067285623831166
 31
0.0
  0
SPLINE
  5
104
330
1F
100
AcDbEntity
  8
0
  6
Continuous
 62
     7
370
    15
100
AcDbSpline
210
0.0
220
0.0
230
1.0
 70
     8
 71
     3
 72
     9
 73
     5
 74
     0
 42
0.0000000001
 43
0.0000000001
 40
0.0
 40
0.0
 40
0.0
 40
0.0
 40
0.2966310741114773
 40
1.0
 40
1.0
 40
1.0
 40
1.0
 10
4.681606340436085
 20
5.067730763373365
 30
0.0
 10
4.681587611738518
 20
5.067958387089148
 30
0.0
 10
4.681524473722306
 20
5.068725750105532
 30
0.0
 10
4.681464014834241
 20
5.070759533879718
 30
0.0
 10
4.681421489931082
 20
5.072190034188457
 30
0.0
  0
ARC
  5
105
330
1F
100
AcDbEntity
  8
0
  6
Continuous
 62
     7
370
    15
100
AcDbCircle
 10
4.73464609985285
 20
5.144400268350964
 30
0.0
 40
0.0932278342154227
100
AcDbArc
 50
235.3246182227853
 51
254.3094481589276
  0
ARC
  5
106
330
1F
100
AcDbEntity
  8
0
  6
Continuous
 62
     7
370
    15
100
AcDbCircle
 10
4.918987442213345
 20
5.148320889515271
 30
0.0
 40
0.0975352474467117
100
AcDbArc
 50
285.398850538936
 51
303.8158471352185
  0
SPLINE
  5
107
330
1F
100
AcDbEntity
  8
0
  6
Continuous
 62
     7
370
    15
100
AcDbSpline
210
0.0
220
0.0
230
1.0
 70
     8
 71
     3
 72
     9
 73
     5
 74
     0
 42
0.0000000001
 43
0.0000000001
 40
0.0
 40
0.0
 40
0.0
 40
0.0
 40
0.4089682145516516
 40
1.0
 40
1.0
 40
1.0
 40
1.0
 10
4.821234533579878
 20
6.494944145039349
 30
0.0
 10
4.816039494371357
 20
6.492882159005846
 30
0.0
 10
4.803336699817465
 20
6.487840236528414
 30
0.0
 10
4.791276522071754
 20
6.481223581668441
 30
0.0
 10
4.784148573685881
 20
6.477312928332856
 30
0.0
  0
LINE
  5
108
330
1F
100
AcDbEntity
  8
0
  6
Continuous
 62
     7
370
    15
100
AcDbLine
 10
4.821234533579878
 20
6.494944145039349
 30
0.0
 11
4.909718505230147
 21
6.501296098576167
 31
0.0
  0
LINE
  5
109
330
1F
100
AcDbEntity
  8
0
  6
Continuous
 62
     7
370
    15
100
AcDbLine
 10
4.946804469445301
 20
6.48898945156489
 30
0.0
 11
4.909718505230147
 21
6.501296098576167
 31
0.0
  0
LINE
  5
10A
330
1F
100
AcDbEntity
  8
0
  6
Continuous
 62
     7
370
    15
100
AcDbLine
 10
4.946804469445301
 20
6.48898945156489
 30
0.0
 11
4.946804469445301
 21
6.398496846825302
 31
0.0
  0
SPLINE
  5
10B
330
1F
100
AcDbEntity
  8
0
  6
Continuous
 62
     7
370
    15
100
AcDbSpline
210
0.0
220
0.0
230
1.0
 70
     8
 71
     3
 72
     9
 73
     5
 74
     0
 42
0.0000000001
 43
0.0000000001
 40
0.0
 40
0.0
 40
0.0
 40
0.0
 40
0.4089681966289846
 40
1.0
 40
1.0
 40
1.0
 40
1.0
 10
4.909718505230147
 20
6.380865628961124
 30
0.0
 10
4.914913544793543
 20
6.382927615112829
 30
0.0
 10
4.927616340771853
 20
6.387969538100245
 30
0.0
 10
4.939676519979329
 20
6.394586193218485
 30
0.0
 10
4.946804469445301
 20
6.398496846825302
 30
0.0
  0
LINE
  5
10C
330
1F
100
AcDbEntity
  8
0
  6
Continuous
 62
     7
370
    15
100
AcDbLine
 10
4.821234533579878
 20
6.374513675424306
 30
0.0
 11
4.909718505230147
 21
6.380865628961124
 31
0.0
  0
LINE
  5
10D
330
1F
100
AcDbEntity
  8
0
  6
Continuous
 62
     7
370
    15
100
AcDbLine
 10
4.784148573685881
 20
6.386820323593268
 30
0.0
 11
4.821234533579878
 21
6.374513675424306
 31
0.0
  0
LINE
  5
10E
330
1F
100
AcDbEntity
  8
0
  6
Continuous
 62
     7
370
    15
100
AcDbLine
 10
4.784148573685881
 20
6.477312928332856
 30
0.0
 11
4.784148573685881
 21
6.386820323593268
 31
0.0
  0
LINE
  5
10F
330
1F
100
AcDbEntity
  8
0
  6
Continuous
 62
     7
370
    15
100
AcDbLine
 10
4.956741668407059
 20
6.513894123684981
 30
0.0
 11
4.980450856559492
 21
6.537599957603127
 31
0.0
  0
ARC
  5
110
330
1F
100
AcDbEntity
  8
0
  6
Continuous
 62
     7
370
    15
100
AcDbCircle
 10
4.876695312011642
 20
6.718615800322386
 30
0.0
 40
0.2198144309580524
100
AcDbArc
 50
278.6403798710821
 51
291.355542277069
  0
ARC
  5
111
330
1F
100
AcDbEntity
  8
0
  6
Continuous
 62
     7
370
    15
100
AcDbCircle
 10
4.825648078700737
 20
7.006132695976522
 30
0.0
 40
0.5112076036110775
100
AcDbArc
 50
262.2826256797463
 51
269.5053269005547
  0
LINE
  5
112
330
1F
100
AcDbEntity
  8
0
  6
Continuous
 62
     7
370
    15
100
AcDbLine
 10
4.69222495579612
 20
6.516909213930801
 30
0.0
 11
4.75699970472469
 21
6.499555342810961
 31
0.0
  0
ARC
  5
113
330
1F
100
AcDbEntity
  8
0
  6
Continuous
 62
     7
370
    15
100
AcDbCircle
 10
4.701740423347882
 20
6.543637712729316
 30
0.0
 40
0.0283717600925793
100
AcDbArc
 50
199.6041304300987
 51
250.4040384357256
  0
LINE
  5
114
330
1F
100
AcDbEntity
  8
0
  6
Continuous
 62
     7
370
    15
100
AcDbLine
 10
4.698722504197228
 20
6.557824259152513
 30
0.0
 11
4.675013281475529
 21
6.534118434495856
 31
0.0
  0
ARC
  5
115
330
1F
100
AcDbEntity
  8
0
  6
Continuous
 62
     7
370
    15
100
AcDbCircle
 10
4.778768860592636
 20
6.353102582515159
 30
0.0
 40
0.2198144309580018
100
AcDbArc
 50
98.64037987108075
 51
111.3555422770706
  0
LINE
  5
116
330
1F
100
AcDbEntity
  8
0
  6
Continuous
 62
     7
370
    15
100
AcDbLine
 10
4.834229604455144
 20
6.576774247059635
 30
0.0
 11
4.745745667374141
 21
6.570422284261328
 31
0.0
  0
ARC
  5
117
330
1F
100
AcDbEntity
  8
0
  6
Continuous
 62
     7
370
    15
100
AcDbCircle
 10
4.829815891449842
 20
6.065583357461537
 30
0.0
 40
0.5112099436343032
100
AcDbArc
 50
82.28264223234313
 51
89.50531034795494
  0
LINE
  5
118
330
1F
100
AcDbEntity
  8
0
  6
Continuous
 62
     7
370
    15
100
AcDbLine
 10
4.963239182238902
 20
6.554809178168183
 30
0.0
 11
4.898464433310332
 21
6.572163049288022
 31
0.0
  0
ARC
  5
119
330
1F
100
AcDbEntity
  8
0
  6
Continuous
 62
     7
370
    15
100
AcDbCircle
 10
4.953723818643028
 20
6.528080783340379
 30
0.0
 40
0.0283716272785457
100
AcDbArc
 50
19.6040030726534
 51
70.40416579316269
  0
SPLINE
  5
11A
330
1F
100
AcDbEntity
  8
0
  6
Continuous
 62
     7
370
    15
100
AcDbSpline
210
0.0
220
0.0
230
1.0
 70
     8
 71
     3
 72
     9
 73
     5
 74
     0
 42
0.0000000001
 43
0.0000000001
 40
0.0
 40
0.0
 40
0.0
 40
0.0
 40
0.2117736398767258
 40
1.0
 40
1.0
 40
1.0
 40
1.0
 10
4.784148573685881
 20
6.477312928332856
 30
0.0
 10
4.782292252344594
 20
6.479056452070334
 30
0.0
 10
4.773526660260671
 20
6.487289411273821
 30
0.0
 10
4.764284566583648
 20
6.494148683573271
 30
0.0
 10
4.75699970472469
 20
6.499555342810961
 30
0.0
  0
LINE
  5
11B
330
1F
100
AcDbEntity
  8
0
  6
Continuous
 62
     7
370
    15
100
AcDbLine
 10
4.69222495579612
 20
6.516909213930801
 30
0.0
 11
4.665076121404194
 21
6.509213754271963
 31
0.0
  0
LINE
  5
11C
330
1F
100
AcDbEntity
  8
0
  6
Continuous
 62
     7
370
    15
100
AcDbLine
 10
4.75699970472469
 20
6.379124873195918
 30
0.0
 11
4.784148573685881
 21
6.386820323593268
 31
0.0
  0
SPLINE
  5
11D
330
1F
100
AcDbEntity
  8
0
  6
Continuous
 62
     7
370
    15
100
AcDbSpline
210
0.0
220
0.0
230
1.0
 70
     8
 71
     3
 72
     9
 73
     5
 74
     0
 42
0.0000000001
 43
0.0000000001
 40
0.0
 40
0.0
 40
0.0
 40
0.0
 40
0.2117708286158503
 40
1.0
 40
1.0
 40
1.0
 40
1.0
 10
4.665076121404194
 20
6.418721149532374
 30
0.0
 10
4.666932433539787
 20
6.416977697992737
 30
0.0
 10
4.675698098516994
 20
6.40874497042099
 30
0.0
 10
4.684940122718139
 20
6.401885544178806
 30
0.0
 10
4.69222495579612
 20
6.396478744315757
 30
0.0
  0
LINE
  5
11E
330
1F
100
AcDbEntity
  8
0
  6
Continuous
 62
     7
370
    15
100
AcDbLine
 10
4.665076121404194
 20
6.509213754271963
 30
0.0
 11
4.665076121404194
 21
6.418721149532374
 31
0.0
  0
LINE
  5
11F
330
1F
100
AcDbEntity
  8
0
  6
Continuous
 62
     7
370
    15
100
AcDbLine
 10
4.69222495579612
 20
6.396478744315757
 30
0.0
 11
4.75699970472469
 21
6.379124873195918
 31
0.0
  0
ARC
  5
120
330
1F
100
AcDbEntity
  8
0
  6
Continuous
 62
     7
370
    15
100
AcDbCircle
 10
4.825648078700762
 20
6.885702226361819
 30
0.0
 40
0.5112076036114181
100
AcDbArc
 50
262.2826256797486
 51
269.5053269005523
  0
SPLINE
  5
121
330
1F
100
AcDbEntity
  8
0
  6
Continuous
 62
     7
370
    15
100
AcDbSpline
210
0.0
220
0.0
230
1.0
 70
     8
 71
     3
 72
     9
 73
     5
 74
     0
 42
0.0000000001
 43
0.0000000001
 40
0.0
 40
0.0
 40
0.0
 40
0.0
 40
0.4089681966289833
 40
1.0
 40
1.0
 40
1.0
 40
1.0
 10
4.95674166840706
 20
6.513894123684982
 30
0.0
 10
4.955349666193005
 20
6.510813261796728
 30
0.0
 10
4.951945973129515
 20
6.503280006365989
 30
0.0
 10
4.948714420074874
 20
6.494298064728605
 30
0.0
 10
4.946804469445301
 20
6.48898945156489
 30
0.0
  0
LINE
  5
122
330
1F
100
AcDbEntity
  8
0
  6
Continuous
 62
     7
370
    15
100
AcDbLine
 10
4.852088104302709
 20
6.512861944217012
 30
0.0
 11
4.852182884586424
 21
6.512539586540382
 31
0.0
  0
ARC
  5
123
330
1F
100
AcDbEntity
  8
0
  6
Continuous
 62
     7
370
    15
100
AcDbCircle
 10
4.847318841301904
 20
6.512872229154974
 30
0.0
 40
0.0047692740905513
100
AcDbArc
 50
359.8764415750985
 51
30.52048026822819
  0
LINE
  5
124
330
1F
100
AcDbEntity
  8
0
  6
Continuous
 62
     7
370
    15
100
AcDbLine
 10
4.990388051200093
 20
6.532566763690078
 30
0.0
 11
4.980450856559492
 21
6.537599957603127
 31
0.0
  0
LINE
  5
125
330
1F
100
AcDbEntity
  8
0
  6
Continuous
 62
     7
370
    15
100
AcDbLine
 10
4.990388051200093
 20
6.532566763690078
 30
0.0
 11
4.990388051200093
 21
6.44207415895049
 31
0.0
  0
SPLINE
  5
126
330
1F
100
AcDbEntity
  8
0
  6
Continuous
 62
     7
370
    15
100
AcDbSpline
210
0.0
220
0.0
230
1.0
 70
     8
 71
     3
 72
     9
 73
     5
 74
     0
 42
0.0000000001
 43
0.0000000001
 40
0.0
 40
0.0
 40
0.0
 40
0.0
 40
0.4089682145516516
 40
1.0
 40
1.0
 40
1.0
 40
1.0
 10
4.980450856559492
 20
6.417169487988084
 30
0.0
 10
4.981842858472843
 20
6.420250349743623
 30
0.0
 10
4.985246550651894
 20
6.427783604519713
 30
0.0
 10
4.988478101771881
 20
6.436765546025519
 30
0.0
 10
4.990388051200093
 20
6.44207415895049
 30
0.0
  0
LINE
  5
127
330
1F
100
AcDbEntity
  8
0
  6
Continuous
 62
     7
370
    15
100
AcDbLine
 10
4.946804469445301
 20
6.398496846825302
 30
0.0
 11
4.956741668407059
 21
6.393463654069939
 31
0.0
  0
LINE
  5
128
330
1F
100
AcDbEntity
  8
0
  6
Continuous
 62
     7
370
    15
100
AcDbLine
 10
4.956741668407059
 20
6.393463654069939
 30
0.0
 11
4.980450856559492
 21
6.417169487988084
 31
0.0
  0
ARC
  5
129
330
1F
100
AcDbEntity
  8
0
  6
Continuous
 62
     7
370
    15
100
AcDbCircle
 10
4.876695312011656
 20
6.59818533070729
 30
0.0
 40
0.2198144309579976
100
AcDbArc
 50
278.6403798710805
 51
291.3555422770706
  0
SPLINE
  5
12A
330
1F
100
AcDbEntity
  8
0
  6
Continuous
 62
     7
370
    15
100
AcDbSpline
210
0.0
220
0.0
230
1.0
 70
     8
 71
     3
 72
    14
 73
    10
 74
     0
 42
0.0000000001
 43
0.0000000001
 40
0.0
 40
0.0
 40
0.0
 40
0.0
 40
0.1431770605209126
 40
0.2855583317656649
 40
0.4291747522608875
 40
0.5718228131894225
 40
0.7144711425804817
 40
0.8580873999353542
 40
1.0
 40
1.0
 40
1.0
 40
1.0
 10
4.886657675710077
 20
5.771915139529352
 30
0.0
 10
4.878045299878008
 20
5.76942576388905
 30
0.0
 10
4.860868416470868
 20
5.764460848752531
 30
0.0
 10
4.827608286050481
 20
5.76093504004329
 30
0.0
 10
4.795050212735719
 20
5.760642190942409
 30
0.0
 10
4.767232749572089
 20
5.76368948551232
 30
0.0
 10
4.748879204531024
 20
5.769157498911543
 30
0.0
 10
4.741692336601185
 20
5.775996787120884
 30
0.0
 10
4.747710638535315
 20
5.780360907080984
 30
0.0
 10
4.750701834882911
 20
5.782529947422927
 30
0.0
  0
SPLINE
  5
12B
330
1F
100
AcDbEntity
  8
0
  6
Continuous
 62
     7
370
    15
100
AcDbSpline
210
0.0
220
0.0
230
1.0
 70
     8
 71
     3
 72
    18
 73
    14
 74
     0
 42
0.0000000001
 43
0.0000000001
 40
0.0
 40
0.0
 40
0.0
 40
0.0
 40
0.0099002881295664
 40
0.1098841646643442
 40
0.2090081439042877
 40
0.3086861319657876
 40
0.4083641588447146
 40
0.5074880934172768
 40
0.6074719595998602
 40
0.706781703630258
 40
0.8060915604347471
 40
0.9060753130411608
 40
1.0
 40
1.0
 40
1.0
 40
1.0
 10
4.902896770578236
 20
5.771764471387403
 30
0.0
 10
4.903511497808354
 20
5.771461983680838
 30
0.0
 10
4.910334409151323
 20
5.768104646144596
 30
0.0
 10
4.912527284512141
 20
5.760186699996171
 30
0.0
 10
4.906908586479937
 20
5.749642232543009
 30
0.0
 10
4.888145380890881
 20
5.740201768581544
 30
0.0
 10
4.860472468138764
 20
5.733279626766951
 30
0.0
 10
4.82771482282733
 20
5.729612012914387
 30
0.0
 10
4.795023085245063
 20
5.72935742750549
 30
0.0
 10
4.767235135979106
 20
5.732394234182304
 30
0.0
 10
4.748896788505691
 20
5.737864936864146
 30
0.0
 10
4.741738339254363
 20
5.744593273157167
 30
0.0
 10
4.747567471766966
 20
5.748851243389101
 30
0.0
 10
4.750390966441646
 20
5.750913704012327
 30
0.0
  0
SPLINE
  5
12C
330
1F
100
AcDbEntity
  8
0
  6
Continuous
 62
     7
370
    15
100
AcDbSpline
210
0.0
220
0.0
230
1.0
 70
     8
 71
     3
 72
    19
 73
    15
 74
     0
 42
0.0000000001
 43
0.0000000001
 40
0.0
 40
0.0
 40
0.0
 40
0.0
 40
0.0098392976751791
 40
0.1092068541551763
 40
0.2077197772219758
 40
0.3067833678959481
 40
0.40584692292561
 40
0.5043598749853261
 40
0.6037274211769419
 40
0.7024249638018266
 40
0.8011226921747073
 40
0.9004901254902593
 40
0.9990030485570589
 40
1.0
 40
1.0
 40
1.0
 40
1.0
 10
4.902896770578236
 20
5.740471600758814
 30
0.0
 10
4.903511497736984
 20
5.740169047255267
 30
0.0
 10
4.910334385039193
 20
5.73681099087496
 30
0.0
 10
4.912527337600126
 20
5.728893796173757
 30
0.0
 10
4.906908431420803
 20
5.718349469064164
 30
0.0
 10
4.888145936069573
 20
5.708908485948778
 30
0.0
 10
4.860470437703507
 20
5.701987174327612
 30
0.0
 10
4.827722329990765
 20
5.698317875214151
 30
0.0
 10
4.794994911250424
 20
5.6980681010506
 30
0.0
 10
4.767339478542007
 20
5.701087437193435
 30
0.0
 10
4.748506140874282
 20
5.70662442297023
 30
0.0
 10
4.743075038002227
 20
5.713222345357042
 30
0.0
 10
4.744771519183285
 20
5.718232489698611
 30
0.0
 10
4.750843803897843
 20
5.720001326728596
 30
0.0
 10
4.750904639800189
 20
5.720019048031512
 30
0.0
  0
SPLINE
  5
12D
330
1F
100
AcDbEntity
  8
0
  6
Continuous
 62
     7
370
    15
100
AcDbSpline
210
0.0
220
0.0
230
1.0
 70
     8
 71
     3
 72
    18
 73
    14
 74
     0
 42
0.0000000001
 43
0.0000000001
 40
0.0
 40
0.0
 40
0.0
 40
0.0
 40
0.0098566351595579
 40
0.1093996565286488
 40
0.2080865353586023
 40
0.3073250541737766
 40
0.4065635744584603
 40
0.505250445575253
 40
0.6047934566377952
 40
0.7036653179297336
 40
0.8025372914985126
 40
0.9020801894856726
 40
1.0
 40
1.0
 40
1.0
 40
1.0
 10
4.902896770578236
 20
5.709178541725644
 30
0.0
 10
4.903511497802314
 20
5.708876054155337
 30
0.0
 10
4.910334409078253
 20
5.705518718131413
 30
0.0
 10
4.912527288169507
 20
5.697600680477024
 30
0.0
 10
4.906908573468187
 20
5.687056625391824
 30
0.0
 10
4.888145411344804
 20
5.677615753093826
 30
0.0
 10
4.86047237530265
 20
5.670693721749676
 30
0.0
 10
4.827715166377654
 20
5.667026070778514
 30
0.0
 10
4.795021794715583
 20
5.666771523084432
 30
0.0
 10
4.767239914715164
 20
5.66980821673711
 30
0.0
 10
4.748878899209325
 20
5.675279334287282
 30
0.0
 10
4.741697022940467
 20
5.682107747717235
 30
0.0
 10
4.747697786083874
 20
5.686462300011005
 30
0.0
 10
4.750673505369825
 20
5.688621679565336
 30
0.0
  0
SPLINE
  5
12E
330
1F
100
AcDbEntity
  8
0
  6
Continuous
 62
     7
370
    15
100
AcDbSpline
210
0.0
220
0.0
230
1.0
 70
     8
 71
     3
 72
    18
 73
    14
 74
     0
 42
0.0000000001
 43
0.0000000001
 40
0.0
 40
0.0
 40
0.0
 40
0.0
 40
0.0099000788349253
 40
0.1098818416847991
 40
0.2090037254182891
 40
0.3086796436020665
 40
0.4083555259212104
 40
0.5074774019075465
 40
0.6074591544054449
 40
0.7067667619400327
 40
0.8060745563707536
 40
0.9060561952948836
 40
1.0
 40
1.0
 40
1.0
 40
1.0
 10
4.902896770578236
 20
5.677885671097056
 30
0.0
 10
4.903511497806498
 20
5.677583183428804
 30
0.0
 10
4.91033440912887
 20
5.674225846317795
 30
0.0
 10
4.91252728575505
 20
5.666307874046429
 30
0.0
 10
4.906908581402018
 20
5.655763521269758
 30
0.0
 10
4.888145394092867
 20
5.646322629138672
 30
0.0
 10
4.860472451924373
 20
5.639400973369628
 30
0.0
 10
4.827714832924332
 20
5.635732955481242
 30
0.0
 10
4.795023085452341
 20
5.635478376005911
 30
0.0
 10
4.767235148428729
 20
5.638515561985718
 30
0.0
 10
4.748896703901583
 20
5.643985880019367
 30
0.0
 10
4.741738150657837
 20
5.650714717582313
 30
0.0
 10
4.747568079185762
 20
5.654973332197845
 30
0.0
 10
4.750392286555473
 20
5.657036343901049
 30
0.0
  0
SPLINE
  5
12F
330
1F
100
AcDbEntity
  8
0
  6
Continuous
 62
     7
370
    15
100
AcDbSpline
210
0.0
220
0.0
230
1.0
 70
     8
 71
     3
 72
    19
 73
    15
 74
     0
 42
0.0000000001
 43
0.0000000001
 40
0.0
 40
0.0
 40
0.0
 40
0.0
 40
0.0098326505494784
 40
0.1091334492416586
 40
0.2075801886862752
 40
0.3065772257848063
 40
0.4055742643492709
 40
0.5040209960994956
 40
0.6033217845102065
 40
0.701953056290355
 40
0.8005844400741359
 40
0.8998851156846161
 40
0.9983318917970599
 40
1.0
 40
1.0
 40
1.0
 40
1.0
 10
4.902896770578236
 20
5.646592612063887
 30
0.0
 10
4.903511497744216
 20
5.646290124501669
 30
0.0
 10
4.910334408375317
 20
5.642932788567534
 30
0.0
 10
4.912527327080217
 20
5.635014745397127
 30
0.0
 10
4.906908436481542
 20
5.624470714804833
 30
0.0
 10
4.888145923959446
 20
5.615029752052807
 30
0.0
 10
4.860470467529737
 20
5.60810805773663
 30
0.0
 10
4.827722267944998
 20
5.604439152255765
 30
0.0
 10
4.794995106600811
 20
5.604189309621413
 30
0.0
 10
4.767338741852618
 20
5.607208525845423
 30
0.0
 10
4.748508936983396
 20
5.612744920184787
 30
0.0
 10
4.74306454505125
 20
5.619346484390027
 30
0.0
 10
4.744799933957101
 20
5.624364222819965
 30
0.0
 10
4.750925319333889
 20
5.626146415509372
 30
0.0
 10
4.751027380137965
 20
5.626176110297162
 30
0.0
  0
SPLINE
  5
130
330
1F
100
AcDbEntity
  8
0
  6
Continuous
 62
     7
370
    15
100
AcDbSpline
210
0.0
220
0.0
230
1.0
 70
     8
 71
     3
 72
    18
 73
    14
 74
     0
 42
0.0000000001
 43
0.0000000001
 40
0.0
 40
0.0
 40
0.0
 40
0.0
 40
0.0098609173622605
 40
0.1094471850713277
 40
0.2081769750644517
 40
0.3074585707359391
 40
0.4067402050704873
 40
0.5054699873471026
 40
0.6050562447451432
 40
0.7039710238767749
 40
0.8028859891652395
 40
0.9024721334387725
 40
1.0
 40
1.0
 40
1.0
 40
1.0
 10
4.902896770578236
 20
5.615299741435299
 30
0.0
 10
4.903511497805686
 20
5.61499725373069
 30
0.0
 10
4.910334409119053
 20
5.611639916216137
 30
0.0
 10
4.912527286298405
 20
5.603721968735131
 30
0.0
 10
4.906908580191327
 20
5.593177507199066
 30
0.0
 10
4.888145404423331
 20
5.583737021385357
 30
0.0
 10
4.860472377136181
 20
5.576814960135126
 30
0.0
 10
4.827715140427407
 20
5.57314704336544
 30
0.0
 10
4.795021926052023
 20
5.572892461005675
 30
0.0
 10
4.767239442727799
 20
5.575929556859524
 30
0.0
 10
4.748880627790141
 20
5.581400238578638
 30
0.0
 10
4.741701122131595
 20
5.588218843558592
 30
0.0
 10
4.747684985310996
 20
5.592564013842773
 30
0.0
 10
4.750645674950509
 20
5.594713912705196
 30
0.0
  0
SPLINE
  5
131
330
1F
100
AcDbEntity
  8
0
  6
Continuous
 62
     7
370
    15
100
AcDbSpline
210
0.0
220
0.0
230
1.0
 70
     8
 71
     3
 72
    18
 73
    14
 74
     0
 42
0.0000000001
 43
0.0000000001
 40
0.0
 40
0.0
 40
0.0
 40
0.0
 40
0.0098994967863029
 40
0.1098753814761849
 40
0.2089914006868632
 40
0.3086614586919667
 40
0.4083315181729697
 40
0.5074475296369467
 40
0.6074234039754617
 40
0.7067251729852141
 40
0.8060271288801114
 40
0.9060028896515353
 40
1.0
 40
1.0
 40
1.0
 40
1.0
 10
4.902896770578236
 20
5.584006682402129
 30
0.0
 10
4.90351149780508
 20
5.583704194831578
 30
0.0
 10
4.91033440911172
 20
5.580346858804958
 30
0.0
 10
4.912527286317006
 20
5.572428821316307
 30
0.0
 10
4.906908579989988
 20
5.561884765495169
 30
0.0
 10
4.888145386939715
 20
5.552443895915038
 30
0.0
 10
4.860472466129878
 20
5.54552185444423
 30
0.0
 10
4.827714828278883
 20
5.541854241167239
 30
0.0
 10
4.795023069371252
 20
5.541599552132169
 30
0.0
 10
4.767235212794979
 20
5.544636770315767
 30
0.0
 10
4.748896461643591
 20
5.550107068713849
 30
0.0
 10
4.74173760268668
 20
5.556837302038974
 30
0.0
 10
4.747569822942669
 20
5.561097046571664
 30
0.0
 10
4.750396052444834
 20
5.563161271710903
 30
0.0
  0
SPLINE
  5
132
330
1F
100
AcDbEntity
  8
0
  6
Continuous
 62
     7
370
    15
100
AcDbSpline
210
0.0
220
0.0
230
1.0
 70
     8
 71
     3
 72
    19
 73
    15
 74
     0
 42
0.0000000001
 43
0.0000000001
 40
0.0
 40
0.0
 40
0.0
 40
0.0
 40
0.0098257490537934
 40
0.1090568489368646
 40
0.207434525675023
 40
0.3063620401131513
 40
0.4052895930764511
 40
0.5036672254835281
 40
0.6028983150923463
 40
0.7014603580014834
 40
0.800022512835638
 40
0.8992534897233994
 40
0.9976311664615579
 40
1.0
 40
1.0
 40
1.0
 40
1.0
 10
4.902896770578236
 20
5.552713811773541
 30
0.0
 10
4.903511497747917
 20
5.552411324075118
 30
0.0
 10
4.910334408420098
 20
5.549053986629241
 30
0.0
 10
4.912527324988777
 20
5.541136034929567
 30
0.0
 10
4.906908443980379
 20
5.530591592125738
 30
0.0
 10
4.888145914134911
 20
5.521151037132602
 30
0.0
 10
4.860470483589594
 20
5.514229234498325
 30
0.0
 10
4.827722210189493
 20
5.510560358124335
 30
0.0
 10
4.794995323096294
 20
5.510310507823262
 30
0.0
 10
4.767337940306645
 20
5.513329725454682
 30
0.0
 10
4.748511937554516
 20
5.518866121805194
 30
0.0
 10
4.743053303017017
 20
5.525467676525448
 30
0.0
 10
4.744830469018914
 20
5.530503112729591
 30
0.0
 10
4.751010347413265
 20
5.532292585275795
 30
0.0
 10
4.751155653718801
 20
5.532334660803492
 30
0.0
  0
SPLINE
  5
133
330
1F
100
AcDbEntity
  8
0
  6
Continuous
 62
     7
370
    15
100
AcDbSpline
210
0.0
220
0.0
230
1.0
 70
     8
 71
     3
 72
    18
 73
    14
 74
     0
 42
0.0000000001
 43
0.0000000001
 40
0.0
 40
0.0
 40
0.0
 40
0.0
 40
0.0098651341965443
 40
0.1094936149905282
 40
0.2082652182320305
 40
0.3075889350513293
 40
0.4069126161327213
 40
0.5056842484432711
 40
0.6053127189218579
 40
0.7042694265047414
 40
0.803226320323367
 40
0.9028546776294945
 40
1.0
 40
1.0
 40
1.0
 40
1.0
 10
4.902896770578236
 20
5.521420941144953
 30
0.0
 10
4.903511497796059
 20
5.521118387633185
 30
0.0
 10
4.910334385753938
 20
5.517760331161621
 30
0.0
 10
4.912527298035917
 20
5.509843142066352
 30
0.0
 10
4.906908570708119
 20
5.499298790064608
 30
0.0
 10
4.888145414845716
 20
5.489857898877672
 30
0.0
 10
4.860472377516711
 20
5.482936244734943
 30
0.0
 10
4.827715109150454
 20
5.479268220580492
 30
0.0
 10
4.795022047583965
 20
5.479013664663288
 30
0.0
 10
4.767238991641828
 20
5.482050763118785
 30
0.0
 10
4.748882316727716
 20
5.487521408052949
 30
0.0
 10
4.741705114070347
 20
5.494330397859122
 30
0.0
 10
4.747672495569884
 20
5.498666292849322
 30
0.0
 10
4.750618535916505
 20
5.500806883589302
 30
0.0
  0
SPLINE
  5
134
330
1F
100
AcDbEntity
  8
0
  6
Continuous
 62
     7
370
    15
100
AcDbSpline
210
0.0
220
0.0
230
1.0
 70
     8
 71
     3
 72
    18
 73
    14
 74
     0
 42
0.0000000001
 43
0.0000000001
 40
0.0
 40
0.0
 40
0.0
 40
0.0
 40
0.0098985371392741
 40
0.1098647302698002
 40
0.2089711781891281
 40
0.3086315369465944
 40
0.4082919345146225
 40
0.5073983377744691
 40
0.6073645205546318
 40
0.7066567004095777
 40
0.8059489930186694
 40
0.90591506224275
 40
1.0
 40
1.0
 40
1.0
 40
1.0
 10
4.902896770578236
 20
5.490127882111782
 30
0.0
 10
4.903511497808239
 20
5.489825394405222
 30
0.0
 10
4.91033440914993
 20
5.486468056869009
 30
0.0
 10
4.912527284589224
 20
5.478550110718673
 30
0.0
 10
4.906908586208564
 20
5.468005643274
 30
0.0
 10
4.88814538190638
 20
5.458565179281189
 30
0.0
 10
4.860472464359432
 20
5.451643037583389
 30
0.0
 10
4.827714836895665
 20
5.447975423296091
 30
0.0
 10
4.795023032375425
 20
5.447720839517671
 30
0.0
 10
4.767235331757455
 20
5.450757640137913
 30
0.0
 10
4.748896055603823
 20
5.456228365440562
 30
0.0
 10
4.741736708044925
 20
5.462960677518834
 30
0.0
 10
4.747572681036827
 20
5.467222555040561
 30
0.0
 10
4.750402231701044
 20
5.469288911137334
 30
0.0
  0
SPLINE
  5
135
330
1F
100
AcDbEntity
  8
0
  6
Continuous
 62
     7
370
    15
100
AcDbSpline
210
0.0
220
0.0
230
1.0
 70
     8
 71
     3
 72
    19
 73
    15
 74
     0
 42
0.0000000001
 43
0.0000000001
 40
0.0
 40
0.0
 40
0.0
 40
0.0
 40
0.0098186263214311
 40
0.1089773845122322
 40
0.2072833786620561
 40
0.306138846907582
 40
0.4049942795836827
 40
0.5033002660501209
 40
0.6024590512339693
 40
0.7009492404597593
 40
0.7994396150433079
 40
0.8985982875882335
 40
0.9969042451226663
 40
1.0
 40
1.0
 40
1.0
 40
1.0
 10
4.902896770578236
 20
5.458835011483195
 30
0.0
 10
4.903511497740796
 20
5.458532457476107
 30
0.0
 10
4.910334382752552
 20
5.455174396655096
 30
0.0
 10
4.912527336394322
 20
5.447257545832914
 30
0.0
 10
4.906908437032127
 20
5.436712789866629
 30
0.0
 10
4.888145923892782
 20
5.427271922652987
 30
0.0
 10
4.860470482984771
 20
5.420350572511154
 30
0.0
 10
4.827722161443639
 20
5.416681310238664
 30
0.0
 10
4.794995544657573
 20
5.416431426563743
 30
0.0
 10
4.767337133011356
 20
5.419451161853337
 30
0.0
 10
4.748514921441441
 20
5.424986658900596
 30
0.0
 10
4.743042140441439
 20
5.431590157485914
 30
0.0
 10
4.744861326579048
 20
5.436639325294241
 30
0.0
 10
4.751098539598515
 20
5.438439861266641
 30
0.0
 10
4.751288959288348
 20
5.438494830930227
 30
0.0
  0
SPLINE
  5
136
330
1F
100
AcDbEntity
  8
0
  6
Continuous
 62
     7
370
    15
100
AcDbSpline
210
0.0
220
0.0
230
1.0
 70
     8
 71
     3
 72
    18
 73
    14
 74
     0
 42
0.0000000001
 43
0.0000000001
 40
0.0
 40
0.0
 40
0.0
 40
0.0
 40
0.0098691478293257
 40
0.109538535745815
 40
0.2083506942787526
 40
0.3077151930854836
 40
0.4070796933635894
 40
0.5058918441735747
 40
0.6055612217704315
 40
0.7045585975944232
 40
0.8035560858377873
 40
0.9032253502157164
 40
1.0
 40
1.0
 40
1.0
 40
1.0
 10
4.902896770578236
 20
5.427541952450025
 30
0.0
 10
4.903511497803108
 20
5.427239464879704
 30
0.0
 10
4.91033440908786
 20
5.423882128855628
 30
0.0
 10
4.912527287637736
 20
5.415964091210664
 30
0.0
 10
4.906908575340308
 20
5.405420036083603
 30
0.0
 10
4.888145404339181
 20
5.395979163940203
 30
0.0
 10
4.860472401375133
 20
5.389057132020028
 30
0.0
 10
4.827715069324438
 20
5.385389483192988
 30
0.0
 10
4.795022159447373
 20
5.385134927457335
 30
0.0
 10
4.767238564099013
 20
5.388171650981258
 30
0.0
 10
4.748883955279656
 20
5.393642656964741
 30
0.0
 10
4.741708971467168
 20
5.400442270340176
 30
0.0
 10
4.747660401905713
 20
5.404769100604394
 30
0.0
 10
4.750592269756453
 20
5.406900637665653
 30
0.0
  0
SPLINE
  5
137
330
1F
100
AcDbEntity
  8
0
  6
Continuous
 62
     7
370
    15
100
AcDbSpline
210
0.0
220
0.0
230
1.0
 70
     8
 71
     3
 72
    18
 73
    14
 74
     0
 42
0.0000000001
 43
0.0000000001
 40
0.0
 40
0.0
 40
0.0
 40
0.0
 40
0.0098972162986169
 40
0.1098498830351785
 40
0.2089429024376781
 40
0.3085897948479634
 40
0.4082366887338057
 40
0.5073297003914045
 40
0.6072823567790033
 40
0.7065610829143328
 40
0.8058399588399788
 40
0.9057925016868606
 40
1.0
 40
1.0
 40
1.0
 40
1.0
 10
4.902896770578236
 20
5.396249081821436
 30
0.0
 10
4.903511497803141
 20
5.395946561212246
 30
0.0
 10
4.910334397466735
 20
5.392588864206081
 30
0.0
 10
4.912527290647238
 20
5.384671296599069
 30
0.0
 10
4.906908580796848
 20
5.37412688681781
 30
0.0
 10
4.888145389626281
 20
5.364686209438483
 30
0.0
 10
4.860472453501356
 20
5.357764310734722
 30
0.0
 10
4.827714851808182
 20
5.354096494429953
 30
0.0
 10
4.79502299551186
 20
5.353841913645286
 30
0.0
 10
4.76723547484664
 20
5.35687890380925
 30
0.0
 10
4.748895500952847
 20
5.362349437192376
 30
0.0
 10
4.741735448945249
 20
5.369084861684081
 30
0.0
 10
4.747576685409179
 20
5.373349681986783
 30
0.0
 10
4.750410884820318
 20
5.375418995781075
 30
0.0
  0
SPLINE
  5
138
330
1F
100
AcDbEntity
  8
0
  6
Continuous
 62
     7
370
    15
100
AcDbSpline
210
0.0
220
0.0
230
1.0
 70
     8
 71
     3
 72
    19
 73
    15
 74
     0
 42
0.0000000001
 43
0.0000000001
 40
0.0
 40
0.0
 40
0.0
 40
0.0
 40
0.0098140383369478
 40
0.1089266851293464
 40
0.207186909216391
 40
0.3059963514641995
 40
0.4048057951751643
 40
0.5030660115823977
 40
0.6021786481128078
 40
0.7006230182203529
 40
0.7990675368593501
 40
0.8981800608032596
 40
0.9964402848903041
 40
1.0
 40
1.0
 40
1.0
 40
1.0
 10
4.902896770578236
 20
5.364956116990557
 30
0.0
 10
4.903511497743672
 20
5.364653596389395
 30
0.0
 10
4.910334396747209
 20
5.361295899472316
 30
0.0
 10
4.912527330476133
 20
5.353378326392417
 30
0.0
 10
4.906908440577691
 20
5.342833940912549
 30
0.0
 10
4.888145914337019
 20
5.333393173786501
 30
0.0
 10
4.860470500710665
 20
5.32647160947533
 30
0.0
 10
4.82772212095389
 20
5.322802548470092
 30
0.0
 10
4.794995677635727
 20
5.322552635954696
 30
0.0
 10
4.767336634010633
 20
5.325572285353637
 30
0.0
 10
4.748516808588717
 20
5.33110758511516
 30
0.0
 10
4.7430350615115
 20
5.337712535457773
 30
0.0
 10
4.744881063534333
 20
5.342769639828542
 30
0.0
 10
4.751154802496817
 20
5.344577669199279
 30
0.0
 10
4.751374137958567
 20
5.344640879504849
 30
0.0
  0
SPLINE
  5
139
330
1F
100
AcDbEntity
  8
0
  6
Continuous
 62
     7
370
    15
100
AcDbSpline
210
0.0
220
0.0
230
1.0
 70
     8
 71
     3
 72
    18
 73
    14
 74
     0
 42
0.0000000001
 43
0.0000000001
 40
0.0
 40
0.0
 40
0.0
 40
0.0
 40
0.0098730602014705
 40
0.1095817541212275
 40
0.20843291757848
 40
0.3078366208275984
 40
0.4072403069289063
 40
0.506091462660161
 40
0.6058001649898821
 40
0.7048365819262675
 40
0.8038731482873766
 40
0.9035817373534992
 40
0.9999999999999998
 40
0.9999999999999998
 40
0.9999999999999998
 40
0.9999999999999998
 10
4.902896770578236
 20
5.33366315215968
 30
0.0
 10
4.903511497801178
 20
5.333360631366943
 30
0.0
 10
4.910334396276577
 20
5.330002932897605
 30
0.0
 10
4.912527292441669
 20
5.322085491412043
 30
0.0
 10
4.906908575094734
 20
5.311541073675232
 30
0.0
 10
4.888145406256115
 20
5.302100249012155
 30
0.0
 10
4.860472401844302
 20
5.295178390256683
 30
0.0
 10
4.827715043090081
 20
5.291510559022879
 30
0.0
 10
4.795022276938532
 20
5.291255997810917
 30
0.0
 10
4.767238135679475
 20
5.294292924983555
 30
0.0
 10
4.748885540064859
 20
5.299763691026545
 30
0.0
 10
4.7417126823316
 20
5.306554411173196
 30
0.0
 10
4.747648751737716
 20
5.310872621338043
 30
0.0
 10
4.750566993141627
 20
5.312995504146803
 30
0.0
  0
SPLINE
  5
13A
330
1F
100
AcDbEntity
  8
0
  6
Continuous
 62
     7
370
    15
100
AcDbSpline
210
0.0
220
0.0
230
1.0
 70
     8
 71
     3
 72
    18
 73
    14
 74
     0
 42
0.0000000001
 43
0.0000000001
 40
0.0
 40
0.0
 40
0.0
 40
0.0
 40
0.0098954761899118
 40
0.1098307565248597
 40
0.2089065390582622
 40
0.3085361169173375
 40
0.4081656775896376
 40
0.5072414523794864
 40
0.6071767223672716
 40
0.7064381793304954
 40
0.8056997860579803
 40
0.9056349425247985
 40
1.0
 40
1.0
 40
1.0
 40
1.0
 10
4.902896770578236
 20
5.302370187328801
 30
0.0
 10
4.903511497805502
 20
5.302067699709499
 30
0.0
 10
4.910334409116827
 20
5.298710363141802
 30
0.0
 10
4.912527286227936
 20
5.290792358193128
 30
0.0
 10
4.90690858002039
 20
5.280248154199229
 30
0.0
 10
4.888145393044393
 20
5.270807272216972
 30
0.0
 10
4.860472449618653
 20
5.263885427795147
 30
0.0
 10
4.827714865624011
 20
5.260217596585837
 30
0.0
 10
4.795022943765138
 20
5.259963020922719
 30
0.0
 10
4.767235666421077
 20
5.263000005605508
 30
0.0
 10
4.748894783800538
 20
5.268470555824484
 30
0.0
 10
4.741733836977148
 20
5.275209912560029
 30
0.0
 10
4.747581818556165
 20
5.279478527639597
 30
0.0
 10
4.750421985875704
 20
5.281551649944255
 30
0.0
  0
SPLINE
  5
13B
330
1F
100
AcDbEntity
  8
0
  6
Continuous
 62
     7
370
    15
100
AcDbSpline
210
0.0
220
0.0
230
1.0
 70
     8
 71
     3
 72
     9
 73
     5
 74
     0
 42
0.0000000001
 43
0.0000000001
 40
0.0
 40
0.0
 40
0.0
 40
0.0
 40
0.2373238055902302
 40
0.9999999999999998
 40
0.9999999999999998
 40
0.9999999999999998
 40
0.9999999999999998
 10
4.902896770578236
 20
5.271077222497921
 30
0.0
 10
4.903542329279768
 20
5.270777786378917
 30
0.0
 10
4.906262489189247
 20
5.269516066686452
 30
0.0
 10
4.906523223973262
 20
5.267975718712958
 30
0.0
 10
4.906722080186085
 20
5.266800931982466
 30
0.0
  0
SPLINE
  5
13C
330
1F
100
AcDbEntity
  8
0
  6
Continuous
 62
     7
370
    15
100
AcDbSpline
210
0.0
220
0.0
230
1.0
 70
     8
 71
     3
 72
    17
 73
    13
 74
     0
 42
0.0000000001
 43
0.0000000001
 40
0.0
 40
0.0
 40
0.0
 40
0.0
 40
0.0769340191290878
 40
0.179532178073643
 40
0.2827038210664012
 40
0.385875446261354
 40
0.488473597187054
 40
0.5919618003805746
 40
0.6947522349163556
 40
0.7975428245408683
 40
0.9010309101774852
 40
1.0
 40
1.0
 40
1.0
 40
1.0
 10
4.906329537533893
 20
5.048401346236111
 30
0.0
 10
4.908492368177198
 20
5.045793529211285
 30
0.0
 10
4.913539520277045
 20
5.039707962958741
 30
0.0
 10
4.906457968654678
 20
5.029854907207555
 30
0.0
 10
4.888266444774026
 20
5.020476977496439
 30
0.0
 10
4.860440199719442
 20
5.013538255178414
 30
0.0
 10
4.827723659716928
 20
5.009874928323147
 30
0.0
 10
4.795020265816113
 20
5.009619147617095
 30
0.0
 10
4.767237605110841
 20
5.012656424154541
 30
0.0
 10
4.748889680671797
 20
5.018127007682367
 30
0.0
 10
4.741722671407951
 20
5.024893635128271
 30
0.0
 10
4.747617386290555
 20
5.029188616339815
 30
0.0
 10
4.750498956505944
 20
5.031288173346611
 30
0.0
  0
SPLINE
  5
13D
330
1F
100
AcDbEntity
  8
0
  6
Continuous
 62
     7
370
    15
100
AcDbSpline
210
0.0
220
0.0
230
1.0
 70
     8
 71
     3
 72
    19
 73
    15
 74
     0
 42
0.0000000001
 43
0.0000000001
 40
0.0
 40
0.0
 40
0.0
 40
0.0
 40
0.0098860162606546
 40
0.1097257599418699
 40
0.2087068274887586
 40
0.3082411609411585
 40
0.4077754772232134
 40
0.5067565370339511
 40
0.6065962703778954
 40
0.7057628348525898
 40
0.8049295489483727
 40
0.9047691688798744
 40
0.9881156078456079
 40
1.0
 40
1.0
 40
1.0
 40
1.0
 10
4.902896770578236
 20
5.020733598053181
 30
0.0
 10
4.903511497753009
 20
5.020431110440205
 30
0.0
 10
4.910334408481706
 20
5.017073773942721
 30
0.0
 10
4.912527321384727
 20
5.009155764680849
 30
0.0
 10
4.906908456249546
 20
4.998611579838931
 30
0.0
 10
4.888145856204353
 20
4.989170627127081
 30
0.0
 10
4.860470725898897
 20
4.982249046240768
 30
0.0
 10
4.827721282067
 20
4.978580234080406
 30
0.0
 10
4.794998830395851
 20
4.978329337490102
 30
0.0
 10
4.767324959170863
 20
4.981352655879571
 30
0.0
 10
4.74856051371386
 20
4.986874248617331
 30
0.0
 10
4.743169811983967
 20
4.993181307442908
 30
0.0
 10
4.744980174061442
 20
4.99789965559454
 30
0.0
 10
4.750098661238722
 20
4.999694806244191
 30
0.0
 10
4.750737426102333
 20
4.999918833211569
 30
0.0
  0
LINE
  5
13E
330
1F
100
AcDbEntity
  8
0
  6
Continuous
 62
     7
370
    15
100
AcDbLine
 10
4.886657675710101
 20
5.794777281926414
 30
0.0
 11
4.886657675710101
 21
5.771915139529357
 31
0.0
  0
SPLINE
  5
13F
330
1F
100
AcDbEntity
  8
0
  6
Continuous
 62
     7
370
    15
100
AcDbSpline
210
0.0
220
0.0
230
1.0
 70
     8
 71
     3
 72
    14
 73
    10
 74
     0
 42
0.0000000001
 43
0.0000000001
 40
0.0
 40
0.0
 40
0.0
 40
0.0
 40
0.1283334149345674
 40
0.2583035621193952
 40
0.4430975392842741
 40
0.6289244258150699
 40
0.8147513095941675
 40
0.9995453012021542
 40
1.0
 40
1.0
 40
1.0
 40
1.0
 10
4.784607973297573
 20
4.971230992611196
 30
0.0
 10
4.791349978360812
 20
4.970764884740392
 30
0.0
 10
4.804919974332238
 20
4.969826724375672
 30
0.0
 10
4.831076055279639
 20
4.970554252185637
 30
0.0
 10
4.860379012452645
 20
4.973804081832324
 30
0.0
 10
4.888463117944422
 20
4.980758441812169
 30
0.0
 10
4.905734640699223
 20
4.990121119269348
 30
0.0
 10
4.913169437244474
 20
4.997331371191259
 30
0.0
 10
4.91105502667145
 20
5.000839809829986
 30
0.0
 10
4.911049836783503
 20
5.000848421404124
 30
0.0
  0
SPLINE
  5
140
330
1F
100
AcDbEntity
  8
0
  6
Continuous
 62
     7
370
    15
100
AcDbSpline
210
0.0
220
0.0
230
1.0
 70
     8
 71
     3
 72
    16
 73
    12
 74
     0
 42
0.0000000001
 43
0.0000000001
 40
0.0
 40
0.0
 40
0.0
 40
0.0
 40
0.12527125896072
 40
0.2500024534553332
 40
0.3747334597575952
 40
0.5003111731220376
 40
0.6248088529646038
 40
0.7500024148998509
 40
0.8751959749812494
 40
0.9996936645542918
 40
1.0
 40
1.0
 40
1.0
 40
1.0
 10
4.744414335820785
 20
5.016496516840192
 30
0.0
 10
4.745665322147622
 20
5.014229397212503
 30
0.0
 10
4.748161901598829
 20
5.009704931873035
 30
0.0
 10
4.767437146667902
 20
5.004222199380112
 30
0.0
 10
4.794962925028775
 20
5.001189318959488
 30
0.0
 10
4.827751877633994
 20
5.001444128253702
 30
0.0
 10
4.860384690505203
 20
5.005106926662213
 30
0.0
 10
4.888461585394201
 20
5.01204873995504
 30
0.0
 10
4.905735075810494
 20
5.021414841208216
 30
0.0
 10
4.913169437066101
 20
5.028624335711755
 30
0.0
 10
4.911055026671014
 20
5.032132774660105
 30
0.0
 10
4.911049836783503
 20
5.032141386235003
 30
0.0
  0
SPLINE
  5
141
330
1F
100
AcDbEntity
  8
0
  6
Continuous
 62
     7
370
    15
100
AcDbSpline
210
0.0
220
0.0
230
1.0
 70
     8
 71
     3
 72
    14
 73
    10
 74
     0
 42
0.0000000001
 43
0.0000000001
 40
0.0
 40
0.0
 40
0.0
 40
0.0
 40
0.1601902597551724
 40
0.3196899136377135
 40
0.4791893268698303
 40
0.6397714643066248
 40
0.7989725120038495
 40
0.9590634169126191
 40
0.9999999999999998
 40
0.9999999999999998
 40
0.9999999999999998
 40
0.9999999999999998
 10
4.744414335820785
 20
5.047789481671071
 30
0.0
 10
4.74566461463515
 20
5.045522523067958
 30
0.0
 10
4.748159782111613
 20
5.040998379083439
 30
0.0
 10
4.767445581987571
 20
5.035513244394977
 30
0.0
 10
4.794931197404078
 20
5.032489504761755
 30
0.0
 10
4.82787079027163
 20
5.032710029452738
 30
0.0
 10
4.859944199429691
 20
5.036500143985467
 30
0.0
 10
4.882616721335589
 20
5.041358204002008
 30
0.0
 10
4.889815819918869
 20
5.045301349762667
 30
0.0
 10
4.891281820913292
 20
5.046104319126041
 30
0.0
  0
SPLINE
  5
142
330
1F
100
AcDbEntity
  8
0
  6
Continuous
 62
     7
370
    15
100
AcDbSpline
210
0.0
220
0.0
230
1.0
 70
     8
 71
     3
 72
    13
 73
     9
 74
     0
 42
0.0000000001
 43
0.0000000001
 40
0.0
 40
0.0
 40
0.0
 40
0.0
 40
0.0734494617300512
 40
0.3042999151856811
 40
0.5364407115364573
 40
0.7685815044497258
 40
0.9994319759481403
 40
0.9999999999999998
 40
0.9999999999999998
 40
0.9999999999999998
 40
0.9999999999999998
 10
4.817707846250987
 20
5.252273870117106
 30
0.0
 10
4.821065539291652
 20
5.252265090174711
 30
0.0
 10
4.834976406484242
 20
5.252228715017385
 30
0.0
 10
4.860479768737365
 20
5.255601367175298
 30
0.0
 10
4.888435923045312
 20
5.262351657978593
 30
0.0
 10
4.90574236169068
 20
5.271770022744206
 30
0.0
 10
4.913169434079202
 20
5.278967955418561
 30
0.0
 10
4.9110550266637
 20
5.282476399093245
 30
0.0
 10
4.911049836783503
 20
5.282485010679743
 30
0.0
  0
SPLINE
  5
143
330
1F
100
AcDbEntity
  8
0
  6
Continuous
 62
     7
370
    15
100
AcDbSpline
210
0.0
220
0.0
230
1.0
 70
     8
 71
     3
 72
    16
 73
    12
 74
     0
 42
0.0000000001
 43
0.0000000001
 40
0.0
 40
0.0
 40
0.0
 40
0.0
 40
0.12527125896072
 40
0.2500024534553332
 40
0.3747334597575952
 40
0.5003111731220376
 40
0.6248088529646038
 40
0.7500024148998509
 40
0.8751959749812494
 40
0.9996936645542918
 40
1.0
 40
1.0
 40
1.0
 40
1.0
 10
4.744414335820785
 20
5.298133106115812
 30
0.0
 10
4.745665322147622
 20
5.295865986488122
 30
0.0
 10
4.748161901598829
 20
5.291341521148655
 30
0.0
 10
4.767437146667902
 20
5.285858788655731
 30
0.0
 10
4.794962925028775
 20
5.282825908235108
 30
0.0
 10
4.827751877633994
 20
5.283080717529322
 30
0.0
 10
4.860384690505203
 20
5.286743515937834
 30
0.0
 10
4.888461585394201
 20
5.293685329230656
 30
0.0
 10
4.905735075810494
 20
5.303051430483845
 30
0.0
 10
4.913169437066101
 20
5.310260924987353
 30
0.0
 10
4.911055026671014
 20
5.313769363935724
 30
0.0
 10
4.911049836783503
 20
5.313777975510622
 30
0.0
  0
SPLINE
  5
144
330
1F
100
AcDbEntity
  8
0
  6
Continuous
 62
     7
370
    15
100
AcDbSpline
210
0.0
220
0.0
230
1.0
 70
     8
 71
     3
 72
    16
 73
    12
 74
     0
 42
0.0000000001
 43
0.0000000001
 40
0.0
 40
0.0
 40
0.0
 40
0.0
 40
0.1252712619429085
 40
0.2500024594068535
 40
0.3747334686784427
 40
0.5003111614383249
 40
0.6248088442446638
 40
0.7500024326108374
 40
0.8751959956725748
 40
0.9996936882093901
 40
1.0
 40
1.0
 40
1.0
 40
1.0
 10
4.744414335820785
 20
5.32942607094669
 30
0.0
 10
4.745665322091038
 20
5.32715895135879
 30
0.0
 10
4.748161901429321
 20
5.32263448609873
 30
0.0
 10
4.767437147342522
 20
5.317151753012223
 30
0.0
 10
4.794962920759673
 20
5.314118875041097
 30
0.0
 10
4.827751882850643
 20
5.314373675537789
 30
0.0
 10
4.860384688259083
 20
5.318035946361586
 30
0.0
 10
4.888461602833583
 20
5.324979887308136
 30
0.0
 10
4.905735000334206
 20
5.334338571318442
 30
0.0
 10
4.913169599495964
 20
5.341566368385237
 30
0.0
 10
4.911055026669775
 20
5.345062266008576
 30
0.0
 10
4.911049836783503
 20
5.34507084613921
 30
0.0
  0
SPLINE
  5
145
330
1F
100
AcDbEntity
  8
0
  6
Continuous
 62
     7
370
    15
100
AcDbSpline
210
0.0
220
0.0
230
1.0
 70
     8
 71
     3
 72
    16
 73
    12
 74
     0
 42
0.0000000001
 43
0.0000000001
 40
0.0
 40
0.0
 40
0.0
 40
0.0
 40
0.1252712383484975
 40
0.2500024358124948
 40
0.3747334450841363
 40
0.5003111614381153
 40
0.6248088442445065
 40
0.7500024326107325
 40
0.8751959956725224
 40
0.9996936882093899
 40
1.0
 40
1.0
 40
1.0
 40
1.0
 10
4.744414335820785
 20
5.36071903577757
 30
0.0
 10
4.745665322487783
 20
5.358451875505381
 30
0.0
 10
4.748161902852452
 20
5.353927328626967
 30
0.0
 10
4.767437146723366
 20
5.348444639537023
 30
0.0
 10
4.794962924766194
 20
5.345411709469093
 30
0.0
 10
4.827751878632663
 20
5.345666674858653
 30
0.0
 10
4.86038468884122
 20
5.349328901862179
 30
0.0
 10
4.888461602676465
 20
5.356272854657336
 30
0.0
 10
4.905735000378793
 20
5.365631535434321
 30
0.0
 10
4.913169599495992
 20
5.372859333216444
 30
0.0
 10
4.911055026669775
 20
5.376355230839456
 30
0.0
 10
4.911049836783503
 20
5.376363810970089
 30
0.0
  0
SPLINE
  5
146
330
1F
100
AcDbEntity
  8
0
  6
Continuous
 62
     7
370
    15
100
AcDbSpline
210
0.0
220
0.0
230
1.0
 70
     8
 71
     3
 72
    16
 73
    12
 74
     0
 42
0.0000000001
 43
0.0000000001
 40
0.0
 40
0.0
 40
0.0
 40
0.0
 40
0.1252712589602936
 40
0.2500024301798751
 40
0.374733459757479
 40
0.5003111731214942
 40
0.6248088297787732
 40
0.7500024151641814
 40
0.8751959517956864
 40
0.9996936645542927
 40
1.0
 40
1.0
 40
1.0
 40
1.0
 10
4.744414335820785
 20
5.392012000608449
 30
0.0
 10
4.745665321528568
 20
5.38974489442638
 30
0.0
 10
4.748161899511912
 20
5.385220456341403
 30
0.0
 10
4.76743715237011
 20
5.379737523143187
 30
0.0
 10
4.794962921708113
 20
5.37670483438401
 30
0.0
 10
4.827751873424295
 20
5.376959647149305
 30
0.0
 10
4.860384698435781
 20
5.38062223952436
 30
0.0
 10
4.88846157873641
 20
5.387564311459374
 30
0.0
 10
4.905735080252666
 20
5.396930140812931
 30
0.0
 10
4.913169437456397
 20
5.404139818903551
 30
0.0
 10
4.911055026671007
 20
5.407648258428545
 30
0.0
 10
4.911049836783503
 20
5.407656870003259
 30
0.0
  0
SPLINE
  5
147
330
1F
100
AcDbEntity
  8
0
  6
Continuous
 62
     7
370
    15
100
AcDbSpline
210
0.0
220
0.0
230
1.0
 70
     8
 71
     3
 72
    16
 73
    12
 74
     0
 42
0.0000000001
 43
0.0000000001
 40
0.0
 40
0.0
 40
0.0
 40
0.0
 40
0.1252712383215465
 40
0.250002459034441
 40
0.3747334450046049
 40
0.5003111613315671
 40
0.6248088672971639
 40
0.7500024087364004
 40
0.875195995221844
 40
0.9996936645470649
 40
1.0
 40
1.0
 40
1.0
 40
1.0
 10
4.744414335820785
 20
5.423304965439328
 30
0.0
 10
4.745665323112799
 20
5.421037792443716
 30
0.0
 10
4.748161904957242
 20
5.416513219752061
 30
0.0
 10
4.767437140950264
 20
5.411030720593593
 30
0.0
 10
4.794962928353419
 20
5.407997639860634
 30
0.0
 10
4.827751881842785
 20
5.408252448012697
 30
0.0
 10
4.860384682574893
 20
5.411915451833626
 30
0.0
 10
4.888461592051928
 20
5.418857006651321
 30
0.0
 10
4.905735071368306
 20
5.428223379758475
 30
0.0
 10
4.913169436675884
 20
5.435432690685185
 30
0.0
 10
4.91105502667102
 20
5.438941129056765
 30
0.0
 10
4.911049836783503
 20
5.438949740631847
 30
0.0
  0
SPLINE
  5
148
330
1F
100
AcDbEntity
  8
0
  6
Continuous
 62
     7
370
    15
100
AcDbSpline
210
0.0
220
0.0
230
1.0
 70
     8
 71
     3
 72
    16
 73
    12
 74
     0
 42
0.0000000001
 43
0.0000000001
 40
0.0
 40
0.0
 40
0.0
 40
0.0
 40
0.1252712855733638
 40
0.2500024597974233
 40
0.374733492379502
 40
0.5003111615814144
 40
0.6248088676084009
 40
0.7500024560094256
 40
0.8751959956565459
 40
0.999693711414007
 40
1.0
 40
1.0
 40
1.0
 40
1.0
 10
4.744414335820785
 20
5.454597836067916
 30
0.0
 10
4.745665321038146
 20
5.4523307704061
 30
0.0
 10
4.748161897808144
 20
5.447806413612108
 30
0.0
 10
4.76743715410593
 20
5.442323438864565
 30
0.0
 10
4.79496291176992
 20
5.439290793080691
 30
0.0
 10
4.827751893147246
 20
5.439545475586752
 30
0.0
 10
4.860384678535892
 20
5.443207423887787
 30
0.0
 10
4.88846162071132
 20
5.450153342489713
 30
0.0
 10
4.905734929246648
 20
5.459504443920271
 30
0.0
 10
4.913169759199419
 20
5.466750712823947
 30
0.0
 10
4.911055026668555
 20
5.470234062574236
 30
0.0
 10
4.911049836783503
 20
5.470242611260435
 30
0.0
  0
SPLINE
  5
149
330
1F
100
AcDbEntity
  8
0
  6
Continuous
 62
     7
370
    15
100
AcDbSpline
210
0.0
220
0.0
230
1.0
 70
     8
 71
     3
 72
    16
 73
    12
 74
     0
 42
0.0000000001
 43
0.0000000001
 40
0.0
 40
0.0
 40
0.0
 40
0.0
 40
0.1252712382552441
 40
0.2500024123517821
 40
0.3747334448063394
 40
0.500311161066837
 40
0.6248088205956865
 40
0.7500024088687171
 40
0.8751959952878994
 40
0.9996936645472271
 40
1.0
 40
1.0
 40
1.0
 40
1.0
 10
4.744414335820785
 20
5.485890895101086
 30
0.0
 10
4.745665321873656
 20
5.483623749036075
 30
0.0
 10
4.748161900780292
 20
5.479099230931995
 30
0.0
 10
4.767437152366849
 20
5.473616329775627
 30
0.0
 10
4.794962921666406
 20
5.470583634600316
 30
0.0
 10
4.827751873595144
 20
5.4708384413126
 30
0.0
 10
4.860384697799085
 20
5.474501064192927
 30
0.0
 10
4.888461584641646
 20
5.481443020587374
 30
0.0
 10
4.905735072858647
 20
5.49080928516095
 30
0.0
 10
4.913169436675272
 20
5.498018620356938
 30
0.0
 10
4.911055026671019
 20
5.501527058718546
 30
0.0
 10
4.911049836783503
 20
5.501535670293606
 30
0.0
  0
SPLINE
  5
14A
330
1F
100
AcDbEntity
  8
0
  6
Continuous
 62
     7
370
    15
100
AcDbSpline
210
0.0
220
0.0
230
1.0
 70
     8
 71
     3
 72
    16
 73
    12
 74
     0
 42
0.0000000001
 43
0.0000000001
 40
0.0
 40
0.0
 40
0.0
 40
0.0
 40
0.1252712383837116
 40
0.2500024591585031
 40
0.3747334451905639
 40
0.5003111615798432
 40
0.6248088676072211
 40
0.7500024560086395
 40
0.8751959956561535
 40
0.999693711414006
 40
1.0
 40
1.0
 40
1.0
 40
1.0
 10
4.744414335820785
 20
5.517183765729674
 30
0.0
 10
4.745665323102093
 20
5.514916591249923
 30
0.0
 10
4.748161904925169
 20
5.510392015596389
 30
0.0
 10
4.767437141077913
 20
5.504909538578591
 30
0.0
 10
4.794962927873299
 20
5.501876373596406
 30
0.0
 10
4.827751883642241
 20
5.502131497744419
 30
0.0
 10
4.860384679987478
 20
5.505793328569609
 30
0.0
 10
4.888461620319525
 20
5.512739278893753
 30
0.0
 10
4.905734929357886
 20
5.522090371667776
 30
0.0
 10
4.913169759199369
 20
5.529336642486557
 30
0.0
 10
4.911055026668555
 20
5.532819992235996
 30
0.0
 10
4.911049836783503
 20
5.532828540922192
 30
0.0
  0
SPLINE
  5
14B
330
1F
100
AcDbEntity
  8
0
  6
Continuous
 62
     7
370
    15
100
AcDbSpline
210
0.0
220
0.0
230
1.0
 70
     8
 71
     3
 72
    16
 73
    12
 74
     0
 42
0.0000000001
 43
0.0000000001
 40
0.0
 40
0.0
 40
0.0
 40
0.0
 40
0.1252712382552441
 40
0.2500024123517821
 40
0.3747334448063394
 40
0.500311161066837
 40
0.6248088205956865
 40
0.7500024088687171
 40
0.8751959952878994
 40
0.9996936645472271
 40
1.0
 40
1.0
 40
1.0
 40
1.0
 10
4.744414335820785
 20
5.548476824762844
 30
0.0
 10
4.745665321873656
 20
5.546209678697833
 30
0.0
 10
4.748161900780292
 20
5.541685160593753
 30
0.0
 10
4.767437152366849
 20
5.536202259437384
 30
0.0
 10
4.794962921666406
 20
5.533169564262075
 30
0.0
 10
4.827751873595144
 20
5.533424370974358
 30
0.0
 10
4.860384697799085
 20
5.537086993854686
 30
0.0
 10
4.888461584641646
 20
5.54402895024913
 30
0.0
 10
4.905735072858647
 20
5.553395214822713
 30
0.0
 10
4.913169436675272
 20
5.560604550018687
 30
0.0
 10
4.911055026671019
 20
5.564112988380305
 30
0.0
 10
4.911049836783503
 20
5.564121599955362
 30
0.0
  0
SPLINE
  5
14C
330
1F
100
AcDbEntity
  8
0
  6
Continuous
 62
     7
370
    15
100
AcDbSpline
210
0.0
220
0.0
230
1.0
 70
     8
 71
     3
 72
    16
 73
    12
 74
     0
 42
0.0000000001
 43
0.0000000001
 40
0.0
 40
0.0
 40
0.0
 40
0.0
 40
0.1252712383837115
 40
0.2500024591585029
 40
0.3747334451905635
 40
0.5003111615798428
 40
0.6248088676072207
 40
0.7500024091085836
 40
0.8751959956561535
 40
0.999693711414006
 40
1.0
 40
1.0
 40
1.0
 40
1.0
 10
4.744414335820785
 20
5.579769695391433
 30
0.0
 10
4.74566532309561
 20
5.577502521049708
 30
0.0
 10
4.748161904905748
 20
5.572977945671633
 30
0.0
 10
4.767437141155207
 20
5.567495466594722
 30
0.0
 10
4.794962927582574
 20
5.564462309447833
 30
0.0
 10
4.827751884731858
 20
5.564717404207776
 30
0.0
 10
4.860384671872826
 20
5.568379343708146
 30
0.0
 10
4.888461632252225
 20
5.575324884683839
 30
0.0
 10
4.905734923852641
 20
5.584676391616453
 30
0.0
 10
4.913169759201061
 20
5.591922572110695
 30
0.0
 10
4.911055026668559
 20
5.595405921897661
 30
0.0
 10
4.911049836783503
 20
5.595414470583951
 30
0.0
  0
SPLINE
  5
14D
330
1F
100
AcDbEntity
  8
0
  6
Continuous
 62
     7
370
    15
100
AcDbSpline
210
0.0
220
0.0
230
1.0
 70
     8
 71
     3
 72
    16
 73
    12
 74
     0
 42
0.0000000001
 43
0.0000000001
 40
0.0
 40
0.0
 40
0.0
 40
0.0
 40
0.1252712796000269
 40
0.2500024478765038
 40
0.3747334745110067
 40
0.5003111849119426
 40
0.6248088386316271
 40
0.7500024210630199
 40
0.8751959547405105
 40
0.999693664561521
 40
1.0
 40
1.0
 40
1.0
 40
1.0
 10
4.744414335820785
 20
5.611062566020019
 30
0.0
 10
4.745665321182441
 20
5.608795499760265
 30
0.0
 10
4.748161898240408
 20
5.604271141772972
 30
0.0
 10
4.76743715238557
 20
5.598788175945599
 30
0.0
 10
4.794962921703938
 20
5.595755495837296
 30
0.0
 10
4.827751873425406
 20
5.596010306273693
 30
0.0
 10
4.860384698435483
 20
5.59967289926976
 30
0.0
 10
4.88846157873649
 20
5.606614971037719
 30
0.0
 10
4.905735080252648
 20
5.615980800436928
 30
0.0
 10
4.913169437456386
 20
5.623190478517287
 30
0.0
 10
4.911055026671007
 20
5.626698918042406
 30
0.0
 10
4.911049836783503
 20
5.626707529617121
 30
0.0
  0
SPLINE
  5
14E
330
1F
100
AcDbEntity
  8
0
  6
Continuous
 62
     7
370
    15
100
AcDbSpline
210
0.0
220
0.0
230
1.0
 70
     8
 71
     3
 72
    16
 73
    12
 74
     0
 42
0.0000000001
 43
0.0000000001
 40
0.0
 40
0.0
 40
0.0
 40
0.0
 40
0.1252712383215465
 40
0.250002459034441
 40
0.3747334450046049
 40
0.5003111613315671
 40
0.6248088672971639
 40
0.7500024087364004
 40
0.875195995221844
 40
0.9996936645470649
 40
1.0
 40
1.0
 40
1.0
 40
1.0
 10
4.744414335820785
 20
5.642355625053189
 30
0.0
 10
4.745665323112799
 20
5.640088452057577
 30
0.0
 10
4.748161904957242
 20
5.635563879365921
 30
0.0
 10
4.767437140950264
 20
5.630081380207455
 30
0.0
 10
4.794962928353419
 20
5.627048299474496
 30
0.0
 10
4.827751881842785
 20
5.627303107626557
 30
0.0
 10
4.860384682574893
 20
5.630966111447487
 30
0.0
 10
4.888461592051928
 20
5.637907666265183
 30
0.0
 10
4.905735071368306
 20
5.647274039372342
 30
0.0
 10
4.913169436675884
 20
5.654483350299037
 30
0.0
 10
4.91105502667102
 20
5.657991788670627
 30
0.0
 10
4.911049836783503
 20
5.658000400245708
 30
0.0
  0
SPLINE
  5
14F
330
1F
100
AcDbEntity
  8
0
  6
Continuous
 62
     7
370
    15
100
AcDbSpline
210
0.0
220
0.0
230
1.0
 70
     8
 71
     3
 72
    16
 73
    12
 74
     0
 42
0.0000000001
 43
0.0000000001
 40
0.0
 40
0.0
 40
0.0
 40
0.0
 40
0.1252712796000269
 40
0.2500024478765038
 40
0.3747334745110067
 40
0.5003111849119426
 40
0.6248088386316271
 40
0.7500024210630199
 40
0.8751959547405105
 40
0.999693664561521
 40
1.0
 40
1.0
 40
1.0
 40
1.0
 10
4.744414335820785
 20
5.673648495681778
 30
0.0
 10
4.745665321182441
 20
5.671381429422023
 30
0.0
 10
4.748161898240408
 20
5.66685707143473
 30
0.0
 10
4.76743715238557
 20
5.661374105607357
 30
0.0
 10
4.794962921703938
 20
5.658341425499054
 30
0.0
 10
4.827751873425406
 20
5.65859623593545
 30
0.0
 10
4.860384698435483
 20
5.662258828931521
 30
0.0
 10
4.88846157873649
 20
5.669200900699465
 30
0.0
 10
4.905735080252648
 20
5.678566730098728
 30
0.0
 10
4.913169437456386
 20
5.685776408178953
 30
0.0
 10
4.911055026671007
 20
5.689284847704165
 30
0.0
 10
4.911049836783503
 20
5.689293459278879
 30
0.0
  0
SPLINE
  5
150
330
1F
100
AcDbEntity
  8
0
  6
Continuous
 62
     7
370
    15
100
AcDbSpline
210
0.0
220
0.0
230
1.0
 70
     8
 71
     3
 72
    16
 73
    12
 74
     0
 42
0.0000000001
 43
0.0000000001
 40
0.0
 40
0.0
 40
0.0
 40
0.0
 40
0.1252712382552529
 40
0.2500024589021394
 40
0.3747334448062955
 40
0.5003111610668018
 40
0.6248088205956602
 40
0.7500024088686994
 40
0.8751959952878905
 40
0.9996936645472271
 40
1.0
 40
1.0
 40
1.0
 40
1.0
 10
4.744414335820785
 20
5.704941554714948
 30
0.0
 10
4.745665323144097
 20
5.702674381200594
 30
0.0
 10
4.748161905051
 20
5.698149807473693
 30
0.0
 10
4.767437140577117
 20
5.692667316053904
 30
0.0
 10
4.794962929756932
 20
5.689634205873887
 30
0.0
 10
4.827751872525901
 20
5.689889124442323
 30
0.0
 10
4.860384698086421
 20
5.69355171748743
 30
0.0
 10
4.888461584564089
 20
5.700493681906873
 30
0.0
 10
4.905735072880677
 20
5.70985994429058
 30
0.0
 10
4.913169436675238
 20
5.717069279970953
 30
0.0
 10
4.911055026671019
 20
5.72057771833241
 30
0.0
 10
4.911049836783503
 20
5.720586329907466
 30
0.0
  0
SPLINE
  5
151
330
1F
100
AcDbEntity
  8
0
  6
Continuous
 62
     7
370
    15
100
AcDbSpline
210
0.0
220
0.0
230
1.0
 70
     8
 71
     3
 72
    16
 73
    12
 74
     0
 42
0.0000000001
 43
0.0000000001
 40
0.0
 40
0.0
 40
0.0
 40
0.0
 40
0.1252712383837116
 40
0.2500024591585031
 40
0.3747334451905639
 40
0.5003111615798432
 40
0.6248088676072211
 40
0.7500024560086395
 40
0.8751959956561535
 40
0.999693711414006
 40
1.0
 40
1.0
 40
1.0
 40
1.0
 10
4.744414335820785
 20
5.736234425343536
 30
0.0
 10
4.745665323102093
 20
5.733967250863784
 30
0.0
 10
4.748161904925169
 20
5.72944267521025
 30
0.0
 10
4.767437141077913
 20
5.723960198192454
 30
0.0
 10
4.794962927873299
 20
5.720927033210268
 30
0.0
 10
4.827751883642241
 20
5.721182157358279
 30
0.0
 10
4.860384679987478
 20
5.724843988183472
 30
0.0
 10
4.888461620319525
 20
5.731789938507607
 30
0.0
 10
4.905734929357886
 20
5.741141031281666
 30
0.0
 10
4.913169759199369
 20
5.748387302100355
 30
0.0
 10
4.911055026668555
 20
5.751870651849857
 30
0.0
 10
4.911049836783503
 20
5.751879200536055
 30
0.0
  0
SPLINE
  5
152
330
1F
100
AcDbEntity
  8
0
  6
Continuous
 62
     7
370
    15
100
AcDbSpline
210
0.0
220
0.0
230
1.0
 70
     8
 71
     3
 72
    16
 73
    12
 74
     0
 42
0.0000000001
 43
0.0000000001
 40
0.0
 40
0.0
 40
0.0
 40
0.0
 40
0.1252712382552441
 40
0.2500024123517821
 40
0.3747334448063394
 40
0.500311161066837
 40
0.6248088205956865
 40
0.7500024088687171
 40
0.8751959952878994
 40
0.9996936645472271
 40
1.0
 40
1.0
 40
1.0
 40
1.0
 10
4.744414335820785
 20
5.767527484376706
 30
0.0
 10
4.745665321873656
 20
5.765260338311694
 30
0.0
 10
4.748161900780292
 20
5.760735820207615
 30
0.0
 10
4.767437152366849
 20
5.755252919051246
 30
0.0
 10
4.794962921666406
 20
5.752220223875936
 30
0.0
 10
4.827751873595144
 20
5.752475030588218
 30
0.0
 10
4.860384697799085
 20
5.75613765346855
 30
0.0
 10
4.888461584641646
 20
5.763079609862979
 30
0.0
 10
4.905735072858647
 20
5.772445874436617
 30
0.0
 10
4.913169436675272
 20
5.779655209632457
 30
0.0
 10
4.911055026671019
 20
5.783163647994166
 30
0.0
 10
4.911049836783503
 20
5.783172259569225
 30
0.0
  0
SPLINE
  5
153
330
1F
100
AcDbEntity
  8
0
  6
Continuous
 62
     7
370
    15
100
AcDbSpline
210
0.0
220
0.0
230
1.0
 70
     8
 71
     3
 72
    13
 73
     9
 74
     0
 42
0.0000000001
 43
0.0000000001
 40
0.0
 40
0.0
 40
0.0
 40
0.0
 40
0.1670277813275331
 40
0.3333355414893184
 40
0.4996429886618013
 40
0.6670794060174933
 40
0.8330758141828347
 40
1.0
 40
1.0
 40
1.0
 40
1.0
 10
4.744414335820785
 20
5.798820355005294
 30
0.0
 10
4.745666094461705
 20
5.796553008881156
 30
0.0
 10
4.748164215678837
 20
5.792028090678769
 30
0.0
 10
4.767427944536779
 20
5.786548174285785
 30
0.0
 10
4.79499751865526
 20
5.783505265666382
 30
0.0
 10
4.827622240078167
 20
5.783796935548941
 30
0.0
 10
4.860864917846436
 20
5.78732305305145
 30
0.0
 10
4.878044131505228
 20
5.79228792695836
 30
0.0
 10
4.886657675710078
 20
5.794777281926409
 30
0.0
  0
LWPOLYLINE
  5
154
330
1F
100
AcDbEntity
  8
0
  6
Continuous
 62
     7
370
    15
100
AcDbPolyline
 90
        6
 70
   128
 43
0.0
 10
4.744398736439723
 20
4.99033505463743
 10
4.745779821808466
 20
4.986287258667304
 10
4.750766252548611
 20
4.98177569714435
 10
4.759171177458916
 20
4.977644303507903
 10
4.770621252793019
 20
4.974076586044533
 10
4.784607973297573
 20
4.971230992611196
  0
LINE
  5
155
330
1F
100
AcDbEntity
  8
0
  6
Continuous
 62
     7
370
    15
100
AcDbLine
 10
4.665076121404194
 20
6.509213754271963
 30
0.0
 11
4.675013281475529
 21
6.534118434495856
 31
0.0
  0
LWPOLYLINE
  5
156
330
1F
100
AcDbEntity
  8
0
  6
Continuous
 62
     7
370
    15
100
AcDbPolyline
 90
        3
 70
   128
 43
0.0
 10
4.724614698255092
 20
6.527848328870951
 10
4.724638404128917
 20
6.527689881013994
 10
4.724685634387921
 20
6.527572355043026
  0
ARC
  5
157
330
1F
100
AcDbEntity
  8
0
  6
Continuous
 62
     7
370
    15
100
AcDbCircle
 10
4.750736533615133
 20
6.529783032603016
 30
0.0
 40
0.0076865357778624
100
AcDbArc
 50
354.8804548510193
 51
46.49711686963594
  0
LWPOLYLINE
  5
158
330
1F
100
AcDbEntity
  8
0
  6
Continuous
 62
     7
370
    15
100
AcDbPolyline
 90
        3
 70
   128
 43
0.0
 10
4.729985327490968
 20
6.533402852926617
 10
4.730277511244224
 20
6.533557642817221
 10
4.730477926561024
 20
6.533606375920774
  0
LWPOLYLINE
  5
159
330
1F
100
AcDbEntity
  8
0
  6
Continuous
 62
     7
370
    15
100
AcDbPolyline
 90
        9
 70
   128
 43
0.0
 10
4.756027876248015
 20
6.535358382404221
 10
4.756790711908886
 20
6.535519503358234
 10
4.757265369530141
 20
6.535746563793465
 10
4.757379547492965
 20
6.536005004466381
 10
4.757115844493332
 20
6.536255488363172
 10
4.756514490513979
 20
6.536459855836733
 10
4.755666942867974
 20
6.536587021859319
 10
4.754702283192734
 20
6.536617611397439
 10
4.753767353085833
 20
6.536546972868602
  0
LWPOLYLINE
  5
15A
330
1F
100
AcDbEntity
  8
0
  6
Continuous
 62
     7
370
    15
100
AcDbPolyline
 90
        3
 70
   128
 43
0.0
 10
4.753767353085833
 20
6.536546972868602
 10
4.753306078091489
 20
6.536693054208621
 10
4.753062930841359
 20
6.536689396867792
  0
LWPOLYLINE
  5
15B
330
1F
100
AcDbEntity
  8
0
  6
Continuous
 62
     7
370
    15
100
AcDbPolyline
 90
        4
 70
   128
 43
0.0
 10
4.758392405366644
 20
6.529097131743733
 10
4.760751161417934
 20
6.529595314144715
 10
4.762218765015933
 20
6.530297409048644
 10
4.762595522477262
 20
6.530938069027721
  0
ARC
  5
15C
330
1F
100
AcDbEntity
  8
0
  6
Continuous
 62
     7
370
    15
100
AcDbCircle
 10
4.714214372162961
 20
6.441653203520123
 30
0.0
 40
0.0502420759579176
100
AcDbArc
 50
228.4710977762686
 51
244.0447296634606
  0
LINE
  5
15D
330
1F
100
AcDbEntity
  8
0
  6
Continuous
 62
     7
370
    15
100
AcDbLine
 10
4.907265480952388
 20
6.535414258032697
 30
0.0
 11
4.907271562982539
 21
6.536035892051188
 31
0.0
  0
LWPOLYLINE
  5
15E
330
1F
100
AcDbEntity
  8
0
  6
Continuous
 62
     7
370
    15
100
AcDbPolyline
 90
        5
 70
   128
 43
0.0
 10
4.934709573601622
 20
6.538425863064706
 10
4.937527504564377
 20
6.538147346958246
 10
4.939733161981035
 20
6.537601104379182
 10
4.940990631977468
 20
6.536870330119089
 10
4.941203289135416
 20
6.536387877198275
  0
LWPOLYLINE
  5
15F
330
1F
100
AcDbEntity
  8
0
  6
Continuous
 62
     7
370
    15
100
AcDbPolyline
 90
        5
 70
   128
 43
0.0
 10
4.907265480952388
 20
6.535414258032697
 10
4.904447552150213
 20
6.535692774718
 10
4.902241961711507
 20
6.536238998195246
 10
4.900984491715074
 20
6.536969772455337
 10
4.900771767579174
 20
6.537452244477972
  0
LINE
  5
160
330
1F
100
AcDbEntity
  8
0
  6
Continuous
 62
     7
370
    15
100
AcDbLine
 10
4.987100030080289
 20
6.535260678178612
 30
0.0
 11
4.990388051200093
 21
6.532566763690078
 31
0.0
  0
LWPOLYLINE
  5
161
330
1F
100
AcDbEntity
  8
0
  6
Continuous
 62
     7
370
    15
100
AcDbPolyline
 90
        4
 70
   128
 43
0.0
 10
4.775373596131323
 20
6.557821194990323
 10
4.777042292927814
 20
6.557152118305104
 10
4.77762824494902
 20
6.556362892115296
 10
4.777628181482009
 20
6.556353335778847
  0
ARC
  5
162
330
1F
100
AcDbEntity
  8
0
  6
Continuous
 62
     7
370
    15
100
AcDbCircle
 10
4.771496135641506
 20
6.558278659102737
 30
0.0
 40
0.0039043531172576
100
AcDbArc
 50
353.2713289273725
 51
66.73035204478336
  0
LINE
  5
163
330
1F
100
AcDbEntity
  8
0
  6
Continuous
 62
     7
370
    15
100
AcDbLine
 10
4.746563504356874
 20
6.559706501459891
 30
0.0
 11
4.746597182383508
 21
6.560392650242834
 31
0.0
  0
LWPOLYLINE
  5
164
330
1F
100
AcDbEntity
  8
0
  6
Continuous
 62
     7
370
    15
100
AcDbPolyline
 90
        3
 70
   128
 43
0.0
 10
4.858021495254154
 20
6.559434669398469
 10
4.857521934798255
 20
6.5597530145353
 10
4.857145164373452
 20
6.560390695788206
  0
LWPOLYLINE
  5
165
330
1F
100
AcDbEntity
  8
0
  6
Continuous
 62
     7
370
    15
100
AcDbPolyline
 90
        3
 70
   128
 43
0.0
 10
4.859783767271369
 20
6.565048566600655
 10
4.860046627645155
 20
6.565217293813311
 10
4.860200931882922
 20
6.565303055113838
  0
LWPOLYLINE
  5
166
330
1F
100
AcDbEntity
  8
0
  6
Continuous
 62
     7
370
    15
100
AcDbPolyline
 90
        4
 70
   128
 43
0.0
 10
4.746563504356874
 20
6.559706501459891
 10
4.744894807560384
 20
6.56037557814511
 10
4.744308820969912
 20
6.561164813596406
 10
4.744308919006189
 20
6.561174360671365
  0
LWPOLYLINE
  5
167
330
1F
100
AcDbEntity
  8
0
  6
Continuous
 62
     7
370
    15
100
AcDbPolyline
 90
        3
 70
   128
 43
0.0
 10
4.883031399554175
 20
6.56746571571149
 10
4.883671881620928
 20
6.567078395640656
 10
4.884048652045732
 20
6.56644071438775
  0
LINE
  5
168
330
1F
100
AcDbEntity
  8
0
  6
Continuous
 62
     7
370
    15
100
AcDbLine
 10
4.886657675710101
 20
5.794777281926414
 30
0.0
 11
4.872639390388437
 21
5.78710186496005
 31
0.0
  0
SPLINE
  5
169
330
1F
100
AcDbEntity
  8
0
  6
Continuous
 62
     7
370
    15
100
AcDbSpline
210
0.0
220
0.0
230
1.0
 70
     8
 71
     3
 72
    14
 73
    10
 74
     0
 42
0.0000000001
 43
0.0000000001
 40
0.0
 40
0.0
 40
0.0
 40
0.0
 40
0.0184412845249767
 40
0.1983101195872036
 40
0.3781789546494306
 40
0.5592753162996855
 40
0.7388055344219558
 40
0.9193449757748373
 40
1.0
 40
1.0
 40
1.0
 40
1.0
 10
4.768584124866885
 20
4.969689553167028
 30
0.0
 10
4.768735610325991
 20
4.969533745648197
 30
0.0
 10
4.770364623720924
 20
4.967858254570009
 30
0.0
 10
4.782276181617608
 20
4.96539061404918
 30
0.0
 10
4.802609951859362
 20
4.963493288884886
 30
0.0
 10
4.827844658444748
 20
4.964158122823497
 30
0.0
 10
4.852374037945749
 20
4.967469979485424
 30
0.0
 10
4.870733701012619
 20
4.971959848651705
 30
0.0
 10
4.876894042933958
 20
4.975683490593944
 30
0.0
 10
4.878796313434986
 20
4.976833325183251
 30
0.0
  0
SPLINE
  5
16A
330
1F
100
AcDbEntity
  8
0
  6
Continuous
 62
     7
370
    15
100
AcDbSpline
210
0.0
220
0.0
230
1.0
 70
     8
 71
     3
 72
    14
 73
    10
 74
     0
 42
0.0000000001
 43
0.0000000001
 40
0.0
 40
0.0
 40
0.0
 40
0.0
 40
0.0091466318750405
 40
0.1925973638146607
 40
0.3760480369788533
 40
0.5607507403951953
 40
0.7438561121980208
 40
0.9279908640591278
 40
1.0
 40
1.0
 40
1.0
 40
1.0
 10
4.768838083654803
 20
5.000744063247122
 30
0.0
 10
4.768914896663482
 20
5.00066856567575
 30
0.0
 10
4.770532320779843
 20
4.999078840253413
 30
0.0
 10
4.78233522088041
 20
4.996688224625384
 30
0.0
 10
4.802592231826049
 20
4.994785276012603
 30
0.0
 10
4.827856050220793
 20
4.995449740646416
 30
0.0
 10
4.852346291801008
 20
4.998768689422517
 30
0.0
 10
4.870389223500198
 20
5.003133770987855
 30
0.0
 10
4.876352554477338
 20
5.006704988031161
 30
0.0
 10
4.878029011857127
 20
5.007708955979615
 30
0.0
  0
SPLINE
  5
16B
330
1F
100
AcDbEntity
  8
0
  6
Continuous
 62
     7
370
    15
100
AcDbSpline
210
0.0
220
0.0
230
1.0
 70
     8
 71
     3
 72
    14
 73
    10
 74
     0
 42
0.0000000001
 43
0.0000000001
 40
0.0
 40
0.0
 40
0.0
 40
0.0
 40
0.0201493580149686
 40
0.2011248715414786
 40
0.3821003850679887
 40
0.564310977781835
 40
0.7449457909609157
 40
0.9265960952350264
 40
1.0
 40
1.0
 40
1.0
 40
1.0
 10
4.768541639239573
 20
5.03231530066405
 30
0.0
 10
4.768705041373792
 20
5.032146003381388
 30
0.0
 10
4.770336072656779
 20
5.030456128487987
 30
0.0
 10
4.782267420506662
 20
5.027975630824873
 30
0.0
 10
4.802610969912016
 20
5.026079646042667
 30
0.0
 10
4.827849444130975
 20
5.02674269182511
 30
0.0
 10
4.852354055372641
 20
5.030060325624782
 30
0.0
 10
4.870469589974837
 20
5.034454607926591
 30
0.0
 10
4.87647901335207
 20
5.0380615230002
 30
0.0
 10
4.878208508987279
 20
5.039099583307285
 30
0.0
  0
LINE
  5
16C
330
1F
100
AcDbEntity
  8
0
  6
Continuous
 62
     7
370
    15
100
AcDbLine
 10
4.874197047260558
 20
5.255968736300181
 30
0.0
 11
4.878730961318827
 21
5.258434374078894
 31
0.0
  0
SPLINE
  5
16D
330
1F
100
AcDbEntity
  8
0
  6
Continuous
 62
     7
370
    15
100
AcDbSpline
210
0.0
220
0.0
230
1.0
 70
     8
 71
     3
 72
    14
 73
    10
 74
     0
 42
0.0000000001
 43
0.0000000001
 40
0.0
 40
0.0
 40
0.0
 40
0.0
 40
0.011140954150698
 40
0.1946071706396578
 40
0.3780733871286177
 40
0.5627916807696152
 40
0.7459125079709233
 40
0.9300628021175294
 40
1.0
 40
1.0
 40
1.0
 40
1.0
 10
4.768785702575238
 20
5.28242986661252
 30
0.0
 10
4.768878424633103
 20
5.282337803607204
 30
0.0
 10
4.770498068434979
 20
5.280729671956837
 30
0.0
 10
4.78232276296435
 20
5.27832391715491
 30
0.0
 10
4.802595212780271
 20
5.276422193734814
 30
0.0
 10
4.827856680447752
 20
5.277085919166434
 30
0.0
 10
4.85234085596807
 20
5.28040658478716
 30
0.0
 10
4.870319607370377
 20
5.284746138575688
 30
0.0
 10
4.876243058818273
 20
5.288286525595417
 30
0.0
 10
4.877873479870291
 20
5.289261011767885
 30
0.0
  0
SPLINE
  5
16E
330
1F
100
AcDbEntity
  8
0
  6
Continuous
 62
     7
370
    15
100
AcDbSpline
210
0.0
220
0.0
230
1.0
 70
     8
 71
     3
 72
    14
 73
    10
 74
     0
 42
0.0000000001
 43
0.0000000001
 40
0.0
 40
0.0
 40
0.0
 40
0.0
 40
0.020887372324084
 40
0.2011674210101912
 40
0.3814474696962984
 40
0.562957851324611
 40
0.7428985089294328
 40
0.9238506970369474
 40
1.0
 40
1.0
 40
1.0
 40
1.0
 10
4.768519830354193
 20
5.313972422784335
 30
0.0
 10
4.768689290500042
 20
5.313796179896224
 30
0.0
 10
4.770321370398628
 20
5.312098775037318
 30
0.0
 10
4.78226261355519
 20
5.309611937595267
 30
0.0
 10
4.802612807836571
 20
5.307716194098896
 30
0.0
 10
4.827846930316041
 20
5.308379732887675
 30
0.0
 10
4.852362215810297
 20
5.311695162995396
 30
0.0
 10
4.870573048882931
 20
5.316126833768767
 30
0.0
 10
4.876641675354187
 20
5.319779652133409
 30
0.0
 10
4.878439104353159
 20
5.320861557847607
 30
0.0
  0
SPLINE
  5
16F
330
1F
100
AcDbEntity
  8
0
  6
Continuous
 62
     7
370
    15
100
AcDbSpline
210
0.0
220
0.0
230
1.0
 70
     8
 71
     3
 72
    14
 73
    10
 74
     0
 42
0.0000000001
 43
0.0000000001
 40
0.0
 40
0.0
 40
0.0
 40
0.0
 40
0.0168649742801243
 40
0.1972514562432192
 40
0.3776379382063141
 40
0.5592554794724502
 40
0.7393023699854156
 40
0.9203613881858863
 40
1.0
 40
1.0
 40
1.0
 40
1.0
 10
4.768627669177955
 20
5.34516406270315
 30
0.0
 10
4.768766777592126
 20
5.345022058343629
 30
0.0
 10
4.770393779022152
 20
5.343361186157084
 30
0.0
 10
4.782285807714003
 20
5.340906795556234
 30
0.0
 10
4.802607139968299
 20
5.339008512057504
 30
0.0
 10
4.827846202916997
 20
5.339673378561855
 30
0.0
 10
4.852370678363545
 20
5.342986063637714
 30
0.0
 10
4.870690946416773
 20
5.347460520101821
 30
0.0
 10
4.876826863838676
 20
5.351165279612962
 30
0.0
 10
4.878701280363518
 20
5.352297019493204
 30
0.0
  0
SPLINE
  5
170
330
1F
100
AcDbEntity
  8
0
  6
Continuous
 62
     7
370
    15
100
AcDbSpline
210
0.0
220
0.0
230
1.0
 70
     8
 71
     3
 72
    14
 73
    10
 74
     0
 42
0.0000000001
 43
0.0000000001
 40
0.0
 40
0.0
 40
0.0
 40
0.0
 40
0.0118448097858366
 40
0.1952999869462713
 40
0.3787551641067059
 40
0.5634623430805615
 40
0.7465721517357308
 40
0.9307113653922339
 40
1.0
 40
1.0
 40
1.0
 40
1.0
 10
4.76876716048545
 20
5.376326077695972
 30
0.0
 10
4.768865449521738
 20
5.376228192516261
 30
0.0
 10
4.770486062081275
 20
5.374614238838214
 30
0.0
 10
4.782318355415692
 20
5.372202277193479
 30
0.0
 10
4.802596284097343
 20
5.370301257640788
 30
0.0
 10
4.827856841728925
 20
5.37096467450431
 30
0.0
 10
4.852339162038103
 20
5.374285864564391
 30
0.0
 10
4.87029803048369
 20
5.378617599593276
 30
0.0
 10
4.876209127693144
 20
5.382148279737752
 30
0.0
 10
4.877825255744903
 20
5.383113588041963
 30
0.0
  0
SPLINE
  5
171
330
1F
100
AcDbEntity
  8
0
  6
Continuous
 62
     7
370
    15
100
AcDbSpline
210
0.0
220
0.0
230
1.0
 70
     8
 71
     3
 72
    14
 73
    10
 74
     0
 42
0.0000000001
 43
0.0000000001
 40
0.0
 40
0.0
 40
0.0
 40
0.0
 40
0.0210180629200563
 40
0.2011030198007557
 40
0.3811880920784176
 40
0.5625021085754306
 40
0.7422480417634515
 40
0.9230045267476569
 40
1.0
 40
1.0
 40
1.0
 40
1.0
 10
4.768515716611598
 20
5.40785515074424
 30
0.0
 10
4.768686315748468
 20
5.407677611528129
 30
0.0
 10
4.770318626096497
 20
5.405978897777527
 30
0.0
 10
4.782261692123983
 20
5.40349057757755
 30
0.0
 10
4.802613216921725
 20
5.401595109491193
 30
0.0
 10
4.827846204929691
 20
5.402258801241519
 30
0.0
 10
4.852364674860548
 20
5.405573346427851
 30
0.0
 10
4.870604861724281
 20
5.410016736314323
 30
0.0
 10
4.876691644176877
 20
5.413683583348006
 30
0.0
 10
4.878509883303858
 20
5.414778941166559
 30
0.0
  0
SPLINE
  5
172
330
1F
100
AcDbEntity
  8
0
  6
Continuous
 62
     7
370
    15
100
AcDbSpline
210
0.0
220
0.0
230
1.0
 70
     8
 71
     3
 72
    14
 73
    10
 74
     0
 42
0.0000000001
 43
0.0000000001
 40
0.0
 40
0.0
 40
0.0
 40
0.0
 40
0.0163133821107461
 40
0.1968815225453328
 40
0.3774495472734111
 40
0.5592499285016373
 40
0.7394781353864804
 40
0.9207193729814415
 40
1.0
 40
1.0
 40
1.0
 40
1.0
 10
4.768642862370146
 20
5.439028720550113
 30
0.0
 10
4.768777611697132
 20
5.43889148666888
 30
0.0
 10
4.770403862616693
 20
5.437235250377811
 30
0.0
 10
4.782289218376132
 20
5.434786213825553
 30
0.0
 10
4.802606146258985
 20
5.432887175305087
 30
0.0
 10
4.827846755186274
 20
5.433552103360351
 30
0.0
 10
4.852369481292909
 20
5.436865299070311
 30
0.0
 10
4.870675966332581
 20
5.441334053893961
 30
0.0
 10
4.876803319204761
 20
5.445032377891567
 30
0.0
 10
4.878667962613447
 20
5.446157832163449
 30
0.0
  0
SPLINE
  5
173
330
1F
100
AcDbEntity
  8
0
  6
Continuous
 62
     7
370
    15
100
AcDbSpline
210
0.0
220
0.0
230
1.0
 70
     8
 71
     3
 72
    14
 73
    10
 74
     0
 42
0.0000000001
 43
0.0000000001
 40
0.0
 40
0.0
 40
0.0
 40
0.0
 40
0.0125582674090089
 40
0.195994460068162
 40
0.3794307702717222
 40
0.5641188943552031
 40
0.7472097543642374
 40
0.9313299717232013
 40
1.0
 40
1.0
 40
1.0
 40
1.0
 10
4.768748389374277
 20
5.470222559248234
 30
0.0
 10
4.768852277948191
 20
5.470118758154277
 30
0.0
 10
4.770473646906848
 20
5.468498754478457
 30
0.0
 10
4.782314017796585
 20
5.466080519987198
 30
0.0
 10
4.802597338975388
 20
5.464180347518158
 30
0.0
 10
4.827856982784225
 20
5.464843444271277
 30
0.0
 10
4.852337546071372
 20
5.468165060354971
 30
0.0
 10
4.870277580845616
 20
5.472489181342696
 30
0.0
 10
4.87617691814697
 20
5.476010940394741
 30
0.0
 10
4.877779462811141
 20
5.476967620084179
 30
0.0
  0
SPLINE
  5
174
330
1F
100
AcDbEntity
  8
0
  6
Continuous
 62
     7
370
    15
100
AcDbSpline
210
0.0
220
0.0
230
1.0
 70
     8
 71
     3
 72
    14
 73
    10
 74
     0
 42
0.0000000001
 43
0.0000000001
 40
0.0
 40
0.0
 40
0.0
 40
0.0
 40
0.0210877695797819
 40
0.2009966289838085
 40
0.3809053731037883
 40
0.5620419742077694
 40
0.7416121412098013
 40
0.9221916401967554
 40
0.9999999999999998
 40
0.9999999999999998
 40
0.9999999999999998
 40
0.9999999999999998
 10
4.76851330108417
 20
5.50173627021324
 30
0.0
 10
4.768684567736421
 20
5.501557944888471
 30
0.0
 10
4.770316984082286
 20
5.499858249289786
 30
0.0
 10
4.782261121440483
 20
5.497369741568436
 30
0.0
 10
4.802613531084885
 20
5.49547379766618
 30
0.0
 10
4.827845551813052
 20
5.496137683510442
 30
0.0
 10
4.852366988070843
 20
5.499451933529286
 30
0.0
 10
4.870635305938777
 20
5.503906067113709
 30
0.0
 10
4.876739543041056
 20
5.507586310843359
 30
0.0
 10
4.87857771252395
 20
5.508694542977876
 30
0.0
  0
SPLINE
  5
175
330
1F
100
AcDbEntity
  8
0
  6
Continuous
 62
     7
370
    15
100
AcDbSpline
210
0.0
220
0.0
230
1.0
 70
     8
 71
     3
 72
    14
 73
    10
 74
     0
 42
0.0000000001
 43
0.0000000001
 40
0.0
 40
0.0
 40
0.0
 40
0.0
 40
0.015698447309904
 40
0.1964681486136744
 40
0.3772379657531862
 40
0.5592413999770957
 40
0.739670788504486
 40
0.9211145712906331
 40
1.0
 40
1.0
 40
1.0
 40
1.0
 10
4.768659758098666
 20
5.5328917340179
 30
0.0
 10
4.768789635602068
 20
5.532759890327138
 30
0.0
 10
4.77041506976995
 20
5.531109849063877
 30
0.0
 10
4.782293058302622
 20
5.528664984357051
 30
0.0
 10
4.802605021510655
 20
5.526766216223284
 30
0.0
 10
4.827847352752184
 20
5.527431103245
 30
0.0
 10
4.852368186041429
 20
5.530744190315332
 30
0.0
 10
4.8706594450992
 20
5.535207520470191
 30
0.0
 10
4.876777354444352
 20
5.538898250205718
 30
0.0
 10
4.878631214403919
 20
5.540016621808218
 30
0.0
  0
SPLINE
  5
176
330
1F
100
AcDbEntity
  8
0
  6
Continuous
 62
     7
370
    15
100
AcDbSpline
210
0.0
220
0.0
230
1.0
 70
     8
 71
     3
 72
    14
 73
    10
 74
     0
 42
0.0000000001
 43
0.0000000001
 40
0.0
 40
0.0
 40
0.0
 40
0.0
 40
0.0132761805342743
 40
0.1966857315882733
 40
0.3800951651150123
 40
0.5647563474380042
 40
0.747820615766066
 40
0.9319138558014261
 40
1.0
 40
1.0
 40
1.0
 40
1.0
 10
4.768729475664884
 20
5.564119130670285
 30
0.0
 10
4.768838972050879
 20
5.564009348003721
 30
0.0
 10
4.770461153726547
 20
5.56238292510047
 30
0.0
 10
4.782309640880418
 20
5.559959307118661
 30
0.0
 10
4.80259841904095
 20
5.558059199307962
 30
0.0
 10
4.827857108734902
 20
5.558722051024807
 30
0.0
 10
4.852336015311897
 20
5.562044579351738
 30
0.0
 10
4.870258357251515
 20
5.566361196486328
 30
0.0
 10
4.876146723450581
 20
5.569874568327134
 30
0.0
 10
4.877736528863666
 20
5.570823146826138
 30
0.0
  0
SPLINE
  5
177
330
1F
100
AcDbEntity
  8
0
  6
Continuous
 62
     7
370
    15
100
AcDbSpline
210
0.0
220
0.0
230
1.0
 70
     8
 71
     3
 72
    14
 73
    10
 74
     0
 42
0.0000000001
 43
0.0000000001
 40
0.0
 40
0.0
 40
0.0
 40
0.0
 40
0.0210954036401359
 40
0.2008467686781931
 40
0.38059824889945
 40
0.5615763968269402
 40
0.7409893661844546
 40
0.9214110153781486
 40
1.0
 40
1.0
 40
1.0
 40
1.0
 10
4.768512592414227
 20
5.595615822140065
 30
0.0
 10
4.768684055599005
 20
5.595437308310668
 30
0.0
 10
4.770316535697391
 20
5.593737699883615
 30
0.0
 10
4.782260934960119
 20
5.591248279359495
 30
0.0
 10
4.802613723378298
 20
5.589352853002275
 30
0.0
 10
4.827844937380169
 20
5.590016861253776
 30
0.0
 10
4.852369204512579
 20
5.593330105073611
 30
0.0
 10
4.870664461494092
 20
5.597795143414844
 30
0.0
 10
4.876785330422301
 20
5.601488223406997
 30
0.0
 10
4.87864252395519
 20
5.602608777426092
 30
0.0
  0
SPLINE
  5
178
330
1F
100
AcDbEntity
  8
0
  6
Continuous
 62
     7
370
    15
100
AcDbSpline
210
0.0
220
0.0
230
1.0
 70
     8
 71
     3
 72
    14
 73
    10
 74
     0
 42
0.0000000001
 43
0.0000000001
 40
0.0
 40
0.0
 40
0.0
 40
0.0
 40
0.0150199179683891
 40
0.1960109466717041
 40
0.3770018593975275
 40
0.5592280147866143
 40
0.7398781982886515
 40
0.921544017383554
 40
1.0
 40
1.0
 40
1.0
 40
1.0
 10
4.768678339078877
 20
5.626753022796455
 30
0.0
 10
4.768802829644672
 20
5.626627083415598
 30
0.0
 10
4.770427439959088
 20
5.624983565966505
 30
0.0
 10
4.782297256497689
 20
5.622544371720243
 30
0.0
 10
4.802603803477142
 20
5.620644878845832
 30
0.0
 10
4.82784801844476
 20
5.621309861735474
 30
0.0
 10
4.852366749269422
 20
5.624623292018014
 30
0.0
 10
4.870641517039217
 20
5.629080108325371
 30
0.0
 10
4.876749160510763
 20
5.632762965270355
 30
0.0
 10
4.878591302026308
 20
5.633873760899763
 30
0.0
  0
SPLINE
  5
179
330
1F
100
AcDbEntity
  8
0
  6
Continuous
 62
     7
370
    15
100
AcDbSpline
210
0.0
220
0.0
230
1.0
 70
     8
 71
     3
 72
    14
 73
    10
 74
     0
 42
0.0000000001
 43
0.0000000001
 40
0.0
 40
0.0
 40
0.0
 40
0.0
 40
0.0139930253436639
 40
0.1973680966782899
 40
0.3807430505077503
 40
0.5653695178133999
 40
0.7483993713328387
 40
0.9324581215054726
 40
1.0
 40
1.0
 40
1.0
 40
1.0
 10
4.768710536028542
 20
5.658015883550802
 30
0.0
 10
4.76882561527948
 20
5.657900053717614
 30
0.0
 10
4.77044877911767
 20
5.656266303105912
 30
0.0
 10
4.782305253254813
 20
5.653838107403295
 30
0.0
 10
4.802599504457023
 20
5.651938013972191
 30
0.0
 10
4.82785719319286
 20
5.652600793576267
 30
0.0
 10
4.852334617495922
 20
5.655923595244768
 30
0.0
 10
4.870240572437562
 20
5.660234135939087
 30
0.0
 10
4.876118740727371
 20
5.663739360925955
 30
0.0
 10
4.877696727755878
 20
5.664680334251074
 30
0.0
  0
SPLINE
  5
17A
330
1F
100
AcDbEntity
  8
0
  6
Continuous
 62
     7
370
    15
100
AcDbSpline
210
0.0
220
0.0
230
1.0
 70
     8
 71
     3
 72
    14
 73
    10
 74
     0
 42
0.0000000001
 43
0.0000000001
 40
0.0
 40
0.0
 40
0.0
 40
0.0
 40
0.0210410193847802
 40
0.2006702831477775
 40
0.380299662015733
 40
0.5611548753406668
 40
0.7404459732881019
 40
0.9207450658969886
 40
1.0
 40
1.0
 40
1.0
 40
1.0
 10
4.768513681346091
 20
5.689493549816658
 30
0.0
 10
4.768684842684143
 20
5.689315399829556
 30
0.0
 10
4.77031722529559
 20
5.687616365780849
 30
0.0
 10
4.782261140665754
 20
5.685127033080585
 30
0.0
 10
4.802613791308774
 20
5.683231639165836
 30
0.0
 10
4.827844456088931
 20
5.683895765473523
 30
0.0
 10
4.852371046812914
 20
5.687208507006673
 30
0.0
 10
4.870689205729005
 20
5.691682419350979
 30
0.0
 10
4.876824176802635
 20
5.695386507631484
 30
0.0
 10
4.878697492868365
 20
5.696517552586949
 30
0.0
  0
SPLINE
  5
17B
330
1F
100
AcDbEntity
  8
0
  6
Continuous
 62
     7
370
    15
100
AcDbSpline
210
0.0
220
0.0
230
1.0
 70
     8
 71
     3
 72
    14
 73
    10
 74
     0
 42
0.0000000001
 43
0.0000000001
 40
0.0
 40
0.0
 40
0.0
 40
0.0
 40
0.0142772809604258
 40
0.1955086198678236
 40
0.3767398426437411
 40
0.5592079481720395
 40
0.7400981050070557
 40
0.9220050132551765
 40
1.0
 40
1.0
 40
1.0
 40
1.0
 10
4.768698622595415
 20
5.720612968325686
 30
0.0
 10
4.768817195913126
 20
5.720493380893252
 30
0.0
 10
4.770440901838856
 20
5.7188557879977
 30
0.0
 10
4.782301899743885
 20
5.71642388261046
 30
0.0
 10
4.802602450659128
 20
5.71452353223704
 30
0.0
 10
4.827848754632445
 20
5.71518853242828
 30
0.0
 10
4.852365186529344
 20
5.71850275246963
 30
0.0
 10
4.870622262168056
 20
5.722952192584575
 30
0.0
 10
4.876718937872793
 20
5.726626659726551
 30
0.0
 10
4.878548513377777
 20
5.727729345091891
 30
0.0
  0
SPLINE
  5
17C
330
1F
100
AcDbEntity
  8
0
  6
Continuous
 62
     7
370
    15
100
AcDbSpline
210
0.0
220
0.0
230
1.0
 70
     8
 71
     3
 72
    14
 73
    10
 74
     0
 42
0.0000000001
 43
0.0000000001
 40
0.0
 40
0.0
 40
0.0
 40
0.0
 40
0.0147029231488083
 40
0.1980359332531108
 40
0.3813690608357017
 40
0.5659532981549775
 40
0.7489411698582053
 40
0.9329578198995541
 40
1.0
 40
1.0
 40
1.0
 40
1.0
 10
4.768691799486636
 20
5.75191222459333
 30
0.0
 10
4.768812366068046
 20
5.751790551882307
 30
0.0
 10
4.77043629589664
 20
5.750151723423848
 30
0.0
 10
4.782301033618477
 20
5.747715923743834
 30
0.0
 10
4.802600547610269
 20
5.745817324444237
 30
0.0
 10
4.827857246401497
 20
5.746479677230111
 30
0.0
 10
4.852333343089592
 20
5.749802681589668
 30
0.0
 10
4.870224372289071
 20
5.75410722335662
 30
0.0
 10
4.876093244121694
 20
5.7576053604748
 30
0.0
 10
4.877660454333606
 20
5.758539495070108
 30
0.0
  0
SPLINE
  5
17D
330
1F
100
AcDbEntity
  8
0
  6
Continuous
 62
     7
370
    15
100
AcDbSpline
210
0.0
220
0.0
230
1.0
 70
     8
 71
     3
 72
    13
 73
     9
 74
     0
 42
0.0000000001
 43
0.0000000001
 40
0.0
 40
0.0
 40
0.0
 40
0.0
 40
0.0227382882416585
 40
0.2178523540388558
 40
0.4129662948086411
 40
0.609411866322791
 40
0.8041586147359153
 40
1.0
 40
1.0
 40
1.0
 40
1.0
 10
4.768516563558603
 20
5.783369791848543
 30
0.0
 10
4.768686952811029
 20
5.783192498975123
 30
0.0
 10
4.77031942836722
 20
5.781493880793386
 30
0.0
 10
4.782249478202054
 20
5.779009154083361
 30
0.0
 10
4.802657304211231
 20
5.777100476237594
 30
0.0
 10
4.827681495923353
 20
5.777811227265816
 30
0.0
 10
4.852974677950164
 20
5.780951687121345
 30
0.0
 10
4.866072250774307
 20
5.785047979013572
 30
0.0
 10
4.872639390388427
 20
5.787101864960047
 30
0.0
  0
SPLINE
  5
17E
330
1F
100
AcDbEntity
  8
0
  6
Continuous
 62
     7
370
    15
100
AcDbSpline
210
0.0
220
0.0
230
1.0
 70
     8
 71
     3
 72
    10
 73
     6
 74
     0
 42
0.0000000001
 43
0.0000000001
 40
0.0
 40
0.0
 40
0.0
 40
0.0
 40
0.2046002362470912
 40
0.6135782503271591
 40
1.0
 40
1.0
 40
1.0
 40
1.0
 10
4.757888147811795
 20
4.975600311769546
 30
0.0
 10
4.758133975872357
 20
4.975198722245113
 30
0.0
 10
4.758871192769309
 20
4.973994390313387
 30
0.0
 10
4.76811978537926
 20
4.972129157582924
 30
0.0
 10
4.77921680859804
 20
4.97152466680474
 30
0.0
 10
4.784607973297573
 20
4.971230992611196
 30
0.0
  0
SPLINE
  5
17F
330
1F
100
AcDbEntity
  8
0
  6
Continuous
 62
     7
370
    15
100
AcDbSpline
210
0.0
220
0.0
230
1.0
 70
     8
 71
     3
 72
    18
 73
    14
 74
     0
 42
0.0000000001
 43
0.0000000001
 40
0.0
 40
0.0
 40
0.0
 40
0.0
 40
0.0499822495505848
 40
0.1582036206508218
 40
0.2656824770098466
 40
0.371020199687715
 40
0.4751133109145635
 40
0.5775725349328657
 40
0.6782762056131255
 40
0.7778623223040641
 40
0.875174817835631
 40
0.9718934814777329
 40
1.0
 40
1.0
 40
1.0
 40
1.0
 10
4.900507623821405
 20
4.988222417499423
 30
0.0
 10
4.901536289693427
 20
4.987040390456777
 30
0.0
 10
4.904792218885432
 20
4.983299043087754
 30
0.0
 10
4.901003472456793
 20
4.976736202855142
 30
0.0
 10
4.889794514447943
 20
4.969521734811347
 30
0.0
 10
4.871358753564762
 20
4.963795532038854
 30
0.0
 10
4.848576626422969
 20
4.959991630792318
 30
0.0
 10
4.824057036169675
 20
4.9584582106749
 30
0.0
 10
4.800758702243123
 20
4.959089315579269
 30
0.0
 10
4.781139322463367
 20
4.961705844743782
 30
0.0
 10
4.768060063979845
 20
4.965754983813812
 30
0.0
 10
4.761994672934132
 20
4.969539997628464
 30
0.0
 10
4.763044625033659
 20
4.971688054719876
 30
0.0
 10
4.76328103965466
 20
4.97217172640679
 30
0.0
  0
LINE
  5
180
330
1F
100
AcDbEntity
  8
0
  6
Continuous
 62
     7
370
    15
100
AcDbLine
 10
4.872639390388437
 20
5.78710186496005
 30
0.0
 11
4.886657675710101
 21
5.771915139529357
 31
0.0
  0
LWPOLYLINE
  5
181
330
1F
100
AcDbEntity
  8
0
  6
Continuous
 62
     7
370
    15
100
AcDbPolyline
 90
       12
 70
   128
 43
0.0
 10
4.88776700650667
 20
4.965607042490526
 10
4.887303646553498
 20
4.965197834628658
 10
4.879993453041222
 20
4.961079759157076
 10
4.868807297034734
 20
4.957642776934695
 10
4.854574806607102
 20
4.955141791975948
 10
4.838351492434127
 20
4.953762304583294
 10
4.82134058128357
 20
4.953606619544062
 10
4.804803683901698
 20
4.95468628738125
 10
4.789967324310575
 20
4.956921216480695
 10
4.77793175796883
 20
4.960145677719121
 10
4.769589667019751
 20
4.964120511684536
 10
4.767697150973565
 20
4.96560703959631
  0
SPLINE
  5
182
330
1F
100
AcDbEntity
  8
0
  6
Continuous
 62
     7
370
    15
100
AcDbSpline
210
0.0
220
0.0
230
1.0
 70
     8
 71
     3
 72
     9
 73
     5
 74
     0
 42
0.0000000001
 43
0.0000000001
 40
0.0
 40
0.0
 40
0.0
 40
0.0
 40
0.4089683933811508
 40
0.9999999999999998
 40
0.9999999999999998
 40
0.9999999999999998
 40
0.9999999999999998
 10
4.627443789947641
 20
7.904895962228058
 30
0.0
 10
4.629497650511013
 20
7.908701298758844
 30
0.0
 10
4.63451970257326
 20
7.918006019104897
 30
0.0
 10
4.637944809059519
 20
7.927199793367881
 30
0.0
 10
4.639969155248935
 20
7.932633604541422
 30
0.0
  0
LINE
  5
183
330
1F
100
AcDbEntity
  8
0
  6
Continuous
 62
     7
370
    15
100
AcDbLine
 10
4.627443789947641
 20
7.904895962228058
 30
0.0
 11
4.571347210046289
 21
7.845738947324448
 31
0.0
  0
LINE
  5
184
330
1F
100
AcDbEntity
  8
0
  6
Continuous
 62
     7
370
    15
100
AcDbLine
 10
4.536849416491829
 20
7.823887963691823
 30
0.0
 11
4.571347210046289
 21
7.845738947324448
 31
0.0
  0
LINE
  5
185
330
1F
100
AcDbEntity
  8
0
  6
Continuous
 62
     7
370
    15
100
AcDbLine
 10
4.536849416491829
 20
7.823887963691823
 30
0.0
 11
4.470433543537028
 21
7.841681510075773
 31
0.0
  0
SPLINE
  5
186
330
1F
100
AcDbEntity
  8
0
  6
Continuous
 62
     7
370
    15
100
AcDbSpline
210
0.0
220
0.0
230
1.0
 70
     8
 71
     3
 72
     9
 73
     5
 74
     0
 42
0.0000000001
 43
0.0000000001
 40
0.0
 40
0.0
 40
0.0
 40
0.0
 40
0.4089684268153887
 40
1.0
 40
1.0
 40
1.0
 40
1.0
 10
4.482958869947899
 20
7.869419160492938
 30
0.0
 10
4.480905015825846
 20
7.865613822502687
 30
0.0
 10
4.475882979924329
 20
7.856309099348666
 30
0.0
 10
4.472457883603711
 20
7.847115322481237
 30
0.0
 10
4.470433543537028
 20
7.841681510075773
 30
0.0
  0
LINE
  5
187
330
1F
100
AcDbEntity
  8
0
  6
Continuous
 62
     7
370
    15
100
AcDbLine
 10
4.539055449849249
 20
7.928576175396548
 30
0.0
 11
4.482958869947899
 21
7.869419160492938
 31
0.0
  0
LINE
  5
188
330
1F
100
AcDbEntity
  8
0
  6
Continuous
 62
     7
370
    15
100
AcDbLine
 10
4.573553282294133
 20
7.950427150925372
 30
0.0
 11
4.539055449849249
 21
7.928576175396548
 31
0.0
  0
LINE
  5
189
330
1F
100
AcDbEntity
  8
0
  6
Continuous
 62
     7
370
    15
100
AcDbLine
 10
4.639969155248935
 20
7.932633604541422
 30
0.0
 11
4.573553282294133
 21
7.950427150925372
 31
0.0
  0
LINE
  5
18A
330
1F
100
AcDbEntity
  8
0
  6
Continuous
 62
     7
370
    15
100
AcDbLine
 10
4.674466953124554
 20
7.630008943029448
 30
0.0
 11
4.730563533025905
 21
7.68916595793306
 31
0.0
  0
ARC
  5
18B
330
1F
100
AcDbEntity
  8
0
  6
Continuous
 62
     7
370
    15
100
AcDbCircle
 10
4.628889022663952
 20
7.706074389568519
 30
0.0
 40
0.0886752496599799
100
AcDbArc
 50
269.0661497801414
 51
300.9297723680099
  0
LINE
  5
18C
330
1F
100
AcDbEntity
  8
0
  6
Continuous
 62
     7
370
    15
100
AcDbLine
 10
4.571347210046289
 20
7.64651014536928
 30
0.0
 11
4.627443789947641
 21
7.617410917920634
 31
0.0
  0
ARC
  5
18D
330
1F
100
AcDbEntity
  8
0
  6
Continuous
 62
     7
370
    15
100
AcDbCircle
 10
4.668259164906769
 20
7.723047100078939
 30
0.0
 40
0.1234902118838091
100
AcDbArc
 50
192.7955348990603
 51
218.3001837210214
  0
LINE
  5
18E
330
1F
100
AcDbEntity
  8
0
  6
Continuous
 62
     7
370
    15
100
AcDbLine
 10
4.547835632778991
 20
7.783953656126271
 30
0.0
 11
4.547835632778991
 21
7.695697413774014
 31
0.0
  0
ARC
  5
18F
330
1F
100
AcDbEntity
  8
0
  6
Continuous
 62
     7
370
    15
100
AcDbCircle
 10
4.761729098285998
 20
7.737925476132801
 30
0.0
 40
0.2187898716579655
100
AcDbArc
 50
150.4770749794186
 51
167.8556010533164
  0
ARC
  5
190
330
1F
100
AcDbEntity
  8
0
  6
Continuous
 62
     7
370
    15
100
AcDbCircle
 10
4.673021720408235
 20
7.828830515689012
 30
0.0
 40
0.0886752496599549
100
AcDbArc
 50
89.06614978013564
 51
120.9297723680134
  0
LINE
  5
191
330
1F
100
AcDbEntity
  8
0
  6
Continuous
 62
     7
370
    15
100
AcDbLine
 10
4.730563533025905
 20
7.888394759888226
 30
0.0
 11
4.674466953124554
 21
7.917493987336873
 31
0.0
  0
ARC
  5
192
330
1F
100
AcDbEntity
  8
0
  6
Continuous
 62
     7
370
    15
100
AcDbCircle
 10
4.633651578165444
 20
7.811857805178578
 30
0.0
 40
0.1234902118837872
100
AcDbArc
 50
12.79553489905679
 51
38.30018372102238
  0
LINE
  5
193
330
1F
100
AcDbEntity
  8
0
  6
Continuous
 62
     7
370
    15
100
AcDbLine
 10
4.754075110293203
 20
7.750951249131235
 30
0.0
 11
4.754075110293203
 21
7.839207491483493
 31
0.0
  0
ARC
  5
194
330
1F
100
AcDbEntity
  8
0
  6
Continuous
 62
     7
370
    15
100
AcDbCircle
 10
4.540181644786209
 20
7.796979429124697
 30
0.0
 40
0.2187898716579495
100
AcDbArc
 50
330.4770749794198
 51
347.8556010533185
  0
LINE
  5
195
330
1F
100
AcDbEntity
  8
0
  6
Continuous
 62
     7
370
    15
100
AcDbLine
 10
4.547835632778991
 20
7.783953656126271
 30
0.0
 11
4.536849416491829
 21
7.823887963691823
 31
0.0
  0
SPLINE
  5
196
330
1F
100
AcDbEntity
  8
0
  6
Continuous
 62
     7
370
    15
100
AcDbSpline
210
0.0
220
0.0
230
1.0
 70
     8
 71
     3
 72
     9
 73
     5
 74
     0
 42
0.0000000001
 43
0.0000000001
 40
0.0
 40
0.0
 40
0.0
 40
0.0
 40
0.2117694352782896
 40
1.0
 40
1.0
 40
1.0
 40
1.0
 10
4.536849416491829
 20
7.661649763731516
 30
0.0
 10
4.537764020546845
 20
7.663933966370072
 30
0.0
 10
4.542082887685599
 20
7.674720237937322
 30
0.0
 10
4.545299891805137
 20
7.686450926502059
 30
0.0
 10
4.547835632778991
 20
7.695697413774014
 30
0.0
  0
LINE
  5
197
330
1F
100
AcDbEntity
  8
0
  6
Continuous
 62
     7
370
    15
100
AcDbLine
 10
4.536849416491829
 20
7.661649763731516
 30
0.0
 11
4.470433543537028
 21
7.679443310115466
 31
0.0
  0
LINE
  5
198
330
1F
100
AcDbEntity
  8
0
  6
Continuous
 62
     7
370
    15
100
AcDbLine
 10
4.4594472926806
 20
7.719377626942504
 30
0.0
 11
4.470433543537028
 21
7.679443310115466
 31
0.0
  0
LINE
  5
199
330
1F
100
AcDbEntity
  8
0
  6
Continuous
 62
     7
370
    15
100
AcDbLine
 10
4.4594472926806
 20
7.807633869294761
 30
0.0
 11
4.4594472926806
 21
7.719377626942504
 31
0.0
  0
SPLINE
  5
19A
330
1F
100
AcDbEntity
  8
0
  6
Continuous
 62
     7
370
    15
100
AcDbSpline
210
0.0
220
0.0
230
1.0
 70
     8
 71
     3
 72
     9
 73
     5
 74
     0
 42
0.0000000001
 43
0.0000000001
 40
0.0
 40
0.0
 40
0.0
 40
0.0
 40
0.2117693455986004
 40
1.0
 40
1.0
 40
1.0
 40
1.0
 10
4.470433543537028
 20
7.841681510075773
 30
0.0
 10
4.469518939774547
 20
7.839397307205089
 30
0.0
 10
4.465200072188232
 20
7.828611029973942
 30
0.0
 10
4.461983048985172
 20
7.816880350473763
 30
0.0
 10
4.4594472926806
 20
7.807633869294761
 30
0.0
  0
LINE
  5
19B
330
1F
100
AcDbEntity
  8
0
  6
Continuous
 62
     7
370
    15
100
AcDbLine
 10
4.580937130487884
 20
7.771550268038343
 30
0.0
 11
4.581178363464935
 21
7.771497095621268
 31
0.0
  0
SPLINE
  5
19C
330
1F
100
AcDbEntity
  8
0
  6
Continuous
 62
     7
370
    15
100
AcDbSpline
210
0.0
220
0.0
230
1.0
 70
     8
 71
     3
 72
     9
 73
     5
 74
     0
 42
0.0000000001
 43
0.0000000001
 40
0.0
 40
0.0
 40
0.0
 40
0.0
 40
0.4089684113038788
 40
1.0
 40
1.0
 40
1.0
 40
1.0
 10
4.571347210046289
 20
7.64651014536928
 30
0.0
 10
4.566814030217639
 20
7.648550740928246
 30
0.0
 10
4.555729604860197
 20
7.653540357491689
 30
0.0
 10
4.543862971600049
 20
7.65863730609877
 30
0.0
 10
4.536849416491829
 20
7.661649763731516
 30
0.0
  0
LINE
  5
19D
330
1F
100
AcDbEntity
  8
0
  6
Continuous
 62
     7
370
    15
100
AcDbLine
 10
4.639969155248935
 20
7.608157958239138
 30
0.0
 11
4.627443789947641
 21
7.617410917920634
 31
0.0
  0
LINE
  5
19E
330
1F
100
AcDbEntity
  8
0
  6
Continuous
 62
     7
370
    15
100
AcDbLine
 10
4.639969155248935
 20
7.608157958239138
 30
0.0
 11
4.573553282294133
 21
7.625951504623087
 31
0.0
  0
SPLINE
  5
19F
330
1F
100
AcDbEntity
  8
0
  6
Continuous
 62
     7
370
    15
100
AcDbSpline
210
0.0
220
0.0
230
1.0
 70
     8
 71
     3
 72
     9
 73
     5
 74
     0
 42
0.0000000001
 43
0.0000000001
 40
0.0
 40
0.0
 40
0.0
 40
0.0
 40
0.408968408892673
 40
1.0
 40
1.0
 40
1.0
 40
1.0
 10
4.539055449849249
 20
7.641091131089123
 30
0.0
 10
4.543588636093267
 20
7.639050533960327
 30
0.0
 10
4.554673077202767
 20
7.634060913528952
 30
0.0
 10
4.566539720955721
 20
7.628963963253928
 30
0.0
 10
4.573553282294133
 20
7.625951504623087
 30
0.0
  0
LINE
  5
1A0
330
1F
100
AcDbEntity
  8
0
  6
Continuous
 62
     7
370
    15
100
AcDbLine
 10
4.482958869947899
 20
7.67019035853777
 30
0.0
 11
4.539055449849249
 21
7.641091131089123
 31
0.0
  0
LINE
  5
1A1
330
1F
100
AcDbEntity
  8
0
  6
Continuous
 62
     7
370
    15
100
AcDbLine
 10
4.470433543537028
 20
7.679443310115466
 30
0.0
 11
4.482958869947899
 21
7.67019035853777
 31
0.0
  0
LINE
  5
1A2
330
1F
100
AcDbEntity
  8
0
  6
Continuous
 62
     7
370
    15
100
AcDbLine
 10
4.639969155248935
 20
7.932633604541422
 30
0.0
 11
4.674466953124554
 21
7.917493987336873
 31
0.0
  0
ARC
  5
1A3
330
1F
100
AcDbEntity
  8
0
  6
Continuous
 62
     7
370
    15
100
AcDbCircle
 10
4.673340758187589
 20
7.7616056893013
 30
0.0
 40
0.2187898716579449
100
AcDbArc
 50
150.4770749794182
 51
167.8556010533179
  0
SPLINE
  5
1A4
330
1F
100
AcDbEntity
  8
0
  6
Continuous
 62
     7
370
    15
100
AcDbSpline
210
0.0
220
0.0
230
1.0
 70
     8
 71
     3
 72
     9
 73
     5
 74
     0
 42
0.0000000001
 43
0.0000000001
 40
0.0
 40
0.0
 40
0.0
 40
0.0
 40
0.4089683933811496
 40
1.0
 40
1.0
 40
1.0
 40
1.0
 10
4.674466953124554
 20
7.630008943029448
 30
0.0
 10
4.669933772940489
 20
7.626867843626155
 30
0.0
 10
4.658849346228227
 20
7.619187300449396
 30
0.0
 10
4.646982711460729
 20
7.6122551049076
 30
0.0
 10
4.639969155248935
 20
7.608157958239138
 30
0.0
  0
SPLINE
  5
1A5
330
1F
100
AcDbEntity
  8
0
  6
Continuous
 62
     7
370
    15
100
AcDbSpline
210
0.0
220
0.0
230
1.0
 70
     8
 71
     3
 72
     9
 73
     5
 74
     0
 42
0.0000000001
 43
0.0000000001
 40
0.0
 40
0.0
 40
0.0
 40
0.0
 40
0.2117694352782896
 40
1.0
 40
1.0
 40
1.0
 40
1.0
 10
4.743088894006041
 20
7.879141799049045
 30
0.0
 10
4.744003498061057
 20
7.876367531341649
 30
0.0
 10
4.748322365199811
 20
7.863267115298361
 30
0.0
 10
4.751539369319348
 20
7.84981268481858
 30
0.0
 10
4.754075110293203
 20
7.839207491483493
 30
0.0
  0
SPLINE
  5
1A6
330
1F
100
AcDbEntity
  8
0
  6
Continuous
 62
     7
370
    15
100
AcDbSpline
210
0.0
220
0.0
230
1.0
 70
     8
 71
     3
 72
     9
 73
     5
 74
     0
 42
0.0000000001
 43
0.0000000001
 40
0.0
 40
0.0
 40
0.0
 40
0.0
 40
0.4089684113038788
 40
1.0
 40
1.0
 40
1.0
 40
1.0
 10
4.730563533025905
 20
7.888394759888226
 30
0.0
 10
4.732617393289114
 20
7.887018401441951
 30
0.0
 10
4.73763944439732
 20
7.883652961940429
 30
0.0
 10
4.741064548994512
 20
7.880817592156802
 30
0.0
 10
4.743088894006041
 20
7.879141799049044
 30
0.0
  0
LINE
  5
1A7
330
1F
100
AcDbEntity
  8
0
  6
Continuous
 62
     7
370
    15
100
AcDbLine
 10
2.18008856493093
 20
6.711194270141413
 30
0.0
 11
4.023203678792072
 21
6.217403361275901
 31
0.0
  0
LINE
  5
1A8
330
1F
100
AcDbEntity
  8
0
  6
Continuous
 62
     7
370
    15
100
AcDbLine
 10
3.299674309885013
 20
7.011143664726756
 30
0.0
 11
2.18008856493093
 21
6.711194270141413
 31
0.0
  0
LINE
  5
1A9
330
1F
100
AcDbEntity
  8
0
  6
Continuous
 62
     7
370
    15
100
AcDbLine
 10
6.422729304484875
 20
6.332310822399612
 30
0.0
 11
4.94959016024681
 21
6.726981080078092
 31
0.0
  0
LINE
  5
1AA
330
1F
100
AcDbEntity
  8
0
  6
Continuous
 62
     7
370
    15
100
AcDbLine
 10
5.925666754574089
 20
6.199142271809589
 30
0.0
 11
6.422729304484875
 21
6.332310822399612
 31
0.0
  0
SPLINE
  5
1AB
330
1F
100
AcDbEntity
  8
0
  6
Continuous
 62
     7
370
    15
100
AcDbSpline
210
0.0
220
0.0
230
1.0
 70
     8
 71
     3
 72
    20
 73
    16
 74
     0
 42
0.0000000001
 43
0.0000000001
 40
0.0
 40
0.0
 40
0.0
 40
0.0
 40
0.0926936204742884
 40
0.1842119904936704
 40
0.2753890132833134
 40
0.3667231521391361
 40
0.4587331200672299
 40
0.5523108995062153
 40
0.6244528327219802
 40
0.6988798235144831
 40
0.7747050933214219
 40
0.8507127587703331
 40
0.9257533279720282
 40
0.9988221998423119
 40
1.0
 40
1.0
 40
1.0
 40
1.0
 10
5.925666754574089
 20
6.199142271809589
 30
0.0
 10
5.904354903464438
 20
6.207771134723816
 30
0.0
 10
5.862001411455757
 20
6.224919456312655
 30
0.0
 10
5.808243481184429
 20
6.252094341405588
 30
0.0
 10
5.757587794499833
 20
6.279480290799114
 30
0.0
 10
5.706798346316507
 20
6.306920481074643
 30
0.0
 10
5.651548287421981
 20
6.334052958893638
 30
0.0
 10
5.59329470871269
 20
6.358250185329326
 30
0.0
 10
5.531578369659383
 20
6.379370725848879
 30
0.0
 10
5.468080451799862
 20
6.397479000579098
 30
0.0
 10
5.397866544001128
 20
6.414342024825528
 30
0.0
 10
5.322428950750193
 20
6.429672252367356
 30
0.0
 10
5.242585947908696
 20
6.442575561950362
 30
0.0
 10
5.187528932326101
 20
6.450572772584262
 30
0.0
 10
5.158270620068035
 20
6.453250152913611
 30
0.0
 10
5.157806485530419
 20
6.453292625106478
 30
0.0
  0
SPLINE
  5
1AC
330
1F
100
AcDbEntity
  8
0
  6
Continuous
 62
     7
370
    15
100
AcDbSpline
210
0.0
220
0.0
230
1.0
 70
     8
 71
     3
 72
    14
 73
    10
 74
     0
 42
0.0000000001
 43
0.0000000001
 40
0.0
 40
0.0
 40
0.0
 40
0.0
 40
0.1146596588044131
 40
0.2804147522907243
 40
0.443016213386122
 40
0.5992227429381677
 40
0.7458888751639416
 40
0.8801879335329141
 40
1.0
 40
1.0
 40
1.0
 40
1.0
 10
4.42220399077463
 20
6.36309573624597
 30
0.0
 10
4.407173259292252
 20
6.357467404270279
 30
0.0
 10
4.370413697216726
 20
6.343702603875521
 30
0.0
 10
4.315372289976158
 20
6.32139325971538
 30
0.0
 10
4.255416483483989
 20
6.296957826672122
 30
0.0
 10
4.197166845831682
 20
6.273590338718499
 30
0.0
 10
4.139777018499093
 20
6.252157206835811
 30
0.0
 10
4.083872166399055
 20
6.233093582441025
 30
0.0
 10
4.042643010287648
 20
6.222430805052704
 30
0.0
 10
4.023203678792072
 20
6.217403361275901
 30
0.0
  0
LINE
  5
1AD
330
1F
100
AcDbEntity
  8
0
  6
Continuous
 62
     7
370
    15
100
AcDbLine
 10
6.422729304484875
 20
6.332310822399612
 30
0.0
 11
6.422729304484875
 21
3.763127784619661
 31
0.0
  0
LINE
  5
1AE
330
1F
100
AcDbEntity
  8
0
  6
Continuous
 62
     7
370
    15
100
AcDbLine
 10
5.008515724633556
 20
3.384244336877862
 30
0.0
 11
6.422729304484875
 21
3.763127784619661
 31
0.0
  0
LINE
  5
1AF
330
1F
100
AcDbEntity
  8
0
  6
Continuous
 62
     7
370
    15
100
AcDbLine
 10
5.008515724633556
 20
3.732055892449002
 30
0.0
 11
5.008515724633556
 21
3.384244336877862
 31
0.0
  0
SPLINE
  5
1B0
330
1F
100
AcDbEntity
  8
0
  6
Continuous
 62
     7
370
    15
100
AcDbSpline
210
0.0
220
0.0
230
1.0
 70
     8
 71
     3
 72
     8
 73
     4
 74
     0
 42
0.0000000001
 43
0.0000000001
 40
0.0
 40
0.0
 40
0.0
 40
0.0
 40
1.0
 40
1.0
 40
1.0
 40
1.0
 10
5.008515715894447
 20
3.732055908956271
 30
0.0
 10
5.561878276218569
 20
3.668097516689312
 30
0.0
 10
5.454299999425417
 20
4.600277501358081
 30
0.0
 10
5.925666744157056
 20
4.753976833216715
 30
0.0
  0
LINE
  5
1B1
330
1F
100
AcDbEntity
  8
0
  6
Continuous
 62
     7
370
    15
100
AcDbLine
 10
5.925666754574089
 20
4.753976824833653
 30
0.0
 11
5.925666754574089
 21
6.199142271809589
 31
0.0
  0
LINE
  5
1B2
330
1F
100
AcDbEntity
  8
0
  6
Continuous
 62
     7
370
    15
100
AcDbLine
 10
2.18008856493093
 20
4.142011232361463
 30
0.0
 11
5.008515724633556
 21
3.384244336877862
 31
0.0
  0
LINE
  5
1B3
330
1F
100
AcDbEntity
  8
0
  6
Continuous
 62
     7
370
    15
100
AcDbLine
 10
2.18008856493093
 20
6.711194270141413
 30
0.0
 11
2.18008856493093
 21
4.142011232361463
 31
0.0
  0
LINE
  5
1B4
330
1F
100
AcDbEntity
  8
0
  6
Continuous
 62
     7
370
    15
100
AcDbLine
 10
4.023203678792072
 20
3.99603187906709
 30
0.0
 11
4.023203678792072
 21
6.217403361275901
 31
0.0
  0
LINE
  5
1B5
330
1F
100
AcDbEntity
  8
0
  6
Continuous
 62
     7
370
    15
100
AcDbLine
 10
4.023203678792072
 20
3.99603187906709
 30
0.0
 11
5.008515724633556
 21
3.732055892449002
 31
0.0
  0
SPLINE
  5
1B6
330
1F
100
AcDbEntity
  8
0
  6
Continuous
 62
     7
370
    15
100
AcDbSpline
210
0.0
220
0.0
230
1.0
 70
     8
 71
     3
 72
     9
 73
     5
 74
     0
 42
0.0000000001
 43
0.0000000001
 40
0.0
 40
0.0
 40
0.0
 40
0.0
 40
0.2798762742281938
 40
0.5240963793506934
 40
0.5240963793506934
 40
0.5240963793506934
 40
0.5240963793506934
 10
5.925666744157056
 20
4.753976833216715
 30
0.0
 10
5.774654333374287
 20
4.811409363133009
 30
0.0
 10
5.654921114137828
 20
4.934653090873136
 30
0.0
 10
5.138907690388667
 20
5.022532319606842
 30
0.0
 10
4.931177866941355
 20
5.020411394381376
 30
0.0
  0
SPLINE
  5
1B7
330
1F
100
AcDbEntity
  8
0
  6
Continuous
 62
     7
370
    15
100
AcDbSpline
210
0.0
220
0.0
230
1.0
 70
     8
 71
     3
 72
    26
 73
    22
 74
     0
 42
0.0000000001
 43
0.0000000001
 40
0.0
 40
0.0
 40
0.0
 40
0.0
 40
0.0603200196794278
 40
0.1206889604446812
 40
0.1610882009798739
 40
0.2016046507107105
 40
0.2419306724220538
 40
0.2981815863996017
 40
0.3544931601605972
 40
0.4060763260858557
 40
0.4578852147355559
 40
0.5096585059467265
 40
0.5699222100415741
 40
0.6306064906212404
 40
0.691249568421304
 40
0.751474565262765
 40
0.8111900922727032
 40
0.8708051597989955
 40
0.9166170588498388
 40
0.962376086213818
 40
0.9999999999999998
 40
0.9999999999999998
 40
0.9999999999999998
 40
0.9999999999999998
 10
4.023203678792072
 20
3.99603187906709
 30
0.0
 10
4.044292921735411
 20
3.994278279949312
 30
0.0
 10
4.086488511539983
 20
3.990769659499814
 30
0.0
 10
4.135815748528883
 20
3.998727175651359
 30
0.0
 10
4.177579169294269
 20
4.014071776272848
 30
0.0
 10
4.211930799001253
 20
4.034055370784905
 30
0.0
 10
4.249177722342315
 20
4.064619867935976
 30
0.0
 10
4.288026111622675
 20
4.110314343572344
 30
0.0
 10
4.325593208980122
 20
4.170375472292435
 30
0.0
 10
4.358044974594594
 20
4.236411008939241
 30
0.0
 10
4.386444961723889
 20
4.304678799421973
 30
0.0
 10
4.414160743778136
 20
4.379292670174845
 30
0.0
 10
4.441483923233575
 20
4.459461008498545
 30
0.0
 10
4.469636930128414
 20
4.544295020311921
 30
0.0
 10
4.499439934905836
 20
4.62857898591596
 30
0.0
 10
4.532741887195451
 20
4.710736425587739
 30
0.0
 10
4.57161817041004
 20
4.789057581163335
 30
0.0
 10
4.613979005617803
 20
4.856135373530506
 30
0.0
 10
4.659759900110179
 20
4.910405140544681
 30
0.0
 10
4.704602004480442
 20
4.950909176904353
 30
0.0
 10
4.739081862823844
 20
4.96936381816519
 30
0.0
 10
4.75463980788764
 20
4.977690891091322
 30
0.0
  0
LINE
  5
1B8
330
1F
100
AcDbEntity
  8
0
  6
Continuous
 62
     7
370
    15
100
AcDbLine
 10
4.905662221074787
 20
5.018215194316524
 30
0.0
 11
4.931177847802284
 21
5.020411393916415
 31
0.0
  0
LINE
  5
1B9
330
1F
100
AcDbEntity
  8
0
  6
Continuous
 62
   254
370
    15
100
AcDbLine
 10
4.931177847802284
 20
5.020411393916415
 30
0.0
 11
5.925666754574089
 21
4.753976824833653
 31
0.0
  0
LINE
  5
1BA
330
1F
100
AcDbEntity
  8
0
  6
Continuous
 62
     7
370
    15
100
AcDbLine
 10
3.712153282198066
 20
9.027788344303745
 30
0.0
 11
3.76325176423216
 21
8.853524662349542
 31
0.0
  0
LINE
  5
1BB
330
1F
100
AcDbEntity
  8
0
  6
Continuous
 62
     7
370
    15
100
AcDbLine
 10
3.76325176423216
 20
8.853524662349542
 30
0.0
 11
4.124632237226488
 21
8.756706839705634
 31
0.0
  0
LINE
  5
1BC
330
1F
100
AcDbEntity
  8
0
  6
Continuous
 62
     7
370
    15
100
AcDbLine
 10
4.124632237226488
 20
8.756706839705634
 30
0.0
 11
4.124632237226488
 21
6.348097635809351
 31
0.0
  0
LINE
  5
1BD
330
1F
100
AcDbEntity
  8
0
  6
Continuous
 62
     7
370
    15
100
AcDbLine
 10
3.29967430988501
 20
6.569112981868983
 30
0.0
 11
4.124632237226488
 21
6.348097635809351
 31
0.0
  0
LINE
  5
1BE
330
1F
100
AcDbEntity
  8
0
  6
Continuous
 62
     7
370
    15
100
AcDbLine
 10
3.29967430988501
 20
8.897435080418848
 30
0.0
 11
3.29967430988501
 21
6.569112981868983
 31
0.0
  0
LINE
  5
1BF
330
1F
100
AcDbEntity
  8
0
  6
Continuous
 62
     7
370
    15
100
AcDbLine
 10
3.29967430988501
 20
8.897435080418848
 30
0.0
 11
3.642308120819949
 21
8.805639695726254
 31
0.0
  0
LINE
  5
1C0
330
1F
100
AcDbEntity
  8
0
  6
Continuous
 62
     7
370
    15
100
AcDbLine
 10
3.642308120819949
 20
8.805639695726254
 30
0.0
 11
3.712153282198066
 21
9.027788344303745
 31
0.0
  0
LINE
  5
1C1
330
1F
100
AcDbEntity
  8
0
  6
Continuous
 62
     7
370
    15
100
AcDbLine
 10
4.588209674289007
 20
9.07454000377843
 30
0.0
 11
3.76325176423216
 21
8.853524662349542
 31
0.0
  0
LINE
  5
1C2
330
1F
100
AcDbEntity
  8
0
  6
Continuous
 62
     7
370
    15
100
AcDbLine
 10
4.588209674289007
 20
9.07454000377843
 30
0.0
 11
4.949590147283334
 21
8.977722181134518
 31
0.0
  0
LINE
  5
1C3
330
1F
100
AcDbEntity
  8
0
  6
Continuous
 62
     7
370
    15
100
AcDbLine
 10
4.949590147283334
 20
8.977722181134518
 30
0.0
 11
4.124632237226488
 21
8.756706839705634
 31
0.0
  0
LINE
  5
1C4
330
1F
100
AcDbEntity
  8
0
  6
Continuous
 62
     7
370
    15
100
AcDbLine
 10
4.124632237226488
 20
6.348097635809351
 30
0.0
 11
4.328079123049564
 21
6.402603304989167
 31
0.0
  0
LINE
  5
1C5
330
1F
100
AcDbEntity
  8
0
  6
Continuous
 62
     7
370
    15
100
AcDbLine
 10
4.929719595190605
 20
6.563789436725907
 30
0.0
 11
4.949590147283334
 21
6.569112977238238
 31
0.0
  0
LINE
  5
1C6
330
1F
100
AcDbEntity
  8
0
  6
Continuous
 62
     7
370
    15
100
AcDbLine
 10
4.949590147283334
 20
8.977722181134518
 30
0.0
 11
4.949590147283334
 21
6.569112977238238
 31
0.0
  0
LINE
  5
1C7
330
1F
100
AcDbEntity
  8
0
  6
Continuous
 62
     7
370
    15
100
AcDbLine
 10
4.537111192254912
 20
9.248803685732633
 30
0.0
 11
3.712153282198066
 21
9.027788344303745
 31
0.0
  0
LINE
  5
1C8
330
1F
100
AcDbEntity
  8
0
  6
Continuous
 62
     7
370
    15
100
AcDbLine
 10
4.537111192254912
 20
9.248803685732633
 30
0.0
 11
4.588209674289007
 21
9.07454000377843
 31
0.0
  0
LINE
  5
1C9
330
1F
100
AcDbEntity
  8
0
  6
Continuous
 62
     7
370
    15
100
AcDbLine
 10
3.70533974694382
 20
9.006117334367139
 30
0.0
 11
3.29967430988501
 21
8.897435080418848
 31
0.0
  0
LINE
  5
1CA
330
1F
100
AcDbEntity
  8
0
  6
Continuous
 62
     7
370
    15
100
AcDbLine
 10
4.857194900904206
 20
6.281240828659282
 30
0.0
 11
4.362220127214686
 21
6.413850040925805
 31
0.0
  0
LINE
  5
1CB
330
1F
100
AcDbEntity
  8
0
  6
Continuous
 62
     7
370
    15
100
AcDbLine
 10
4.857194900904206
 20
6.281240828659282
 30
0.0
 11
4.857194900904206
 21
6.246556863960806
 31
0.0
  0
LINE
  5
1CC
330
1F
100
AcDbEntity
  8
0
  6
Continuous
 62
     7
370
    15
100
AcDbLine
 10
4.857194900904206
 20
6.246556863960806
 30
0.0
 11
4.362220127214686
 21
6.379166076227329
 31
0.0
  0
LINE
  5
1CD
330
1F
100
AcDbEntity
  8
0
  6
Continuous
 62
     7
370
    15
100
AcDbLine
 10
5.328599415998223
 20
6.407535308152719
 30
0.0
 11
4.990388033915461
 21
6.498145875279722
 31
0.0
  0
LINE
  5
1CE
330
1F
100
AcDbEntity
  8
0
  6
Continuous
 62
     7
370
    15
100
AcDbLine
 10
5.328599415998223
 20
6.407535308152719
 30
0.0
 11
4.857194900904206
 21
6.281240828659282
 31
0.0
  0
LINE
  5
1CF
330
1F
100
AcDbEntity
  8
0
  6
Continuous
 62
     7
370
    15
100
AcDbLine
 10
5.328599415998223
 20
6.407535308152719
 30
0.0
 11
5.328599415998223
 21
6.372851343454243
 31
0.0
  0
LINE
  5
1D0
330
1F
100
AcDbEntity
  8
0
  6
Continuous
 62
     7
370
    15
100
AcDbLine
 10
5.328599415998223
 20
6.372851343454243
 30
0.0
 11
4.857194900904206
 21
6.246556863960806
 31
0.0
  0
LINE
  5
1D1
330
1F
100
AcDbEntity
  8
0
  6
Continuous
 62
     7
370
    15
100
AcDbLine
 10
4.798269288984714
 20
8.215571314389091
 30
0.0
 11
4.326864773890697
 21
8.089276834895656
 31
0.0
  0
LINE
  5
1D2
330
1F
100
AcDbEntity
  8
0
  6
Continuous
 62
     7
370
    15
100
AcDbLine
 10
4.798269288984714
 20
6.597788835844316
 30
0.0
 11
4.798269288984714
 21
8.215571314389091
 31
0.0
  0
LINE
  5
1D3
330
1F
100
AcDbEntity
  8
0
  6
Continuous
 62
     7
370
    15
100
AcDbLine
 10
4.326864773890697
 20
6.47149435635088
 30
0.0
 11
4.326864773890697
 21
8.089276834895656
 31
0.0
  0
LINE
  5
1D4
330
1F
100
AcDbEntity
  8
0
  6
Continuous
 62
     7
370
    15
100
AcDbLine
 10
4.326864773890697
 20
8.089276834895656
 30
0.0
 11
4.301408934707902
 21
8.096096735547261
 31
0.0
  0
LINE
  5
1D5
330
1F
100
AcDbEntity
  8
0
  6
Continuous
 62
     7
370
    15
100
AcDbLine
 10
4.301408934707902
 20
6.478314257002486
 30
0.0
 11
4.301408934707902
 21
8.096096735547261
 31
0.0
  0
LINE
  5
1D6
330
1F
100
AcDbEntity
  8
0
  6
Continuous
 62
     7
370
    15
100
AcDbLine
 10
4.77281344980192
 20
8.222391215040698
 30
0.0
 11
4.301408934707902
 21
8.096096735547261
 31
0.0
  0
LINE
  5
1D7
330
1F
100
AcDbEntity
  8
0
  6
Continuous
 62
     7
370
    15
100
AcDbLine
 10
4.798269288984714
 20
8.215571314389091
 30
0.0
 11
4.77281344980192
 21
8.222391215040698
 31
0.0
  0
ARC
  5
1D8
330
1F
100
AcDbEntity
  8
0
  6
Continuous
 62
     7
370
    15
100
AcDbCircle
 10
4.402914725936803
 20
6.472348507283613
 30
0.0
 40
0.1016809511300587
100
AcDbArc
 50
176.6364526935564
 51
246.408160718694
  0
ARC
  5
1D9
330
1F
100
AcDbEntity
  8
0
  6
Continuous
 62
     7
370
    15
100
AcDbCircle
 10
4.385880027770806
 20
6.46802603686726
 30
0.0
 40
0.0591170823922673
100
AcDbArc
 50
176.6366025396321
 51
246.4080021383887
  0
ARC
  5
1DA
330
1F
100
AcDbEntity
  8
0
  6
Continuous
 62
     7
370
    15
100
AcDbCircle
 10
4.870210357589663
 20
6.598116864082829
 30
0.0
 40
0.0719418164529313
100
AcDbArc
 50
180.2612485989289
 51
199.1815110934575
  0
TEXT
  5
1E2
330
1F
100
AcDbEntity
  8
0
100
AcDbText
 10
3.768400098413486
 20
2.160115598151559
 30
0.0
 40
0.25
  1
USP  TDL
100
AcDbText
  0
TEXT
  5
1E3
330
1F
100
AcDbEntity
  8
0
100
AcDbText
 10
2.879166299028604
 20
1.703808945094976
 30
0.0
 40
0.25
  1
SIMPSON  A
100
AcDbText
  0
ENDSEC
  0
SECTION
  2
OBJECTS
  0
DICTIONARY
  5
C
330
0
100
AcDbDictionary
281
     1
  3
ACAD_COLOR
350
1DF
  3
ACAD_GROUP
350
D
  3
ACAD_LAYOUT
350
1A
  3
ACAD_MATERIAL
350
1DE
  3
ACAD_MLINESTYLE
350
17
  3
ACAD_PLOTSETTINGS
350
19
  3
ACAD_PLOTSTYLENAME
350
E
  3
ACDBHEADERROUNDTRIPXREC
350
1E9
  3
AcDbVariableDictionary
350
1E5
  0
DICTIONARY
  5
1DF
102
{ACAD_REACTORS
330
C
102
}
330
C
100
AcDbDictionary
281
     1
  0
DICTIONARY
  5
D
102
{ACAD_REACTORS
330
C
102
}
330
C
100
AcDbDictionary
281
     1
  0
DICTIONARY
  5
1A
102
{ACAD_REACTORS
330
C
102
}
330
C
100
AcDbDictionary
281
     1
  3
Layout1
350
1E
  3
Layout2
350
26
  3
Model
350
22
  0
DICTIONARY
  5
1DE
102
{ACAD_REACTORS
330
C
102
}
330
C
100
AcDbDictionary
281
     1
  0
DICTIONARY
  5
17
102
{ACAD_REACTORS
330
C
102
}
330
C
100
AcDbDictionary
281
     1
  3
Standard
350
18
  0
DICTIONARY
  5
19
102
{ACAD_REACTORS
330
C
102
}
330
C
100
AcDbDictionary
281
     1
  0
ACDBDICTIONARYWDFLT
  5
E
102
{ACAD_REACTORS
330
C
102
}
330
C
100
AcDbDictionary
281
     1
  3
Normal
350
F
100
AcDbDictionaryWithDefault
340
F
  0
DICTIONARY
  5
1E9
102
{ACAD_REACTORS
330
C
102
}
330
C
100
AcDbDictionary
281
     1
  3
COLORDICT
350
1EB
  3
MATERIALDICT
350
1EA
  0
DICTIONARY
  5
1E5
102
{ACAD_REACTORS
330
C
102
}
330
C
100
AcDbDictionary
281
     1
  3
DIMASSOC
350
1E6
  3
PROJECTNAME
350
1E7
  0
LAYOUT
  5
1E
102
{ACAD_XDICTIONARY
360
1EC
102
}
102
{ACAD_REACTORS
330
1A
102
}
330
1A
100
AcDbPlotSettings
  1

  2
none_device
  4

  6

 40
0.0
 41
0.0
 42
0.0
 43
0.0
 44
0.0
 45
0.0
 46
0.0
 47
0.0
 48
0.0
 49
0.0
140
0.0
141
0.0
142
1.0
143
1.0
 70
   688
 72
     0
 73
     0
 74
     5
  7

 75
    16
147
1.0
148
0.0
149
0.0
100
AcDbLayout
  1
Layout1
 70
     1
 71
     1
 10
0.0
 20
0.0
 11
12.0
 21
9.0
 12
0.0
 22
0.0
 32
0.0
 14
1.000000000000000E+20
 24
1.000000000000000E+20
 34
1.000000000000000E+20
 15
-1.000000000000000E+20
 25
-1.000000000000000E+20
 35
-1.000000000000000E+20
146
0.0
 13
0.0
 23
0.0
 33
0.0
 16
1.0
 26
0.0
 36
0.0
 17
0.0
 27
1.0
 37
0.0
 76
     0
330
1B
  0
LAYOUT
  5
26
102
{ACAD_XDICTIONARY
360
1F0
102
}
102
{ACAD_REACTORS
330
1A
102
}
330
1A
100
AcDbPlotSettings
  1

  2
none_device
  4

  6

 40
0.0
 41
0.0
 42
0.0
 43
0.0
 44
0.0
 45
0.0
 46
0.0
 47
0.0
 48
0.0
 49
0.0
140
0.0
141
0.0
142
1.0
143
1.0
 70
   688
 72
     0
 73
     0
 74
     5
  7

 75
    16
147
1.0
148
0.0
149
0.0
100
AcDbLayout
  1
Layout2
 70
     1
 71
     2
 10
0.0
 20
0.0
 11
0.0
 21
0.0
 12
0.0
 22
0.0
 32
0.0
 14
0.0
 24
0.0
 34
0.0
 15
0.0
 25
0.0
 35
0.0
146
0.0
 13
0.0
 23
0.0
 33
0.0
 16
1.0
 26
0.0
 36
0.0
 17
0.0
 27
1.0
 37
0.0
 76
     0
330
23
  0
LAYOUT
  5
22
102
{ACAD_XDICTIONARY
360
1EE
102
}
102
{ACAD_REACTORS
330
1A
102
}
330
1A
100
AcDbPlotSettings
  1

  2
none_device
  4

  6

 40
0.0
 41
0.0
 42
0.0
 43
0.0
 44
0.0
 45
0.0
 46
0.0
 47
0.0
 48
0.0
 49
0.0
140
0.0
141
0.0
142
1.0
143
1.0
 70
  1712
 72
     0
 73
     0
 74
     0
  7

 75
     0
147
1.0
148
0.0
149
0.0
100
AcDbLayout
  1
Model
 70
     1
 71
     0
 10
0.0
 20
0.0
 11
8.5
 21
11.0
 12
0.0
 22
0.0
 32
0.0
 14
0.0
 24
0.0
 34
0.0
 15
8.5
 25
11.0
 35
0.0
146
0.0
 13
0.0
 23
0.0
 33
0.0
 16
1.0
 26
0.0
 36
0.0
 17
0.0
 27
1.0
 37
0.0
 76
     0
330
1F
  0
MLINESTYLE
  5
18
102
{ACAD_REACTORS
330
17
102
}
330
17
100
AcDbMlineStyle
  2
STANDARD
 70
     0
  3

 62
   256
 51
90.0
 52
90.0
 71
     2
 49
0.5
 62
   256
  6
BYLAYER
 49
-0.5
 62
   256
  6
BYLAYER
  0
ACDBPLACEHOLDER
  5
F
102
{ACAD_REACTORS
330
E
102
}
330
E
  0
XRECORD
  5
1EB
102
{ACAD_REACTORS
330
1E9
102
}
330
1E9
100
AcDbXrecord
280
     1
340
1DF
  0
XRECORD
  5
1EA
102
{ACAD_REACTORS
330
1E9
102
}
330
1E9
100
AcDbXrecord
280
     1
340
1DE
  0
DICTIONARYVAR
  5
1E6
102
{ACAD_REACTORS
330
1E5
102
}
330
1E5
100
DictionaryVariables
280
     0
  1
1
  0
DICTIONARYVAR
  5
1E7
102
{ACAD_REACTORS
330
1E5
102
}
330
1E5
100
DictionaryVariables
280
     0
  1

  0
DICTIONARY
  5
1EC
330
1E
100
AcDbDictionary
280
     1
281
     1
  3
ACAD_XREC_ROUNDTRIP
360
1ED
  0
DICTIONARY
  5
1F0
330
26
100
AcDbDictionary
280
     1
281
     1
  3
ACAD_XREC_ROUNDTRIP
360
1F1
  0
DICTIONARY
  5
1EE
330
22
100
AcDbDictionary
280
     1
281
     1
  3
ACAD_XREC_ROUNDTRIP
360
1EF
  0
XRECORD
  5
1ED
102
{ACAD_REACTORS
330
1EC
102
}
330
1EC
100
AcDbXrecord
280
     1
102
SHADEPLOT
 70
     0
102
SHADEPLOTRESLEVEL
 70
     2
102
SHADEPLOTCUSTOMDPI
 70
   300
  0
XRECORD
  5
1F1
102
{ACAD_REACTORS
330
1F0
102
}
330
1F0
100
AcDbXrecord
280
     1
102
SHADEPLOT
 70
     0
102
SHADEPLOTRESLEVEL
 70
     2
102
SHADEPLOTCUSTOMDPI
 70
   300
  0
XRECORD
  5
1EF
102
{ACAD_REACTORS
330
1EE
102
}
330
1EE
100
AcDbXrecord
280
     1
102
SHADEPLOT
 70
     0
102
SHADEPLOTRESLEVEL
 70
     2
102
SHADEPLOTCUSTOMDPI
 70
   300
  0
ENDSEC
  0
EOF
