  0
SECTION
  2
HEADER
  9
$ACADVER
  1
AC1018
  9
$ACADMAINTVER
 70
     0
  9
$DWGCODEPAGE
  3
ANSI_1252
  9
$INSBASE
 10
0.0
 20
0.0
 30
0.0
  9
$EXTMIN
 10
1.676542061149723
 20
1.415903893453897
 30
0.0
  9
$EXTMAX
 10
6.910086598087867
 20
8.775949303714574
 30
0.0
  9
$LIMMIN
 10
0.0
 20
0.0
  9
$LIMMAX
 10
8.5
 20
11.0
  9
$ORTHOMODE
 70
     0
  9
$REGENMODE
 70
     1
  9
$FILLMODE
 70
     1
  9
$QTEXTMODE
 70
     0
  9
$MIRRTEXT
 70
     1
  9
$LTSCALE
 40
1.0
  9
$ATTMODE
 70
     1
  9
$TEXTSIZE
 40
0.25
  9
$TRACEWID
 40
0.05
  9
$TEXTSTYLE
  7
Standard
  9
$CLAYER
  8
0
  9
$CELTYPE
  6
ByLayer
  9
$CECOLOR
 62
   256
  9
$CELTSCALE
 40
1.0
  9
$DISPSILH
 70
     0
  9
$DIMSCALE
 40
1.0
  9
$DIMASZ
 40
0.156
  9
$DIMEXO
 40
0.05
  9
$DIMDLI
 40
0.38
  9
$DIMRND
 40
0.0
  9
$DIMDLE
 40
0.0
  9
$DIMEXE
 40
0.125
  9
$DIMTP
 40
0.0
  9
$DIMTM
 40
0.0
  9
$DIMTXT
 40
0.125
  9
$DIMCEN
 40
0.09
  9
$DIMTSZ
 40
0.0
  9
$DIMTOL
 70
     0
  9
$DIMLIM
 70
     0
  9
$DIMTIH
 70
     1
  9
$DIMTOH
 70
     1
  9
$DIMSE1
 70
     0
  9
$DIMSE2
 70
     0
  9
$DIMTAD
 70
     0
  9
$DIMZIN
 70
     0
  9
$DIMBLK
  1

  9
$DIMASO
 70
     1
  9
$DIMSHO
 70
     1
  9
$DIMPOST
  1

  9
$DIMAPOST
  1

  9
$DIMALT
 70
     0
  9
$DIMALTD
 70
     2
  9
$DIMALTF
 40
25.4
  9
$DIMLFAC
 40
8.0
  9
$DIMTOFL
 70
     0
  9
$DIMTVP
 40
0.0
  9
$DIMTIX
 70
     0
  9
$DIMSOXD
 70
     0
  9
$DIMSAH
 70
     0
  9
$DIMBLK1
  1

  9
$DIMBLK2
  1

  9
$DIMSTYLE
  2
Standard
  9
$DIMCLRD
 70
     0
  9
$DIMCLRE
 70
     0
  9
$DIMCLRT
 70
     0
  9
$DIMTFAC
 40
1.0
  9
$DIMGAP
 40
0.06
  9
$DIMJUST
 70
     0
  9
$DIMSD1
 70
     0
  9
$DIMSD2
 70
     0
  9
$DIMTOLJ
 70
     1
  9
$DIMTZIN
 70
     0
  9
$DIMALTZ
 70
     0
  9
$DIMALTTZ
 70
     0
  9
$DIMUPT
 70
     0
  9
$DIMDEC
 70
     3
  9
$DIMTDEC
 70
     3
  9
$DIMALTU
 70
     2
  9
$DIMALTTD
 70
     2
  9
$DIMTXSTY
  7
Standard
  9
$DIMAUNIT
 70
     0
  9
$DIMADEC
 70
     0
  9
$DIMALTRND
 40
0.0
  9
$DIMAZIN
 70
     0
  9
$DIMDSEP
 70
    46
  9
$DIMATFIT
 70
     3
  9
$DIMFRAC
 70
     0
  9
$DIMLDRBLK
  1

  9
$DIMLUNIT
 70
     2
  9
$DIMLWD
 70
    -2
  9
$DIMLWE
 70
    -2
  9
$DIMTMOVE
 70
     0
  9
$LUNITS
 70
     2
  9
$LUPREC
 70
     3
  9
$SKETCHINC
 40
0.1
  9
$FILLETRAD
 40
0.5
  9
$AUNITS
 70
     0
  9
$AUPREC
 70
     0
  9
$MENU
  1
.
  9
$ELEVATION
 40
0.0
  9
$PELEVATION
 40
0.0
  9
$THICKNESS
 40
0.0
  9
$LIMCHECK
 70
     0
  9
$CHAMFERA
 40
0.0
  9
$CHAMFERB
 40
0.0
  9
$CHAMFERC
 40
0.0
  9
$CHAMFERD
 40
0.0
  9
$SKPOLY
 70
     0
  9
$TDCREATE
 40
2456700.602625081
  9
$TDUCREATE
 40
2456700.852625081
  9
$TDUPDATE
 40
2456700.603621493
  9
$TDUUPDATE
 40
2456700.853621493
  9
$TDINDWG
 40
0.0009011574
  9
$TDUSRTIMER
 40
0.0009011574
  9
$USRTIMER
 70
     1
  9
$ANGBASE
 50
0.0
  9
$ANGDIR
 70
     0
  9
$PDMODE
 70
     0
  9
$PDSIZE
 40
-1.0
  9
$PLINEWID
 40
0.0
  9
$SPLFRAME
 70
     0
  9
$SPLINETYPE
 70
     6
  9
$SPLINESEGS
 70
     8
  9
$HANDSEED
  5
144
  9
$SURFTAB1
 70
     6
  9
$SURFTAB2
 70
     6
  9
$SURFTYPE
 70
     6
  9
$SURFU
 70
     6
  9
$SURFV
 70
     6
  9
$UCSBASE
  2

  9
$UCSNAME
  2

  9
$UCSORG
 10
0.0
 20
0.0
 30
0.0
  9
$UCSXDIR
 10
1.0
 20
0.0
 30
0.0
  9
$UCSYDIR
 10
0.0
 20
1.0
 30
0.0
  9
$UCSORTHOREF
  2

  9
$UCSORTHOVIEW
 70
     0
  9
$UCSORGTOP
 10
0.0
 20
0.0
 30
0.0
  9
$UCSORGBOTTOM
 10
0.0
 20
0.0
 30
0.0
  9
$UCSORGLEFT
 10
0.0
 20
0.0
 30
0.0
  9
$UCSORGRIGHT
 10
0.0
 20
0.0
 30
0.0
  9
$UCSORGFRONT
 10
0.0
 20
0.0
 30
0.0
  9
$UCSORGBACK
 10
0.0
 20
0.0
 30
0.0
  9
$PUCSBASE
  2

  9
$PUCSNAME
  2

  9
$PUCSORG
 10
0.0
 20
0.0
 30
0.0
  9
$PUCSXDIR
 10
1.0
 20
0.0
 30
0.0
  9
$PUCSYDIR
 10
0.0
 20
1.0
 30
0.0
  9
$PUCSORTHOREF
  2

  9
$PUCSORTHOVIEW
 70
     0
  9
$PUCSORGTOP
 10
0.0
 20
0.0
 30
0.0
  9
$PUCSORGBOTTOM
 10
0.0
 20
0.0
 30
0.0
  9
$PUCSORGLEFT
 10
0.0
 20
0.0
 30
0.0
  9
$PUCSORGRIGHT
 10
0.0
 20
0.0
 30
0.0
  9
$PUCSORGFRONT
 10
0.0
 20
0.0
 30
0.0
  9
$PUCSORGBACK
 10
0.0
 20
0.0
 30
0.0
  9
$USERI1
 70
     0
  9
$USERI2
 70
     0
  9
$USERI3
 70
     0
  9
$USERI4
 70
     0
  9
$USERI5
 70
     0
  9
$USERR1
 40
0.0
  9
$USERR2
 40
0.0
  9
$USERR3
 40
0.0
  9
$USERR4
 40
0.0
  9
$USERR5
 40
0.0
  9
$WORLDVIEW
 70
     1
  9
$SHADEDGE
 70
     3
  9
$SHADEDIF
 70
    70
  9
$TILEMODE
 70
     1
  9
$MAXACTVP
 70
    64
  9
$PINSBASE
 10
0.0
 20
0.0
 30
0.0
  9
$PLIMCHECK
 70
     0
  9
$PEXTMIN
 10
1.000000000000000E+20
 20
1.000000000000000E+20
 30
1.000000000000000E+20
  9
$PEXTMAX
 10
-1.000000000000000E+20
 20
-1.000000000000000E+20
 30
-1.000000000000000E+20
  9
$PLIMMIN
 10
0.0
 20
0.0
  9
$PLIMMAX
 10
12.0
 20
9.0
  9
$UNITMODE
 70
     0
  9
$VISRETAIN
 70
     1
  9
$PLINEGEN
 70
     0
  9
$PSLTSCALE
 70
     1
  9
$TREEDEPTH
 70
  3020
  9
$CMLSTYLE
  2
Standard
  9
$CMLJUST
 70
     0
  9
$CMLSCALE
 40
1.0
  9
$PROXYGRAPHICS
 70
     1
  9
$MEASUREMENT
 70
     0
  9
$CELWEIGHT
370
    -1
  9
$ENDCAPS
280
     0
  9
$JOINSTYLE
280
     0
  9
$LWDISPLAY
290
     1
  9
$INSUNITS
 70
     1
  9
$HYPERLINKBASE
  1

  9
$STYLESHEET
  1

  9
$XEDIT
290
     1
  9
$CEPSNTYPE
380
     0
  9
$PSTYLEMODE
290
     1
  9
$FINGERPRINTGUID
  2
{47E13244-5DAA-4AA5-AF34-346CAC6246A5}
  9
$VERSIONGUID
  2
{E40EEDA1-73C6-4AB8-B65C-127DC0CDE7E9}
  9
$EXTNAMES
290
     1
  9
$PSVPSCALE
 40
0.0
  9
$OLESTARTUP
290
     0
  9
$SORTENTS
280
   127
  9
$INDEXCTL
280
     0
  9
$HIDETEXT
280
     0
  9
$XCLIPFRAME
290
     0
  9
$HALOGAP
280
     0
  9
$OBSCOLOR
 70
   257
  9
$OBSLTYPE
280
     0
  9
$INTERSECTIONDISPLAY
280
     0
  9
$INTERSECTIONCOLOR
 70
   257
  9
$DIMASSOC
280
     1
  9
$PROJECTNAME
  1

  0
ENDSEC
  0
SECTION
  2
CLASSES
  0
CLASS
  1
ACDBDICTIONARYWDFLT
  2
AcDbDictionaryWithDefault
  3
ObjectDBX Classes
 90
        0
 91
        1
280
     0
281
     0
  0
CLASS
  1
VISUALSTYLE
  2
AcDbVisualStyle
  3
ObjectDBX Classes
 90
     4095
 91
        0
280
     0
281
     0
  0
CLASS
  1
MATERIAL
  2
AcDbMaterial
  3
ObjectDBX Classes
 90
        0
 91
        0
280
     0
281
     0
  0
CLASS
  1
SCALE
  2
AcDbScale
  3
ObjectDBX Classes
 90
     1153
 91
       33
280
     0
281
     0
  0
CLASS
  1
SUN
  2
AcDbSun
  3
SCENEOE
 90
     1153
 91
        1
280
     0
281
     0
  0
CLASS
  1
ACDBPLACEHOLDER
  2
AcDbPlaceHolder
  3
ObjectDBX Classes
 90
        0
 91
        1
280
     0
281
     0
  0
CLASS
  1
LAYOUT
  2
AcDbLayout
  3
ObjectDBX Classes
 90
        0
 91
        3
280
     0
281
     0
  0
ENDSEC
  0
SECTION
  2
TABLES
  0
TABLE
  2
VPORT
  5
8
330
0
100
AcDbSymbolTable
 70
     4
  0
VPORT
  5
143
330
8
100
AcDbSymbolTableRecord
100
AcDbViewportTableRecord
  2
*Active
 70
     0
 10
0.0
 20
0.0
 11
1.0
 21
1.0
 12
6.485870893786621
 22
4.990662660208213
 13
0.0
 23
0.0
 14
0.5
 24
0.5
 15
0.5
 25
0.5
 16
0.0
 26
0.0
 36
1.0
 17
0.0
 27
0.0
 37
0.0
 40
9.741442762074509
 41
2.144329896907216
 42
50.0
 43
0.0
 44
0.0
 50
0.0
 51
0.0
 71
     0
 72
  2000
 73
     1
 74
     3
 75
     0
 76
     0
 77
     0
 78
     0
281
     0
 65
     1
110
0.0
120
0.0
130
0.0
111
1.0
121
0.0
131
0.0
112
0.0
122
1.0
132
0.0
 79
     0
146
0.0
  0
ENDTAB
  0
TABLE
  2
LTYPE
  5
5
330
0
100
AcDbSymbolTable
 70
     6
  0
LTYPE
  5
14
330
5
100
AcDbSymbolTableRecord
100
AcDbLinetypeTableRecord
  2
ByBlock
 70
     0
  3

 72
    65
 73
     0
 40
0.0
  0
LTYPE
  5
15
330
5
100
AcDbSymbolTableRecord
100
AcDbLinetypeTableRecord
  2
ByLayer
 70
     0
  3

 72
    65
 73
     0
 40
0.0
  0
LTYPE
  5
16
330
5
100
AcDbSymbolTableRecord
100
AcDbLinetypeTableRecord
  2
Continuous
 70
     0
  3
Solid line
 72
    65
 73
     0
 40
0.0
  0
LTYPE
  5
6A
330
5
100
AcDbSymbolTableRecord
100
AcDbLinetypeTableRecord
  2
HIDDEN
 70
     0
  3
Hidden __ __ __ __ __ __ __ __ __ __ __ __ __ __
 72
    65
 73
     2
 40
0.075
 49
0.05
 74
     0
 49
-0.025
 74
     0
  0
LTYPE
  5
6B
330
5
100
AcDbSymbolTableRecord
100
AcDbLinetypeTableRecord
  2
PHANTOM
 70
     0
  3
Phantom ______  __  __  ______  __  __  ______
 72
    65
 73
     6
 40
0.5
 49
0.25
 74
     0
 49
-0.05
 74
     0
 49
0.05
 74
     0
 49
-0.05
 74
     0
 49
0.05
 74
     0
 49
-0.05
 74
     0
  0
LTYPE
  5
6C
330
5
100
AcDbSymbolTableRecord
100
AcDbLinetypeTableRecord
  2
CENTER
 70
     0
  3
Center ____ _ ____ _ ____ _ ____ _ ____ _ ____
 72
    65
 73
     4
 40
0.4
 49
0.25
 74
     0
 49
-0.05
 74
     0
 49
0.05
 74
     0
 49
-0.05
 74
     0
  0
LTYPE
  5
6D
330
5
100
AcDbSymbolTableRecord
100
AcDbLinetypeTableRecord
  2
CENTERX2
 70
     0
  3
Center (2x) ________  __  ________  __  _____
 72
    65
 73
     4
 40
0.8
 49
0.5
 74
     0
 49
-0.1
 74
     0
 49
0.1
 74
     0
 49
-0.1
 74
     0
  0
LTYPE
  5
6E
330
5
100
AcDbSymbolTableRecord
100
AcDbLinetypeTableRecord
  2
DOT2
 70
     0
  3
Dot (.5x) ........................................
 72
    65
 73
     2
 40
0.025
 49
0.0
 74
     0
 49
-0.025
 74
     0
  0
ENDTAB
  0
TABLE
  2
LAYER
  5
2
330
0
100
AcDbSymbolTable
 70
     8
  0
LAYER
  5
10
330
2
100
AcDbSymbolTableRecord
100
AcDbLayerTableRecord
  2
0
 70
     0
 62
     7
  6
Continuous
370
    -3
390
F
  0
LAYER
  5
6F
330
2
100
AcDbSymbolTableRecord
100
AcDbLayerTableRecord
  2
SLD-0
 70
     0
 62
   179
  6
Continuous
370
    -3
390
F
  0
LAYER
  5
70
330
2
100
AcDbSymbolTableRecord
100
AcDbLayerTableRecord
  2
SLD-DEFPOINTS
 70
     0
 62
   179
  6
Continuous
370
    -3
390
F
  0
LAYER
  5
71
330
2
100
AcDbSymbolTableRecord
100
AcDbLayerTableRecord
  2
OBJ
 70
     0
 62
    70
  6
HIDDEN
370
    -3
390
F
  0
LAYER
  5
72
330
2
100
AcDbSymbolTableRecord
100
AcDbLayerTableRecord
  2
FORMAT
 70
     0
 62
     7
  6
Continuous
370
    -3
390
F
  0
LAYER
  5
73
330
2
100
AcDbSymbolTableRecord
100
AcDbLayerTableRecord
  2
BLANK-SIZE-1
 70
     0
 62
     7
  6
Continuous
370
    -3
390
F
  0
LAYER
  5
74
330
2
100
AcDbSymbolTableRecord
100
AcDbLayerTableRecord
  2
TOLERANCES
 70
     0
 62
     7
  6
Continuous
370
    -3
390
F
  0
LAYER
  5
75
330
2
100
AcDbSymbolTableRecord
100
AcDbLayerTableRecord
  2
QTY-BLANK-SIZE-1
 70
     0
 62
     7
  6
Continuous
370
    -3
390
F
  0
ENDTAB
  0
TABLE
  2
STYLE
  5
3
330
0
100
AcDbSymbolTable
 70
     2
  0
STYLE
  5
11
330
3
100
AcDbSymbolTableRecord
100
AcDbTextStyleTableRecord
  2
Standard
 70
     0
 40
0.0
 41
1.0
 50
0.0
 71
     0
 42
0.25
  3
txt
  4

  0
STYLE
  5
133
330
3
100
AcDbSymbolTableRecord
100
AcDbTextStyleTableRecord
  2
SLDTEXTSTYLE0
 70
     0
 40
0.0
 41
0.7
 50
0.0
 71
     0
 42
0.1388888888888889
  3
TXT
  4

  0
ENDTAB
  0
TABLE
  2
VIEW
  5
6
330
0
100
AcDbSymbolTable
 70
     0
  0
ENDTAB
  0
TABLE
  2
UCS
  5
7
330
0
100
AcDbSymbolTable
 70
     0
  0
ENDTAB
  0
TABLE
  2
APPID
  5
9
330
0
100
AcDbSymbolTable
 70
     1
  0
APPID
  5
12
330
9
100
AcDbSymbolTableRecord
100
AcDbRegAppTableRecord
  2
ACAD
 70
     0
  0
ENDTAB
  0
TABLE
  2
DIMSTYLE
  5
A
330
0
100
AcDbSymbolTable
 70
     1
100
AcDbDimStyleTable
 71
     0
  0
DIMSTYLE
105
27
330
A
100
AcDbSymbolTableRecord
100
AcDbDimStyleTableRecord
  2
Standard
 70
     0
340
11
  0
ENDTAB
  0
TABLE
  2
BLOCK_RECORD
  5
1
330
0
100
AcDbSymbolTable
 70
     2
  0
BLOCK_RECORD
  5
1F
330
1
100
AcDbSymbolTableRecord
100
AcDbBlockTableRecord
  2
*Model_Space
340
22
  0
BLOCK_RECORD
  5
1B
330
1
100
AcDbSymbolTableRecord
100
AcDbBlockTableRecord
  2
*Paper_Space
340
1E
  0
BLOCK_RECORD
  5
23
330
1
100
AcDbSymbolTableRecord
100
AcDbBlockTableRecord
  2
*Paper_Space0
340
26
  0
ENDTAB
  0
ENDSEC
  0
SECTION
  2
BLOCKS
  0
BLOCK
  5
20
330
1F
100
AcDbEntity
  8
0
100
AcDbBlockBegin
  2
*Model_Space
 70
     0
 10
0.0
 20
0.0
 30
0.0
  3
*Model_Space
  1

  0
ENDBLK
  5
21
330
1F
100
AcDbEntity
  8
0
100
AcDbBlockEnd
  0
BLOCK
  5
1C
330
1B
100
AcDbEntity
 67
     1
  8
0
100
AcDbBlockBegin
  2
*Paper_Space
 70
     0
 10
0.0
 20
0.0
 30
0.0
  3
*Paper_Space
  1

  0
ENDBLK
  5
1D
330
1B
100
AcDbEntity
 67
     1
  8
0
100
AcDbBlockEnd
  0
BLOCK
  5
24
330
23
100
AcDbEntity
  8
0
100
AcDbBlockBegin
  2
*Paper_Space0
 70
     0
 10
0.0
 20
0.0
 30
0.0
  3
*Paper_Space0
  1

  0
ENDBLK
  5
25
330
23
100
AcDbEntity
  8
0
100
AcDbBlockEnd
  0
ENDSEC
  0
SECTION
  2
ENTITIES
  0
SPLINE
  5
76
330
1F
100
AcDbEntity
  8
0
  6
Continuous
 62
     7
370
    15
100
AcDbSpline
210
0.0
220
0.0
230
1.0
 70
     8
 71
     3
 72
    19
 73
    15
 74
     0
 42
0.0000000001
 43
0.0000000001
 40
0.0
 40
0.0
 40
0.0
 40
0.0
 40
0.048681746816266
 40
0.1380143402740943
 40
0.2276612036030214
 40
0.3175938665486888
 40
0.4077517448437783
 40
0.4980652344641233
 40
0.5884732674541568
 40
0.6789288296201726
 40
0.7693980589346373
 40
0.859858722844056
 40
0.9503059491204911
 40
1.0
 40
1.0
 40
1.0
 40
1.0
 10
3.535305437014092
 20
6.627980222774824
 30
0.0
 10
3.53480352778636
 20
6.62758198422739
 30
0.0
 10
3.533380598752929
 20
6.626452964954454
 30
0.0
 10
3.531274524862351
 20
6.624170134755441
 30
0.0
 10
3.528994096990434
 20
6.621190019881312
 30
0.0
 10
3.526981705030623
 20
6.617852675018498
 30
0.0
 10
3.525242743376269
 20
6.614211248763487
 30
0.0
 10
3.523796505214799
 20
6.610291764345235
 30
0.0
 10
3.522654724229598
 20
6.606131130985122
 30
0.0
 10
3.521828093643362
 20
6.601766329388722
 30
0.0
 10
3.521321691933279
 20
6.597236400166127
 30
0.0
 10
3.521144839748982
 20
6.592581124914005
 30
0.0
 10
3.521257578923516
 20
6.588553350360174
 30
0.0
 10
3.521480691309525
 20
6.586087299452599
 30
0.0
 10
3.52155980688837
 20
6.585212838610228
 30
0.0
  0
SPLINE
  5
77
330
1F
100
AcDbEntity
  8
0
  6
Continuous
 62
     7
370
    15
100
AcDbSpline
210
0.0
220
0.0
230
1.0
 70
     8
 71
     3
 72
    24
 73
    20
 74
     0
 42
0.0000000001
 43
0.0000000001
 40
0.0
 40
0.0
 40
0.0
 40
0.0
 40
0.0330391503805194
 40
0.0955422730897125
 40
0.1580551965887211
 40
0.2205712490407998
 40
0.2830946314517475
 40
0.345630474646578
 40
0.4081827199349782
 40
0.4707571038814024
 40
0.5333557996597853
 40
0.595979227857154
 40
0.6586223538311266
 40
0.7212692191719317
 40
0.7838946422816095
 40
0.8464618812184292
 40
0.9089240042802012
 40
0.9712269389375514
 40
1.0
 40
1.0
 40
1.0
 40
1.0
 10
3.52155980688837
 20
6.585212838610228
 30
0.0
 10
3.521654306275935
 20
6.584370762203719
 30
0.0
 10
3.521927578626753
 20
6.581935654367516
 30
0.0
 10
3.522624805461027
 20
6.577903380274892
 30
0.0
 10
3.523747706035735
 20
6.573163104744544
 30
0.0
 10
3.525177472188261
 20
6.568505363670725
 30
0.0
 10
3.526896060969041
 20
6.563971258774428
 30
0.0
 10
3.528890763774387
 20
6.559599953890329
 30
0.0
 10
3.531144050739328
 20
6.555429294333142
 30
0.0
 10
3.533637558816423
 20
6.551495559988874
 30
0.0
 10
3.536350397492685
 20
6.547833178611849
 30
0.0
 10
3.539260153640595
 20
6.544474337704826
 30
0.0
 10
3.542342262814559
 20
6.541449275487091
 30
0.0
 10
3.545571090809608
 20
6.538785305444054
 30
0.0
 10
3.548918491402036
 20
6.536509403661075
 30
0.0
 10
3.552355230837686
 20
6.534634844220292
 30
0.0
 10
3.5558493238291
 20
6.533211965197956
 30
0.0
 10
3.558743223513885
 20
6.532326774090515
 30
0.0
 10
3.56045753764836
 20
6.532086612527353
 30
0.0
 10
3.560999130028235
 20
6.532010739809552
 30
0.0
  0
LINE
  5
78
330
1F
100
AcDbEntity
  8
0
  6
Continuous
 62
     7
370
    15
100
AcDbLine
 10
3.557408567338996
 20
6.636390833438181
 30
0.0
 11
3.545034222195244
 21
6.633075609614558
 31
0.0
  0
LINE
  5
79
330
1F
100
AcDbEntity
  8
0
  6
Continuous
 62
     7
370
    15
100
AcDbLine
 10
3.571990955178726
 20
6.5324574009723
 30
0.0
 11
3.584365300322478
 21
6.535772624795922
 31
0.0
  0
SPLINE
  5
7A
330
1F
100
AcDbEntity
  8
0
  6
Continuous
 62
     7
370
    15
100
AcDbSpline
210
0.0
220
0.0
230
1.0
 70
     8
 71
     3
 72
    36
 73
    32
 74
     0
 42
0.0000000001
 43
0.0000000001
 40
0.0
 40
0.0
 40
0.0
 40
0.0
 40
0.0060793785792521
 40
0.0423051692928626
 40
0.0786587891282796
 40
0.1151360163642241
 40
0.1517162241540197
 40
0.1883731785272742
 40
0.2250795341642703
 40
0.2618129750496348
 40
0.2985582744833777
 40
0.3353029138766599
 40
0.3720423175555193
 40
0.4087757467443987
 40
0.4455041034490577
 40
0.4822286273165986
 40
0.5189526390462437
 40
0.555679568808289
 40
0.5924118329776359
 40
0.6291522862260798
 40
0.6659046167057086
 40
0.7026706623741448
 40
0.7394516341334049
 40
0.7762456998276158
 40
0.8130483801101737
 40
0.8498466531650777
 40
0.88662341495135
 40
0.9233539322695191
 40
0.9600083193649215
 40
0.9965548695323729
 40
1.0
 40
1.0
 40
1.0
 40
1.0
 10
3.593878632556333
 20
6.540664183834978
 30
0.0
 10
3.594037155624327
 20
6.540778356127504
 30
0.0
 10
3.595140285679628
 20
6.541572858082091
 30
0.0
 10
3.596990225538621
 20
6.54342842252603
 30
0.0
 10
3.599389488390306
 20
6.546230017201501
 30
0.0
 10
3.601521365786833
 20
6.549418484327891
 30
0.0
 10
3.603390370099001
 20
6.552920053476292
 30
0.0
 10
3.604973031410751
 20
6.556716435502704
 30
0.0
 10
3.606256651315931
 20
6.560770112659325
 30
0.0
 10
3.607229796848376
 20
6.56504558007031
 30
0.0
 10
3.60788421669809
 20
6.569504277779267
 30
0.0
 10
3.608214780470883
 20
6.574106720430024
 30
0.0
 10
3.608219376902363
 20
6.578812477318513
 30
0.0
 10
3.607898664691122
 20
6.583580680183086
 30
0.0
 10
3.607255513649961
 20
6.588369930877026
 30
0.0
 10
3.606296171360768
 20
6.59313896638335
 30
0.0
 10
3.605028856769771
 20
6.597846585765977
 30
0.0
 10
3.603464563505314
 20
6.602452193392526
 30
0.0
 10
3.60161652704743
 20
6.60691597257656
 30
0.0
 10
3.599500426626106
 20
6.611199309621055
 30
0.0
 10
3.597133767138978
 20
6.615265045452507
 30
0.0
 10
3.594536509646242
 20
6.619077826679076
 30
0.0
 10
3.591729929739318
 20
6.622604123296603
 30
0.0
 10
3.588737559060921
 20
6.625812665122569
 30
0.0
 10
3.585584357287205
 20
6.628674074185219
 30
0.0
 10
3.582297176781509
 20
6.631163065958073
 30
0.0
 10
3.578905035817833
 20
6.633251936525553
 30
0.0
 10
3.57543713105257
 20
6.634936506383847
 30
0.0
 10
3.571928788466562
 20
6.636140608593628
 30
0.0
 10
3.569462123761403
 20
6.636794820508892
 30
0.0
 10
3.56818432613659
 20
6.63691469561715
 30
0.0
 10
3.568074248754024
 20
6.636925022399651
 30
0.0
  0
SPLINE
  5
7B
330
1F
100
AcDbEntity
  8
0
  6
Continuous
 62
     7
370
    15
100
AcDbSpline
210
0.0
220
0.0
230
1.0
 70
     8
 71
     3
 72
    19
 73
    15
 74
     0
 42
0.0000000001
 43
0.0000000001
 40
0.0
 40
0.0
 40
0.0
 40
0.0
 40
0.0486818247155498
 40
0.1380132862226421
 40
0.2276616829392961
 40
0.3175944897929062
 40
0.4077509299940293
 40
0.4980645178896886
 40
0.5884744519260928
 40
0.6789301325786625
 40
0.7693995066596697
 40
0.8598603153219249
 40
0.9503076863296938
 40
1.0
 40
1.0
 40
1.0
 40
1.0
 10
3.712082130174348
 20
6.339758853734699
 30
0.0
 10
3.711580222856243
 20
6.339360612243539
 30
0.0
 10
3.710157312380812
 20
6.33823159505435
 30
0.0
 10
3.708051168175781
 20
6.335948870902854
 30
0.0
 10
3.705770814953121
 20
6.332968646584622
 30
0.0
 10
3.703758415920707
 20
6.329631321506569
 30
0.0
 10
3.702019418050861
 20
6.325989961699059
 30
0.0
 10
3.700573191751185
 20
6.322070462217885
 30
0.0
 10
3.699431427406047
 20
6.317909787575421
 30
0.0
 10
3.698604790994664
 20
6.313544958913993
 30
0.0
 10
3.698098389219305
 20
6.309015029952043
 30
0.0
 10
3.697921538092901
 20
6.304359754619929
 30
0.0
 10
3.698034272880895
 20
6.300332012220468
 30
0.0
 10
3.698257386056521
 20
6.297865992812416
 30
0.0
 10
3.698336500048626
 20
6.296991563772394
 30
0.0
  0
SPLINE
  5
7C
330
1F
100
AcDbEntity
  8
0
  6
Continuous
 62
     7
370
    15
100
AcDbSpline
210
0.0
220
0.0
230
1.0
 70
     8
 71
     3
 72
    24
 73
    20
 74
     0
 42
0.0000000001
 43
0.0000000001
 40
0.0
 40
0.0
 40
0.0
 40
0.0
 40
0.0330403644669544
 40
0.0955422413467789
 40
0.1580562808070756
 40
0.220572320874339
 40
0.2830956584150528
 40
0.3456303848282954
 40
0.4081835910938266
 40
0.4707579301334154
 40
0.5333565198451183
 40
0.5959799685568913
 40
0.6586224575790256
 40
0.7212697641914998
 40
0.7838946165228938
 40
0.8464619640152562
 40
0.9089241885858182
 40
0.9712268932119366
 40
1.0
 40
1.0
 40
1.0
 40
1.0
 10
3.698336500048626
 20
6.296991563772394
 30
0.0
 10
3.698430997111469
 20
6.296149455872182
 30
0.0
 10
3.698704252607601
 20
6.293714347254583
 30
0.0
 10
3.699401534868048
 20
6.289682047014213
 30
0.0
 10
3.700524377107925
 20
6.284941760649071
 30
0.0
 10
3.701954177591501
 20
6.280283998079779
 30
0.0
 10
3.703672732840573
 20
6.27574990354816
 30
0.0
 10
3.705667503321445
 20
6.271378649683636
 30
0.0
 10
3.70792072079903
 20
6.267207933621619
 30
0.0
 10
3.710414258996958
 20
6.263274192951635
 30
0.0
 10
3.713127094141462
 20
6.259611813560782
 30
0.0
 10
3.716036828014343
 20
6.256252947069979
 30
0.0
 10
3.719118999840641
 20
6.253228040495939
 30
0.0
 10
3.722347751800404
 20
6.250563890786548
 30
0.0
 10
3.725695201935601
 20
6.248288145672548
 30
0.0
 10
3.729131928450545
 20
6.246413608309384
 30
0.0
 10
3.732626013115173
 20
6.2449905076056
 30
0.0
 10
3.735519914500591
 20
6.244105576348767
 30
0.0
 10
3.737234232083609
 20
6.243865283940782
 30
0.0
 10
3.737775827509649
 20
6.243789369611741
 30
0.0
  0
LINE
  5
7D
330
1F
100
AcDbEntity
  8
0
  6
Continuous
 62
     7
370
    15
100
AcDbLine
 10
3.73418526482041
 20
6.34816946324037
 30
0.0
 11
3.721810919676658
 21
6.344854239416747
 31
0.0
  0
LINE
  5
7E
330
1F
100
AcDbEntity
  8
0
  6
Continuous
 62
     7
370
    15
100
AcDbLine
 10
3.74876765266014
 20
6.244236030774489
 30
0.0
 11
3.761141997803892
 21
6.247551254598111
 31
0.0
  0
SPLINE
  5
7F
330
1F
100
AcDbEntity
  8
0
  6
Continuous
 62
     7
370
    15
100
AcDbSpline
210
0.0
220
0.0
230
1.0
 70
     8
 71
     3
 72
    36
 73
    32
 74
     0
 42
0.0000000001
 43
0.0000000001
 40
0.0
 40
0.0
 40
0.0
 40
0.0
 40
0.0060793412347403
 40
0.0423056582545561
 40
0.0786587319460721
 40
0.1151359287802627
 40
0.151716784900145
 40
0.1883730560949688
 40
0.2250794258101193
 40
0.2618128515412883
 40
0.2985581568034529
 40
0.3353027894759264
 40
0.3720429281944667
 40
0.4087763503716062
 40
0.4455039801203487
 40
0.4822285014157231
 40
0.5189525275202011
 40
0.5556794338404801
 40
0.5924116954371185
 40
0.6291527585690538
 40
0.6659045152263993
 40
0.7026705583197609
 40
0.7394515646300663
 40
0.7762455882368187
 40
0.8130483490423946
 40
0.8498468756005305
 40
0.8866233553636369
 40
0.9233540839001863
 40
0.9600084143153262
 40
0.996554869773668
 40
1.0
 40
1.0
 40
1.0
 40
1.0
 10
3.770655330037747
 20
6.252442813637166
 30
0.0
 10
3.770813851852966
 20
6.252556986032807
 30
0.0
 10
3.771916992716682
 20
6.253351502768344
 30
0.0
 10
3.773766872148388
 20
6.255207161677351
 30
0.0
 10
3.7761662109623
 20
6.258008638174959
 30
0.0
 10
3.778298078642205
 20
6.261197130805255
 30
0.0
 10
3.780167028936157
 20
6.264698750237862
 30
0.0
 10
3.781749743183985
 20
6.268495082134503
 30
0.0
 10
3.783033348535151
 20
6.272548742096073
 30
0.0
 10
3.784006487289565
 20
6.276824213268207
 30
0.0
 10
3.784660917427233
 20
6.281282905489015
 30
0.0
 10
3.784991473959622
 20
6.28588538341468
 30
0.0
 10
3.784996069006305
 20
6.290591170465008
 30
0.0
 10
3.784675371321475
 20
6.295359372842269
 30
0.0
 10
3.7840321998878
 20
6.300148591948156
 30
0.0
 10
3.783072871850243
 20
6.304917597635482
 30
0.0
 10
3.781805546390878
 20
6.309625213340522
 30
0.0
 10
3.780241266404183
 20
6.314230828010715
 30
0.0
 10
3.778393198720735
 20
6.318694614579182
 30
0.0
 10
3.776277167216327
 20
6.322978010798083
 30
0.0
 10
3.773910436505538
 20
6.327043680805611
 30
0.0
 10
3.771313210989682
 20
6.33085646335199
 30
0.0
 10
3.768506622026703
 20
6.334382746010924
 30
0.0
 10
3.765514257354509
 20
6.33759131173581
 30
0.0
 10
3.762361029958519
 20
6.340452669679188
 30
0.0
 10
3.75907389794465
 20
6.342941850461669
 30
0.0
 10
3.755681704684644
 20
6.345030496534155
 30
0.0
 10
3.752213836784083
 20
6.34671530536758
 30
0.0
 10
3.748705474802478
 20
6.347919193140221
 30
0.0
 10
3.746238818357342
 20
6.348573451401111
 30
0.0
 10
3.744961023622671
 20
6.348693325483885
 30
0.0
 10
3.744850946235438
 20
6.34870365220184
 30
0.0
  0
SPLINE
  5
80
330
1F
100
AcDbEntity
  8
0
  6
Continuous
 62
     7
370
    15
100
AcDbSpline
210
0.0
220
0.0
230
1.0
 70
     8
 71
     3
 72
    19
 73
    15
 74
     0
 42
0.0000000001
 43
0.0000000001
 40
0.0
 40
0.0
 40
0.0
 40
0.0
 40
0.0486817456126945
 40
0.1380130619655385
 40
0.2276613130129577
 40
0.3175954664072857
 40
0.4077517601136566
 40
0.4980652475011578
 40
0.588471558294588
 40
0.6789306516541034
 40
0.7693998787318738
 40
0.8598605404048102
 40
0.95030595034909
 40
1.0
 40
1.0
 40
1.0
 40
1.0
 10
3.535305437014092
 20
5.503962631970808
 30
0.0
 10
3.534803529592851
 20
5.503564390598618
 30
0.0
 10
3.533380618825029
 20
5.502435373746704
 30
0.0
 10
3.531274478239808
 20
5.500152645419724
 30
0.0
 10
3.528994097218998
 20
5.497172422023535
 30
0.0
 10
3.526981745874075
 20
5.493835010367695
 30
0.0
 10
3.52524271832105
 20
5.490193650717014
 30
0.0
 10
3.523796528243051
 20
5.486274188066948
 30
0.0
 10
3.522654684070948
 20
5.482113565293798
 30
0.0
 10
3.521828115809253
 20
5.477748694177232
 30
0.0
 10
3.521321688198031
 20
5.473218717514847
 30
0.0
 10
3.521144840300529
 20
5.468563470791389
 30
0.0
 10
3.52125758180303
 20
5.464535727646135
 30
0.0
 10
3.521480691307268
 20
5.462069708651836
 30
0.0
 10
3.52155980688837
 20
5.461195247806213
 30
0.0
  0
SPLINE
  5
81
330
1F
100
AcDbEntity
  8
0
  6
Continuous
 62
     7
370
    15
100
AcDbSpline
210
0.0
220
0.0
230
1.0
 70
     8
 71
     3
 72
    24
 73
    20
 74
     0
 42
0.0000000001
 43
0.0000000001
 40
0.0
 40
0.0
 40
0.0
 40
0.0
 40
0.033040400334697
 40
0.0955423264077724
 40
0.1580564594112153
 40
0.2205725348640389
 40
0.2830948506561645
 40
0.3456296901303895
 40
0.4081819584328506
 40
0.4707563654014809
 40
0.5333558713079275
 40
0.5959800151237408
 40
0.65862198017216
 40
0.7212698410453288
 40
0.7838945350038094
 40
0.8464617969602064
 40
0.9089240893381013
 40
0.9712270184616189
 40
1.0
 40
1.0
 40
1.0
 40
1.0
 10
3.52155980688837
 20
5.461195247806213
 30
0.0
 10
3.521654304203444
 20
5.46035313994415
 30
0.0
 10
3.521927560375586
 20
5.457918031912378
 30
0.0
 10
3.522624833358382
 20
5.453885730093011
 30
0.0
 10
3.523747689939091
 20
5.449145448629564
 30
0.0
 10
3.525177458250591
 20
5.444487702614946
 30
0.0
 10
3.526896060339823
 20
5.439953663918118
 30
0.0
 10
3.528890785542563
 20
5.43558244152821
 30
0.0
 10
3.531144046330566
 20
5.431411793977099
 30
0.0
 10
3.533637577466039
 20
5.427478054854076
 30
0.0
 10
3.536350402310548
 20
5.423815610274267
 30
0.0
 10
3.539260088059605
 20
5.420456601822866
 30
0.0
 10
3.542342344790105
 20
5.41743186749737
 30
0.0
 10
3.545571021585115
 20
5.414767519906373
 30
0.0
 10
3.54891852547181
 20
5.41249196268955
 30
0.0
 10
3.552355230778748
 20
5.41061737491559
 30
0.0
 10
3.55584931951406
 20
5.409194289242524
 30
0.0
 10
3.558743219525418
 20
5.40830935375049
 30
0.0
 10
3.560457537443955
 20
5.40806906254234
 30
0.0
 10
3.560999130028235
 20
5.407993149005537
 30
0.0
  0
LINE
  5
82
330
1F
100
AcDbEntity
  8
0
  6
Continuous
 62
     7
370
    15
100
AcDbLine
 10
3.557408567338996
 20
5.512373242634165
 30
0.0
 11
3.545034222195244
 21
5.509058018810543
 31
0.0
  0
LINE
  5
83
330
1F
100
AcDbEntity
  8
0
  6
Continuous
 62
     7
370
    15
100
AcDbLine
 10
3.571990955178726
 20
5.408439715965995
 30
0.0
 11
3.584365300322478
 21
5.411754939789616
 31
0.0
  0
SPLINE
  5
84
330
1F
100
AcDbEntity
  8
0
  6
Continuous
 62
     7
370
    15
100
AcDbSpline
210
0.0
220
0.0
230
1.0
 70
     8
 71
     3
 72
    36
 73
    32
 74
     0
 42
0.0000000001
 43
0.0000000001
 40
0.0
 40
0.0
 40
0.0
 40
0.0
 40
0.006078497703455
 40
0.0423047917557215
 40
0.0786589638971596
 40
0.1151356121964322
 40
0.1517158287417645
 40
0.1883721318487638
 40
0.2250791840633535
 40
0.2618133433318566
 40
0.2985586515606511
 40
0.335303299748827
 40
0.3720419746082096
 40
0.4087754125892995
 40
0.4455030537012493
 40
0.4822275863588692
 40
0.5189522928581293
 40
0.5556785736949176
 40
0.5924114703896658
 40
0.6291525167536174
 40
0.6659043161976141
 40
0.7026703706660676
 40
0.7394513512289175
 40
0.7762454257298525
 40
0.8130481148211961
 40
0.8498466527644744
 40
0.8866232329713158
 40
0.9233537590809984
 40
0.9600081549496922
 40
0.9965546984634247
 40
0.9999999999999998
 40
0.9999999999999998
 40
0.9999999999999998
 40
0.9999999999999998
 10
3.593878632556333
 20
5.416646687233254
 30
0.0
 10
3.594037157411339
 20
5.41676079312695
 30
0.0
 10
3.595140449919828
 20
5.417554941007966
 30
0.0
 10
3.596990174916369
 20
5.41941094264815
 30
0.0
 10
3.599389456980438
 20
5.422212489136496
 30
0.0
 10
3.601521390628018
 20
5.425400897571523
 30
0.0
 10
3.603390344114652
 20
5.428902455146099
 30
0.0
 10
3.604973067383967
 20
5.432698782493988
 30
0.0
 10
3.606256647127693
 20
5.436752527523782
 30
0.0
 10
3.607229788558601
 20
5.441028056720056
 30
0.0
 10
3.607884217548704
 20
5.445486780722762
 30
0.0
 10
3.60821477893361
 20
5.45008919289394
 30
0.0
 10
3.608219374382674
 20
5.454794918385138
 30
0.0
 10
3.607898670977685
 20
5.459563057720342
 30
0.0
 10
3.607255506828785
 20
5.464352278339196
 30
0.0
 10
3.606296153742871
 20
5.469121307108969
 30
0.0
 10
3.605028894689854
 20
5.473828945817756
 30
0.0
 10
3.603464524219241
 20
5.478434552979049
 30
0.0
 10
3.601616527118989
 20
5.482898375526329
 30
0.0
 10
3.599500470714864
 20
5.487181790710989
 30
0.0
 10
3.597133739859511
 20
5.491247458915337
 30
0.0
 10
3.594536513731587
 20
5.495060240418414
 30
0.0
 10
3.591729927973568
 20
5.498586528719513
 30
0.0
 10
3.588737562037695
 20
5.501795084869985
 30
0.0
 10
3.585584339830227
 20
5.504656451580173
 30
0.0
 10
3.582297204621101
 20
5.50714562512434
 30
0.0
 10
3.578905023034784
 20
5.509234287509328
 30
0.0
 10
3.575437126665813
 20
5.510919012816787
 30
0.0
 10
3.571928813190608
 20
5.512122690791888
 30
0.0
 10
3.56946206214931
 20
5.512777974960565
 30
0.0
 10
3.568184325865413
 20
5.512897076761065
 30
0.0
 10
3.568074248754024
 20
5.512907337393346
 30
0.0
  0
SPLINE
  5
85
330
1F
100
AcDbEntity
  8
0
  6
Continuous
 62
     7
370
    15
100
AcDbSpline
210
0.0
220
0.0
230
1.0
 70
     8
 71
     3
 72
    19
 73
    15
 74
     0
 42
0.0000000001
 43
0.0000000001
 40
0.0
 40
0.0
 40
0.0
 40
0.0
 40
0.0486817377461646
 40
0.1380130396638758
 40
0.2276612762249485
 40
0.3175924297549322
 40
0.4077518736206024
 40
0.4980653001723259
 40
0.5884716327680125
 40
0.6789306852531105
 40
0.7693963013906519
 40
0.8598605764632537
 40
0.9503059717923733
 40
1.0
 40
1.0
 40
1.0
 40
1.0
 10
3.712082130174348
 20
5.215741262930683
 30
0.0
 10
3.711580223003697
 20
5.215343021274789
 30
0.0
 10
3.710157312946298
 20
5.214214003618572
 30
0.0
 10
3.708051163566027
 20
5.211931285248867
 30
0.0
 10
3.705770844646994
 20
5.208951053290115
 30
0.0
 10
3.703758350023481
 20
5.205613800721299
 30
0.0
 10
3.702019457043386
 20
5.20197229838311
 30
0.0
 10
3.700573220774843
 20
5.198052822415693
 30
0.0
 10
3.699431374699478
 20
5.193892197898572
 30
0.0
 10
3.698604831852262
 20
5.18952737821786
 30
0.0
 10
3.698098366378528
 20
5.184997417555362
 30
0.0
 10
3.697921541787377
 20
5.180342161851808
 30
0.0
 10
3.698034280683217
 20
5.176314357720227
 30
0.0
 10
3.698257385975045
 20
5.173848339267378
 30
0.0
 10
3.698336500048626
 20
5.172973878766088
 30
0.0
  0
SPLINE
  5
86
330
1F
100
AcDbEntity
  8
0
  6
Continuous
 62
     7
370
    15
100
AcDbSpline
210
0.0
220
0.0
230
1.0
 70
     8
 71
     3
 72
    24
 73
    20
 74
     0
 42
0.0000000001
 43
0.0000000001
 40
0.0
 40
0.0
 40
0.0
 40
0.0
 40
0.0330379319319178
 40
0.0955423295352093
 40
0.1580564504693849
 40
0.2205725720131345
 40
0.2830949014173444
 40
0.3456297093314271
 40
0.4081820422098494
 40
0.4707564628019049
 40
0.533355921195533
 40
0.5959801441013982
 40
0.658622122787951
 40
0.7212690248168349
 40
0.7838943348750594
 40
0.8464617639107764
 40
0.9089240698876874
 40
0.9712268557122543
 40
1.0
 40
1.0
 40
1.0
 40
1.0
 10
3.698336500048626
 20
5.172973878766088
 30
0.0
 10
3.698431000798542
 20
5.172131833702144
 30
0.0
 10
3.698704287328958
 20
5.169696725259262
 30
0.0
 10
3.699401504567988
 20
5.165664422680843
 30
0.0
 10
3.700524384387331
 20
5.160924077551642
 30
0.0
 10
3.701954155862865
 20
5.156266333482453
 30
0.0
 10
3.703672758452749
 20
5.1517322955582
 30
0.0
 10
3.705667477960118
 20
5.147361068963448
 30
0.0
 10
3.707920744034107
 20
5.143190425223362
 30
0.0
 10
3.710414274957102
 20
5.139256688095645
 30
0.0
 10
3.713127094746342
 20
5.135594232125647
 30
0.0
 10
3.716036791155961
 20
5.132235252743525
 30
0.0
 10
3.719119003555411
 20
5.12921044193122
 30
0.0
 10
3.72234777998473
 20
5.126546431808582
 30
0.0
 10
3.725695186259188
 20
5.124270524308213
 30
0.0
 10
3.729131930803672
 20
5.122396026694056
 30
0.0
 10
3.732626012474148
 20
5.120972914298457
 30
0.0
 10
3.735519914565445
 20
5.120087985798
 30
0.0
 10
3.737234232099179
 20
5.119847693197566
 30
0.0
 10
3.737775827509649
 20
5.119771778807726
 30
0.0
  0
LINE
  5
87
330
1F
100
AcDbEntity
  8
0
  6
Continuous
 62
     7
370
    15
100
AcDbLine
 10
3.73418526482041
 20
5.224151872436354
 30
0.0
 11
3.721810919676658
 21
5.220836648612732
 31
0.0
  0
LINE
  5
88
330
1F
100
AcDbEntity
  8
0
  6
Continuous
 62
     7
370
    15
100
AcDbLine
 10
3.74876765266014
 20
5.120218534172765
 30
0.0
 11
3.761141997803892
 21
5.123533757996386
 31
0.0
  0
SPLINE
  5
89
330
1F
100
AcDbEntity
  8
0
  6
Continuous
 62
     7
370
    15
100
AcDbSpline
210
0.0
220
0.0
230
1.0
 70
     8
 71
     3
 72
    36
 73
    32
 74
     0
 42
0.0000000001
 43
0.0000000001
 40
0.0
 40
0.0
 40
0.0
 40
0.0
 40
0.0060793439320315
 40
0.0423046876979599
 40
0.0786588647214073
 40
0.1151354900717677
 40
0.1517157358432229
 40
0.1883733433859546
 40
0.2250790415973337
 40
0.2618131932177076
 40
0.2985585147830843
 40
0.3353031637584714
 40
0.3720418435514983
 40
0.4087752820265775
 40
0.4455029280706898
 40
0.4822274656600548
 40
0.5189521940377377
 40
0.5556797743724755
 40
0.5924114285372062
 40
0.6291525079704714
 40
0.6659042809338915
 40
0.702670340339666
 40
0.7394513629690234
 40
0.7762454029006032
 40
0.8130481800348832
 40
0.8498467229198444
 40
0.8866232189999944
 40
0.9233538409376469
 40
0.9600082417286673
 40
0.9965546980007545
 40
1.0
 40
1.0
 40
1.0
 40
1.0
 10
3.770655330037747
 20
5.128425317035443
 30
0.0
 10
3.77081385134672
 20
5.128539490263059
 30
0.0
 10
3.771916962890419
 20
5.129333994208185
 30
0.0
 10
3.773766979521715
 20
5.13118943261461
 30
0.0
 10
3.776166133578562
 20
5.133991159428214
 30
0.0
 10
3.778298082033084
 20
5.137179526816741
 30
0.0
 10
3.780167088897402
 20
5.140681104398932
 30
0.0
 10
3.78174968438433
 20
5.144477541717421
 30
0.0
 10
3.783033384852853
 20
5.148531187381998
 30
0.0
 10
3.784006471417245
 20
5.152806696057342
 30
0.0
 10
3.784660920232004
 20
5.157265406844873
 30
0.0
 10
3.784991469977241
 20
5.16186782529118
 30
0.0
 10
3.784996066494723
 20
5.16657354894477
 30
0.0
 10
3.784675370477368
 20
5.171341687877768
 30
0.0
 10
3.78403220148283
 20
5.17613090711874
 30
0.0
 10
3.783072860341584
 20
5.18089994157267
 30
0.0
 10
3.781805542633677
 20
5.185607617688387
 30
0.0
 10
3.780241305794714
 20
5.190213289247724
 30
0.0
 10
3.778393173740863
 20
5.194677040605551
 30
0.0
 10
3.776277170702103
 20
5.198960421978163
 30
0.0
 10
3.773910435573287
 20
5.203026089476036
 30
0.0
 10
3.77131321123117
 20
5.206838872665112
 30
0.0
 10
3.768506621993546
 20
5.210365155264272
 30
0.0
 10
3.765514257245459
 20
5.213573720584978
 30
0.0
 10
3.762361030427985
 20
5.216435080205323
 30
0.0
 10
3.759073896176548
 20
5.218924254685886
 30
0.0
 10
3.75568171505927
 20
5.221012921938449
 30
0.0
 10
3.752213818302833
 20
5.22269764283488
 30
0.0
 10
3.748705505096248
 20
5.223901322398663
 30
0.0
 10
3.746238756680157
 20
5.224556605041308
 30
0.0
 10
3.74496102334632
 20
5.22467570656358
 30
0.0
 10
3.744850946235438
 20
5.224685967195534
 30
0.0
  0
SPLINE
  5
8A
330
1F
100
AcDbEntity
  8
0
  6
Continuous
 62
     7
370
    15
100
AcDbSpline
210
0.0
220
0.0
230
1.0
 70
     8
 71
     3
 72
    19
 73
    15
 74
     0
 42
0.0000000001
 43
0.0000000001
 40
0.0
 40
0.0
 40
0.0
 40
0.0
 40
0.0486817377461646
 40
0.1380130396638758
 40
0.2276612762249485
 40
0.3175924297549322
 40
0.4077518736206024
 40
0.4980653001723259
 40
0.5884716327680125
 40
0.6789306852531105
 40
0.7693963013906519
 40
0.8598605764632537
 40
0.9503059717923733
 40
1.0
 40
1.0
 40
1.0
 40
1.0
 10
3.712082130174348
 20
5.77775005833269
 30
0.0
 10
3.711580223003697
 20
5.777351816676797
 30
0.0
 10
3.710157312946298
 20
5.776222799020581
 30
0.0
 10
3.708051163566027
 20
5.773940080650874
 30
0.0
 10
3.705770844646994
 20
5.770959848692123
 30
0.0
 10
3.703758350023481
 20
5.767622596123306
 30
0.0
 10
3.702019457043386
 20
5.763981093785117
 30
0.0
 10
3.700573220774843
 20
5.760061617817701
 30
0.0
 10
3.699431374699478
 20
5.755900993300579
 30
0.0
 10
3.698604831852262
 20
5.751536173619868
 30
0.0
 10
3.698098366378528
 20
5.74700621295737
 30
0.0
 10
3.697921541787377
 20
5.742350957253816
 30
0.0
 10
3.698034280683217
 20
5.738323153122233
 30
0.0
 10
3.698257385975045
 20
5.735857134669386
 30
0.0
 10
3.698336500048626
 20
5.734982674168095
 30
0.0
  0
SPLINE
  5
8B
330
1F
100
AcDbEntity
  8
0
  6
Continuous
 62
     7
370
    15
100
AcDbSpline
210
0.0
220
0.0
230
1.0
 70
     8
 71
     3
 72
    24
 73
    20
 74
     0
 42
0.0000000001
 43
0.0000000001
 40
0.0
 40
0.0
 40
0.0
 40
0.0
 40
0.0330379319319178
 40
0.0955423295352093
 40
0.1580564504693849
 40
0.2205725720131345
 40
0.2830949014173444
 40
0.3456297093314271
 40
0.4081820422098494
 40
0.4707564628019049
 40
0.533355921195533
 40
0.5959801441013982
 40
0.658622122787951
 40
0.7212690248168349
 40
0.7838943348750594
 40
0.8464617639107764
 40
0.9089240698876874
 40
0.9712268557122543
 40
1.0
 40
1.0
 40
1.0
 40
1.0
 10
3.698336500048626
 20
5.734982674168095
 30
0.0
 10
3.698431000798542
 20
5.734140629104151
 30
0.0
 10
3.698704287328958
 20
5.73170552066127
 30
0.0
 10
3.699401504567988
 20
5.727673218082851
 30
0.0
 10
3.700524384387331
 20
5.72293287295365
 30
0.0
 10
3.701954155862865
 20
5.718275128884461
 30
0.0
 10
3.703672758452749
 20
5.713741090960207
 30
0.0
 10
3.705667477960118
 20
5.709369864365456
 30
0.0
 10
3.707920744034107
 20
5.70519922062537
 30
0.0
 10
3.710414274957102
 20
5.701265483497652
 30
0.0
 10
3.713127094746342
 20
5.697603027527655
 30
0.0
 10
3.716036791155961
 20
5.694244048145534
 30
0.0
 10
3.719119003555411
 20
5.691219237333228
 30
0.0
 10
3.72234777998473
 20
5.68855522721059
 30
0.0
 10
3.725695186259188
 20
5.686279319710222
 30
0.0
 10
3.729131930803672
 20
5.684404822096063
 30
0.0
 10
3.732626012474148
 20
5.682981709700464
 30
0.0
 10
3.735519914565445
 20
5.682096781200007
 30
0.0
 10
3.737234232099179
 20
5.681856488599573
 30
0.0
 10
3.737775827509649
 20
5.681780574209733
 30
0.0
  0
LINE
  5
8C
330
1F
100
AcDbEntity
  8
0
  6
Continuous
 62
     7
370
    15
100
AcDbLine
 10
3.73418526482041
 20
5.786160667838362
 30
0.0
 11
3.721810919676658
 21
5.78284544401474
 31
0.0
  0
LINE
  5
8D
330
1F
100
AcDbEntity
  8
0
  6
Continuous
 62
     7
370
    15
100
AcDbLine
 10
3.74876765266014
 20
5.682227329574772
 30
0.0
 11
3.761141997803892
 21
5.685542553398393
 31
0.0
  0
SPLINE
  5
8E
330
1F
100
AcDbEntity
  8
0
  6
Continuous
 62
     7
370
    15
100
AcDbSpline
210
0.0
220
0.0
230
1.0
 70
     8
 71
     3
 72
    36
 73
    32
 74
     0
 42
0.0000000001
 43
0.0000000001
 40
0.0
 40
0.0
 40
0.0
 40
0.0
 40
0.0060793439320315
 40
0.0423046876979599
 40
0.0786588647214073
 40
0.1151354900717677
 40
0.1517157358432229
 40
0.1883733433859546
 40
0.2250790415973337
 40
0.2618131932177076
 40
0.2985585147830843
 40
0.3353031637584714
 40
0.3720418435514983
 40
0.4087752820265775
 40
0.4455029280706898
 40
0.4822274656600548
 40
0.5189521940377377
 40
0.5556797743724755
 40
0.5924114285372062
 40
0.6291525079704714
 40
0.6659042809338915
 40
0.702670340339666
 40
0.7394513629690234
 40
0.7762454029006032
 40
0.8130481800348832
 40
0.8498467229198444
 40
0.8866232189999944
 40
0.9233538409376469
 40
0.9600082417286673
 40
0.9965546980007545
 40
1.0
 40
1.0
 40
1.0
 40
1.0
 10
3.770655330037747
 20
5.69043411243745
 30
0.0
 10
3.77081385134672
 20
5.690548285665067
 30
0.0
 10
3.771916962890419
 20
5.691342789610192
 30
0.0
 10
3.773766979521715
 20
5.693198228016617
 30
0.0
 10
3.776166133578562
 20
5.695999954830221
 30
0.0
 10
3.778298082033084
 20
5.699188322218748
 30
0.0
 10
3.780167088897402
 20
5.702689899800939
 30
0.0
 10
3.78174968438433
 20
5.706486337119429
 30
0.0
 10
3.783033384852853
 20
5.710539982784005
 30
0.0
 10
3.784006471417245
 20
5.71481549145935
 30
0.0
 10
3.784660920232004
 20
5.71927420224688
 30
0.0
 10
3.784991469977241
 20
5.723876620693188
 30
0.0
 10
3.784996066494723
 20
5.728582344346777
 30
0.0
 10
3.784675370477368
 20
5.733350483279775
 30
0.0
 10
3.78403220148283
 20
5.738139702520747
 30
0.0
 10
3.783072860341584
 20
5.742908736974678
 30
0.0
 10
3.781805542633677
 20
5.747616413090395
 30
0.0
 10
3.780241305794714
 20
5.752222084649732
 30
0.0
 10
3.778393173740863
 20
5.756685836007558
 30
0.0
 10
3.776277170702103
 20
5.76096921738017
 30
0.0
 10
3.773910435573287
 20
5.765034884878044
 30
0.0
 10
3.77131321123117
 20
5.768847668067119
 30
0.0
 10
3.768506621993546
 20
5.772373950666279
 30
0.0
 10
3.765514257245459
 20
5.775582515986984
 30
0.0
 10
3.762361030427985
 20
5.77844387560733
 30
0.0
 10
3.759073896176548
 20
5.780933050087893
 30
0.0
 10
3.75568171505927
 20
5.783021717340457
 30
0.0
 10
3.752213818302833
 20
5.784706438236888
 30
0.0
 10
3.748705505096248
 20
5.785910117800672
 30
0.0
 10
3.746238756680157
 20
5.786565400443314
 30
0.0
 10
3.74496102334632
 20
5.786684501965589
 30
0.0
 10
3.744850946235438
 20
5.786694762597541
 30
0.0
  0
SPLINE
  5
8F
330
1F
100
AcDbEntity
  8
0
  6
Continuous
 62
     7
370
    15
100
AcDbSpline
210
0.0
220
0.0
230
1.0
 70
     8
 71
     3
 72
    19
 73
    15
 74
     0
 42
0.0000000001
 43
0.0000000001
 40
0.0
 40
0.0
 40
0.0
 40
0.0
 40
0.048681746816266
 40
0.1380143402740943
 40
0.2276612036030214
 40
0.3175938665486888
 40
0.4077517448437783
 40
0.4980652344641233
 40
0.5884732674541568
 40
0.6789288296201726
 40
0.7693980589346373
 40
0.859858722844056
 40
0.9503059491204911
 40
1.0
 40
1.0
 40
1.0
 40
1.0
 10
3.535305437014092
 20
6.065971427372817
 30
0.0
 10
3.53480352778636
 20
6.065573188825383
 30
0.0
 10
3.533380598752929
 20
6.064444169552446
 30
0.0
 10
3.531274524862351
 20
6.062161339353434
 30
0.0
 10
3.528994096990434
 20
6.059181224479305
 30
0.0
 10
3.526981705030623
 20
6.05584387961649
 30
0.0
 10
3.525242743376269
 20
6.052202453361478
 30
0.0
 10
3.523796505214799
 20
6.048282968943227
 30
0.0
 10
3.522654724229598
 20
6.044122335583114
 30
0.0
 10
3.521828093643362
 20
6.039757533986715
 30
0.0
 10
3.521321691933279
 20
6.035227604764119
 30
0.0
 10
3.521144839748982
 20
6.030572329511998
 30
0.0
 10
3.521257578923516
 20
6.026544554958167
 30
0.0
 10
3.521480691309525
 20
6.024078504050591
 30
0.0
 10
3.52155980688837
 20
6.023204043208221
 30
0.0
  0
SPLINE
  5
90
330
1F
100
AcDbEntity
  8
0
  6
Continuous
 62
     7
370
    15
100
AcDbSpline
210
0.0
220
0.0
230
1.0
 70
     8
 71
     3
 72
    24
 73
    20
 74
     0
 42
0.0000000001
 43
0.0000000001
 40
0.0
 40
0.0
 40
0.0
 40
0.0
 40
0.0330391503805194
 40
0.0955422730897125
 40
0.1580551965887211
 40
0.2205712490407998
 40
0.2830946314517475
 40
0.345630474646578
 40
0.4081827199349782
 40
0.4707571038814024
 40
0.5333557996597853
 40
0.595979227857154
 40
0.6586223538311266
 40
0.7212692191719317
 40
0.7838946422816095
 40
0.8464618812184292
 40
0.9089240042802012
 40
0.9712269389375514
 40
1.0
 40
1.0
 40
1.0
 40
1.0
 10
3.52155980688837
 20
6.023204043208221
 30
0.0
 10
3.521654306275935
 20
6.022361966801711
 30
0.0
 10
3.521927578626753
 20
6.019926858965508
 30
0.0
 10
3.522624805461027
 20
6.015894584872885
 30
0.0
 10
3.523747706035735
 20
6.011154309342536
 30
0.0
 10
3.525177472188261
 20
6.006496568268717
 30
0.0
 10
3.526896060969041
 20
6.001962463372421
 30
0.0
 10
3.528890763774387
 20
5.997591158488321
 30
0.0
 10
3.531144050739328
 20
5.993420498931135
 30
0.0
 10
3.533637558816423
 20
5.989486764586866
 30
0.0
 10
3.536350397492685
 20
5.985824383209842
 30
0.0
 10
3.539260153640595
 20
5.982465542302819
 30
0.0
 10
3.542342262814559
 20
5.979440480085084
 30
0.0
 10
3.545571090809608
 20
5.976776510042046
 30
0.0
 10
3.548918491402036
 20
5.974500608259067
 30
0.0
 10
3.552355230837686
 20
5.972626048818285
 30
0.0
 10
3.5558493238291
 20
5.971203169795948
 30
0.0
 10
3.558743223513885
 20
5.970317978688506
 30
0.0
 10
3.56045753764836
 20
5.970077817125345
 30
0.0
 10
3.560999130028235
 20
5.970001944407544
 30
0.0
  0
LINE
  5
91
330
1F
100
AcDbEntity
  8
0
  6
Continuous
 62
     7
370
    15
100
AcDbLine
 10
3.557408567338996
 20
6.074382038036173
 30
0.0
 11
3.545034222195244
 21
6.071066814212552
 31
0.0
  0
LINE
  5
92
330
1F
100
AcDbEntity
  8
0
  6
Continuous
 62
     7
370
    15
100
AcDbLine
 10
3.571990955178726
 20
5.970448605570292
 30
0.0
 11
3.584365300322478
 21
5.973763829393914
 31
0.0
  0
SPLINE
  5
93
330
1F
100
AcDbEntity
  8
0
  6
Continuous
 62
     7
370
    15
100
AcDbSpline
210
0.0
220
0.0
230
1.0
 70
     8
 71
     3
 72
    36
 73
    32
 74
     0
 42
0.0000000001
 43
0.0000000001
 40
0.0
 40
0.0
 40
0.0
 40
0.0
 40
0.0060793785792521
 40
0.0423051692928626
 40
0.0786587891282796
 40
0.1151360163642241
 40
0.1517162241540197
 40
0.1883731785272742
 40
0.2250795341642703
 40
0.2618129750496348
 40
0.2985582744833777
 40
0.3353029138766599
 40
0.3720423175555193
 40
0.4087757467443987
 40
0.4455041034490577
 40
0.4822286273165986
 40
0.5189526390462437
 40
0.555679568808289
 40
0.5924118329776359
 40
0.6291522862260798
 40
0.6659046167057086
 40
0.7026706623741448
 40
0.7394516341334049
 40
0.7762456998276158
 40
0.8130483801101737
 40
0.8498466531650777
 40
0.88662341495135
 40
0.9233539322695191
 40
0.9600083193649215
 40
0.9965548695323729
 40
1.0
 40
1.0
 40
1.0
 40
1.0
 10
3.593878632556333
 20
5.97865538843297
 30
0.0
 10
3.594037155624327
 20
5.978769560725496
 30
0.0
 10
3.595140285679628
 20
5.979564062680084
 30
0.0
 10
3.596990225538621
 20
5.981419627124023
 30
0.0
 10
3.599389488390306
 20
5.984221221799495
 30
0.0
 10
3.601521365786833
 20
5.987409688925882
 30
0.0
 10
3.603390370099001
 20
5.990911258074285
 30
0.0
 10
3.604973031410751
 20
5.994707640100696
 30
0.0
 10
3.606256651315931
 20
5.998761317257316
 30
0.0
 10
3.607229796848376
 20
6.003036784668302
 30
0.0
 10
3.60788421669809
 20
6.007495482377259
 30
0.0
 10
3.608214780470883
 20
6.012097925028017
 30
0.0
 10
3.608219376902363
 20
6.016803681916504
 30
0.0
 10
3.607898664691122
 20
6.021571884781077
 30
0.0
 10
3.607255513649961
 20
6.026361135475019
 30
0.0
 10
3.606296171360768
 20
6.031130170981342
 30
0.0
 10
3.605028856769771
 20
6.03583779036397
 30
0.0
 10
3.603464563505314
 20
6.040443397990518
 30
0.0
 10
3.60161652704743
 20
6.044907177174553
 30
0.0
 10
3.599500426626106
 20
6.049190514219048
 30
0.0
 10
3.597133767138978
 20
6.053256250050498
 30
0.0
 10
3.594536509646242
 20
6.05706903127707
 30
0.0
 10
3.591729929739318
 20
6.060595327894595
 30
0.0
 10
3.588737559060921
 20
6.063803869720562
 30
0.0
 10
3.585584357287205
 20
6.066665278783211
 30
0.0
 10
3.582297176781509
 20
6.069154270556066
 30
0.0
 10
3.578905035817833
 20
6.071243141123545
 30
0.0
 10
3.57543713105257
 20
6.072927710981839
 30
0.0
 10
3.571928788466562
 20
6.074131813191619
 30
0.0
 10
3.569462123761403
 20
6.074786025106885
 30
0.0
 10
3.56818432613659
 20
6.074905900215142
 30
0.0
 10
3.568074248754024
 20
6.074916226997643
 30
0.0
  0
LINE
  5
94
330
1F
100
AcDbEntity
  8
0
  6
Continuous
 62
     7
370
    15
100
AcDbLine
 10
5.129212962809391
 20
8.331215643730359
 30
0.0
 11
4.834585127912156
 21
8.410149696886815
 31
0.0
  0
ARC
  5
95
330
1F
100
AcDbEntity
  8
0
  6
Continuous
 62
     7
370
    15
100
AcDbCircle
 10
3.551496243958205
 20
6.608948920314763
 30
0.0
 40
0.0249586686521125
100
AcDbArc
 50
80.92143755737371
 51
129.5592365907799
  0
ARC
  5
96
330
1F
100
AcDbEntity
  8
0
  6
Continuous
 62
     7
370
    15
100
AcDbCircle
 10
3.565529968494271
 20
6.556568054494193
 30
0.0
 40
0.0249445921320711
100
AcDbArc
 50
260.3697167478742
 51
309.2241523681057
  0
LWPOLYLINE
  5
97
330
1F
100
AcDbEntity
  8
0
  6
Continuous
 62
     7
370
    15
100
AcDbPolyline
 90
       63
 70
   128
 43
0.0
 10
3.522039429520384
 20
6.585065564942925
 10
3.522728464120548
 20
6.580050930894159
 10
3.523772611500672
 20
6.575060889318789
 10
3.525161137903816
 20
6.570146735886481
 10
3.526879800792588
 20
6.565358822262141
 10
3.528910961199263
 20
6.560746243399207
 10
3.53123379114137
 20
6.556356405161556
 10
3.533824437825706
 20
6.55223441511769
 10
3.536656334771727
 20
6.548422433973589
 10
3.539700400584821
 20
6.544959622319165
 10
3.542925419218232
 20
6.541881473538134
 10
3.546298290600232
 20
6.539219652459941
 10
3.54978440225373
 20
6.537001424787305
 10
3.553347974988922
 20
6.535249658683627
 10
3.556952460449845
 20
6.533982153052125
 10
3.560560860880088
 20
6.533212022878531
 10
3.564136143953971
 20
6.532947117081771
 10
3.567641631680788
 20
6.533190291131381
 10
3.571041354739774
 20
6.53393884110581
 10
3.574300419778555
 20
6.535185253109713
 10
3.577385381032748
 20
6.536916632701504
 10
3.580264594660937
 20
6.539115269379134
 10
3.582908508262267
 20
6.541758559015135
 10
3.585289993605629
 20
6.544819385726237
 10
3.587384610220308
 20
6.548266428063691
 10
3.589170873307787
 20
6.552064181439029
 10
3.590630443872714
 20
6.556173849208783
 10
3.591748349101964
 20
6.560553095227914
 10
3.592513116320545
 20
6.565156949984458
 10
3.592916898305187
 20
6.569938342240376
 10
3.592955551065186
 20
6.574848172395498
 10
3.592628681375148
 20
6.579835959169005
 10
3.591939642453827
 20
6.584850594375457
 10
3.590895499394861
 20
6.589840634793141
 10
3.589506972991717
 20
6.594754788225449
 10
3.587788310102944
 20
6.599542701849789
 10
3.585757145375111
 20
6.60415528187041
 10
3.583434319754162
 20
6.608545024748083
 10
3.580843668748668
 20
6.612667110151927
 10
3.578011776123805
 20
6.616479090138341
 10
3.574967705989553
 20
6.619941902950452
 10
3.571742687356143
 20
6.623020051731482
 10
3.568369824616459
 20
6.625681870494302
 10
3.564883712962961
 20
6.627900003964648
 10
3.561320131585453
 20
6.62965186658599
 10
3.557715646124529
 20
6.630919372217491
 10
3.554107245694286
 20
6.631689502391084
 10
3.550531962620403
 20
6.631954313985555
 10
3.547026474893586
 20
6.631711234138236
 10
3.5436267518346
 20
6.630962684163807
 10
3.540367691116978
 20
6.629716271002218
 10
3.537282729862785
 20
6.627984891410427
 10
3.534403516234596
 20
6.625786254732795
 10
3.531759598312107
 20
6.623142966254482
 10
3.529378112968745
 20
6.620082139543381
 10
3.527283500675225
 20
6.616635096048239
 10
3.525497237587746
 20
6.61283724847061
 10
3.52403766270166
 20
6.608727676060833
 10
3.522919761793569
 20
6.604348428884017
 10
3.522154994574987
 20
6.599744479925181
 10
3.521751208269187
 20
6.594963088826949
 10
3.521712559830346
 20
6.590053351716433
 10
3.522039429520384
 20
6.585065564942925
  0
ARC
  5
98
330
1F
100
AcDbEntity
  8
0
  6
Continuous
 62
     7
370
    15
100
AcDbCircle
 10
3.577759826313681
 20
6.560072855222689
 30
0.0
 40
0.0251820071812183
100
AcDbArc
 50
285.2071304941955
 51
308.9175603380157
  0
ARC
  5
99
330
1F
100
AcDbEntity
  8
0
  6
Continuous
 62
     7
370
    15
100
AcDbCircle
 10
3.563841479856025
 20
6.611942654384073
 30
0.0
 40
0.0252803445885035
100
AcDbArc
 50
81.16398157485903
 51
104.7417681676379
  0
ARC
  5
9A
330
1F
100
AcDbEntity
  8
0
  6
Continuous
 62
     7
370
    15
100
AcDbCircle
 10
3.728272737457368
 20
6.320728298812729
 30
0.0
 40
0.0249579615234344
100
AcDbArc
 50
80.92070394020764
 51
129.5599702079448
  0
ARC
  5
9B
330
1F
100
AcDbEntity
  8
0
  6
Continuous
 62
     7
370
    15
100
AcDbCircle
 10
3.742306643720481
 20
6.268346423068991
 30
0.0
 40
0.0249443308629002
100
AcDbArc
 50
260.3696667683586
 51
309.2247082259889
  0
LWPOLYLINE
  5
9C
330
1F
100
AcDbEntity
  8
0
  6
Continuous
 62
     7
370
    15
100
AcDbPolyline
 90
       63
 70
   128
 43
0.0
 10
3.69881612268064
 20
6.296844195902799
 10
3.699505161601962
 20
6.291829560696347
 10
3.700549304660928
 20
6.286839520278665
 10
3.701937831064072
 20
6.281925366846357
 10
3.703656493952844
 20
6.277137453222016
 10
3.705687658680678
 20
6.272524873201396
 10
3.708010484301626
 20
6.268135130323723
 10
3.710601135307121
 20
6.264013044919877
 10
3.713433027931983
 20
6.260201064933464
 10
3.716477098066235
 20
6.256738252121354
 10
3.719702116699646
 20
6.253660103340322
 10
3.72307497943933
 20
6.250998284577502
 10
3.726561091092828
 20
6.248780151107157
 10
3.730124672470336
 20
6.247028288485815
 10
3.733729157931259
 20
6.245760782854313
 10
3.737337558361502
 20
6.24499065268072
 10
3.740912841435386
 20
6.24472584108625
 10
3.744418329162202
 20
6.24496892093357
 10
3.747818052221188
 20
6.245717470907999
 10
3.751077112938811
 20
6.246963884069587
 10
3.754162074193004
 20
6.248695263661378
 10
3.757041287821192
 20
6.25089390033901
 10
3.75968520574368
 20
6.253537188817324
 10
3.762066691087043
 20
6.256598109730716
 10
3.764161303380563
 20
6.260045059023566
 10
3.765947566468043
 20
6.263842906601196
 10
3.767407141354128
 20
6.267952479010973
 10
3.76852504226222
 20
6.272331726187788
 10
3.769289809480801
 20
6.276935675146623
 10
3.769693595786602
 20
6.281717066244856
 10
3.769732244225443
 20
6.286626803355372
 10
3.769405374535404
 20
6.29161459012888
 10
3.768716339935241
 20
6.296629224177646
 10
3.767672192555116
 20
6.301619265753015
 10
3.766283666151973
 20
6.306533419185323
 10
3.7645650032632
 20
6.311321332809664
 10
3.762533842856525
 20
6.315933911672598
 10
3.760211012914418
 20
6.320323749910248
 10
3.757620366230082
 20
6.324445739954116
 10
3.754788469284061
 20
6.328257815300506
 10
3.751744403470968
 20
6.331720626954931
 10
3.748519384837557
 20
6.334798681533671
 10
3.745146513455556
 20
6.337460502611864
 10
3.741660401802058
 20
6.339678730284499
 10
3.738096829066867
 20
6.341430496388179
 10
3.734492343605943
 20
6.342698002019679
 10
3.730883943175701
 20
6.343468132193273
 10
3.727308660101817
 20
6.343733037990034
 10
3.723803172375
 20
6.343489958142715
 10
3.720403449316014
 20
6.342741313965994
 10
3.717144384277233
 20
6.341494996164384
 10
3.714059423023041
 20
6.339763522370302
 10
3.711180209394852
 20
6.337564979894961
 10
3.708536295793521
 20
6.33492159605667
 10
3.706154810450159
 20
6.331860769345568
 10
3.704060193835481
 20
6.328413727008114
 10
3.702273930748001
 20
6.324615973632775
 10
3.700814360183074
 20
6.320506305863022
 10
3.699696454953825
 20
6.316127154046181
 10
3.698931687735243
 20
6.311523205087348
 10
3.698527905750601
 20
6.306741812831428
 10
3.698489252990602
 20
6.301831982676308
 10
3.69881612268064
 20
6.296844195902799
  0
ARC
  5
9D
330
1F
100
AcDbEntity
  8
0
  6
Continuous
 62
     7
370
    15
100
AcDbCircle
 10
3.754536452071259
 20
6.271851625412987
 30
0.0
 40
0.0251821614673251
100
AcDbArc
 50
285.2072041833508
 51
308.9174866488367
  0
ARC
  5
9E
330
1F
100
AcDbEntity
  8
0
  6
Continuous
 62
     7
370
    15
100
AcDbCircle
 10
3.740618058539154
 20
6.323723587234424
 30
0.0
 40
0.0252780871255315
100
AcDbArc
 50
81.16291365118325
 51
104.7428360913265
  0
ARC
  5
9F
330
1F
100
AcDbEntity
  8
0
  6
Continuous
 62
     7
370
    15
100
AcDbCircle
 10
3.551496827804665
 20
5.484929951710699
 30
0.0
 40
0.0249600301033353
100
AcDbArc
 50
80.92329415363428
 51
129.5583933015485
  0
ARC
  5
A0
330
1F
100
AcDbEntity
  8
0
  6
Continuous
 62
     7
370
    15
100
AcDbCircle
 10
3.56552962516523
 20
5.432550978231877
 30
0.0
 40
0.0249451348659106
100
AcDbArc
 50
260.3707281236542
 51
309.2241527478746
  0
LWPOLYLINE
  5
A1
330
1F
100
AcDbEntity
  8
0
  6
Continuous
 62
     7
370
    15
100
AcDbPolyline
 90
       63
 70
   128
 43
0.0
 10
3.522039429520384
 20
5.461047974138909
 10
3.522728464120548
 20
5.456033245887853
 10
3.523772611500672
 20
5.451043392717065
 10
3.525161137903816
 20
5.446129145082466
 10
3.526879800792588
 20
5.441341231458125
 10
3.528910961199263
 20
5.436728652595193
 10
3.53123379114137
 20
5.432338814357541
 10
3.533824437825706
 20
5.428216730111383
 10
3.536656334771727
 20
5.424404748967283
 10
3.539700400584821
 20
5.420941937312859
 10
3.542925419218232
 20
5.41786397693641
 10
3.546298290600232
 20
5.415202155858217
 10
3.54978440225373
 20
5.41298383398329
 10
3.553347974988922
 20
5.41123197367732
 10
3.556952460449845
 20
5.409964468045819
 10
3.560560860880088
 20
5.409194432074516
 10
3.564136143953971
 20
5.408929526277756
 10
3.567641631680788
 20
5.409172606125075
 10
3.571041354739774
 20
5.409921250301795
 10
3.574300419778555
 20
5.411167662305698
 10
3.577385381032748
 20
5.412898947695198
 10
3.580264594660937
 20
5.415097584372829
 10
3.582908508262267
 20
5.41774096821112
 10
3.585289993605629
 20
5.420801889124513
 10
3.587384610220308
 20
5.424248837259676
 10
3.589170873307787
 20
5.428046684837306
 10
3.590630443872714
 20
5.432156258404768
 10
3.591748349101964
 20
5.436535410221608
 10
3.592513116320545
 20
5.441139359180443
 10
3.592916898305187
 20
5.445920845638652
 10
3.592955551065186
 20
5.450830675793773
 10
3.592628681375148
 20
5.455818462567282
 10
3.591939642453827
 20
5.460833003571442
 10
3.590895499394861
 20
5.465823043989126
 10
3.589506972991717
 20
5.470737291623724
 10
3.587788310102944
 20
5.475525205248065
 10
3.585757145375111
 20
5.480137596864103
 10
3.583434319754162
 20
5.484527433944069
 10
3.580843668748668
 20
5.488649519347912
 10
3.578011776123805
 20
5.492461499334326
 10
3.574967705989553
 20
5.495924312146436
 10
3.571742687356143
 20
5.499002460927467
 10
3.568369824616459
 20
5.501664279690287
 10
3.564883712962961
 20
5.503882413160633
 10
3.561320131585453
 20
5.505634275781975
 10
3.557715646124529
 20
5.506901781413477
 10
3.554107245694286
 20
5.507671817384779
 10
3.550531962620403
 20
5.50793672318154
 10
3.547026474893586
 20
5.50769364333422
 10
3.5436267518346
 20
5.5069449991575
 10
3.540367691116978
 20
5.505698774400494
 10
3.537282729862785
 20
5.503967300606412
 10
3.534403516234596
 20
5.50176866392878
 10
3.531759598312107
 20
5.499125469652757
 10
3.529378112968745
 20
5.496064548739365
 10
3.527283500675225
 20
5.492617411041933
 10
3.525497237587746
 20
5.488819751868885
 10
3.52403766270166
 20
5.484710179459109
 10
3.522919761793569
 20
5.480330838080002
 10
3.522154994574987
 20
5.475726889121166
 10
3.521751208269187
 20
5.470945592225225
 10
3.521712559830346
 20
5.466035760912418
 10
3.522039429520384
 20
5.461047974138909
  0
ARC
  5
A2
330
1F
100
AcDbEntity
  8
0
  6
Continuous
 62
     7
370
    15
100
AcDbCircle
 10
3.577758480236432
 20
5.43605741281901
 30
0.0
 40
0.0251845243551226
100
AcDbArc
 50
285.2087473357593
 51
308.9168725660573
  0
ARC
  5
A3
330
1F
100
AcDbEntity
  8
0
  6
Continuous
 62
     7
370
    15
100
AcDbCircle
 10
3.563841556812898
 20
5.487923571678259
 30
0.0
 40
0.0252818069651556
100
AcDbArc
 50
81.1646732681025
 51
104.741076474406
  0
ARC
  5
A4
330
1F
100
AcDbEntity
  8
0
  6
Continuous
 62
     7
370
    15
100
AcDbCircle
 10
3.728273521413143
 20
5.196708595727599
 30
0.0
 40
0.0249600166776015
100
AcDbArc
 50
80.92328022703979
 51
129.5584072281348
  0
ARC
  5
A5
330
1F
100
AcDbEntity
  8
0
  6
Continuous
 62
     7
370
    15
100
AcDbCircle
 10
3.74230697006203
 20
5.144328036524655
 30
0.0
 40
0.0249435080600619
100
AcDbArc
 50
260.3685857399599
 51
309.2252833760241
  0
LWPOLYLINE
  5
A6
330
1F
100
AcDbEntity
  8
0
  6
Continuous
 62
     7
370
    15
100
AcDbPolyline
 90
       63
 70
   128
 43
0.0
 10
3.69881612268064
 20
5.172826605098785
 10
3.699505161601962
 20
5.167811875690041
 10
3.700549304660928
 20
5.16282202367694
 10
3.701937831064072
 20
5.157907776042342
 10
3.703656493952844
 20
5.153119862418001
 10
3.705687658680678
 20
5.14850728239738
 10
3.708010484301626
 20
5.144117445317416
 10
3.710601135307121
 20
5.139995548318154
 10
3.713433027931983
 20
5.136183379927159
 10
3.716477098066235
 20
5.132720567115048
 10
3.719702116699646
 20
5.129642606738599
 10
3.72307497943933
 20
5.126980787975778
 10
3.726561091092828
 20
5.124762466100851
 10
3.730124672470336
 20
5.123010791884091
 10
3.733729157931259
 20
5.12174328625259
 10
3.737337558361502
 20
5.120973061876705
 10
3.740912841435386
 20
5.120708156079944
 10
3.744418329162202
 20
5.120951235927264
 10
3.747818052221188
 20
5.121699880103983
 10
3.751077112938811
 20
5.122946293265572
 10
3.754162074193004
 20
5.124677578655071
 10
3.757041287821192
 20
5.126876215332703
 10
3.75968520574368
 20
5.129519598013309
 10
3.762066691087043
 20
5.1325805189267
 10
3.764161303380563
 20
5.136027468219551
 10
3.765947566468043
 20
5.139825315797181
 10
3.767407141354128
 20
5.143934888206956
 10
3.76852504226222
 20
5.148314041181483
 10
3.769289809480801
 20
5.152917990140317
 10
3.769693595786602
 20
5.157699475440841
 10
3.769732244225443
 20
5.162609306753648
 10
3.769405374535404
 20
5.167597093527156
 10
3.768716339935241
 20
5.172611633373631
 10
3.767672192555116
 20
5.177601674949
 10
3.766283666151973
 20
5.1825159225836
 10
3.7645650032632
 20
5.18730383620794
 10
3.762533842856525
 20
5.191916226666291
 10
3.760211012914418
 20
5.196306064903942
 10
3.757620366230082
 20
5.200428149150101
 10
3.754788469284061
 20
5.204240130294201
 10
3.751744403470968
 20
5.207702941948625
 10
3.748519384837557
 20
5.210781090729656
 10
3.745146513455556
 20
5.213442911807849
 10
3.741660401802058
 20
5.215661045278193
 10
3.738096829066867
 20
5.217412905584164
 10
3.734492343605943
 20
5.218680411215665
 10
3.730883943175701
 20
5.21945063559155
 10
3.727308660101817
 20
5.219715352983729
 10
3.723803172375
 20
5.219472273136409
 10
3.720403449316014
 20
5.218723817364271
 10
3.717144384277233
 20
5.217477405360368
 10
3.714059423023041
 20
5.215745931566287
 10
3.711180209394852
 20
5.213547294888655
 10
3.708536295793521
 20
5.210904099454946
 10
3.706154810450159
 20
5.207843178541553
 10
3.704060193835481
 20
5.20439623040639
 10
3.702273930748001
 20
5.20059838282876
 10
3.700814360183074
 20
5.196488809261298
 10
3.699696454953825
 20
5.192109469039876
 10
3.698931687735243
 20
5.187505520081042
 10
3.698527905750601
 20
5.182724222027413
 10
3.698489252990602
 20
5.177814391872293
 10
3.69881612268064
 20
5.172826605098785
  0
ARC
  5
A7
330
1F
100
AcDbEntity
  8
0
  6
Continuous
 62
     7
370
    15
100
AcDbCircle
 10
3.754537797894514
 20
5.147831886620738
 30
0.0
 40
0.0251796447768547
100
AcDbArc
 50
285.205587347568
 51
308.9181744073118
  0
ARC
  5
A8
330
1F
100
AcDbEntity
  8
0
  6
Continuous
 62
     7
370
    15
100
AcDbCircle
 10
3.740618249619378
 20
5.199702292109665
 30
0.0
 40
0.0252817181294106
100
AcDbArc
 50
81.16463125178915
 51
104.7411184907168
  0
ARC
  5
A9
330
1F
100
AcDbEntity
  8
0
  6
Continuous
 62
     7
370
    15
100
AcDbCircle
 10
3.728273521413139
 20
5.75871739112962
 30
0.0
 40
0.0249600166775881
100
AcDbArc
 50
80.9232802270256
 51
129.5584072281473
  0
ARC
  5
AA
330
1F
100
AcDbEntity
  8
0
  6
Continuous
 62
     7
370
    15
100
AcDbCircle
 10
3.742306970062027
 20
5.70633683192667
 30
0.0
 40
0.0249435080600694
100
AcDbArc
 50
260.368585739969
 51
309.2252833760185
  0
LWPOLYLINE
  5
AB
330
1F
100
AcDbEntity
  8
0
  6
Continuous
 62
     7
370
    15
100
AcDbPolyline
 90
       63
 70
   128
 43
0.0
 10
3.69881612268064
 20
5.734835400500791
 10
3.699505161601962
 20
5.729820671092049
 10
3.700549304660928
 20
5.724830819078947
 10
3.701937831064072
 20
5.719916571444349
 10
3.703656493952844
 20
5.715128657820008
 10
3.705687658680678
 20
5.710516077799388
 10
3.708010484301626
 20
5.706126240719424
 10
3.710601135307121
 20
5.702004343720162
 10
3.713433027931983
 20
5.698192175329165
 10
3.716477098066235
 20
5.694729362517055
 10
3.719702116699646
 20
5.691651402140607
 10
3.72307497943933
 20
5.688989583377785
 10
3.726561091092828
 20
5.686771261502859
 10
3.730124672470336
 20
5.685019587286098
 10
3.733729157931259
 20
5.683752081654596
 10
3.737337558361502
 20
5.682981857278712
 10
3.740912841435386
 20
5.682716951481952
 10
3.744418329162202
 20
5.682960031329272
 10
3.747818052221188
 20
5.68370867550599
 10
3.751077112938811
 20
5.68495508866758
 10
3.754162074193004
 20
5.68668637405708
 10
3.757041287821192
 20
5.688885010734712
 10
3.75968520574368
 20
5.691528393415317
 10
3.762066691087043
 20
5.694589314328708
 10
3.764161303380563
 20
5.698036263621559
 10
3.765947566468043
 20
5.701834111199188
 10
3.767407141354128
 20
5.705943683608964
 10
3.76852504226222
 20
5.710322836583491
 10
3.769289809480801
 20
5.714926785542324
 10
3.769693595786602
 20
5.719708270842848
 10
3.769732244225443
 20
5.724618102155655
 10
3.769405374535404
 20
5.729605888929163
 10
3.768716339935241
 20
5.734620428775639
 10
3.767672192555116
 20
5.739610470351007
 10
3.766283666151973
 20
5.744524717985608
 10
3.7645650032632
 20
5.749312631609947
 10
3.762533842856525
 20
5.753925022068299
 10
3.760211012914418
 20
5.75831486030595
 10
3.757620366230082
 20
5.762436944552108
 10
3.754788469284061
 20
5.766248925696209
 10
3.751744403470968
 20
5.769711737350632
 10
3.748519384837557
 20
5.772789886131663
 10
3.745146513455556
 20
5.775451707209856
 10
3.741660401802058
 20
5.777669840680202
 10
3.738096829066867
 20
5.779421700986172
 10
3.734492343605943
 20
5.780689206617673
 10
3.730883943175701
 20
5.781459430993558
 10
3.727308660101817
 20
5.781724148385736
 10
3.723803172375
 20
5.781481068538416
 10
3.720403449316014
 20
5.780732612766279
 10
3.717144384277233
 20
5.779486200762375
 10
3.714059423023041
 20
5.777754726968295
 10
3.711180209394852
 20
5.775556090290662
 10
3.708536295793521
 20
5.772912894856953
 10
3.706154810450159
 20
5.769851973943561
 10
3.704060193835481
 20
5.766405025808397
 10
3.702273930748001
 20
5.762607178230767
 10
3.700814360183074
 20
5.758497604663305
 10
3.699696454953825
 20
5.754118264441884
 10
3.698931687735243
 20
5.749514315483049
 10
3.698527905750601
 20
5.74473301742942
 10
3.698489252990602
 20
5.7398231872743
 10
3.69881612268064
 20
5.734835400500791
  0
ARC
  5
AC
330
1F
100
AcDbEntity
  8
0
  6
Continuous
 62
     7
370
    15
100
AcDbCircle
 10
3.754537797894501
 20
5.709840682022766
 30
0.0
 40
0.0251796447768789
100
AcDbArc
 50
285.2055873475845
 51
308.9181744073063
  0
ARC
  5
AD
330
1F
100
AcDbEntity
  8
0
  6
Continuous
 62
     7
370
    15
100
AcDbCircle
 10
3.740618249619381
 20
5.761711087511638
 30
0.0
 40
0.0252817181294445
100
AcDbArc
 50
81.16463125180617
 51
104.7411184907017
  0
ARC
  5
AE
330
1F
100
AcDbEntity
  8
0
  6
Continuous
 62
     7
370
    15
100
AcDbCircle
 10
3.551496243958199
 20
6.046940124912773
 30
0.0
 40
0.0249586686520959
100
AcDbArc
 50
80.92143755735419
 51
129.5592365907957
  0
ARC
  5
AF
330
1F
100
AcDbEntity
  8
0
  6
Continuous
 62
     7
370
    15
100
AcDbCircle
 10
3.565530143440854
 20
5.99455859680247
 30
0.0
 40
0.0249439684439032
100
AcDbArc
 50
260.3690660697971
 51
309.2248030461878
  0
LWPOLYLINE
  5
B0
330
1F
100
AcDbEntity
  8
0
  6
Continuous
 62
     7
370
    15
100
AcDbPolyline
 90
       63
 70
   128
 43
0.0
 10
3.522039429520384
 20
6.023056769540916
 10
3.522728464120548
 20
6.018042135492151
 10
3.523772611500672
 20
6.013052093916782
 10
3.525161137903816
 20
6.008137940484474
 10
3.526879800792588
 20
6.003350026860134
 10
3.528910961199263
 20
5.998737447997199
 10
3.53123379114137
 20
5.994347609759548
 10
3.533824437825706
 20
5.990225619715682
 10
3.536656334771727
 20
5.986413638571582
 10
3.539700400584821
 20
5.982950826917157
 10
3.542925419218232
 20
5.979872678136127
 10
3.546298290600232
 20
5.977210857057934
 10
3.54978440225373
 20
5.974992629385297
 10
3.553347974988922
 20
5.973240863281619
 10
3.556952460449845
 20
5.971973357650118
 10
3.560560860880088
 20
5.971203227476523
 10
3.564136143953971
 20
5.970938321679764
 10
3.567641631680788
 20
5.971181495729374
 10
3.571041354739774
 20
5.971930045703802
 10
3.574300419778555
 20
5.973176457707705
 10
3.577385381032748
 20
5.974907837299496
 10
3.580264594660937
 20
5.977106473977127
 10
3.582908508262267
 20
5.979749763613128
 10
3.585289993605629
 20
5.982810590324229
 10
3.587384610220308
 20
5.986257632661684
 10
3.589170873307787
 20
5.990055386037022
 10
3.590630443872714
 20
5.994165053806776
 10
3.591748349101964
 20
5.998544299825906
 10
3.592513116320545
 20
6.003148154582451
 10
3.592916898305187
 20
6.007929546838369
 10
3.592955551065186
 20
6.01283937699349
 10
3.592628681375148
 20
6.017827163766998
 10
3.591939642453827
 20
6.02284179897345
 10
3.590895499394861
 20
6.027831839391133
 10
3.589506972991717
 20
6.032745992823441
 10
3.587788310102944
 20
6.037533906447782
 10
3.585757145375111
 20
6.042146486468402
 10
3.583434319754162
 20
6.046536229346076
 10
3.580843668748668
 20
6.050658314749919
 10
3.578011776123805
 20
6.054470294736334
 10
3.574967705989553
 20
6.057933107548445
 10
3.571742687356143
 20
6.061011256329474
 10
3.568369824616459
 20
6.063673075092296
 10
3.564883712962961
 20
6.06589120856264
 10
3.561320131585453
 20
6.067643071183983
 10
3.557715646124529
 20
6.068910576815484
 10
3.554107245694286
 20
6.069680706989077
 10
3.550531962620403
 20
6.069945518583547
 10
3.547026474893586
 20
6.069702438736227
 10
3.5436267518346
 20
6.068953888761799
 10
3.540367691116978
 20
6.06770747560021
 10
3.537282729862785
 20
6.065976096008419
 10
3.534403516234596
 20
6.063777459330787
 10
3.531759598312107
 20
6.061134170852473
 10
3.529378112968745
 20
6.058073344141372
 10
3.527283500675225
 20
6.054626300646231
 10
3.525497237587746
 20
6.050828453068601
 10
3.52403766270166
 20
6.046718880658826
 10
3.522919761793569
 20
6.042339633482009
 10
3.522154994574987
 20
6.037735684523173
 10
3.521751208269187
 20
6.032954293424941
 10
3.521712559830346
 20
6.028044556314426
 10
3.522039429520384
 20
6.023056769540916
  0
ARC
  5
B1
330
1F
100
AcDbEntity
  8
0
  6
Continuous
 62
     7
370
    15
100
AcDbCircle
 10
3.577759826313681
 20
5.998064059820682
 30
0.0
 40
0.025182007181219
100
AcDbArc
 50
285.207130494195
 51
308.9175603380145
  0
ARC
  5
B2
330
1F
100
AcDbEntity
  8
0
  6
Continuous
 62
     7
370
    15
100
AcDbCircle
 10
3.563841479856028
 20
6.049933858982057
 30
0.0
 40
0.0252803445885119
100
AcDbArc
 50
81.16398157486809
 51
104.7417681676391
  0
LINE
  5
B3
330
1F
100
AcDbEntity
  8
0
  6
Continuous
 62
     7
370
    15
100
AcDbLine
 10
4.458455358021894
 20
3.542772750154024
 30
0.0
 11
4.499553858986905
 21
3.312922553547609
 31
0.0
  0
LINE
  5
B4
330
1F
100
AcDbEntity
  8
0
  6
Continuous
 62
     7
370
    15
100
AcDbLine
 10
3.851372663696105
 20
3.380128586947277
 30
0.0
 11
4.458455358021894
 21
3.542772750154024
 31
0.0
  0
LINE
  5
B5
330
1F
100
AcDbEntity
  8
0
  6
Continuous
 62
     7
370
    15
100
AcDbLine
 10
3.851372663696105
 20
3.380128586947277
 30
0.0
 11
3.851372663696105
 21
6.993042345690554
 31
0.0
  0
LINE
  5
B6
330
1F
100
AcDbEntity
  8
0
  6
Continuous
 62
     7
370
    15
100
AcDbLine
 10
5.147735054277704
 20
6.645732489012389
 30
0.0
 11
5.147735054277704
 21
3.64715167007086
 31
0.0
  0
LINE
  5
B7
330
1F
100
AcDbEntity
  8
0
  6
Continuous
 62
     7
370
    15
100
AcDbLine
 10
4.572943709638927
 20
3.493158716324948
 30
0.0
 11
5.147735054277704
 21
3.64715167007086
 31
0.0
  0
LINE
  5
B8
330
1F
100
AcDbEntity
  8
0
  6
Continuous
 62
     7
370
    15
100
AcDbLine
 10
4.499553858986905
 20
3.312922553547609
 30
0.0
 11
4.572943709638927
 21
3.493158716324948
 31
0.0
  0
LINE
  5
B9
330
1F
100
AcDbEntity
  8
0
  6
Continuous
 62
     7
370
    15
100
AcDbLine
 10
3.497819268733276
 20
7.087763207626005
 30
0.0
 11
3.513139917807257
 21
7.083658636417317
 31
0.0
  0
LINE
  5
BA
330
1F
100
AcDbEntity
  8
0
  6
Continuous
 62
     7
370
    15
100
AcDbLine
 10
3.821909883663307
 20
7.000935750080052
 30
0.0
 11
3.851372663696105
 21
6.993042345690554
 31
0.0
  0
LINE
  5
BB
330
1F
100
AcDbEntity
  8
0
  6
Continuous
 62
     7
370
    15
100
AcDbLine
 10
3.851372663696105
 20
3.380128586947277
 30
0.0
 11
3.497819268733276
 21
3.474849448882727
 31
0.0
  0
LINE
  5
BC
330
1F
100
AcDbEntity
  8
0
  6
Continuous
 62
     7
370
    15
100
AcDbLine
 10
3.497819268733276
 20
3.474849448882727
 30
0.0
 11
3.497819268733276
 21
7.087763207626005
 31
0.0
  0
LINE
  5
BD
330
1F
100
AcDbEntity
  8
0
  6
Continuous
 62
     7
370
    15
100
AcDbLine
 10
4.499553858986905
 20
3.312922553547609
 30
0.0
 11
4.146000464024076
 21
3.407643415483058
 31
0.0
  0
LINE
  5
BE
330
1F
100
AcDbEntity
  8
0
  6
Continuous
 62
     7
370
    15
100
AcDbLine
 10
4.137226720700326
 20
3.456712211176625
 30
0.0
 11
4.146000464024076
 21
3.407643415483058
 31
0.0
  0
LINE
  5
BF
330
1F
100
AcDbEntity
  8
0
  6
Continuous
 62
     7
370
    15
100
AcDbLine
 10
6.556533306832836
 20
7.926363198359765
 30
0.0
 11
5.962017504138535
 21
7.767085844308702
 31
0.0
  0
LINE
  5
C0
330
1F
100
AcDbEntity
  8
0
  6
Continuous
 62
     7
370
    15
100
AcDbLine
 10
5.962017504138535
 20
7.767085844308702
 30
0.0
 11
6.090544170888896
 21
7.703897026268013
 31
0.0
  0
LINE
  5
C1
330
1F
100
AcDbEntity
  8
0
  6
Continuous
 62
     7
370
    15
100
AcDbLine
 10
6.090544170888896
 20
7.703897026268013
 30
0.0
 11
5.900105583006303
 21
7.718925357360082
 31
0.0
  0
LINE
  5
C2
330
1F
100
AcDbEntity
  8
0
  6
Continuous
 62
     7
370
    15
100
AcDbLine
 10
5.900105583006303
 20
7.718925357360082
 30
0.0
 11
5.319096441747565
 21
7.563266587181424
 31
0.0
  0
LINE
  5
C3
330
1F
100
AcDbEntity
  8
0
  6
Continuous
 62
     7
370
    15
100
AcDbLine
 10
2.030095490681816
 20
8.444426291571243
 30
0.0
 11
3.519095407161679
 21
8.045506757718049
 31
0.0
  0
LINE
  5
C4
330
1F
100
AcDbEntity
  8
0
  6
Continuous
 62
     7
370
    15
100
AcDbLine
 10
3.821909883663307
 20
7.964379412798106
 30
0.0
 11
5.319096441747565
 21
7.563266587181424
 31
0.0
  0
LINE
  5
C5
330
1F
100
AcDbEntity
  8
0
  6
Continuous
 62
     7
370
    15
100
AcDbLine
 10
2.030095490681816
 20
8.444426291571243
 30
0.0
 11
2.611104631940554
 21
8.600085061749901
 31
0.0
  0
LINE
  5
C6
330
1F
100
AcDbEntity
  8
0
  6
Continuous
 62
     7
370
    15
100
AcDbLine
 10
2.611104631940554
 20
8.600085061749901
 30
0.0
 11
2.555010152122084
 21
8.651105664145489
 31
0.0
  0
LINE
  5
C7
330
1F
100
AcDbEntity
  8
0
  6
Continuous
 62
     7
370
    15
100
AcDbLine
 10
2.555010152122084
 20
8.651105664145489
 30
0.0
 11
2.790867604065445
 21
8.616671949663512
 31
0.0
  0
LINE
  5
C8
330
1F
100
AcDbEntity
  8
0
  6
Continuous
 62
     7
370
    15
100
AcDbLine
 10
2.790867604065445
 20
8.616671949663512
 30
0.0
 11
3.385383406759744
 21
8.775949303714574
 31
0.0
  0
LINE
  5
C9
330
1F
100
AcDbEntity
  8
0
  6
Continuous
 62
     7
370
    15
100
AcDbLine
 10
6.556533306832836
 20
7.926363198359765
 30
0.0
 11
5.118272274244907
 21
8.311689224458941
 31
0.0
  0
LINE
  5
CA
330
1F
100
AcDbEntity
  8
0
  6
Continuous
 62
     7
370
    15
100
AcDbLine
 10
4.787683121368544
 20
8.400257712141689
 30
0.0
 11
3.385383406759744
 21
8.775949303714574
 31
0.0
  0
LINE
  5
CB
330
1F
100
AcDbEntity
  8
0
  6
Continuous
 62
     7
370
    15
100
AcDbLine
 10
5.900105583006303
 20
7.237203526001055
 30
0.0
 11
5.900105583006303
 21
7.718925357360082
 31
0.0
  0
LINE
  5
CC
330
1F
100
AcDbEntity
  8
0
  6
Continuous
 62
     7
370
    15
100
AcDbLine
 10
5.900105583006303
 20
7.237203526001055
 30
0.0
 11
5.319096441747565
 21
7.081544755822398
 31
0.0
  0
LINE
  5
CD
330
1F
100
AcDbEntity
  8
0
  6
Continuous
 62
     7
370
    15
100
AcDbLine
 10
5.319096441747565
 20
7.081544755822398
 30
0.0
 11
5.319096441747565
 21
7.563266587181424
 31
0.0
  0
LINE
  5
CE
330
1F
100
AcDbEntity
  8
0
  6
Continuous
 62
     7
370
    15
100
AcDbLine
 10
2.030095490681816
 20
7.962704460212217
 30
0.0
 11
3.513139917807257
 21
7.565380467776344
 31
0.0
  0
LINE
  5
CF
330
1F
100
AcDbEntity
  8
0
  6
Continuous
 62
     7
370
    15
100
AcDbLine
 10
3.821909883663307
 20
7.482657581439078
 30
0.0
 11
5.319096441747565
 21
7.081544755822398
 31
0.0
  0
LINE
  5
D0
330
1F
100
AcDbEntity
  8
0
  6
Continuous
 62
     7
370
    15
100
AcDbLine
 10
2.030095490681816
 20
7.962704460212217
 30
0.0
 11
2.030095490681816
 21
8.444426291571243
 31
0.0
  0
LINE
  5
D1
330
1F
100
AcDbEntity
  8
0
  6
Continuous
 62
     7
370
    15
100
AcDbLine
 10
6.090544170888896
 20
7.222175194908985
 30
0.0
 11
6.090544170888896
 21
7.703897026268013
 31
0.0
  0
LINE
  5
D2
330
1F
100
AcDbEntity
  8
0
  6
Continuous
 62
     7
370
    15
100
AcDbLine
 10
6.090544170888896
 20
7.222175194908985
 30
0.0
 11
5.900105583006303
 21
7.237203526001055
 31
0.0
  0
LINE
  5
D3
330
1F
100
AcDbEntity
  8
0
  6
Continuous
 62
     7
370
    15
100
AcDbLine
 10
6.556533306832836
 20
7.444641367000738
 30
0.0
 11
6.556533306832836
 21
7.926363198359765
 31
0.0
  0
LINE
  5
D4
330
1F
100
AcDbEntity
  8
0
  6
Continuous
 62
     7
370
    15
100
AcDbLine
 10
6.556533306832836
 20
7.444641367000738
 30
0.0
 11
6.090544153604264
 21
7.319797722800911
 31
0.0
  0
LINE
  5
D5
330
1F
100
AcDbEntity
  8
0
  6
Continuous
 62
     7
370
    15
100
AcDbLine
 10
2.555010152122084
 20
8.585056764065845
 30
0.0
 11
2.555010152122084
 21
8.651105664145489
 31
0.0
  0
LINE
  5
D6
330
1F
100
AcDbEntity
  8
0
  6
Continuous
 62
     7
370
    15
100
AcDbLine
 10
6.444097462143928
 20
7.127454360758001
 30
0.0
 11
6.315570795393567
 21
7.19064317879869
 31
0.0
  0
LINE
  5
D7
330
1F
100
AcDbEntity
  8
0
  6
Continuous
 62
     7
370
    15
100
AcDbLine
 10
6.253659012538395
 20
7.142482654804117
 30
0.0
 11
6.444097462143928
 21
7.127454360758001
 31
0.0
  0
LINE
  5
D8
330
1F
100
AcDbEntity
  8
0
  6
Continuous
 62
     7
370
    15
100
AcDbLine
 10
5.672649871279658
 20
6.986823884625459
 30
0.0
 11
6.253659012538395
 21
7.142482654804117
 31
0.0
  0
LINE
  5
D9
330
1F
100
AcDbEntity
  8
0
  6
Continuous
 62
     7
370
    15
100
AcDbLine
 10
5.672649871279658
 20
6.986823884625459
 30
0.0
 11
3.821909883663307
 21
7.482657581439078
 31
0.0
  0
LINE
  5
DA
330
1F
100
AcDbEntity
  8
0
  6
Continuous
 62
     7
370
    15
100
AcDbLine
 10
3.513139917807257
 20
7.565380467776344
 30
0.0
 11
1.676542061149723
 21
8.057425331409154
 31
0.0
  0
LINE
  5
DB
330
1F
100
AcDbEntity
  8
0
  6
Continuous
 62
     7
370
    15
100
AcDbLine
 10
2.030095421543287
 20
8.152146184083115
 30
0.0
 11
1.676542061149723
 21
8.057425331409154
 31
0.0
  0
LINE
  5
DC
330
1F
100
AcDbEntity
  8
0
  6
Continuous
 62
     7
370
    15
100
AcDbLine
 10
6.556533306832836
 20
7.444641367000738
 30
0.0
 11
6.910086598087867
 21
7.349920532849753
 31
0.0
  0
LINE
  5
DD
330
1F
100
AcDbEntity
  8
0
  6
Continuous
 62
     7
370
    15
100
AcDbLine
 10
6.315570795393567
 20
7.19064317879869
 30
0.0
 11
6.910086598087867
 21
7.349920532849753
 31
0.0
  0
LINE
  5
DE
330
1F
100
AcDbEntity
  8
0
  6
Continuous
 62
     7
370
    15
100
AcDbLine
 10
1.676542061149723
 20
8.057425331409154
 30
0.0
 11
1.676542061149723
 21
7.575703500050128
 31
0.0
  0
LINE
  5
DF
330
1F
100
AcDbEntity
  8
0
  6
Continuous
 62
     7
370
    15
100
AcDbLine
 10
5.672649871279658
 20
6.986823884625459
 30
0.0
 11
5.672649871279658
 21
6.505102053266432
 31
0.0
  0
LINE
  5
E0
330
1F
100
AcDbEntity
  8
0
  6
Continuous
 62
     7
370
    15
100
AcDbLine
 10
5.672649871279658
 20
6.505102053266432
 30
0.0
 11
3.821909883663307
 21
7.000935750080052
 31
0.0
  0
LINE
  5
E1
330
1F
100
AcDbEntity
  8
0
  6
Continuous
 62
     7
370
    15
100
AcDbLine
 10
3.513139917807257
 20
7.083658636417317
 30
0.0
 11
1.676542061149723
 21
7.575703500050128
 31
0.0
  0
LINE
  5
E2
330
1F
100
AcDbEntity
  8
0
  6
Continuous
 62
     7
370
    15
100
AcDbLine
 10
6.253659012538395
 20
7.142482654804117
 30
0.0
 11
6.253659012538395
 21
6.660760823445089
 31
0.0
  0
LINE
  5
E3
330
1F
100
AcDbEntity
  8
0
  6
Continuous
 62
     7
370
    15
100
AcDbLine
 10
5.672649871279658
 20
6.505102053266432
 30
0.0
 11
6.253659012538395
 21
6.660760823445089
 31
0.0
  0
LINE
  5
E4
330
1F
100
AcDbEntity
  8
0
  6
Continuous
 62
     7
370
    15
100
AcDbLine
 10
6.444097462143928
 20
7.127454360758001
 30
0.0
 11
6.444097462143928
 21
6.645732529398974
 31
0.0
  0
LINE
  5
E5
330
1F
100
AcDbEntity
  8
0
  6
Continuous
 62
     7
370
    15
100
AcDbLine
 10
6.253659012538395
 20
6.660760823445089
 30
0.0
 11
6.444097462143928
 21
6.645732529398974
 31
0.0
  0
LINE
  5
E6
330
1F
100
AcDbEntity
  8
0
  6
Continuous
 62
     7
370
    15
100
AcDbLine
 10
6.910086598087867
 20
7.349920532849753
 30
0.0
 11
6.910086598087867
 21
6.868198701490726
 31
0.0
  0
LINE
  5
E7
330
1F
100
AcDbEntity
  8
0
  6
Continuous
 62
     7
370
    15
100
AcDbLine
 10
6.444097444859297
 20
6.743355057290898
 30
0.0
 11
6.910086598087867
 21
6.868198701490726
 31
0.0
  0
ARC
  5
E8
330
1F
100
AcDbEntity
  8
0
  6
Continuous
 62
     7
370
    15
100
AcDbCircle
 10
3.855093623567627
 20
7.944026610971988
 30
0.0
 40
0.0474031255794602
100
AcDbArc
 50
113.6841748919014
 51
183.2711995649631
  0
LINE
  5
E9
330
1F
100
AcDbEntity
  8
0
  6
Continuous
 62
     7
370
    15
100
AcDbLine
 10
3.836052031906756
 20
7.96816825060966
 30
0.0
 11
3.836052031906756
 21
7.987437140820433
 31
0.0
  0
LINE
  5
EA
330
1F
100
AcDbEntity
  8
0
  6
Continuous
 62
     7
370
    15
100
AcDbLine
 10
3.821909883663307
 20
7.945110522587333
 30
0.0
 11
3.807767735419859
 21
7.941321684775779
 31
0.0
  0
LINE
  5
EB
330
1F
100
AcDbEntity
  8
0
  6
Continuous
 62
     7
370
    15
100
AcDbLine
 10
3.807767735419859
 20
7.941321684775779
 30
0.0
 11
3.513139900522624
 21
8.020255737932235
 31
0.0
  0
ARC
  5
EC
330
1F
100
AcDbEntity
  8
0
  6
Continuous
 62
     7
370
    15
100
AcDbCircle
 10
3.560087839190634
 20
8.023192474372979
 30
0.0
 40
0.0470396998937884
100
AcDbArc
 50
113.3760127596747
 51
183.5793616971903
  0
LINE
  5
ED
330
1F
100
AcDbEntity
  8
0
  6
Continuous
 62
     7
370
    15
100
AcDbLine
 10
3.541424197009522
 20
8.066371193976889
 30
0.0
 11
3.836052031906756
 21
7.987437140820433
 31
0.0
  0
LINE
  5
EE
330
1F
100
AcDbEntity
  8
0
  6
Continuous
 62
     7
370
    15
100
AcDbLine
 10
3.807767735419859
 20
5.049385065673391
 30
0.0
 11
3.748842166711949
 21
4.984884771421339
 31
0.0
  0
LINE
  5
EF
330
1F
100
AcDbEntity
  8
0
  6
Continuous
 62
     7
370
    15
100
AcDbLine
 10
3.748842166711949
 20
4.984884771421339
 30
0.0
 11
3.572065469230535
 21
5.032245202389065
 31
0.0
  0
LINE
  5
F0
330
1F
100
AcDbEntity
  8
0
  6
Continuous
 62
     7
370
    15
100
AcDbLine
 10
3.572065469230535
 20
5.032245202389065
 30
0.0
 11
3.513139900522624
 21
5.128319118829847
 31
0.0
  0
LINE
  5
F1
330
1F
100
AcDbEntity
  8
0
  6
Continuous
 62
     7
370
    15
100
AcDbLine
 10
3.513139900522624
 20
5.128319118829847
 30
0.0
 11
3.513139900522624
 21
8.020255737932235
 31
0.0
  0
LINE
  5
F2
330
1F
100
AcDbEntity
  8
0
  6
Continuous
 62
     7
370
    15
100
AcDbLine
 10
3.807767735419859
 20
7.941321684775779
 30
0.0
 11
3.807767735419859
 21
5.049385065673391
 31
0.0
  0
LINE
  5
F3
330
1F
100
AcDbEntity
  8
0
  6
Continuous
 62
     7
370
    15
100
AcDbLine
 10
3.807767735419859
 20
5.049385065673391
 30
0.0
 11
3.821909883663307
 21
5.053173903484944
 31
0.0
  0
LINE
  5
F4
330
1F
100
AcDbEntity
  8
0
  6
Continuous
 62
     7
370
    15
100
AcDbLine
 10
3.821909883663307
 20
7.945110522587333
 30
0.0
 11
3.821909883663307
 21
5.053173903484944
 31
0.0
  0
LINE
  5
F5
330
1F
100
AcDbEntity
  8
0
  6
Continuous
 62
     7
370
    15
100
AcDbLine
 10
3.860296287471927
 20
8.151800551143528
 30
0.0
 11
3.541424197009522
 21
8.066371193976889
 31
0.0
  0
LINE
  5
F6
330
1F
100
AcDbEntity
  8
0
  6
Continuous
 62
     7
370
    15
100
AcDbLine
 10
3.910326795259645
 20
8.151800551143528
 30
0.0
 11
3.860296287471927
 21
8.151800551143528
 31
0.0
  0
LINE
  5
F7
330
1F
100
AcDbEntity
  8
0
  6
Continuous
 62
     7
370
    15
100
AcDbLine
 10
3.982343390481563
 20
8.171094592921274
 30
0.0
 11
3.910326795259645
 21
8.151800551143528
 31
0.0
  0
LINE
  5
F8
330
1F
100
AcDbEntity
  8
0
  6
Continuous
 62
     7
370
    15
100
AcDbLine
 10
3.982343390481563
 20
8.184498318888095
 30
0.0
 11
3.982343390481563
 21
8.171094592921274
 31
0.0
  0
LINE
  5
F9
330
1F
100
AcDbEntity
  8
0
  6
Continuous
 62
     7
370
    15
100
AcDbLine
 10
4.343114675236741
 20
8.281152933270069
 30
0.0
 11
3.982343390481563
 21
8.184498318888095
 31
0.0
  0
LINE
  5
FA
330
1F
100
AcDbEntity
  8
0
  6
Continuous
 62
     7
370
    15
100
AcDbLine
 10
4.393145165739826
 20
8.281152928639325
 30
0.0
 11
4.343114675236741
 21
8.281152933270069
 31
0.0
  0
LINE
  5
FB
330
1F
100
AcDbEntity
  8
0
  6
Continuous
 62
     7
370
    15
100
AcDbLine
 10
4.438029658094325
 20
8.29317798019851
 30
0.0
 11
4.393145165739826
 21
8.281152928639325
 31
0.0
  0
LINE
  5
FC
330
1F
100
AcDbEntity
  8
0
  6
Continuous
 62
     7
370
    15
100
AcDbLine
 10
4.438029658094325
 20
8.306581706165331
 30
0.0
 11
4.438029658094325
 21
8.29317798019851
 31
0.0
  0
LINE
  5
FD
330
1F
100
AcDbEntity
  8
0
  6
Continuous
 62
     7
370
    15
100
AcDbLine
 10
4.824233707047572
 20
8.410050039155482
 30
0.0
 11
4.438029658094325
 21
8.306581706165331
 31
0.0
  0
LINE
  5
FE
330
1F
100
AcDbEntity
  8
0
  6
Continuous
 62
     7
370
    15
100
AcDbLine
 10
5.118861541944807
 20
8.331115985999026
 30
0.0
 11
4.824233707047572
 21
8.410050039155482
 31
0.0
  0
LINE
  5
FF
330
1F
100
AcDbEntity
  8
0
  6
Continuous
 62
     7
370
    15
100
AcDbLine
 10
4.732657492991561
 20
8.227647653008874
 30
0.0
 11
5.118861541944807
 21
8.331115985999026
 31
0.0
  0
LINE
  5
100
330
1F
100
AcDbEntity
  8
0
  6
Continuous
 62
     7
370
    15
100
AcDbLine
 10
4.682626985203843
 20
8.227647653008874
 30
0.0
 11
4.732657492991561
 21
8.227647653008874
 31
0.0
  0
LINE
  5
101
330
1F
100
AcDbEntity
  8
0
  6
Continuous
 62
     7
370
    15
100
AcDbLine
 10
4.637742492849343
 20
8.215622601449689
 30
0.0
 11
4.682626985203843
 21
8.227647653008874
 31
0.0
  0
LINE
  5
102
330
1F
100
AcDbEntity
  8
0
  6
Continuous
 62
     7
370
    15
100
AcDbLine
 10
4.637742510133976
 20
8.202218880113614
 30
0.0
 11
4.637742492849343
 21
8.215622601449689
 31
0.0
  0
LINE
  5
103
330
1F
100
AcDbEntity
  8
0
  6
Continuous
 62
     7
370
    15
100
AcDbLine
 10
4.276971225378797
 20
8.10556426573164
 30
0.0
 11
4.637742510133976
 21
8.202218880113614
 31
0.0
  0
LINE
  5
104
330
1F
100
AcDbEntity
  8
0
  6
Continuous
 62
     7
370
    15
100
AcDbLine
 10
4.226940717591079
 20
8.10556426573164
 30
0.0
 11
4.276971225378797
 21
8.10556426573164
 31
0.0
  0
LINE
  5
105
330
1F
100
AcDbEntity
  8
0
  6
Continuous
 62
     7
370
    15
100
AcDbLine
 10
4.154924122369161
 20
8.086270223953894
 30
0.0
 11
4.226940717591079
 21
8.10556426573164
 31
0.0
  0
LINE
  5
106
330
1F
100
AcDbEntity
  8
0
  6
Continuous
 62
     7
370
    15
100
AcDbLine
 10
4.154924122369161
 20
8.072866497987073
 30
0.0
 11
4.154924122369161
 21
8.086270223953894
 31
0.0
  0
LINE
  5
107
330
1F
100
AcDbEntity
  8
0
  6
Continuous
 62
     7
370
    15
100
AcDbLine
 10
3.836052031906756
 20
7.987437140820433
 30
0.0
 11
4.154924122369161
 21
8.072866497987073
 31
0.0
  0
LINE
  5
108
330
1F
100
AcDbEntity
  8
0
  6
Continuous
 62
     7
370
    15
100
AcDbLine
 10
4.154924122369161
 20
8.0535976077763
 30
0.0
 11
4.154924122369161
 21
8.072866497987073
 31
0.0
  0
LINE
  5
109
330
1F
100
AcDbEntity
  8
0
  6
Continuous
 62
     7
370
    15
100
AcDbLine
 10
3.836052031906756
 20
7.96816825060966
 30
0.0
 11
4.154924122369161
 21
8.0535976077763
 31
0.0
  0
LINE
  5
10A
330
1F
100
AcDbEntity
  8
0
  6
Continuous
 62
     7
370
    15
100
AcDbLine
 10
4.226940717591079
 20
8.086295375520865
 30
0.0
 11
4.226940717591079
 21
8.10556426573164
 31
0.0
  0
LINE
  5
10B
330
1F
100
AcDbEntity
  8
0
  6
Continuous
 62
     7
370
    15
100
AcDbLine
 10
4.154924122369161
 20
8.067001333743119
 30
0.0
 11
4.226940717591079
 21
8.086295375520865
 31
0.0
  0
LINE
  5
10C
330
1F
100
AcDbEntity
  8
0
  6
Continuous
 62
     7
370
    15
100
AcDbLine
 10
4.276971225378797
 20
8.086295375520865
 30
0.0
 11
4.276971225378797
 21
8.10556426573164
 31
0.0
  0
LINE
  5
10D
330
1F
100
AcDbEntity
  8
0
  6
Continuous
 62
     7
370
    15
100
AcDbLine
 10
4.226940717591079
 20
8.086295375520865
 30
0.0
 11
4.276971225378797
 21
8.086295375520865
 31
0.0
  0
LINE
  5
10E
330
1F
100
AcDbEntity
  8
0
  6
Continuous
 62
     7
370
    15
100
AcDbLine
 10
4.637742510133976
 20
8.182949989902839
 30
0.0
 11
4.637742510133976
 21
8.202218880113614
 31
0.0
  0
LINE
  5
10F
330
1F
100
AcDbEntity
  8
0
  6
Continuous
 62
     7
370
    15
100
AcDbLine
 10
4.276971225378797
 20
8.086295375520865
 30
0.0
 11
4.637742510133976
 21
8.182949989902839
 31
0.0
  0
LINE
  5
110
330
1F
100
AcDbEntity
  8
0
  6
Continuous
 62
     7
370
    15
100
AcDbLine
 10
3.748842166711949
 20
4.984884771421339
 30
0.0
 11
3.762984314955398
 21
4.988673609232893
 31
0.0
  0
LINE
  5
111
330
1F
100
AcDbEntity
  8
0
  6
Continuous
 62
     7
370
    15
100
AcDbLine
 10
3.821909883663307
 20
5.053173903484944
 30
0.0
 11
3.762984314955398
 21
4.988673609232893
 31
0.0
  0
LINE
  5
112
330
1F
100
AcDbEntity
  8
0
  6
Continuous
 62
     7
370
    15
100
AcDbLine
 10
4.682626985203843
 20
8.208378762798101
 30
0.0
 11
4.682626985203843
 21
8.227647653008874
 31
0.0
  0
LINE
  5
113
330
1F
100
AcDbEntity
  8
0
  6
Continuous
 62
     7
370
    15
100
AcDbLine
 10
4.637742492849343
 20
8.196353711238915
 30
0.0
 11
4.682626985203843
 21
8.208378762798101
 31
0.0
  0
LINE
  5
114
330
1F
100
AcDbEntity
  8
0
  6
Continuous
 62
     7
370
    15
100
AcDbLine
 10
4.732657492991561
 20
8.208378762798101
 30
0.0
 11
4.732657492991561
 21
8.227647653008874
 31
0.0
  0
LINE
  5
115
330
1F
100
AcDbEntity
  8
0
  6
Continuous
 62
     7
370
    15
100
AcDbLine
 10
4.682626985203843
 20
8.208378762798101
 30
0.0
 11
4.732657492991561
 21
8.208378762798101
 31
0.0
  0
LINE
  5
116
330
1F
100
AcDbEntity
  8
0
  6
Continuous
 62
     7
370
    15
100
AcDbLine
 10
5.118861541944807
 20
8.311847095788252
 30
0.0
 11
5.118861541944807
 21
8.331115985999026
 31
0.0
  0
LINE
  5
117
330
1F
100
AcDbEntity
  8
0
  6
Continuous
 62
     7
370
    15
100
AcDbLine
 10
4.732657492991561
 20
8.208378762798101
 30
0.0
 11
5.118861541944807
 21
8.311847095788252
 31
0.0
  0
ARC
  5
118
330
1F
100
AcDbEntity
  8
0
  6
Continuous
 62
     7
370
    15
100
AcDbCircle
 10
4.829592541739258
 20
8.391078802077302
 30
0.0
 40
0.0197135726221639
100
AcDbArc
 50
75.32971359692922
 51
105.7734762107668
  0
LWPOLYLINE
  5
119
330
1F
100
AcDbEntity
  8
0
  6
Continuous
 62
     7
370
    15
100
AcDbPolyline
 90
       14
 70
   128
 43
0.0
 10
5.147002514256896
 20
8.303992070398383
 10
5.146939598193665
 20
8.304745836330882
 10
5.146323919574916
 20
8.309158366946727
 10
5.145307790584489
 20
8.313329138711933
 10
5.143906006868022
 20
8.31719730436731
 10
5.142139033430697
 20
8.32070645580876
 10
5.140032658944587
 20
8.323805426394173
 10
5.137617511778933
 20
8.326449056204337
 10
5.134928852584557
 20
8.328598748788918
 10
5.132005882908548
 20
8.33022322795959
 10
5.128891261224548
 20
8.331298690736081
 10
5.125630411547434
 20
8.331809564139309
 10
5.122270832048022
 20
8.33174836706277
 10
5.118861541944807
 20
8.331115985999026
  0
ARC
  5
11A
330
1F
100
AcDbEntity
  8
0
  6
Continuous
 62
     7
370
    15
100
AcDbCircle
 10
5.121501469087939
 20
8.302400639106865
 30
0.0
 40
0.0098084024771808
100
AcDbArc
 50
41.05398089455333
 51
105.6136665806697
  0
LWPOLYLINE
  5
11B
330
1F
100
AcDbEntity
  8
0
  6
Continuous
 62
     7
370
    15
100
AcDbPolyline
 90
       27
 70
   128
 43
0.0
 10
3.555434437578098
 20
6.63359492956369
 10
3.557899718821059
 20
6.633103075573556
 10
3.561569185858826
 20
6.63195381195843
 10
3.565208275154526
 20
6.630315769791333
 10
3.568780827256434
 20
6.628205042344797
 10
3.572251322244238
 20
6.625642826882115
 10
3.57558527727559
 20
6.622654376127314
 10
3.578749557709497
 20
6.619269574327797
 10
3.581712709835505
 20
6.615522000291907
 10
3.584445293602871
 20
6.611448838247089
 10
3.58692014621122
 20
6.607090618816473
 10
3.589112667306983
 20
6.602490671600133
 10
3.591001078252889
 20
6.597694773107055
 10
3.592566599295448
 20
6.592750439873971
 10
3.593793674265182
 20
6.587706868265688
 10
3.594670113174838
 20
6.58261423685541
 10
3.59518720024835
 20
6.57752311226884
 10
3.59533980194979
 20
6.572484043432868
 10
3.595126397231475
 20
6.567547176662603
 10
3.594549107782075
 20
6.562761588141539
 10
3.593613667778508
 20
6.558174821013896
 10
3.592329380674355
 20
6.553832520152314
 10
3.590709006849746
 20
6.549777708639376
 10
3.588768651261251
 20
6.546050723665138
 10
3.586527599237869
 20
6.542688695305466
 10
3.584008117707745
 20
6.539724940359543
 10
3.5813038288842
 20
6.537244027868399
  0
LWPOLYLINE
  5
11C
330
1F
100
AcDbEntity
  8
0
  6
Continuous
 62
     7
370
    15
100
AcDbPolyline
 90
       28
 70
   128
 43
0.0
 10
3.593579202220794
 20
6.540479978160237
 10
3.593609597247495
 20
6.540504240584752
 10
3.596382462851497
 20
6.543040164183165
 10
3.598901944381621
 20
6.546003919129086
 10
3.601142996405004
 20
6.54936594748876
 10
3.603083351993498
 20
6.553092932462997
 10
3.604703725818107
 20
6.557147743975935
 10
3.605988012922261
 20
6.561490044837517
 10
3.606923452925828
 20
6.566076811965162
 10
3.607500742375227
 20
6.570862400486225
 10
3.607714147093542
 20
6.575799267256488
 10
3.607561545392103
 20
6.580838336092461
 10
3.60704445831859
 20
6.585929460679031
 10
3.606168019408934
 20
6.59102209208931
 10
3.604940944439201
 20
6.596065663697593
 10
3.603375423396641
 20
6.601009996930677
 10
3.601487012450736
 20
6.605805895423754
 10
3.599294491354972
 20
6.610405842640094
 10
3.596819638746623
 20
6.61476406207071
 10
3.594087054979257
 20
6.618837224115528
 10
3.591123902853249
 20
6.622584798151419
 10
3.587959622419342
 20
6.625969599950934
 10
3.58462566738799
 20
6.628958050705737
 10
3.581155172400186
 20
6.631520266168418
 10
3.577582620298278
 20
6.633630993614954
 10
3.573943531002578
 20
6.635269035782051
 10
3.570274063964811
 20
6.636418299397178
 10
3.567724718910444
 20
6.63692297217548
  0
LWPOLYLINE
  5
11D
330
1F
100
AcDbEntity
  8
0
  6
Continuous
 62
     7
370
    15
100
AcDbPolyline
 90
       27
 70
   128
 43
0.0
 10
3.732211135059512
 20
6.345373559365879
 10
3.734676407660156
 20
6.344881801893407
 10
3.73834588334024
 20
6.343732535962909
 10
3.74198497263594
 20
6.342094399593522
 10
3.745557516095532
 20
6.339983674462358
 10
3.749028019725652
 20
6.337421456684304
 10
3.752361974757004
 20
6.334433005929502
 10
3.755526255190911
 20
6.331048204129986
 10
3.758489402995761
 20
6.327300631251781
 10
3.761221991084285
 20
6.323227468049277
 10
3.763696839371476
 20
6.318869343978639
 10
3.765889360467239
 20
6.314269396762298
 10
3.767777767091986
 20
6.309473405224615
 10
3.769343296776863
 20
6.30452906967616
 10
3.770570367425438
 20
6.299485499225563
 10
3.771446810656252
 20
6.294392866657598
 10
3.771963897729765
 20
6.289301742071027
 10
3.772116495110046
 20
6.284262674392742
 10
3.77190309039173
 20
6.279325901824769
 10
3.771325800942331
 20
6.274540313303705
 10
3.770390365259923
 20
6.269953545018375
 10
3.769106073834611
 20
6.265611151112189
 10
3.767485700010002
 20
6.26155633959925
 10
3.765545344421507
 20
6.257829448827304
 10
3.763304296719283
 20
6.254467325107653
 10
3.760784810868001
 20
6.251503665521709
 10
3.758080526365614
 20
6.24902275187288
  0
LWPOLYLINE
  5
11E
330
1F
100
AcDbEntity
  8
0
  6
Continuous
 62
     7
370
    15
100
AcDbPolyline
 90
       28
 70
   128
 43
0.0
 10
3.770355899702209
 20
6.252258607962424
 10
3.770386294728909
 20
6.252282870386939
 10
3.773159156011753
 20
6.25481888934533
 10
3.775678641863035
 20
6.257782548931276
 10
3.777919689565259
 20
6.261144672650925
 10
3.779860045153754
 20
6.264871563422871
 10
3.781480418978363
 20
6.26892637493581
 10
3.782764710403675
 20
6.273268768841997
 10
3.783700146086083
 20
6.277855537127327
 10
3.784277435535483
 20
6.282641125648391
 10
3.784490840253798
 20
6.287577898216364
 10
3.784338242873517
 20
6.29261696589465
 10
3.783821155800004
 20
6.297708090481219
 10
3.78294471256919
 20
6.302800723049185
 10
3.781717641920615
 20
6.307844293499782
 10
3.780152112235739
 20
6.312788629048236
 10
3.778263705610991
 20
6.31758462058592
 10
3.776071184515228
 20
6.322184567802259
 10
3.773596336228037
 20
6.326542691872899
 10
3.770863748139513
 20
6.330615855075402
 10
3.767900600334663
 20
6.334363427953608
 10
3.764736319900756
 20
6.337748229753123
 10
3.761402364869404
 20
6.340736680507925
 10
3.757931861239284
 20
6.343298898285979
 10
3.754359317779692
 20
6.345409623417142
 10
3.750720228483992
 20
6.347047759786531
 10
3.747050752803908
 20
6.34819702571703
 10
3.744501416391858
 20
6.34870160197767
  0
LWPOLYLINE
  5
11F
330
1F
100
AcDbEntity
  8
0
  6
Continuous
 62
     7
370
    15
100
AcDbPolyline
 90
       27
 70
   128
 43
0.0
 10
3.555434437578098
 20
5.509577432961966
 10
3.557899718821059
 20
5.509085578971832
 10
3.561569185858826
 20
5.507936315356705
 10
3.565208275154526
 20
5.506298178987317
 10
3.568780827256434
 20
5.504187451540782
 10
3.572251322244238
 20
5.501625141875808
 10
3.57558527727559
 20
5.498636879525589
 10
3.578749557709497
 20
5.495252077726074
 10
3.581712709835505
 20
5.491504409487892
 10
3.584445293602871
 20
5.487431341645365
 10
3.58692014621122
 20
5.483073122214749
 10
3.589112667306983
 20
5.478473080796118
 10
3.591001078252889
 20
5.47367718230304
 10
3.592566599295448
 20
5.468732849069956
 10
3.593793674265182
 20
5.463689277461673
 10
3.594670113174838
 20
5.458596646051395
 10
3.59518720024835
 20
5.453505521464824
 10
3.59533980194979
 20
5.448466452628852
 10
3.595126397231475
 20
5.443529585858589
 10
3.594549107782075
 20
5.438744091539816
 10
3.593613667778508
 20
5.434157230209881
 10
3.592329380674355
 20
5.4298149293483
 10
3.590709006849746
 20
5.425760117835361
 10
3.588768651261251
 20
5.422033132861123
 10
3.586527599237869
 20
5.418671198703741
 10
3.584008117707745
 20
5.415707349555528
 10
3.5813038288842
 20
5.413226531266675
  0
LWPOLYLINE
  5
120
330
1F
100
AcDbEntity
  8
0
  6
Continuous
 62
     7
370
    15
100
AcDbPolyline
 90
       28
 70
   128
 43
0.0
 10
3.593579202220794
 20
5.416462387356222
 10
3.593609597247495
 20
5.416486649780735
 10
3.596382462851497
 20
5.41902257337915
 10
3.598901944381621
 20
5.421986422527362
 10
3.601142996405004
 20
5.425348356684745
 10
3.603083351993498
 20
5.429075341658982
 10
3.604703725818107
 20
5.43313015317192
 10
3.605988012922261
 20
5.437472454033502
 10
3.606923452925828
 20
5.442059315363437
 10
3.607500742375227
 20
5.44684480968221
 10
3.607714147093542
 20
5.451781676452474
 10
3.607561545392103
 20
5.456820745288445
 10
3.60704445831859
 20
5.461911869875017
 10
3.606168019408934
 20
5.467004501285295
 10
3.604940944439201
 20
5.472048072893578
 10
3.603375423396641
 20
5.476992406126662
 10
3.601487012450736
 20
5.481788304619739
 10
3.599294491354972
 20
5.486388346038371
 10
3.596819638746623
 20
5.490746565468986
 10
3.594087054979257
 20
5.494819633311514
 10
3.591123902853249
 20
5.498567301549695
 10
3.587959622419342
 20
5.501952103349211
 10
3.58462566738799
 20
5.504940365699431
 10
3.581155172400186
 20
5.507502675364404
 10
3.577582620298278
 20
5.50961340281094
 10
3.573943531002578
 20
5.511251539180327
 10
3.570274063964811
 20
5.512400802795453
 10
3.567724718910444
 20
5.512905381371465
  0
LWPOLYLINE
  5
121
330
1F
100
AcDbEntity
  8
0
  6
Continuous
 62
     7
370
    15
100
AcDbPolyline
 90
       27
 70
   128
 43
0.0
 10
3.732211135059512
 20
5.221356062764154
 10
3.734676407660156
 20
5.220864211089392
 10
3.73834588334024
 20
5.219714945158894
 10
3.74198497263594
 20
5.218076808789506
 10
3.745557516095532
 20
5.215966083658343
 10
3.749028019725652
 20
5.213403771677998
 10
3.752361974757004
 20
5.210415509327778
 10
3.755526255190911
 20
5.207030707528263
 10
3.758489402995761
 20
5.203283040447766
 10
3.761221991084285
 20
5.199209971447554
 10
3.763696839371476
 20
5.194851753174623
 10
3.765889360467239
 20
5.190251711755992
 10
3.767777767091986
 20
5.1854558144206
 10
3.769343296776863
 20
5.180511478872145
 10
3.770570367425438
 20
5.175467908421548
 10
3.771446810656252
 20
5.170375275853583
 10
3.771963897729765
 20
5.165284151267012
 10
3.772116495110046
 20
5.160245083588726
 10
3.77190309039173
 20
5.155308216818464
 10
3.771325800942331
 20
5.15052272249969
 10
3.770390365259923
 20
5.14593586001207
 10
3.769106073834611
 20
5.141593560308174
 10
3.767485700010002
 20
5.137538748795235
 10
3.765545344421507
 20
5.133811763820999
 10
3.763304296719283
 20
5.13044982850593
 10
3.760784810868001
 20
5.127485980515404
 10
3.758080526365614
 20
5.125005161068864
  0
LWPOLYLINE
  5
122
330
1F
100
AcDbEntity
  8
0
  6
Continuous
 62
     7
370
    15
100
AcDbPolyline
 90
       28
 70
   128
 43
0.0
 10
3.770355899702209
 20
5.128241017158409
 10
3.770386294728909
 20
5.128265279582924
 10
3.773159156011753
 20
5.130801204339025
 10
3.775678641863035
 20
5.13376505232955
 10
3.777919689565259
 20
5.137126987644619
 10
3.779860045153754
 20
5.140853972618856
 10
3.781480418978363
 20
5.144908784131795
 10
3.782764710403675
 20
5.14925108383569
 10
3.783700146086083
 20
5.153837946323312
 10
3.784277435535483
 20
5.158623440642085
 10
3.784490840253798
 20
5.163560307412349
 10
3.784338242873517
 20
5.168599375090634
 10
3.783821155800004
 20
5.173690499677205
 10
3.78294471256919
 20
5.17878313224517
 10
3.781717641920615
 20
5.183826702695767
 10
3.780152112235739
 20
5.188771038244222
 10
3.778263705610991
 20
5.193566935579614
 10
3.776071184515228
 20
5.198166976998244
 10
3.773596336228037
 20
5.202525195271174
 10
3.770863748139513
 20
5.206598264271387
 10
3.767900600334663
 20
5.210345931351883
 10
3.764736319900756
 20
5.2137307331514
 10
3.761402364869404
 20
5.216718995501619
 10
3.757931861239284
 20
5.219281307481963
 10
3.754359317779692
 20
5.221392032613127
 10
3.750720228483992
 20
5.223030168982514
 10
3.747050752803908
 20
5.224179434913014
 10
3.744501416391858
 20
5.224684011173654
  0
LWPOLYLINE
  5
123
330
1F
100
AcDbEntity
  8
0
  6
Continuous
 62
     7
370
    15
100
AcDbPolyline
 90
       27
 70
   128
 43
0.0
 10
3.732211135059512
 20
5.783364858166161
 10
3.734676407660156
 20
5.7828730064914
 10
3.73834588334024
 20
5.781723740560901
 10
3.74198497263594
 20
5.780085604191514
 10
3.745557516095532
 20
5.777974879060351
 10
3.749028019725652
 20
5.775412567080005
 10
3.752361974757004
 20
5.772424304729786
 10
3.755526255190911
 20
5.76903950293027
 10
3.758489402995761
 20
5.765291835849774
 10
3.761221991084285
 20
5.761218766849561
 10
3.763696839371476
 20
5.756860548576631
 10
3.765889360467239
 20
5.752260507157999
 10
3.767777767091986
 20
5.747464609822608
 10
3.769343296776863
 20
5.742520274274152
 10
3.770570367425438
 20
5.737476703823555
 10
3.771446810656252
 20
5.732384071255592
 10
3.771963897729765
 20
5.72729294666902
 10
3.772116495110046
 20
5.722253878990734
 10
3.77190309039173
 20
5.717317012220471
 10
3.771325800942331
 20
5.712531517901697
 10
3.770390365259923
 20
5.707944655414077
 10
3.769106073834611
 20
5.703602355710181
 10
3.767485700010002
 20
5.699547544197243
 10
3.765545344421507
 20
5.695820559223006
 10
3.763304296719283
 20
5.692458623907937
 10
3.760784810868001
 20
5.689494775917411
 10
3.758080526365614
 20
5.687013956470872
  0
LWPOLYLINE
  5
124
330
1F
100
AcDbEntity
  8
0
  6
Continuous
 62
     7
370
    15
100
AcDbPolyline
 90
       28
 70
   128
 43
0.0
 10
3.770355899702209
 20
5.690249812560417
 10
3.770386294728909
 20
5.690274074984932
 10
3.773159156011753
 20
5.692809999741032
 10
3.775678641863035
 20
5.695773847731558
 10
3.777919689565259
 20
5.699135783046626
 10
3.779860045153754
 20
5.702862768020864
 10
3.781480418978363
 20
5.706917579533802
 10
3.782764710403675
 20
5.711259879237697
 10
3.783700146086083
 20
5.71584674172532
 10
3.784277435535483
 20
5.720632236044093
 10
3.784490840253798
 20
5.725569102814356
 10
3.784338242873517
 20
5.730608170492642
 10
3.783821155800004
 20
5.735699295079212
 10
3.78294471256919
 20
5.740791927647177
 10
3.781717641920615
 20
5.745835498097774
 10
3.780152112235739
 20
5.750779833646229
 10
3.778263705610991
 20
5.755575730981621
 10
3.776071184515228
 20
5.760175772400252
 10
3.773596336228037
 20
5.764533990673182
 10
3.770863748139513
 20
5.768607059673395
 10
3.767900600334663
 20
5.77235472675389
 10
3.764736319900756
 20
5.775739528553407
 10
3.761402364869404
 20
5.778727790903626
 10
3.757931861239284
 20
5.781290102883971
 10
3.754359317779692
 20
5.783400828015134
 10
3.750720228483992
 20
5.785038964384523
 10
3.747050752803908
 20
5.786188230315022
 10
3.744501416391858
 20
5.786692806575662
  0
LWPOLYLINE
  5
125
330
1F
100
AcDbEntity
  8
0
  6
Continuous
 62
     7
370
    15
100
AcDbPolyline
 90
       27
 70
   128
 43
0.0
 10
3.555434437578098
 20
6.071586134161682
 10
3.557899718821059
 20
6.071094280171548
 10
3.561569185858826
 20
6.069945016556422
 10
3.565208275154526
 20
6.068306974389325
 10
3.568780827256434
 20
6.06619624694279
 10
3.572251322244238
 20
6.063634031480107
 10
3.57558527727559
 20
6.060645580725307
 10
3.578749557709497
 20
6.05726077892579
 10
3.581712709835505
 20
6.053513204889899
 10
3.584445293602871
 20
6.049440042845081
 10
3.58692014621122
 20
6.045081823414466
 10
3.589112667306983
 20
6.040481876198126
 10
3.591001078252889
 20
6.035685977705047
 10
3.592566599295448
 20
6.030741644471963
 10
3.593793674265182
 20
6.02569807286368
 10
3.594670113174838
 20
6.020605441453403
 10
3.59518720024835
 20
6.015514316866832
 10
3.59533980194979
 20
6.01047524803086
 10
3.595126397231475
 20
6.005538381260596
 10
3.594549107782075
 20
6.000752792739532
 10
3.593613667778508
 20
5.996166025611888
 10
3.592329380674355
 20
5.991823724750307
 10
3.590709006849746
 20
5.987768913237368
 10
3.588768651261251
 20
5.98404192826313
 10
3.586527599237869
 20
5.980679899903458
 10
3.584008117707745
 20
5.977716144957536
 10
3.5813038288842
 20
5.975235232466392
  0
LWPOLYLINE
  5
126
330
1F
100
AcDbEntity
  8
0
  6
Continuous
 62
     7
370
    15
100
AcDbPolyline
 90
       28
 70
   128
 43
0.0
 10
3.593579202220794
 20
5.978471182758229
 10
3.593609597247495
 20
5.978495445182744
 10
3.596382462851497
 20
5.981031368781158
 10
3.598901944381621
 20
5.983995123727079
 10
3.601142996405004
 20
5.987357152086753
 10
3.603083351993498
 20
5.991084137060989
 10
3.604703725818107
 20
5.995138948573928
 10
3.605988012922261
 20
5.999481249435508
 10
3.606923452925828
 20
6.004068016563154
 10
3.607500742375227
 20
6.008853605084218
 10
3.607714147093542
 20
6.013790471854481
 10
3.607561545392103
 20
6.018829540690453
 10
3.60704445831859
 20
6.023920665277024
 10
3.606168019408934
 20
6.029013296687303
 10
3.604940944439201
 20
6.034056868295585
 10
3.603375423396641
 20
6.039001201528669
 10
3.601487012450736
 20
6.043797100021746
 10
3.599294491354972
 20
6.048397047238086
 10
3.596819638746623
 20
6.052755266668702
 10
3.594087054979257
 20
6.056828428713521
 10
3.591123902853249
 20
6.060576002749411
 10
3.587959622419342
 20
6.063960804548927
 10
3.58462566738799
 20
6.066949255303729
 10
3.581155172400186
 20
6.069511470766411
 10
3.577582620298278
 20
6.071622198212947
 10
3.573943531002578
 20
6.073260240380043
 10
3.570274063964811
 20
6.074409503995169
 10
3.567724718910444
 20
6.074914176773473
  0
LINE
  5
127
330
1F
100
AcDbEntity
  8
OBJ
100
AcDbLine
 10
4.838375856120682
 20
8.375301105489613
 30
0.0
 11
5.133003681615077
 21
8.29636705485228
 31
0.0
  0
LINE
  5
128
330
1F
100
AcDbEntity
  8
OBJ
100
AcDbLine
 10
4.838375856120682
 20
8.375301105489613
 30
0.0
 11
4.83837585612069
 21
5.483364413638946
 31
0.0
  0
LINE
  5
129
330
1F
100
AcDbEntity
  8
OBJ
100
AcDbLine
 10
5.147145817238815
 20
5.408219197432206
 30
0.0
 11
5.147145817238808
 21
8.300155889282873
 31
0.0
  0
LINE
  5
12A
330
1F
100
AcDbEntity
  8
OBJ
100
AcDbLine
 10
5.088220252139937
 20
5.343719036658765
 30
0.0
 11
5.147145817238815
 21
5.408219197432206
 31
0.0
  0
LINE
  5
12B
330
1F
100
AcDbEntity
  8
OBJ
100
AcDbLine
 10
4.897301421219569
 20
5.387290632610573
 30
0.0
 11
5.074078116516205
 21
5.339930202228174
 31
0.0
  0
LINE
  5
12C
330
1F
100
AcDbEntity
  8
OBJ
100
AcDbLine
 10
4.83837585612069
 20
5.483364413638946
 30
0.0
 11
4.897301421219569
 21
5.387290632610573
 31
0.0
  0
ELLIPSE
  5
12D
330
1F
100
AcDbEntity
  8
OBJ
100
AcDbEllipse
 10
5.089398763441921
 20
5.53330845785157
 30
0.0
 11
0.0134783683088857
 21
-0.0503091164585614
 31
0.0
210
0.0
220
0.0
230
0.9999999999999998
 40
0.6812575387795194
 41
0.0
 42
6.283185307179586
  0
ELLIPSE
  5
12E
330
1F
100
AcDbEntity
  8
OBJ
100
AcDbEllipse
 10
4.924996436816047
 20
5.824845031063459
 30
0.0
 11
-0.0134783683088857
 21
0.0503091164585614
 31
0.0
210
0.0
220
0.0
230
0.9999999999999998
 40
0.6812575387795029
 41
0.0
 42
6.283185307179586
  0
ELLIPSE
  5
12F
330
1F
100
AcDbEntity
  8
OBJ
100
AcDbEllipse
 10
5.08822025213994
 20
6.09500151795537
 30
0.0
 11
-0.013047060523002
 21
0.0486992247318883
 31
0.0
210
0.0
220
0.0
230
0.9999999999999998
 40
0.6812575387794961
 41
0.0
 42
6.283185307179586
  0
ELLIPSE
  5
130
330
1F
100
AcDbEntity
  8
OBJ
100
AcDbEllipse
 10
4.924996436816044
 20
6.386853827369806
 30
0.0
 11
-0.0134783683088857
 21
0.0503091164585614
 31
0.0
210
0.0
220
0.0
230
0.9999999999999998
 40
0.6812575387794987
 41
0.0
 42
6.283185307179586
  0
ELLIPSE
  5
131
330
1F
100
AcDbEntity
  8
OBJ
100
AcDbEllipse
 10
5.101773132112679
 20
6.660641280591035
 30
0.0
 11
-0.0134783683088857
 21
0.0503091164585614
 31
0.0
210
0.0
220
0.0
230
0.9999999999999998
 40
0.6812575387795106
 41
0.0
 42
6.283185307179586
  0
ELLIPSE
  5
132
330
1F
100
AcDbEntity
  8
OBJ
100
AcDbEllipse
 10
4.924996436816041
 20
6.948862623676156
 30
0.0
 11
-0.0134783683088857
 21
0.0503091164585614
 31
0.0
210
0.0
220
0.0
230
0.9999999999999998
 40
0.6812575387795029
 41
0.0
 42
6.283185307179586
  0
TEXT
  5
13A
330
1F
100
AcDbEntity
  8
0
100
AcDbText
 10
3.671005735078615
 20
2.271739121081051
 30
0.0
 40
0.25
  1
USP  SPTH6
100
AcDbText
  0
TEXT
  5
141
330
1F
100
AcDbEntity
  8
0
100
AcDbText
 10
2.746119526074423
 20
1.804649491845289
 30
0.0
 40
0.25
  1
SIMPSON  SPH6
100
AcDbText
  0
ENDSEC
  0
SECTION
  2
OBJECTS
  0
DICTIONARY
  5
C
330
0
100
AcDbDictionary
281
     1
  3
ACAD_COLOR
350
137
  3
ACAD_GROUP
350
D
  3
ACAD_LAYOUT
350
1A
  3
ACAD_MATERIAL
350
136
  3
ACAD_MLINESTYLE
350
17
  3
ACAD_PLOTSETTINGS
350
19
  3
ACAD_PLOTSTYLENAME
350
E
  3
ACAD_SCALELIST
350
47
  0
DICTIONARY
  5
137
102
{ACAD_REACTORS
330
C
102
}
330
C
100
AcDbDictionary
281
     1
  0
DICTIONARY
  5
D
102
{ACAD_REACTORS
330
C
102
}
330
C
100
AcDbDictionary
281
     1
  0
DICTIONARY
  5
1A
102
{ACAD_REACTORS
330
C
102
}
330
C
100
AcDbDictionary
281
     1
  3
Layout1
350
1E
  3
Layout2
350
26
  3
Model
350
22
  0
DICTIONARY
  5
136
102
{ACAD_REACTORS
330
C
102
}
330
C
100
AcDbDictionary
281
     1
  0
DICTIONARY
  5
17
102
{ACAD_REACTORS
330
C
102
}
330
C
100
AcDbDictionary
281
     1
  3
Standard
350
18
  0
DICTIONARY
  5
19
102
{ACAD_REACTORS
330
C
102
}
330
C
100
AcDbDictionary
281
     1
  0
ACDBDICTIONARYWDFLT
  5
E
102
{ACAD_REACTORS
330
C
102
}
330
C
100
AcDbDictionary
281
     1
  3
Normal
350
F
100
AcDbDictionaryWithDefault
340
F
  0
DICTIONARY
  5
47
102
{ACAD_REACTORS
330
C
102
}
330
C
100
AcDbDictionary
281
     1
  3
A0
350
48
  3
A1
350
49
  3
A2
350
4A
  3
A3
350
4B
  3
A4
350
4C
  3
A5
350
4D
  3
A6
350
4E
  3
A7
350
4F
  3
A8
350
50
  3
A9
350
51
  3
B0
350
52
  3
B1
350
53
  3
B2
350
54
  3
B3
350
55
  3
B4
350
56
  3
B5
350
57
  3
B6
350
58
  3
B7
350
59
  3
B8
350
5A
  3
B9
350
5B
  3
C0
350
5C
  3
C1
350
5D
  3
C2
350
5E
  3
C3
350
5F
  3
C4
350
60
  3
C5
350
61
  3
C6
350
62
  3
C7
350
63
  3
C8
350
64
  3
C9
350
65
  3
D0
350
66
  3
D1
350
67
  3
D2
350
68
  0
LAYOUT
  5
1E
102
{ACAD_REACTORS
330
1A
102
}
330
1A
100
AcDbPlotSettings
  1

  2
none_device
  4

  6

 40
0.0
 41
0.0
 42
0.0
 43
0.0
 44
0.0
 45
0.0
 46
0.0
 47
0.0
 48
0.0
 49
0.0
140
0.0
141
0.0
142
1.0
143
1.0
 70
   688
 72
     0
 73
     0
 74
     5
  7

 75
    16
147
1.0
 76
     0
 77
     2
 78
   300
148
0.0
149
0.0
100
AcDbLayout
  1
Layout1
 70
     1
 71
     1
 10
0.0
 20
0.0
 11
12.0
 21
9.0
 12
0.0
 22
0.0
 32
0.0
 14
1.000000000000000E+20
 24
1.000000000000000E+20
 34
1.000000000000000E+20
 15
-1.000000000000000E+20
 25
-1.000000000000000E+20
 35
-1.000000000000000E+20
146
0.0
 13
0.0
 23
0.0
 33
0.0
 16
1.0
 26
0.0
 36
0.0
 17
0.0
 27
1.0
 37
0.0
 76
     0
330
1B
  0
LAYOUT
  5
26
102
{ACAD_REACTORS
330
1A
102
}
330
1A
100
AcDbPlotSettings
  1

  2
none_device
  4

  6

 40
0.0
 41
0.0
 42
0.0
 43
0.0
 44
0.0
 45
0.0
 46
0.0
 47
0.0
 48
0.0
 49
0.0
140
0.0
141
0.0
142
1.0
143
1.0
 70
   688
 72
     0
 73
     0
 74
     5
  7

 75
    16
147
1.0
 76
     0
 77
     2
 78
   300
148
0.0
149
0.0
100
AcDbLayout
  1
Layout2
 70
     1
 71
     2
 10
0.0
 20
0.0
 11
0.0
 21
0.0
 12
0.0
 22
0.0
 32
0.0
 14
0.0
 24
0.0
 34
0.0
 15
0.0
 25
0.0
 35
0.0
146
0.0
 13
0.0
 23
0.0
 33
0.0
 16
1.0
 26
0.0
 36
0.0
 17
0.0
 27
1.0
 37
0.0
 76
     0
330
23
  0
LAYOUT
  5
22
102
{ACAD_REACTORS
330
1A
102
}
330
1A
100
AcDbPlotSettings
  1

  2
none_device
  4
Letter_(8.50_x_11.00_Inches)
  6

 40
6.349999999999999
 41
6.349999999999999
 42
6.350005079999999
 43
6.350005079999999
 44
215.9
 45
279.4
 46
0.0
 47
0.0
 48
0.0
 49
0.0
140
0.0
141
0.0
142
1.0
143
1.0
 70
  1712
 72
     0
 73
     0
 74
     0
  7

 75
     0
147
1.0
 76
     0
 77
     2
 78
   300
148
0.0
149
0.0
100
AcDbLayout
  1
Model
 70
     1
 71
     0
 10
0.0
 20
0.0
 11
8.5
 21
11.0
 12
0.0
 22
0.0
 32
0.0
 14
0.0
 24
0.0
 34
0.0
 15
8.5
 25
11.0
 35
0.0
146
0.0
 13
0.0
 23
0.0
 33
0.0
 16
1.0
 26
0.0
 36
0.0
 17
0.0
 27
1.0
 37
0.0
 76
     0
330
1F
  0
MLINESTYLE
  5
18
102
{ACAD_REACTORS
330
17
102
}
330
17
100
AcDbMlineStyle
  2
STANDARD
 70
     0
  3

 62
   256
 51
90.0
 52
90.0
 71
     2
 49
0.5
 62
   256
  6
BYLAYER
 49
-0.5
 62
   256
  6
BYLAYER
  0
ACDBPLACEHOLDER
  5
F
102
{ACAD_REACTORS
330
E
102
}
330
E
  0
ACAD_PROXY_OBJECT
  5
48
102
{ACAD_REACTORS
330
47
102
}
330
47
100
AcDbProxyObject
 90
      499
 91
      503
 95
   393239
 70
     0
 93
       41
310
903313A31580
 94
        0
  0
ACAD_PROXY_OBJECT
  5
49
102
{ACAD_REACTORS
330
47
102
}
330
47
100
AcDbProxyObject
 90
      499
 91
      503
 95
   393239
 70
     0
 93
      105
310
903313A324000000000000004000
 94
        0
  0
ACAD_PROXY_OBJECT
  5
4A
102
{ACAD_REACTORS
330
47
102
}
330
47
100
AcDbProxyObject
 90
      499
 91
      503
 95
   393239
 70
     0
 93
      105
310
903313A344000000000000104000
 94
        0
  0
ACAD_PROXY_OBJECT
  5
4B
102
{ACAD_REACTORS
330
47
102
}
330
47
100
AcDbProxyObject
 90
      499
 91
      503
 95
   393239
 70
     0
 93
      105
310
903313A354000000000000144000
 94
        0
  0
ACAD_PROXY_OBJECT
  5
4C
102
{ACAD_REACTORS
330
47
102
}
330
47
100
AcDbProxyObject
 90
      499
 91
      503
 95
   393239
 70
     0
 93
      105
310
903313A384000000000000204000
 94
        0
  0
ACAD_PROXY_OBJECT
  5
4D
102
{ACAD_REACTORS
330
47
102
}
330
47
100
AcDbProxyObject
 90
      499
 91
      503
 95
   393239
 70
     0
 93
      113
310
904313A31304000000000000244000
 94
        0
  0
ACAD_PROXY_OBJECT
  5
4E
102
{ACAD_REACTORS
330
47
102
}
330
47
100
AcDbProxyObject
 90
      499
 91
      503
 95
   393239
 70
     0
 93
      113
310
904313A31364000000000000304000
 94
        0
  0
ACAD_PROXY_OBJECT
  5
4F
102
{ACAD_REACTORS
330
47
102
}
330
47
100
AcDbProxyObject
 90
      499
 91
      503
 95
   393239
 70
     0
 93
      113
310
904313A32304000000000000344000
 94
        0
  0
ACAD_PROXY_OBJECT
  5
50
102
{ACAD_REACTORS
330
47
102
}
330
47
100
AcDbProxyObject
 90
      499
 91
      503
 95
   393239
 70
     0
 93
      113
310
904313A333040000000000003E4000
 94
        0
  0
ACAD_PROXY_OBJECT
  5
51
102
{ACAD_REACTORS
330
47
102
}
330
47
100
AcDbProxyObject
 90
      499
 91
      503
 95
   393239
 70
     0
 93
      113
310
904313A34304000000000000444000
 94
        0
  0
ACAD_PROXY_OBJECT
  5
52
102
{ACAD_REACTORS
330
47
102
}
330
47
100
AcDbProxyObject
 90
      499
 91
      503
 95
   393239
 70
     0
 93
      113
310
904313A35304000000000000494000
 94
        0
  0
ACAD_PROXY_OBJECT
  5
53
102
{ACAD_REACTORS
330
47
102
}
330
47
100
AcDbProxyObject
 90
      499
 91
      503
 95
   393239
 70
     0
 93
      121
310
905313A3130304000000000000594000
 94
        0
  0
ACAD_PROXY_OBJECT
  5
54
102
{ACAD_REACTORS
330
47
102
}
330
47
100
AcDbProxyObject
 90
      499
 91
      503
 95
   393239
 70
     0
 93
      105
310
903323A310000000000000010140
 94
        0
  0
ACAD_PROXY_OBJECT
  5
55
102
{ACAD_REACTORS
330
47
102
}
330
47
100
AcDbProxyObject
 90
      499
 91
      503
 95
   393239
 70
     0
 93
      105
310
903343A310000000000000410159
 94
        0
  0
ACAD_PROXY_OBJECT
  5
56
102
{ACAD_REACTORS
330
47
102
}
330
47
100
AcDbProxyObject
 90
      499
 91
      503
 95
   393239
 70
     0
 93
      105
310
903383A310000000000000810140
 94
        0
  0
ACAD_PROXY_OBJECT
  5
57
102
{ACAD_REACTORS
330
47
102
}
330
47
100
AcDbProxyObject
 90
      499
 91
      503
 95
   393239
 70
     0
 93
      113
310
90431303A310000000000000910140
 94
        0
  0
ACAD_PROXY_OBJECT
  5
58
102
{ACAD_REACTORS
330
47
102
}
330
47
100
AcDbProxyObject
 90
      499
 91
      503
 95
   393239
 70
     0
 93
      121
310
9053130303A310000000000001650100
 94
        0
  0
ACAD_PROXY_OBJECT
  5
59
102
{ACAD_REACTORS
330
47
102
}
330
47
100
AcDbProxyObject
 90
      499
 91
      503
 95
   393239
 70
     0
 93
      257
310
90E312F31323822203D2031272D3022000000000000200FC000000000000284000
 94
        0
  0
ACAD_PROXY_OBJECT
  5
5A
102
{ACAD_REACTORS
330
47
102
}
330
47
100
AcDbProxyObject
 90
      499
 91
      503
 95
   393239
 70
     0
 93
      249
310
90D312F363422203D2031272D3022000000000000240FC000000000000284000
 94
        0
  0
ACAD_PROXY_OBJECT
  5
5B
102
{ACAD_REACTORS
330
47
102
}
330
47
100
AcDbProxyObject
 90
      499
 91
      503
 95
   393239
 70
     0
 93
      249
310
90D312F333222203D2031272D3022000000000000280FC000000000000284040
 94
        0
  0
ACAD_PROXY_OBJECT
  5
5C
102
{ACAD_REACTORS
330
47
102
}
330
47
100
AcDbProxyObject
 90
      499
 91
      503
 95
   393239
 70
     0
 93
      249
310
90D312F313622203D2031272D30220000000000002C0FC000000000000284000
 94
        0
  0
ACAD_PROXY_OBJECT
  5
5D
102
{ACAD_REACTORS
330
47
102
}
330
47
100
AcDbProxyObject
 90
      499
 91
      503
 95
   393239
 70
     0
 93
      249
310
90D332F333222203D2031272D30220000000000002E0FC000000000000284040
 94
        0
  0
ACAD_PROXY_OBJECT
  5
5E
102
{ACAD_REACTORS
330
47
102
}
330
47
100
AcDbProxyObject
 90
      499
 91
      503
 95
   393239
 70
     0
 93
      241
310
90C312F3822203D2031272D3022000000000000300FC000000000000284040
 94
        0
  0
ACAD_PROXY_OBJECT
  5
5F
102
{ACAD_REACTORS
330
47
102
}
330
47
100
AcDbProxyObject
 90
      499
 91
      503
 95
   393239
 70
     0
 93
      249
310
90D332F313622203D2031272D3022000000000000320FC000000000000284040
 94
        0
  0
ACAD_PROXY_OBJECT
  5
60
102
{ACAD_REACTORS
330
47
102
}
330
47
100
AcDbProxyObject
 90
      499
 91
      503
 95
   393239
 70
     0
 93
      241
310
90C312F3422203D2031272D3022000000000000340FC000000000000284040
 94
        0
  0
ACAD_PROXY_OBJECT
  5
61
102
{ACAD_REACTORS
330
47
102
}
330
47
100
AcDbProxyObject
 90
      499
 91
      503
 95
   393239
 70
     0
 93
      241
310
90C332F3822203D2031272D3022000000000000360FC000000000000284040
 94
        0
  0
ACAD_PROXY_OBJECT
  5
62
102
{ACAD_REACTORS
330
47
102
}
330
47
100
AcDbProxyObject
 90
      499
 91
      503
 95
   393239
 70
     0
 93
      241
310
90C312F3222203D2031272D3022000000000000380FC000000000000284040
 94
        0
  0
ACAD_PROXY_OBJECT
  5
63
102
{ACAD_REACTORS
330
47
102
}
330
47
100
AcDbProxyObject
 90
      499
 91
      503
 95
   393239
 70
     0
 93
      241
310
90C332F3422203D2031272D30220000000000003A0FC000000000000284040
 94
        0
  0
ACAD_PROXY_OBJECT
  5
64
102
{ACAD_REACTORS
330
47
102
}
330
47
100
AcDbProxyObject
 90
      499
 91
      503
 95
   393239
 70
     0
 93
      161
310
90A3122203D2031272D30224000000000000284000
 94
        0
  0
ACAD_PROXY_OBJECT
  5
65
102
{ACAD_REACTORS
330
47
102
}
330
47
100
AcDbProxyObject
 90
      499
 91
      503
 95
   393239
 70
     0
 93
      257
310
90E312D312F3222203D2031272D30220000000000003E0FC000000000000284000
 94
        0
  0
ACAD_PROXY_OBJECT
  5
66
102
{ACAD_REACTORS
330
47
102
}
330
47
100
AcDbProxyObject
 90
      499
 91
      503
 95
   393239
 70
     0
 93
      225
310
90A3322203D2031272D302200000000000002100000000000000284028
 94
        0
  0
ACAD_PROXY_OBJECT
  5
67
102
{ACAD_REACTORS
330
47
102
}
330
47
100
AcDbProxyObject
 90
      499
 91
      503
 95
   393239
 70
     0
 93
      225
310
90A3622203D2031272D302200000000000006100000000000000284000
 94
        0
  0
ACAD_PROXY_OBJECT
  5
68
102
{ACAD_REACTORS
330
47
102
}
330
47
100
AcDbProxyObject
 90
      499
 91
      503
 95
   393239
 70
     0
 93
      249
310
90D31272D3022203D2031272D30220000000000000A100000000000000284000
 94
        0
  0
ENDSEC
  0
EOF
