  0
SECTION
  2
HEADER
  9
$ACADVER
  1
AC1018
  9
$ACADMAINTVER
 70
     0
  9
$DWGCODEPAGE
  3
ANSI_1252
  9
$INSBASE
 10
0.0
 20
0.0
 30
0.0
  9
$EXTMIN
 10
1.627433158037825
 20
2.709445565137836
 30
0.0
  9
$EXTMAX
 10
7.004579587732925
 20
10.44575554758119
 30
0.0
  9
$LIMMIN
 10
0.0
 20
0.0
  9
$LIMMAX
 10
8.5
 20
11.0
  9
$ORTHOMODE
 70
     0
  9
$REGENMODE
 70
     1
  9
$FILLMODE
 70
     1
  9
$QTEXTMODE
 70
     0
  9
$MIRRTEXT
 70
     1
  9
$LTSCALE
 40
1.0
  9
$ATTMODE
 70
     1
  9
$TEXTSIZE
 40
0.25
  9
$TRACEWID
 40
0.05
  9
$TEXTSTYLE
  7
Standard
  9
$CLAYER
  8
0
  9
$CELTYPE
  6
ByLayer
  9
$CECOLOR
 62
   256
  9
$CELTSCALE
 40
1.0
  9
$DISPSILH
 70
     0
  9
$DIMSCALE
 40
1.0
  9
$DIMASZ
 40
0.156
  9
$DIMEXO
 40
0.05
  9
$DIMDLI
 40
0.38
  9
$DIMRND
 40
0.0
  9
$DIMDLE
 40
0.0
  9
$DIMEXE
 40
0.125
  9
$DIMTP
 40
0.0
  9
$DIMTM
 40
0.0
  9
$DIMTXT
 40
0.125
  9
$DIMCEN
 40
0.09
  9
$DIMTSZ
 40
0.0
  9
$DIMTOL
 70
     0
  9
$DIMLIM
 70
     0
  9
$DIMTIH
 70
     1
  9
$DIMTOH
 70
     1
  9
$DIMSE1
 70
     0
  9
$DIMSE2
 70
     0
  9
$DIMTAD
 70
     0
  9
$DIMZIN
 70
     0
  9
$DIMBLK
  1

  9
$DIMASO
 70
     1
  9
$DIMSHO
 70
     1
  9
$DIMPOST
  1

  9
$DIMAPOST
  1

  9
$DIMALT
 70
     0
  9
$DIMALTD
 70
     2
  9
$DIMALTF
 40
25.4
  9
$DIMLFAC
 40
12.0
  9
$DIMTOFL
 70
     0
  9
$DIMTVP
 40
0.0
  9
$DIMTIX
 70
     0
  9
$DIMSOXD
 70
     0
  9
$DIMSAH
 70
     0
  9
$DIMBLK1
  1

  9
$DIMBLK2
  1

  9
$DIMSTYLE
  2
Standard
  9
$DIMCLRD
 70
     0
  9
$DIMCLRE
 70
     0
  9
$DIMCLRT
 70
     0
  9
$DIMTFAC
 40
1.0
  9
$DIMGAP
 40
0.06
  9
$DIMJUST
 70
     0
  9
$DIMSD1
 70
     0
  9
$DIMSD2
 70
     0
  9
$DIMTOLJ
 70
     1
  9
$DIMTZIN
 70
     0
  9
$DIMALTZ
 70
     0
  9
$DIMALTTZ
 70
     0
  9
$DIMUPT
 70
     0
  9
$DIMDEC
 70
     3
  9
$DIMTDEC
 70
     3
  9
$DIMALTU
 70
     2
  9
$DIMALTTD
 70
     2
  9
$DIMTXSTY
  7
Standard
  9
$DIMAUNIT
 70
     0
  9
$DIMADEC
 70
     0
  9
$DIMALTRND
 40
0.0
  9
$DIMAZIN
 70
     0
  9
$DIMDSEP
 70
    46
  9
$DIMATFIT
 70
     3
  9
$DIMFRAC
 70
     0
  9
$DIMLDRBLK
  1

  9
$DIMLUNIT
 70
     2
  9
$DIMLWD
 70
    -2
  9
$DIMLWE
 70
    -2
  9
$DIMTMOVE
 70
     0
  9
$LUNITS
 70
     2
  9
$LUPREC
 70
     3
  9
$SKETCHINC
 40
0.1
  9
$FILLETRAD
 40
0.5
  9
$AUNITS
 70
     0
  9
$AUPREC
 70
     0
  9
$MENU
  1
.
  9
$ELEVATION
 40
0.0
  9
$PELEVATION
 40
0.0
  9
$THICKNESS
 40
0.0
  9
$LIMCHECK
 70
     0
  9
$CHAMFERA
 40
0.5
  9
$CHAMFERB
 40
0.5
  9
$CHAMFERC
 40
1.0
  9
$CHAMFERD
 40
0.0
  9
$SKPOLY
 70
     0
  9
$TDCREATE
 40
2456505.582983750
  9
$TDUCREATE
 40
2456505.791317084
  9
$TDUPDATE
 40
2456573.376196331
  9
$TDUUPDATE
 40
2456573.584529664
  9
$TDINDWG
 40
0.0009367477
  9
$TDUSRTIMER
 40
0.0009367477
  9
$USRTIMER
 70
     1
  9
$ANGBASE
 50
0.0
  9
$ANGDIR
 70
     0
  9
$PDMODE
 70
     0
  9
$PDSIZE
 40
-1.0
  9
$PLINEWID
 40
0.0
  9
$SPLFRAME
 70
     0
  9
$SPLINETYPE
 70
     6
  9
$SPLINESEGS
 70
     8
  9
$HANDSEED
  5
157
  9
$SURFTAB1
 70
     6
  9
$SURFTAB2
 70
     6
  9
$SURFTYPE
 70
     6
  9
$SURFU
 70
     6
  9
$SURFV
 70
     6
  9
$UCSBASE
  2

  9
$UCSNAME
  2

  9
$UCSORG
 10
0.0
 20
0.0
 30
0.0
  9
$UCSXDIR
 10
1.0
 20
0.0
 30
0.0
  9
$UCSYDIR
 10
0.0
 20
1.0
 30
0.0
  9
$UCSORTHOREF
  2

  9
$UCSORTHOVIEW
 70
     0
  9
$UCSORGTOP
 10
0.0
 20
0.0
 30
0.0
  9
$UCSORGBOTTOM
 10
0.0
 20
0.0
 30
0.0
  9
$UCSORGLEFT
 10
0.0
 20
0.0
 30
0.0
  9
$UCSORGRIGHT
 10
0.0
 20
0.0
 30
0.0
  9
$UCSORGFRONT
 10
0.0
 20
0.0
 30
0.0
  9
$UCSORGBACK
 10
0.0
 20
0.0
 30
0.0
  9
$PUCSBASE
  2

  9
$PUCSNAME
  2

  9
$PUCSORG
 10
0.0
 20
0.0
 30
0.0
  9
$PUCSXDIR
 10
1.0
 20
0.0
 30
0.0
  9
$PUCSYDIR
 10
0.0
 20
1.0
 30
0.0
  9
$PUCSORTHOREF
  2

  9
$PUCSORTHOVIEW
 70
     0
  9
$PUCSORGTOP
 10
0.0
 20
0.0
 30
0.0
  9
$PUCSORGBOTTOM
 10
0.0
 20
0.0
 30
0.0
  9
$PUCSORGLEFT
 10
0.0
 20
0.0
 30
0.0
  9
$PUCSORGRIGHT
 10
0.0
 20
0.0
 30
0.0
  9
$PUCSORGFRONT
 10
0.0
 20
0.0
 30
0.0
  9
$PUCSORGBACK
 10
0.0
 20
0.0
 30
0.0
  9
$USERI1
 70
     0
  9
$USERI2
 70
     0
  9
$USERI3
 70
     0
  9
$USERI4
 70
     0
  9
$USERI5
 70
     0
  9
$USERR1
 40
0.0
  9
$USERR2
 40
0.0
  9
$USERR3
 40
0.0
  9
$USERR4
 40
0.0
  9
$USERR5
 40
0.0
  9
$WORLDVIEW
 70
     1
  9
$SHADEDGE
 70
     3
  9
$SHADEDIF
 70
    70
  9
$TILEMODE
 70
     1
  9
$MAXACTVP
 70
    64
  9
$PINSBASE
 10
0.0
 20
0.0
 30
0.0
  9
$PLIMCHECK
 70
     0
  9
$PEXTMIN
 10
1.000000000000000E+20
 20
1.000000000000000E+20
 30
1.000000000000000E+20
  9
$PEXTMAX
 10
-1.000000000000000E+20
 20
-1.000000000000000E+20
 30
-1.000000000000000E+20
  9
$PLIMMIN
 10
0.0
 20
0.0
  9
$PLIMMAX
 10
12.0
 20
9.0
  9
$UNITMODE
 70
     0
  9
$VISRETAIN
 70
     1
  9
$PLINEGEN
 70
     0
  9
$PSLTSCALE
 70
     1
  9
$TREEDEPTH
 70
  3020
  9
$CMLSTYLE
  2
Standard
  9
$CMLJUST
 70
     0
  9
$CMLSCALE
 40
1.0
  9
$PROXYGRAPHICS
 70
     1
  9
$MEASUREMENT
 70
     0
  9
$CELWEIGHT
370
    -1
  9
$ENDCAPS
280
     0
  9
$JOINSTYLE
280
     0
  9
$LWDISPLAY
290
     1
  9
$INSUNITS
 70
     1
  9
$HYPERLINKBASE
  1

  9
$STYLESHEET
  1

  9
$XEDIT
290
     1
  9
$CEPSNTYPE
380
     0
  9
$PSTYLEMODE
290
     1
  9
$FINGERPRINTGUID
  2
{B87A0595-0EA8-4B9E-8FA2-447B0BA1F463}
  9
$VERSIONGUID
  2
{E40BC593-DC55-4678-B751-0ABE8478E32A}
  9
$EXTNAMES
290
     1
  9
$PSVPSCALE
 40
0.0
  9
$OLESTARTUP
290
     0
  9
$SORTENTS
280
   127
  9
$INDEXCTL
280
     0
  9
$HIDETEXT
280
     0
  9
$XCLIPFRAME
290
     0
  9
$HALOGAP
280
     0
  9
$OBSCOLOR
 70
   257
  9
$OBSLTYPE
280
     0
  9
$INTERSECTIONDISPLAY
280
     0
  9
$INTERSECTIONCOLOR
 70
   257
  9
$DIMASSOC
280
     1
  9
$PROJECTNAME
  1

  0
ENDSEC
  0
SECTION
  2
CLASSES
  0
CLASS
  1
ACDBDICTIONARYWDFLT
  2
AcDbDictionaryWithDefault
  3
ObjectDBX Classes
 90
        0
 91
        1
280
     0
281
     0
  0
CLASS
  1
VISUALSTYLE
  2
AcDbVisualStyle
  3
ObjectDBX Classes
 90
     4095
 91
        0
280
     0
281
     0
  0
CLASS
  1
MATERIAL
  2
AcDbMaterial
  3
ObjectDBX Classes
 90
        0
 91
        0
280
     0
281
     0
  0
ENDSEC
  0
SECTION
  2
TABLES
  0
TABLE
  2
VPORT
  5
8
330
0
100
AcDbSymbolTable
 70
     3
  0
VPORT
  5
156
330
8
100
AcDbSymbolTableRecord
100
AcDbViewportTableRecord
  2
*Active
 70
     0
 10
0.0
 20
0.0
 11
1.0
 21
1.0
 12
4.686915020592334
 22
6.555835739542702
 13
0.0
 23
0.0
 14
0.5
 24
0.5
 15
0.5
 25
0.5
 16
0.0
 26
0.0
 36
1.0
 17
0.0
 27
0.0
 37
0.0
 40
8.532954190236271
 41
2.144329896907216
 42
50.0
 43
0.0
 44
0.0
 50
0.0
 51
0.0
 71
     0
 72
  2000
 73
     1
 74
     3
 75
     0
 76
     0
 77
     0
 78
     0
281
     0
 65
     1
110
0.0
120
0.0
130
0.0
111
1.0
121
0.0
131
0.0
112
0.0
122
1.0
132
0.0
 79
     0
146
0.0
  0
ENDTAB
  0
TABLE
  2
LTYPE
  5
5
330
0
100
AcDbSymbolTable
 70
     6
  0
LTYPE
  5
14
330
5
100
AcDbSymbolTableRecord
100
AcDbLinetypeTableRecord
  2
ByBlock
 70
     0
  3

 72
    65
 73
     0
 40
0.0
  0
LTYPE
  5
15
330
5
100
AcDbSymbolTableRecord
100
AcDbLinetypeTableRecord
  2
ByLayer
 70
     0
  3

 72
    65
 73
     0
 40
0.0
  0
LTYPE
  5
16
330
5
100
AcDbSymbolTableRecord
100
AcDbLinetypeTableRecord
  2
Continuous
 70
     0
  3
Solid line
 72
    65
 73
     0
 40
0.0
  0
LTYPE
  5
3F
330
5
100
AcDbSymbolTableRecord
100
AcDbLinetypeTableRecord
  2
HIDDEN
 70
     0
  3
Hidden __ __ __ __ __ __ __ __ __ __ __ __ __ __
 72
    65
 73
     2
 40
0.075
 49
0.05
 74
     0
 49
-0.025
 74
     0
  0
LTYPE
  5
40
330
5
100
AcDbSymbolTableRecord
100
AcDbLinetypeTableRecord
  2
PHANTOM
 70
     0
  3
Phantom ______  __  __  ______  __  __  ______
 72
    65
 73
     6
 40
0.5
 49
0.25
 74
     0
 49
-0.05
 74
     0
 49
0.05
 74
     0
 49
-0.05
 74
     0
 49
0.05
 74
     0
 49
-0.05
 74
     0
  0
LTYPE
  5
41
330
5
100
AcDbSymbolTableRecord
100
AcDbLinetypeTableRecord
  2
CENTER
 70
     0
  3
Center ____ _ ____ _ ____ _ ____ _ ____ _ ____
 72
    65
 73
     4
 40
0.4
 49
0.25
 74
     0
 49
-0.05
 74
     0
 49
0.05
 74
     0
 49
-0.05
 74
     0
  0
LTYPE
  5
42
330
5
100
AcDbSymbolTableRecord
100
AcDbLinetypeTableRecord
  2
CENTERX2
 70
     0
  3
Center (2x) ________  __  ________  __  _____
 72
    65
 73
     4
 40
0.8
 49
0.5
 74
     0
 49
-0.1
 74
     0
 49
0.1
 74
     0
 49
-0.1
 74
     0
  0
LTYPE
  5
43
330
5
100
AcDbSymbolTableRecord
100
AcDbLinetypeTableRecord
  2
DOT2
 70
     0
  3
Dot (.5x) ........................................
 72
    65
 73
     2
 40
0.025
 49
0.0
 74
     0
 49
-0.025
 74
     0
  0
ENDTAB
  0
TABLE
  2
LAYER
  5
2
330
0
100
AcDbSymbolTable
 70
     7
  0
LAYER
  5
10
330
2
100
AcDbSymbolTableRecord
100
AcDbLayerTableRecord
  2
0
 70
     0
 62
     7
  6
Continuous
370
    -3
390
F
  0
LAYER
  5
44
330
2
100
AcDbSymbolTableRecord
100
AcDbLayerTableRecord
  2
SLD-0
 70
     0
 62
   179
  6
Continuous
370
    -3
390
F
  0
LAYER
  5
45
330
2
100
AcDbSymbolTableRecord
100
AcDbLayerTableRecord
  2
SLD-DEFPOINTS
 70
     0
 62
   179
  6
Continuous
370
    -3
390
F
  0
LAYER
  5
46
330
2
100
AcDbSymbolTableRecord
100
AcDbLayerTableRecord
  2
OBJ
 70
     0
 62
   179
  6
Continuous
370
    -3
390
F
  0
LAYER
  5
47
330
2
100
AcDbSymbolTableRecord
100
AcDbLayerTableRecord
  2
FORMAT
 70
     0
 62
     7
  6
Continuous
370
    -3
390
F
  0
LAYER
  5
48
330
2
100
AcDbSymbolTableRecord
100
AcDbLayerTableRecord
  2
TOLERANCES
 70
     0
 62
     7
  6
Continuous
370
    -3
390
F
  0
LAYER
  5
49
330
2
100
AcDbSymbolTableRecord
100
AcDbLayerTableRecord
  2
QTY-BLANK-SIZE-1
 70
     0
 62
     7
  6
Continuous
370
    -3
390
F
  0
ENDTAB
  0
TABLE
  2
STYLE
  5
3
330
0
100
AcDbSymbolTable
 70
     2
  0
STYLE
  5
11
330
3
100
AcDbSymbolTableRecord
100
AcDbTextStyleTableRecord
  2
Standard
 70
     0
 40
0.0
 41
1.0
 50
0.0
 71
     0
 42
0.25
  3
txt
  4

  0
STYLE
  5
147
330
3
100
AcDbSymbolTableRecord
100
AcDbTextStyleTableRecord
  2
SLDTEXTSTYLE0
 70
     0
 40
0.0
 41
0.7
 50
0.0
 71
     0
 42
0.2
  3
TXT
  4

  0
ENDTAB
  0
TABLE
  2
VIEW
  5
6
330
0
100
AcDbSymbolTable
 70
     0
  0
ENDTAB
  0
TABLE
  2
UCS
  5
7
330
0
100
AcDbSymbolTable
 70
     0
  0
ENDTAB
  0
TABLE
  2
APPID
  5
9
330
0
100
AcDbSymbolTable
 70
     1
  0
APPID
  5
12
330
9
100
AcDbSymbolTableRecord
100
AcDbRegAppTableRecord
  2
ACAD
 70
     0
  0
ENDTAB
  0
TABLE
  2
DIMSTYLE
  5
A
330
0
100
AcDbSymbolTable
 70
     1
100
AcDbDimStyleTable
 71
     0
  0
DIMSTYLE
105
27
330
A
100
AcDbSymbolTableRecord
100
AcDbDimStyleTableRecord
  2
Standard
 70
     0
340
11
  0
ENDTAB
  0
TABLE
  2
BLOCK_RECORD
  5
1
330
0
100
AcDbSymbolTable
 70
     1
  0
BLOCK_RECORD
  5
1F
330
1
100
AcDbSymbolTableRecord
100
AcDbBlockTableRecord
  2
*Model_Space
340
22
  0
BLOCK_RECORD
  5
1B
330
1
100
AcDbSymbolTableRecord
100
AcDbBlockTableRecord
  2
*Paper_Space
340
1E
  0
BLOCK_RECORD
  5
23
330
1
100
AcDbSymbolTableRecord
100
AcDbBlockTableRecord
  2
*Paper_Space0
340
26
  0
ENDTAB
  0
ENDSEC
  0
SECTION
  2
BLOCKS
  0
BLOCK
  5
20
330
1F
100
AcDbEntity
  8
0
100
AcDbBlockBegin
  2
*Model_Space
 70
     0
 10
0.0
 20
0.0
 30
0.0
  3
*Model_Space
  1

  0
ENDBLK
  5
21
330
1F
100
AcDbEntity
  8
0
100
AcDbBlockEnd
  0
BLOCK
  5
1C
330
1B
100
AcDbEntity
 67
     1
  8
0
100
AcDbBlockBegin
  2
*Paper_Space
 70
     0
 10
0.0
 20
0.0
 30
0.0
  3
*Paper_Space
  1

  0
ENDBLK
  5
1D
330
1B
100
AcDbEntity
 67
     1
  8
0
100
AcDbBlockEnd
  0
BLOCK
  5
24
330
23
100
AcDbEntity
  8
0
100
AcDbBlockBegin
  2
*Paper_Space0
 70
     0
 10
0.0
 20
0.0
 30
0.0
  3
*Paper_Space0
  1

  0
ENDBLK
  5
25
330
23
100
AcDbEntity
  8
0
100
AcDbBlockEnd
  0
ENDSEC
  0
SECTION
  2
ENTITIES
  0
LINE
  5
4A
330
1F
100
AcDbEntity
  8
0
  6
Continuous
 62
     7
370
    15
100
AcDbLine
 10
3.656636296111221
 20
4.841561815386997
 30
0.0
 11
3.647355485399509
 21
4.839075383627049
 31
0.0
  0
LINE
  5
4B
330
1F
100
AcDbEntity
  8
0
  6
Continuous
 62
     7
370
    15
100
AcDbLine
 10
3.667573009210171
 20
4.763611716428542
 30
0.0
 11
3.676853819921884
 21
4.76609814818849
 31
0.0
  0
LINE
  5
4C
330
1F
100
AcDbEntity
  8
0
  6
Continuous
 62
     7
370
    15
100
AcDbLine
 10
3.656636296111221
 20
5.503929339393302
 30
0.0
 11
3.647355485399509
 21
5.501442907633354
 31
0.0
  0
LINE
  5
4D
330
1F
100
AcDbEntity
  8
0
  6
Continuous
 62
     7
370
    15
100
AcDbLine
 10
3.667573009210171
 20
5.425979258097776
 30
0.0
 11
3.676853819921884
 21
5.428465689857724
 31
0.0
  0
LINE
  5
4E
330
1F
100
AcDbEntity
  8
0
  6
Continuous
 62
     7
370
    15
100
AcDbLine
 10
4.188452521279778
 20
4.822396918931639
 30
0.0
 11
4.19773333199149
 21
4.81991048717169
 31
0.0
  0
LINE
  5
4F
330
1F
100
AcDbEntity
  8
0
  6
Continuous
 62
     7
370
    15
100
AcDbLine
 10
4.217950907656051
 20
4.89537418592536
 30
0.0
 11
4.208670096944339
 21
4.897860617685308
 31
0.0
  0
LINE
  5
50
330
1F
100
AcDbEntity
  8
0
  6
Continuous
 62
     7
370
    15
100
AcDbLine
 10
4.36522920147656
 20
5.35147920017822
 30
0.0
 11
4.374510012188272
 21
5.348992768418271
 31
0.0
  0
LINE
  5
51
330
1F
100
AcDbEntity
  8
0
  6
Continuous
 62
     7
370
    15
100
AcDbLine
 10
4.394727587852833
 20
5.424456431846082
 30
0.0
 11
4.385446777141121
 21
5.42694286360603
 31
0.0
  0
LINE
  5
52
330
1F
100
AcDbEntity
  8
0
  6
Continuous
 62
     7
370
    15
100
AcDbLine
 10
4.36522920147656
 20
4.689111676171914
 30
0.0
 11
4.374510012188272
 21
4.686625244411966
 31
0.0
  0
LINE
  5
53
330
1F
100
AcDbEntity
  8
0
  6
Continuous
 62
     7
370
    15
100
AcDbLine
 10
4.394727587852833
 20
4.762088925502706
 30
0.0
 11
4.385446777141121
 21
4.764575357262653
 31
0.0
  0
LINE
  5
54
330
1F
100
AcDbEntity
  8
0
  6
Continuous
 62
     7
370
    15
100
AcDbLine
 10
4.188452521279778
 20
5.484764407612086
 30
0.0
 11
4.19773333199149
 21
5.482277975852137
 31
0.0
  0
LINE
  5
55
330
1F
100
AcDbEntity
  8
0
  6
Continuous
 62
     7
370
    15
100
AcDbLine
 10
4.217950907656051
 20
5.557741709931666
 30
0.0
 11
4.208670096944339
 21
5.560228141691615
 31
0.0
  0
LINE
  5
56
330
1F
100
AcDbEntity
  8
0
  6
Continuous
 62
     7
370
    15
100
AcDbLine
 10
4.775819179487355
 20
5.536533306511309
 30
0.0
 11
4.774883320331443
 21
5.538154618191238
 31
0.0
  0
LINE
  5
57
330
1F
100
AcDbEntity
  8
0
  6
Continuous
 62
     7
370
    15
100
AcDbLine
 10
4.650287606864332
 20
5.443373081235913
 30
0.0
 11
4.651216776867367
 21
5.44176363305569
 31
0.0
  0
LINE
  5
58
330
1F
100
AcDbEntity
  8
0
  6
Continuous
 62
     7
370
    15
100
AcDbLine
 10
4.775819179487355
 20
4.874165782505002
 30
0.0
 11
4.774883320331443
 21
4.875787094184932
 31
0.0
  0
LINE
  5
59
330
1F
100
AcDbEntity
  8
0
  6
Continuous
 62
     7
370
    15
100
AcDbLine
 10
4.650287606864332
 20
4.781005557229607
 30
0.0
 11
4.651216776867367
 21
4.779396126712314
 31
0.0
  0
LINE
  5
5A
330
1F
100
AcDbEntity
  8
0
  6
Continuous
 62
     7
370
    15
100
AcDbLine
 10
5.090482919916583
 20
8.066976141854494
 30
0.0
 11
4.568239909592062
 21
7.927061467628544
 31
0.0
  0
LINE
  5
5B
330
1F
100
AcDbEntity
  8
0
  6
Continuous
 62
     7
370
    15
100
AcDbLine
 10
4.601676716212929
 20
6.720795593549286
 30
0.0
 11
6.984909453845051
 21
7.35928998313089
 31
0.0
  0
LINE
  5
5C
330
1F
100
AcDbEntity
  8
0
  6
Continuous
 62
     7
370
    15
100
AcDbLine
 10
6.084851810840851
 20
7.800573726343687
 30
0.0
 11
4.568239883665109
 21
7.394256629660814
 31
0.0
  0
LINE
  5
5D
330
1F
100
AcDbEntity
  8
0
  6
Continuous
 62
     7
370
    15
100
AcDbLine
 10
3.354535277395839
 20
5.735094965551565
 30
0.0
 11
3.354535277395839
 21
5.373803556706437
 31
0.0
  0
LINE
  5
5E
330
1F
100
AcDbEntity
  8
0
  6
Continuous
 62
     7
370
    15
100
AcDbLine
 10
3.354535277395839
 20
5.07272744154526
 30
0.0
 11
3.354535277395839
 21
4.711436076857454
 31
0.0
  0
LWPOLYLINE
  5
5F
330
1F
100
AcDbEntity
  8
0
  6
Continuous
 62
     7
370
    15
100
AcDbPolyline
 90
       13
 70
   128
 43
0.0
 10
3.647355485399509
 20
4.839075383627049
 10
3.647373012017122
 20
4.839080084731011
 10
3.655400099176551
 20
4.839425841200647
 10
3.663610541720249
 20
4.836387819614099
 10
3.671274859007406
 20
4.830235993459885
 10
3.677712105645988
 20
4.821516899164083
 10
3.68235022943032
 20
4.811005319000005
 10
3.684777095576983
 20
4.799635255510256
 10
3.684777095576983
 20
4.788416999062287
 10
3.68235022943032
 20
4.77834732175965
 10
3.677712105645988
 20
4.770320950839066
 10
3.671274859007406
 20
4.765051093242328
 10
3.667573009210171
 20
4.763611716428542
  0
LWPOLYLINE
  5
60
330
1F
100
AcDbEntity
  8
0
  6
Continuous
 62
     7
370
    15
100
AcDbPolyline
 90
       21
 70
   128
 43
0.0
 10
3.629842972045809
 20
4.808270045348797
 10
3.631151557022458
 20
4.796661904505019
 10
3.634949336531486
 20
4.785488835784819
 10
3.640864518122323
 20
4.775844586821752
 10
3.648318101166925
 20
4.768673157705804
 10
3.65658039760889
 20
4.764676577425463
 10
3.664842797758651
 20
4.764246008860141
 10
3.672296277095457
 20
4.767423671213247
 10
3.678211458686293
 20
4.773898435132349
 10
3.682009238195321
 20
4.783036569646508
 10
3.683317926879767
 20
4.793943513950719
 10
3.682009238195321
 20
4.805551664916033
 10
3.678211458686293
 20
4.816724715973304
 10
3.672296277095457
 20
4.8263689825993
 10
3.664842797758651
 20
4.833540383930784
 10
3.65658039760889
 20
4.837537009658519
 10
3.648318101166925
 20
4.837967532776447
 10
3.640864518122323
 20
4.834789898207805
 10
3.634949336531486
 20
4.828315116625773
 10
3.631151557022458
 20
4.819176999774544
 10
3.629842972045809
 20
4.808270045348797
  0
LWPOLYLINE
  5
61
330
1F
100
AcDbEntity
  8
0
  6
Continuous
 62
     7
370
    15
100
AcDbPolyline
 90
       13
 70
   128
 43
0.0
 10
3.676853819921884
 20
4.76609814818849
 10
3.680555669719119
 20
4.767537525002276
 10
3.686992916357701
 20
4.772807382599014
 10
3.691631040142033
 20
4.780833753519599
 10
3.694057906288695
 20
4.790903430822235
 10
3.694057906288695
 20
4.802121687270203
 10
3.691631040142033
 20
4.813491750759953
 10
3.686992916357701
 20
4.824003330924032
 10
3.680555669719119
 20
4.832722425219833
 10
3.672891352431962
 20
4.838874251374047
 10
3.664680909888264
 20
4.841912272960596
 10
3.656653822728835
 20
4.841566516490959
 10
3.656636296111221
 20
4.841561815386997
  0
LWPOLYLINE
  5
62
330
1F
100
AcDbEntity
  8
0
  6
Continuous
 62
     7
370
    15
100
AcDbPolyline
 90
       13
 70
   128
 43
0.0
 10
3.647355485399509
 20
5.501442907633354
 10
3.647373012017122
 20
5.501447608737317
 10
3.655400099176551
 20
5.501793329881094
 10
3.663610541720249
 20
5.498755308294545
 10
3.671274859007406
 20
5.49260351746619
 10
3.677712105645988
 20
5.48388438784453
 10
3.68235022943032
 20
5.47337284300631
 10
3.684777095576983
 20
5.462002744190703
 10
3.684777095576983
 20
5.450784523068593
 10
3.68235022943032
 20
5.440714792777167
 10
3.677712105645988
 20
5.432688457182443
 10
3.671274859007406
 20
5.427418617248632
 10
3.667573009210171
 20
5.425979258097776
  0
LWPOLYLINE
  5
63
330
1F
100
AcDbEntity
  8
0
  6
Continuous
 62
     7
370
    15
100
AcDbPolyline
 90
       21
 70
   128
 43
0.0
 10
3.629842972045809
 20
5.470637534029243
 10
3.631151557022458
 20
5.459029375522535
 10
3.634949336531486
 20
5.447856359791124
 10
3.640864518122323
 20
5.438212093165128
 10
3.648318101166925
 20
5.431040664049179
 10
3.65658039760889
 20
5.42704406610591
 10
3.664842797758651
 20
5.426613515203515
 10
3.672296277095457
 20
5.429791177556622
 10
3.678211458686293
 20
5.436265959138655
 10
3.682009238195321
 20
5.445404040664025
 10
3.683317926879767
 20
5.456311002631166
 10
3.682009238195321
 20
5.467919188922339
 10
3.678211458686293
 20
5.479092204653751
 10
3.672296277095457
 20
5.488736471279747
 10
3.664842797758651
 20
5.49590787261123
 10
3.65658039760889
 20
5.499904498338964
 10
3.648318101166925
 20
5.500335021456893
 10
3.640864518122323
 20
5.497157386888251
 10
3.634949336531486
 20
5.490682605306219
 10
3.631151557022458
 20
5.481544523780851
 10
3.629842972045809
 20
5.470637534029243
  0
LWPOLYLINE
  5
64
330
1F
100
AcDbEntity
  8
0
  6
Continuous
 62
     7
370
    15
100
AcDbPolyline
 90
       13
 70
   128
 43
0.0
 10
3.676853819921884
 20
5.428465689857724
 10
3.680555669719119
 20
5.429905049008581
 10
3.686992916357701
 20
5.43517488894239
 10
3.691631040142033
 20
5.443201224537116
 10
3.694057906288695
 20
5.453270954828542
 10
3.694057906288695
 20
5.464489175950651
 10
3.691631040142033
 20
5.475859274766259
 10
3.686992916357701
 20
5.486370819604478
 10
3.680555669719119
 20
5.495089949226138
 10
3.672891352431962
 20
5.501241740054494
 10
3.664680909888264
 20
5.504279761641041
 10
3.656653822728835
 20
5.503934040497266
 10
3.656636296111221
 20
5.503929339393302
  0
LWPOLYLINE
  5
65
330
1F
100
AcDbEntity
  8
0
  6
Continuous
 62
     7
370
    15
100
AcDbPolyline
 90
        8
 70
   128
 43
0.0
 10
4.180220766783892
 20
4.850242253138707
 10
4.181447889286365
 20
4.861664003770681
 10
4.185020259899629
 20
4.872728374844186
 10
4.190620480912397
 20
4.882452313340118
 10
4.197750910463002
 20
4.889971780108194
 10
4.205777945768533
 20
4.894618613414209
 10
4.213988440166129
 20
4.895979942316237
 10
4.217950907656051
 20
4.89537418592536
  0
ARC
  5
66
330
1F
100
AcDbEntity
  8
0
  6
Continuous
 62
     7
370
    15
100
AcDbCircle
 10
4.20913189885432
 20
4.8467131181084
 30
0.0
 40
0.0291257334955859
100
AcDbArc
 50
173.040428243763
 51
246.9610223652158
  0
LWPOLYLINE
  5
67
330
1F
100
AcDbEntity
  8
0
  6
Continuous
 62
     7
370
    15
100
AcDbPolyline
 90
       21
 70
   128
 43
0.0
 10
4.18198851802969
 20
4.850242239246474
 10
4.183297154860238
 20
4.83933529871296
 10
4.187094934369266
 20
4.830197181861731
 10
4.193010115960103
 20
4.823722400279699
 10
4.200463699004705
 20
4.820544765711058
 10
4.20872599544667
 20
4.820975324154844
 10
4.216988343742532
 20
4.824971900664488
 10
4.224441926787136
 20
4.832143329780437
 10
4.230357108377972
 20
4.841787596406432
 10
4.234154887886999
 20
4.852960647463703
 10
4.235463472863649
 20
4.864568770644552
 10
4.234154887886999
 20
4.875475760396159
 10
4.230357108377972
 20
4.884613877247388
 10
4.224441926787136
 20
4.89108865882942
 10
4.216988343742532
 20
4.894266293398061
 10
4.20872599544667
 20
4.893835721062041
 10
4.200463699004705
 20
4.889839158444631
 10
4.193010115960103
 20
4.882667729328682
 10
4.187094934369266
 20
4.873023462702685
 10
4.183297154860238
 20
4.861850411645415
 10
4.18198851802969
 20
4.850242239246474
  0
ARC
  5
68
330
1F
100
AcDbEntity
  8
0
  6
Continuous
 62
     7
370
    15
100
AcDbCircle
 10
4.199851088142609
 20
4.849199549868348
 30
0.0
 40
0.0291257334955867
100
AcDbArc
 50
173.0404282437632
 51
246.9610223652136
  0
LWPOLYLINE
  5
69
330
1F
100
AcDbEntity
  8
0
  6
Continuous
 62
     7
370
    15
100
AcDbPolyline
 90
        8
 70
   128
 43
0.0
 10
4.208670096944339
 20
4.897860617685308
 10
4.204707629454417
 20
4.898466374076186
 10
4.19649713505682
 20
4.897105045174158
 10
4.18847009975129
 20
4.892458211868143
 10
4.181339670200683
 20
4.884938745100066
 10
4.175739449187918
 20
4.875214806604135
 10
4.172167078574653
 20
4.86415043553063
 10
4.17093995607218
 20
4.852728684898655
  0
LWPOLYLINE
  5
6A
330
1F
100
AcDbEntity
  8
0
  6
Continuous
 62
     7
370
    15
100
AcDbPolyline
 90
        8
 70
   128
 43
0.0
 10
4.356997446980674
 20
5.379324499059429
 10
4.358224569483147
 20
5.390746214365544
 10
4.36179699195031
 20
5.401810669982999
 10
4.367397161109178
 20
5.411534594586698
 10
4.374527590659785
 20
5.419054026028915
 10
4.382554677819213
 20
5.423700837901304
 10
4.390765120362911
 20
5.425062223562818
 10
4.394727587852833
 20
5.424456431846082
  0
ARC
  5
6B
330
1F
100
AcDbEntity
  8
0
  6
Continuous
 62
     7
370
    15
100
AcDbCircle
 10
4.38590854526472
 20
5.375795375737622
 30
0.0
 40
0.0291256985394389
100
AcDbArc
 50
173.0404430534952
 51
246.9610653457903
  0
LWPOLYLINE
  5
6C
330
1F
100
AcDbEntity
  8
0
  6
Continuous
 62
     7
370
    15
100
AcDbPolyline
 90
       21
 70
   128
 43
0.0
 10
4.358765250080371
 20
5.379324499059429
 10
4.360073835057021
 20
5.368417579959541
 10
4.363871614566049
 20
5.359279427782452
 10
4.369786796156885
 20
5.352804646200421
 10
4.377240379201487
 20
5.349627011631779
 10
4.38550272749735
 20
5.350057548641939
 10
4.393765023939315
 20
5.354054146585209
 10
4.401218606983918
 20
5.361225575701158
 10
4.407133788574753
 20
5.370869842327155
 10
4.410931568083782
 20
5.382042928710284
 10
4.412240204914329
 20
5.393651030457506
 10
4.410931568083782
 20
5.40455800631688
 10
4.407133788574753
 20
5.413696158493968
 10
4.401218606983918
 20
5.420170940076
 10
4.393765023939315
 20
5.423348503992923
 10
4.38550272749735
 20
5.422917980874995
 10
4.377240379201487
 20
5.418921369039493
 10
4.369786796156885
 20
5.411750010575262
 10
4.363871614566049
 20
5.402105743949267
 10
4.360073835057021
 20
5.390932657566136
 10
4.358765250080371
 20
5.379324499059429
  0
ARC
  5
6D
330
1F
100
AcDbEntity
  8
0
  6
Continuous
 62
     7
370
    15
100
AcDbCircle
 10
4.376627734553006
 20
5.37828180749757
 30
0.0
 40
0.0291256985394373
100
AcDbArc
 50
173.0404430534931
 51
246.9610653457912
  0
LWPOLYLINE
  5
6E
330
1F
100
AcDbEntity
  8
0
  6
Continuous
 62
     7
370
    15
100
AcDbPolyline
 90
        8
 70
   128
 43
0.0
 10
4.385446777141121
 20
5.42694286360603
 10
4.381484309651199
 20
5.427548655322767
 10
4.3732738671075
 20
5.426187269661252
 10
4.365246779948072
 20
5.421540457788864
 10
4.358116350397465
 20
5.414021026346646
 10
4.352516181238597
 20
5.404297101742947
 10
4.348943758771436
 20
5.393232646125492
 10
4.347716636268962
 20
5.381810930819378
  0
LWPOLYLINE
  5
6F
330
1F
100
AcDbEntity
  8
0
  6
Continuous
 62
     7
370
    15
100
AcDbPolyline
 90
        8
 70
   128
 43
0.0
 10
4.356997446980674
 20
4.716957010378982
 10
4.358224569483147
 20
4.728378743348027
 10
4.36179699195031
 20
4.739443145976694
 10
4.367397161109178
 20
4.749167052917463
 10
4.374527590659785
 20
4.75668651968554
 10
4.382554677819213
 20
4.761333366883787
 10
4.390765120362911
 20
4.762694681893583
 10
4.394727587852833
 20
4.762088925502706
  0
ARC
  5
70
330
1F
100
AcDbEntity
  8
0
  6
Continuous
 62
     7
370
    15
100
AcDbCircle
 10
4.385908587630617
 20
4.713427880302206
 30
0.0
 40
0.0291257414116725
100
AcDbArc
 50
173.0404399615164
 51
246.9610106474642
  0
LWPOLYLINE
  5
71
330
1F
100
AcDbEntity
  8
0
  6
Continuous
 62
     7
370
    15
100
AcDbPolyline
 90
       21
 70
   128
 43
0.0
 10
4.358765250080371
 20
4.716957010378982
 10
4.360073835057021
 20
4.706050038290306
 10
4.363871614566049
 20
4.696911921439076
 10
4.369786796156885
 20
4.690437139857044
 10
4.377240379201487
 20
4.687259505288403
 10
4.38550272749735
 20
4.687690059961493
 10
4.393765023939315
 20
4.691686640241834
 10
4.401218606983918
 20
4.698858069357783
 10
4.407133788574753
 20
4.708502335983778
 10
4.410931568083782
 20
4.719675387041049
 10
4.412240204914329
 20
4.73128354177706
 10
4.410931568083782
 20
4.742190499973504
 10
4.407133788574753
 20
4.751328616824733
 10
4.401218606983918
 20
4.757803398406765
 10
4.393765023939315
 20
4.760981032975407
 10
4.38550272749735
 20
4.760550492194549
 10
4.377240379201487
 20
4.756553898021976
 10
4.369786796156885
 20
4.749382468906027
 10
4.363871614566049
 20
4.739738202280031
 10
4.360073835057021
 20
4.728565151222761
 10
4.358765250080371
 20
4.716957010378982
  0
ARC
  5
72
330
1F
100
AcDbEntity
  8
0
  6
Continuous
 62
     7
370
    15
100
AcDbCircle
 10
4.376627776918906
 20
4.715914312062154
 30
0.0
 40
0.0291257414116729
100
AcDbArc
 50
173.0404399615147
 51
246.9610106474626
  0
LWPOLYLINE
  5
73
330
1F
100
AcDbEntity
  8
0
  6
Continuous
 62
     7
370
    15
100
AcDbPolyline
 90
        8
 70
   128
 43
0.0
 10
4.385446777141121
 20
4.764575357262653
 10
4.381484309651199
 20
4.765181113653531
 10
4.3732738671075
 20
4.763819798643735
 10
4.365246779948072
 20
4.759172951445488
 10
4.358116350397465
 20
4.751653484677412
 10
4.352516181238597
 20
4.741929577736642
 10
4.348943758771436
 20
4.730865175107976
 10
4.347716636268962
 20
4.719443442138931
  0
LWPOLYLINE
  5
74
330
1F
100
AcDbEntity
  8
0
  6
Continuous
 62
     7
370
    15
100
AcDbPolyline
 90
        8
 70
   128
 43
0.0
 10
4.180220766783892
 20
5.512609777145012
 10
4.181447889286365
 20
5.524031492451128
 10
4.185020259899629
 20
5.535095863524632
 10
4.190620480912397
 20
5.544819802020564
 10
4.197750910463002
 20
5.552339304114499
 10
4.205777945768533
 20
5.556986102094656
 10
4.213988440166129
 20
5.558347430996684
 10
4.217950907656051
 20
5.557741709931666
  0
ARC
  5
75
330
1F
100
AcDbEntity
  8
0
  6
Continuous
 62
     7
370
    15
100
AcDbCircle
 10
4.209132005843904
 20
5.509080672671264
 30
0.0
 40
0.0291258359943844
100
AcDbArc
 50
173.0405134133043
 51
246.960879405465
  0
LWPOLYLINE
  5
76
330
1F
100
AcDbEntity
  8
0
  6
Continuous
 62
     7
370
    15
100
AcDbPolyline
 90
       21
 70
   128
 43
0.0
 10
4.18198851802969
 20
5.512609763252781
 10
4.183297154860238
 20
5.501702787393407
 10
4.187094934369266
 20
5.492564705868037
 10
4.193010115960103
 20
5.486089924286004
 10
4.200463699004705
 20
5.482912289717363
 10
4.20872599544667
 20
5.483342812835291
 10
4.216988343742532
 20
5.487339424670794
 10
4.224441926787136
 20
5.494510853786742
 10
4.230357108377972
 20
5.504155120412738
 10
4.234154887886999
 20
5.515328136144149
 10
4.235463472863649
 20
5.526936294650858
 10
4.234154887886999
 20
5.537843284402464
 10
4.230357108377972
 20
5.546981365927834
 10
4.224441926787136
 20
5.553456147509866
 10
4.216988343742532
 20
5.556633782078508
 10
4.20872599544667
 20
5.556203245068346
 10
4.200463699004705
 20
5.552206647125077
 10
4.193010115960103
 20
5.545035218009127
 10
4.187094934369266
 20
5.535390951383132
 10
4.183297154860238
 20
5.524217935651721
 10
4.18198851802969
 20
5.512609763252781
  0
ARC
  5
77
330
1F
100
AcDbEntity
  8
0
  6
Continuous
 62
     7
370
    15
100
AcDbCircle
 10
4.19985119513219
 20
5.511567104431212
 30
0.0
 40
0.0291258359943827
100
AcDbArc
 50
173.0405134133022
 51
246.9608794054674
  0
LWPOLYLINE
  5
78
330
1F
100
AcDbEntity
  8
0
  6
Continuous
 62
     7
370
    15
100
AcDbPolyline
 90
        8
 70
   128
 43
0.0
 10
4.208670096944339
 20
5.560228141691615
 10
4.204707629454417
 20
5.560833862756632
 10
4.19649713505682
 20
5.559472533854604
 10
4.18847009975129
 20
5.554825735874447
 10
4.181339670200683
 20
5.547306233780513
 10
4.175739449187918
 20
5.537582295284581
 10
4.172167078574653
 20
5.526517924211077
 10
4.17093995607218
 20
5.515096208904961
  0
SPLINE
  5
79
330
1F
100
AcDbEntity
  8
0
  6
Continuous
 62
     7
370
    15
100
AcDbSpline
210
0.0
220
0.0
230
1.0
 70
     8
 71
     3
 72
     9
 73
     5
 74
     0
 42
0.0000000001
 43
0.0000000001
 40
0.0
 40
0.0
 40
0.0
 40
0.0
 40
0.6561077514712288
 40
1.0
 40
1.0
 40
1.0
 40
1.0
 10
4.74643178638032
 20
5.465275370349962
 30
0.0
 10
4.747894838130301
 20
5.457431261104678
 30
0.0
 10
4.750124733672156
 20
5.445475741256458
 30
0.0
 10
4.754547164149824
 20
5.435181735728717
 30
0.0
 10
4.756068003710749
 20
5.431641707021414
 30
0.0
  0
LINE
  5
7A
330
1F
100
AcDbEntity
  8
0
  6
Continuous
 62
     7
370
    15
100
AcDbLine
 10
4.74643178638032
 20
5.465275370349962
 30
0.0
 11
4.745807672860786
 21
5.481296822827611
 31
0.0
  0
SPLINE
  5
7B
330
1F
100
AcDbEntity
  8
0
  6
Continuous
 62
     7
370
    15
100
AcDbSpline
210
0.0
220
0.0
230
1.0
 70
     8
 71
     3
 72
     9
 73
     5
 74
     0
 42
0.0000000001
 43
0.0000000001
 40
0.0
 40
0.0
 40
0.0
 40
0.0
 40
0.6498037161461494
 40
1.0
 40
1.0
 40
1.0
 40
1.0
 10
4.752651039230591
 20
5.519345508273469
 30
0.0
 10
4.750438688532877
 20
5.511193751080822
 30
0.0
 10
4.747034043956767
 20
5.498648797904817
 30
0.0
 10
4.74612575298408
 20
5.485797351574601
 30
0.0
 10
4.745807672860786
 20
5.481296822827611
 30
0.0
  0
LINE
  5
7C
330
1F
100
AcDbEntity
  8
0
  6
Continuous
 62
     7
370
    15
100
AcDbLine
 10
4.75265103923059
 20
5.519345508273469
 30
0.0
 11
4.780365858922094
 21
5.526770614769309
 31
0.0
  0
SPLINE
  5
7D
330
1F
100
AcDbEntity
  8
0
  6
Continuous
 62
     7
370
    15
100
AcDbSpline
210
0.0
220
0.0
230
1.0
 70
     8
 71
     3
 72
     9
 73
     5
 74
     0
 42
0.0000000001
 43
0.0000000001
 40
0.0
 40
0.0
 40
0.0
 40
0.0
 40
0.6561067378206006
 40
1.0
 40
1.0
 40
1.0
 40
1.0
 10
4.790001842909981
 20
5.493136929411857
 30
0.0
 10
4.788538873051202
 20
5.500981007638239
 30
0.0
 10
4.786309098878119
 20
5.512936498679894
 30
0.0
 10
4.781886694120775
 20
5.523230557351623
 30
0.0
 10
4.780365858922094
 20
5.526770614769309
 30
0.0
  0
LINE
  5
7E
330
1F
100
AcDbEntity
  8
0
  6
Continuous
 62
     7
370
    15
100
AcDbLine
 10
4.790625956429515
 20
5.477115476934207
 30
0.0
 11
4.790001842909981
 21
5.493136929411857
 31
0.0
  0
SPLINE
  5
7F
330
1F
100
AcDbEntity
  8
0
  6
Continuous
 62
     7
370
    15
100
AcDbSpline
210
0.0
220
0.0
230
1.0
 70
     8
 71
     3
 72
     9
 73
     5
 74
     0
 42
0.0000000001
 43
0.0000000001
 40
0.0
 40
0.0
 40
0.0
 40
0.0
 40
0.6498045424527554
 40
1.0
 40
1.0
 40
1.0
 40
1.0
 10
4.783782823402254
 20
5.439066813517254
 30
0.0
 10
4.785995203858491
 20
5.447218560793578
 30
0.0
 10
4.789399889901292
 20
5.459763482756656
 30
0.0
 10
4.790307955856758
 20
5.472614951098189
 30
0.0
 10
4.790625956429515
 20
5.477115476934207
 30
0.0
  0
LINE
  5
80
330
1F
100
AcDbEntity
  8
0
  6
Continuous
 62
     7
370
    15
100
AcDbLine
 10
4.756068003710749
 20
5.431641707021414
 30
0.0
 11
4.783782823402254
 21
5.439066813517254
 31
0.0
  0
ARC
  5
81
330
1F
100
AcDbEntity
  8
0
  6
Continuous
 62
     7
370
    15
100
AcDbCircle
 10
4.637756231704861
 20
5.469815090383934
 30
0.0
 40
0.108659763094627
100
AcDbArc
 50
6.065586695243736
 51
39.85575093412065
  0
SPLINE
  5
82
330
1F
100
AcDbEntity
  8
0
  6
Continuous
 62
     7
370
    15
100
AcDbSpline
210
0.0
220
0.0
230
1.0
 70
     8
 71
     3
 72
     9
 73
     5
 74
     0
 42
0.0000000001
 43
0.0000000001
 40
0.0
 40
0.0
 40
0.0
 40
0.0
 40
0.6561025385405552
 40
1.0
 40
1.0
 40
1.0
 40
1.0
 10
4.721170019054103
 20
5.539450456368726
 30
0.0
 10
4.727600905980295
 20
5.534683059937654
 30
0.0
 10
4.73740255518668
 20
5.527416823105715
 30
0.0
 10
4.748749019095727
 20
5.521410922310664
 30
0.0
 10
4.75265103923059
 20
5.519345508273469
 30
0.0
  0
LINE
  5
83
330
1F
100
AcDbEntity
  8
0
  6
Continuous
 62
     7
370
    15
100
AcDbLine
 10
4.66074280466398
 20
5.428615698573602
 30
0.0
 11
4.671132044305035
 21
5.418641727831626
 31
0.0
  0
ARC
  5
84
330
1F
100
AcDbEntity
  8
0
  6
Continuous
 62
     7
370
    15
100
AcDbCircle
 10
4.744154776412539
 20
5.498250295352097
 30
0.0
 40
0.1086578763803438
100
AcDbArc
 50
186.0652845228088
 51
219.8560531065576
  0
LINE
  5
85
330
1F
100
AcDbEntity
  8
0
  6
Continuous
 62
     7
370
    15
100
AcDbLine
 10
4.635480829922171
 20
5.502790840161295
 30
0.0
 11
4.636105150857297
 21
5.486769332114716
 31
0.0
  0
ARC
  5
86
330
1F
100
AcDbEntity
  8
0
  6
Continuous
 62
     7
370
    15
100
AcDbCircle
 10
4.702555034496651
 20
5.503928894145406
 30
0.0
 40
0.0670838586112183
100
AcDbArc
 50
134.0298713927111
 51
180.972049306558
  0
LINE
  5
87
330
1F
100
AcDbEntity
  8
0
  6
Continuous
 62
     7
370
    15
100
AcDbLine
 10
4.665694437117232
 20
5.558208219058855
 30
0.0
 11
4.655929518411304
 21
5.552160681754253
 31
0.0
  0
ARC
  5
88
330
1F
100
AcDbEntity
  8
0
  6
Continuous
 62
     7
370
    15
100
AcDbCircle
 10
4.680981615690089
 20
5.516571760831313
 30
0.0
 40
0.044354170970184
100
AcDbArc
 50
47.79031470824468
 51
110.161138625757
  0
LINE
  5
89
330
1F
100
AcDbEntity
  8
0
  6
Continuous
 62
     7
370
    15
100
AcDbLine
 10
4.721170019054103
 20
5.539450456368726
 30
0.0
 11
4.710780779413048
 21
5.54942449776242
 31
0.0
  0
ARC
  5
8A
330
1F
100
AcDbEntity
  8
0
  6
Continuous
 62
     7
370
    15
100
AcDbCircle
 10
4.679357936807208
 20
5.464136919153971
 30
0.0
 40
0.0670835104007099
100
AcDbArc
 50
314.0299835717475
 51
0.9723936587120524
  0
LINE
  5
8B
330
1F
100
AcDbEntity
  8
0
  6
Continuous
 62
     7
370
    15
100
AcDbLine
 10
4.716218179185259
 20
5.409857991452402
 30
0.0
 11
4.725983305306779
 21
5.415905473188073
 31
0.0
  0
ARC
  5
8C
330
1F
100
AcDbEntity
  8
0
  6
Continuous
 62
     7
370
    15
100
AcDbCircle
 10
4.700931033089189
 20
5.451493856305164
 30
0.0
 40
0.0443536027600922
100
AcDbArc
 50
227.7899540208097
 51
290.1613634325828
  0
SPLINE
  5
8D
330
1F
100
AcDbEntity
  8
0
  6
Continuous
 62
     7
370
    15
100
AcDbSpline
210
0.0
220
0.0
230
1.0
 70
     8
 71
     3
 72
     9
 73
     5
 74
     0
 42
0.0000000001
 43
0.0000000001
 40
0.0
 40
0.0
 40
0.0
 40
0.0
 40
0.6498014091090833
 40
1.0
 40
1.0
 40
1.0
 40
1.0
 10
4.695779135521203
 20
5.573944452892197
 30
0.0
 10
4.698126343918749
 20
5.568616457109647
 30
0.0
 10
4.701738537374538
 20
5.560417035397318
 30
0.0
 10
4.70843550928631
 20
5.552275612565847
 30
0.0
 10
4.710780779413048
 20
5.54942449776242
 30
0.0
  0
LINE
  5
8E
330
1F
100
AcDbEntity
  8
0
  6
Continuous
 62
     7
370
    15
100
AcDbLine
 10
4.695779135521203
 20
5.573944452892197
 30
0.0
 11
4.723493955212706
 21
5.581369559388038
 31
0.0
  0
SPLINE
  5
8F
330
1F
100
AcDbEntity
  8
0
  6
Continuous
 62
     7
370
    15
100
AcDbSpline
210
0.0
220
0.0
230
1.0
 70
     8
 71
     3
 72
     9
 73
     5
 74
     0
 42
0.0000000001
 43
0.0000000001
 40
0.0
 40
0.0
 40
0.0
 40
0.0
 40
0.6561090787794161
 40
1.0
 40
1.0
 40
1.0
 40
1.0
 10
4.754974949462244
 20
5.561264604346665
 30
0.0
 10
4.748543993929699
 20
5.566031998951697
 30
0.0
 10
4.738742337862831
 20
5.573298160569063
 30
0.0
 10
4.727395894182509
 20
5.579304153087893
 30
0.0
 10
4.723493955212706
 20
5.581369559388038
 30
0.0
  0
LINE
  5
90
330
1F
100
AcDbEntity
  8
0
  6
Continuous
 62
     7
370
    15
100
AcDbLine
 10
4.765364189103299
 20
5.551290562952971
 30
0.0
 11
4.754974949462244
 21
5.561264604346665
 31
0.0
  0
SPLINE
  5
91
330
1F
100
AcDbEntity
  8
0
  6
Continuous
 62
     7
370
    15
100
AcDbSpline
210
0.0
220
0.0
230
1.0
 70
     8
 71
     3
 72
     9
 73
     5
 74
     0
 42
0.0000000001
 43
0.0000000001
 40
0.0
 40
0.0
 40
0.0
 40
0.0
 40
0.6498077909236529
 40
1.0
 40
1.0
 40
1.0
 40
1.0
 10
4.780365858922094
 20
5.526770614769309
 30
0.0
 10
4.778018547574463
 20
5.532098595027566
 30
0.0
 10
4.774406231162722
 20
5.540297912322118
 30
0.0
 10
4.767709375708632
 20
5.548439457323604
 30
0.0
 10
4.765364189103299
 20
5.551290562952971
 30
0.0
  0
SPLINE
  5
92
330
1F
100
AcDbEntity
  8
0
  6
Continuous
 62
     7
370
    15
100
AcDbSpline
210
0.0
220
0.0
230
1.0
 70
     8
 71
     3
 72
    10
 73
     6
 74
     0
 42
0.0000000001
 43
0.0000000001
 40
0.0
 40
0.0
 40
0.0
 40
0.0
 40
0.1129493535234862
 40
0.9355497954483842
 40
1.0
 40
1.0
 40
1.0
 40
1.0
 10
4.756068003710749
 20
5.431641707021414
 30
0.0
 10
4.754838684807732
 20
5.431039694897814
 30
0.0
 10
4.744656341904638
 20
5.426053280177209
 30
0.0
 10
4.734212011406961
 20
5.420652737423104
 30
0.0
 10
4.726540679260548
 20
5.4162270305999
 30
0.0
 10
4.725983305306779
 20
5.415905473188073
 30
0.0
  0
SPLINE
  5
93
330
1F
100
AcDbEntity
  8
0
  6
Continuous
 62
     7
370
    15
100
AcDbSpline
210
0.0
220
0.0
230
1.0
 70
     8
 71
     3
 72
     9
 73
     5
 74
     0
 42
0.0000000001
 43
0.0000000001
 40
0.0
 40
0.0
 40
0.0
 40
0.0
 40
0.3461985064649096
 40
1.0
 40
1.0
 40
1.0
 40
1.0
 10
4.716218179185259
 20
5.409857991452402
 30
0.0
 10
4.714066273473301
 20
5.408356243111699
 30
0.0
 10
4.707850458928254
 20
5.404018418676702
 30
0.0
 10
4.704683576767846
 20
5.400703807090319
 30
0.0
 10
4.702613064481521
 20
5.398536709084652
 30
0.0
  0
SPLINE
  5
94
330
1F
100
AcDbEntity
  8
0
  6
Continuous
 62
     7
370
    15
100
AcDbSpline
210
0.0
220
0.0
230
1.0
 70
     8
 71
     3
 72
     9
 73
     5
 74
     0
 42
0.0000000001
 43
0.0000000001
 40
0.0
 40
0.0
 40
0.0
 40
0.0
 40
0.3461963501033358
 40
1.0
 40
1.0
 40
1.0
 40
1.0
 10
4.770177475355974
 20
5.427745579772317
 30
0.0
 10
4.772329386297803
 20
5.429247334291979
 30
0.0
 10
4.778545254666104
 20
5.433585203594216
 30
0.0
 10
4.781712238084285
 20
5.43689975059221
 30
0.0
 10
4.783782823402254
 20
5.439066813517254
 30
0.0
  0
LINE
  5
95
330
1F
100
AcDbEntity
  8
0
  6
Continuous
 62
     7
370
    15
100
AcDbLine
 10
4.760412349234454
 20
5.421698098036646
 30
0.0
 11
4.770177475355974
 21
5.427745579772317
 31
0.0
  0
SPLINE
  5
96
330
1F
100
AcDbEntity
  8
0
  6
Continuous
 62
     7
370
    15
100
AcDbSpline
210
0.0
220
0.0
230
1.0
 70
     8
 71
     3
 72
    10
 73
     6
 74
     0
 42
0.0000000001
 43
0.0000000001
 40
0.0
 40
0.0
 40
0.0
 40
0.0
 40
0.1129439033528547
 40
0.9355495247577216
 40
1.0
 40
1.0
 40
1.0
 40
1.0
 10
4.730327884173026
 20
5.405961815580491
 30
0.0
 10
4.73155712368012
 20
5.406563847527539
 30
0.0
 10
4.741739297330371
 20
5.411550665631289
 30
0.0
 10
4.752183763125364
 20
5.416950852336739
 30
0.0
 10
4.759854984418519
 20
5.421376542463107
 30
0.0
 10
4.760412349234454
 20
5.421698098036646
 30
0.0
  0
LINE
  5
97
330
1F
100
AcDbEntity
  8
0
  6
Continuous
 62
     7
370
    15
100
AcDbLine
 10
4.702613064481521
 20
5.398536709084652
 30
0.0
 11
4.730327884173026
 21
5.405961815580491
 31
0.0
  0
SPLINE
  5
98
330
1F
100
AcDbEntity
  8
0
  6
Continuous
 62
     7
370
    15
100
AcDbSpline
210
0.0
220
0.0
230
1.0
 70
     8
 71
     3
 72
     9
 73
     5
 74
     0
 42
0.0000000001
 43
0.0000000001
 40
0.0
 40
0.0
 40
0.0
 40
0.0
 40
0.3461964630736962
 40
1.0
 40
1.0
 40
1.0
 40
1.0
 10
4.665694437117232
 20
5.558208219058855
 30
0.0
 10
4.668808446040654
 20
5.55996773018835
 30
0.0
 10
4.677803364405142
 20
5.565050136616977
 30
0.0
 10
4.688672715397987
 20
5.570428233879818
 30
0.0
 10
4.695779135521203
 20
5.573944452892197
 30
0.0
  0
ARC
  5
99
330
1F
100
AcDbEntity
  8
0
  6
Continuous
 62
     7
370
    15
100
AcDbCircle
 10
4.677835545130684
 20
5.480494857840997
 30
0.0
 40
0.1128764826308689
100
AcDbArc
 50
6.430571417638779
 51
29.76594781069176
  0
SPLINE
  5
9A
330
1F
100
AcDbEntity
  8
0
  6
Continuous
 62
     7
370
    15
100
AcDbSpline
210
0.0
220
0.0
230
1.0
 70
     8
 71
     3
 72
     9
 73
     5
 74
     0
 42
0.0000000001
 43
0.0000000001
 40
0.0
 40
0.0
 40
0.0
 40
0.0
 40
0.6498073644695065
 40
1.0
 40
1.0
 40
1.0
 40
1.0
 10
4.702613064481521
 20
5.398536709084652
 30
0.0
 10
4.695258163876112
 20
5.402523090605967
 30
0.0
 10
4.683939577772652
 20
5.408657803352059
 30
0.0
 10
4.674453869488822
 20
5.416052247831194
 30
0.0
 10
4.671132044305035
 20
5.418641727831626
 30
0.0
  0
SPLINE
  5
9B
330
1F
100
AcDbEntity
  8
0
  6
Continuous
 62
     7
370
    15
100
AcDbSpline
210
0.0
220
0.0
230
1.0
 70
     8
 71
     3
 72
     9
 73
     5
 74
     0
 42
0.0000000001
 43
0.0000000001
 40
0.0
 40
0.0
 40
0.0
 40
0.0
 40
0.6561064852789961
 40
1.0
 40
1.0
 40
1.0
 40
1.0
 10
4.635480829922171
 20
5.502790840161295
 30
0.0
 10
4.636308697054522
 20
5.511248661671332
 30
0.0
 10
4.637570484814476
 20
5.524139589744449
 30
0.0
 10
4.641107752779108
 20
5.536566121816948
 30
0.0
 10
4.642324196291975
 20
5.540839525607153
 30
0.0
  0
SPLINE
  5
9C
330
1F
100
AcDbEntity
  8
0
  6
Continuous
 62
     7
370
    15
100
AcDbSpline
210
0.0
220
0.0
230
1.0
 70
     8
 71
     3
 72
    10
 73
     6
 74
     0
 42
0.0000000001
 43
0.0000000001
 40
0.0
 40
0.0
 40
0.0
 40
0.0
 40
0.1129427514370997
 40
0.9355434757064971
 40
1.0
 40
1.0
 40
1.0
 40
1.0
 10
4.642324196291975
 20
5.540839525607153
 30
0.0
 10
4.642646796391227
 20
5.541198630253897
 30
0.0
 10
4.64531900345434
 20
5.544173216981096
 30
0.0
 10
4.64968708232578
 20
5.547946353863267
 30
0.0
 10
4.655506649352889
 20
5.551875198836576
 30
0.0
 10
4.655929518411304
 20
5.552160681754253
 30
0.0
  0
LINE
  5
9D
330
1F
100
AcDbEntity
  8
0
  6
Continuous
 62
     7
370
    15
100
AcDbLine
 10
4.66074280466398
 20
5.428615698573602
 30
0.0
 11
4.65150352892478
 21
5.441955879601596
 31
0.0
  0
SPLINE
  5
9E
330
1F
100
AcDbEntity
  8
0
  6
Continuous
 62
     7
370
    15
100
AcDbSpline
210
0.0
220
0.0
230
1.0
 70
     8
 71
     3
 72
     9
 73
     5
 74
     0
 42
0.0000000001
 43
0.0000000001
 40
0.0
 40
0.0
 40
0.0
 40
0.0
 40
0.6561069031327659
 40
1.0
 40
1.0
 40
1.0
 40
1.0
 10
4.74643178638032
 20
4.802907881669517
 30
0.0
 10
4.747894841912612
 20
4.795063775302788
 30
0.0
 10
4.750124746102472
 20
4.783108244383554
 30
0.0
 10
4.754547164538977
 20
4.772814212020695
 30
0.0
 10
4.756068003710749
 20
4.76927416535218
 30
0.0
  0
LINE
  5
9F
330
1F
100
AcDbEntity
  8
0
  6
Continuous
 62
     7
370
    15
100
AcDbLine
 10
4.74643178638032
 20
4.802907881669517
 30
0.0
 11
4.745807672860786
 21
4.818929334147164
 31
0.0
  0
SPLINE
  5
A0
330
1F
100
AcDbEntity
  8
0
  6
Continuous
 62
     7
370
    15
100
AcDbSpline
210
0.0
220
0.0
230
1.0
 70
     8
 71
     3
 72
     9
 73
     5
 74
     0
 42
0.0000000001
 43
0.0000000001
 40
0.0
 40
0.0
 40
0.0
 40
0.0
 40
0.6498037161461494
 40
1.0
 40
1.0
 40
1.0
 40
1.0
 10
4.752651039230591
 20
4.856978019593022
 30
0.0
 10
4.750438688532877
 20
4.848826262400375
 30
0.0
 10
4.747034043956767
 20
4.83628130922437
 30
0.0
 10
4.74612575298408
 20
4.823429862894154
 30
0.0
 10
4.745807672860786
 20
4.818929334147164
 30
0.0
  0
LINE
  5
A1
330
1F
100
AcDbEntity
  8
0
  6
Continuous
 62
     7
370
    15
100
AcDbLine
 10
4.75265103923059
 20
4.856978019593022
 30
0.0
 11
4.780365858922094
 21
4.864403126088863
 31
0.0
  0
SPLINE
  5
A2
330
1F
100
AcDbEntity
  8
0
  6
Continuous
 62
     7
370
    15
100
AcDbSpline
210
0.0
220
0.0
230
1.0
 70
     8
 71
     3
 72
     9
 73
     5
 74
     0
 42
0.0000000001
 43
0.0000000001
 40
0.0
 40
0.0
 40
0.0
 40
0.0
 40
0.6561067378206006
 40
1.0
 40
1.0
 40
1.0
 40
1.0
 10
4.790001842909981
 20
4.83076944073141
 30
0.0
 10
4.788538873051202
 20
4.838613518957793
 30
0.0
 10
4.786309098878119
 20
4.850569009999448
 30
0.0
 10
4.781886694120775
 20
4.860863068671176
 30
0.0
 10
4.780365858922094
 20
4.864403126088863
 30
0.0
  0
LINE
  5
A3
330
1F
100
AcDbEntity
  8
0
  6
Continuous
 62
     7
370
    15
100
AcDbLine
 10
4.790625956429515
 20
4.814747988253761
 30
0.0
 11
4.790001842909981
 21
4.83076944073141
 31
0.0
  0
SPLINE
  5
A4
330
1F
100
AcDbEntity
  8
0
  6
Continuous
 62
     7
370
    15
100
AcDbSpline
210
0.0
220
0.0
230
1.0
 70
     8
 71
     3
 72
     9
 73
     5
 74
     0
 42
0.0000000001
 43
0.0000000001
 40
0.0
 40
0.0
 40
0.0
 40
0.0
 40
0.6498036387370938
 40
1.0
 40
1.0
 40
1.0
 40
1.0
 10
4.783782823402254
 20
4.77669927184802
 30
0.0
 10
4.785995204375497
 20
4.784851019281113
 30
0.0
 10
4.789399895949007
 20
4.797395958932324
 30
0.0
 10
4.790307956817547
 20
4.810247444700814
 30
0.0
 10
4.790625956429515
 20
4.814747988253761
 30
0.0
  0
LINE
  5
A5
330
1F
100
AcDbEntity
  8
0
  6
Continuous
 62
     7
370
    15
100
AcDbLine
 10
4.756068003710749
 20
4.76927416535218
 30
0.0
 11
4.783782823402254
 21
4.77669927184802
 31
0.0
  0
ARC
  5
A6
330
1F
100
AcDbEntity
  8
0
  6
Continuous
 62
     7
370
    15
100
AcDbCircle
 10
4.637756131392793
 20
4.807447559204782
 30
0.0
 40
0.1086598673358152
100
AcDbArc
 50
6.065603389987618
 51
39.85573423937821
  0
SPLINE
  5
A7
330
1F
100
AcDbEntity
  8
0
  6
Continuous
 62
     7
370
    15
100
AcDbSpline
210
0.0
220
0.0
230
1.0
 70
     8
 71
     3
 72
     9
 73
     5
 74
     0
 42
0.0000000001
 43
0.0000000001
 40
0.0
 40
0.0
 40
0.0
 40
0.0
 40
0.6561025385405552
 40
1.0
 40
1.0
 40
1.0
 40
1.0
 10
4.721170019054103
 20
4.877082967688278
 30
0.0
 10
4.727600905980295
 20
4.872315571257207
 30
0.0
 10
4.73740255518668
 20
4.865049334425268
 30
0.0
 10
4.748749019095727
 20
4.859043433630217
 30
0.0
 10
4.75265103923059
 20
4.856978019593022
 30
0.0
  0
LINE
  5
A8
330
1F
100
AcDbEntity
  8
0
  6
Continuous
 62
     7
370
    15
100
AcDbLine
 10
4.66074280466398
 20
4.766248174567297
 30
0.0
 11
4.671132044305035
 21
4.756274186162391
 31
0.0
  0
ARC
  5
A9
330
1F
100
AcDbEntity
  8
0
  6
Continuous
 62
     7
370
    15
100
AcDbCircle
 10
4.744154964070193
 20
4.835882850849755
 30
0.0
 40
0.1086580713880483
100
AcDbArc
 50
186.0653157553669
 51
219.8560218739998
  0
LINE
  5
AA
330
1F
100
AcDbEntity
  8
0
  6
Continuous
 62
     7
370
    15
100
AcDbLine
 10
4.635480829922171
 20
4.840423316154989
 30
0.0
 11
4.636105150857297
 21
4.824401808108411
 31
0.0
  0
ARC
  5
AB
330
1F
100
AcDbEntity
  8
0
  6
Continuous
 62
     7
370
    15
100
AcDbCircle
 10
4.702555133420079
 20
4.841561363677175
 30
0.0
 40
0.0670839574107872
100
AcDbArc
 50
134.029907332692
 51
180.9720423549467
  0
LINE
  5
AC
330
1F
100
AcDbEntity
  8
0
  6
Continuous
 62
     7
370
    15
100
AcDbLine
 10
4.665694437117232
 20
4.895840730378409
 30
0.0
 11
4.655929518411304
 21
4.889793193073807
 31
0.0
  0
ARC
  5
AD
330
1F
100
AcDbEntity
  8
0
  6
Continuous
 62
     7
370
    15
100
AcDbCircle
 10
4.680981571896881
 20
4.854204179488353
 30
0.0
 40
0.0443542428612128
100
AcDbArc
 50
47.79032256761423
 51
110.1610442652444
  0
LINE
  5
AE
330
1F
100
AcDbEntity
  8
0
  6
Continuous
 62
     7
370
    15
100
AcDbLine
 10
4.721170019054103
 20
4.877082967688278
 30
0.0
 11
4.710780779413048
 21
4.887056973756115
 31
0.0
  0
ARC
  5
AF
330
1F
100
AcDbEntity
  8
0
  6
Continuous
 62
     7
370
    15
100
AcDbCircle
 10
4.679358082918086
 20
4.801769352700364
 30
0.0
 40
0.0670833656307828
100
AcDbArc
 50
314.0299295316386
 51
0.9724621928806858
  0
LINE
  5
B0
330
1F
100
AcDbEntity
  8
0
  6
Continuous
 62
     7
370
    15
100
AcDbLine
 10
4.716218179185259
 20
4.747490485109025
 30
0.0
 11
4.725983305306779
 21
4.753537966844697
 31
0.0
  0
ARC
  5
B1
330
1F
100
AcDbEntity
  8
0
  6
Continuous
 62
     7
370
    15
100
AcDbCircle
 10
4.700931019401608
 20
4.78912641182752
 30
0.0
 40
0.0443536655526767
100
AcDbArc
 50
227.7900514690994
 51
290.1613524858149
  0
SPLINE
  5
B2
330
1F
100
AcDbEntity
  8
0
  6
Continuous
 62
     7
370
    15
100
AcDbSpline
210
0.0
220
0.0
230
1.0
 70
     8
 71
     3
 72
     9
 73
     5
 74
     0
 42
0.0000000001
 43
0.0000000001
 40
0.0
 40
0.0
 40
0.0
 40
0.0
 40
0.6498009962641534
 40
1.0
 40
1.0
 40
1.0
 40
1.0
 10
4.695779135521203
 20
4.911576928885891
 30
0.0
 10
4.698126346621753
 20
4.906248952687521
 30
0.0
 10
4.701738546532258
 20
4.898049555904502
 30
0.0
 10
4.708435509613827
 20
4.889908102594307
 30
0.0
 10
4.710780779413048
 20
4.887056973756115
 30
0.0
  0
LINE
  5
B3
330
1F
100
AcDbEntity
  8
0
  6
Continuous
 62
     7
370
    15
100
AcDbLine
 10
4.695779135521203
 20
4.911576928885891
 30
0.0
 11
4.723493955212706
 21
4.919002035381732
 31
0.0
  0
SPLINE
  5
B4
330
1F
100
AcDbEntity
  8
0
  6
Continuous
 62
     7
370
    15
100
AcDbSpline
210
0.0
220
0.0
230
1.0
 70
     8
 71
     3
 72
     9
 73
     5
 74
     0
 42
0.0000000001
 43
0.0000000001
 40
0.0
 40
0.0
 40
0.0
 40
0.0
 40
0.6561090787794161
 40
1.0
 40
1.0
 40
1.0
 40
1.0
 10
4.754974949462244
 20
4.898897080340359
 30
0.0
 10
4.748543993929699
 20
4.903664474945392
 30
0.0
 10
4.738742337862831
 20
4.910930636562758
 30
0.0
 10
4.727395894182509
 20
4.916936629081587
 30
0.0
 10
4.723493955212706
 20
4.919002035381732
 30
0.0
  0
LINE
  5
B5
330
1F
100
AcDbEntity
  8
0
  6
Continuous
 62
     7
370
    15
100
AcDbLine
 10
4.765364189103299
 20
4.888923074272523
 30
0.0
 11
4.754974949462244
 21
4.898897080340359
 31
0.0
  0
SPLINE
  5
B6
330
1F
100
AcDbEntity
  8
0
  6
Continuous
 62
     7
370
    15
100
AcDbSpline
210
0.0
220
0.0
230
1.0
 70
     8
 71
     3
 72
     9
 73
     5
 74
     0
 42
0.0000000001
 43
0.0000000001
 40
0.0
 40
0.0
 40
0.0
 40
0.0
 40
0.6498073780744072
 40
1.0
 40
1.0
 40
1.0
 40
1.0
 10
4.780365858922094
 20
4.864403126088863
 30
0.0
 10
4.778018544871413
 20
4.869731086762809
 30
0.0
 10
4.774406222004848
 20
4.877930379128087
 30
0.0
 10
4.767709375381102
 20
4.88607195460845
 30
0.0
 10
4.765364189103299
 20
4.888923074272523
 30
0.0
  0
SPLINE
  5
B7
330
1F
100
AcDbEntity
  8
0
  6
Continuous
 62
     7
370
    15
100
AcDbSpline
210
0.0
220
0.0
230
1.0
 70
     8
 71
     3
 72
    10
 73
     6
 74
     0
 42
0.0000000001
 43
0.0000000001
 40
0.0
 40
0.0
 40
0.0
 40
0.0
 40
0.112948941176576
 40
0.9355497654886036
 40
1.0
 40
1.0
 40
1.0
 40
1.0
 10
4.756068003710749
 20
4.76927416535218
 30
0.0
 10
4.754838684439948
 20
4.768672165706279
 30
0.0
 10
4.744656301643532
 20
4.763685836293365
 30
0.0
 10
4.734212012263343
 20
4.758285229508265
 30
0.0
 10
4.726540679318555
 20
4.753859524150081
 30
0.0
 10
4.725983305306779
 20
4.753537966844697
 30
0.0
  0
SPLINE
  5
B8
330
1F
100
AcDbEntity
  8
0
  6
Continuous
 62
     7
370
    15
100
AcDbSpline
210
0.0
220
0.0
230
1.0
 70
     8
 71
     3
 72
     9
 73
     5
 74
     0
 42
0.0000000001
 43
0.0000000001
 40
0.0
 40
0.0
 40
0.0
 40
0.0
 40
0.346198340807681
 40
1.0
 40
1.0
 40
1.0
 40
1.0
 10
4.716218179185259
 20
4.747490485109025
 30
0.0
 10
4.714066273363547
 20
4.745988743539516
 30
0.0
 10
4.707850455527184
 20
4.741650936587567
 30
0.0
 10
4.704683575740511
 20
4.738336321347648
 30
0.0
 10
4.702613064481521
 20
4.736169220404206
 30
0.0
  0
SPLINE
  5
B9
330
1F
100
AcDbEntity
  8
0
  6
Continuous
 62
     7
370
    15
100
AcDbSpline
210
0.0
220
0.0
230
1.0
 70
     8
 71
     3
 72
     9
 73
     5
 74
     0
 42
0.0000000001
 43
0.0000000001
 40
0.0
 40
0.0
 40
0.0
 40
0.0
 40
0.3461960187897352
 40
1.0
 40
1.0
 40
1.0
 40
1.0
 10
4.770177475355974
 20
4.765378073428943
 30
0.0
 10
4.772329386517317
 20
4.766879814406217
 30
0.0
 10
4.77854526146835
 20
4.771217648742164
 30
0.0
 10
4.781712240138985
 20
4.774532203047351
 30
0.0
 10
4.783782823402254
 20
4.77669927184802
 30
0.0
  0
LINE
  5
BA
330
1F
100
AcDbEntity
  8
0
  6
Continuous
 62
     7
370
    15
100
AcDbLine
 10
4.760412349234454
 20
4.759330591693271
 30
0.0
 11
4.770177475355974
 21
4.765378073428943
 31
0.0
  0
SPLINE
  5
BB
330
1F
100
AcDbEntity
  8
0
  6
Continuous
 62
     7
370
    15
100
AcDbSpline
210
0.0
220
0.0
230
1.0
 70
     8
 71
     3
 72
    10
 73
     6
 74
     0
 42
0.0000000001
 43
0.0000000001
 40
0.0
 40
0.0
 40
0.0
 40
0.0
 40
0.1129434620306027
 40
0.9355492550098597
 40
1.0
 40
1.0
 40
1.0
 40
1.0
 10
4.730327884173026
 20
4.743594326900045
 30
0.0
 10
4.731557123912055
 20
4.744196346653508
 30
0.0
 10
4.741739336334107
 20
4.749183081801574
 30
0.0
 10
4.752183792373904
 20
4.754583273933666
 30
0.0
 10
4.759854984483439
 20
4.759009030133216
 30
0.0
 10
4.760412349234454
 20
4.759330591693271
 30
0.0
  0
LINE
  5
BC
330
1F
100
AcDbEntity
  8
0
  6
Continuous
 62
     7
370
    15
100
AcDbLine
 10
4.702613064481521
 20
4.736169220404206
 30
0.0
 11
4.730327884173026
 21
4.743594326900045
 31
0.0
  0
SPLINE
  5
BD
330
1F
100
AcDbEntity
  8
0
  6
Continuous
 62
     7
370
    15
100
AcDbSpline
210
0.0
220
0.0
230
1.0
 70
     8
 71
     3
 72
     9
 73
     5
 74
     0
 42
0.0000000001
 43
0.0000000001
 40
0.0
 40
0.0
 40
0.0
 40
0.0
 40
0.3461961317603753
 40
1.0
 40
1.0
 40
1.0
 40
1.0
 10
4.665694437117232
 20
4.895840730378409
 30
0.0
 10
4.668808447029913
 20
4.89760022817174
 30
0.0
 10
4.677803376860143
 20
4.902682600942299
 30
0.0
 10
4.688672718144363
 20
4.908060704183198
 30
0.0
 10
4.695779135521203
 20
4.911576928885891
 30
0.0
  0
ARC
  5
BE
330
1F
100
AcDbEntity
  8
0
  6
Continuous
 62
     7
370
    15
100
AcDbCircle
 10
4.677835414876064
 20
4.818127280974242
 30
0.0
 40
0.1128766219427825
100
AcDbArc
 50
6.430608494040135
 51
29.76593827808476
  0
SPLINE
  5
BF
330
1F
100
AcDbEntity
  8
0
  6
Continuous
 62
     7
370
    15
100
AcDbSpline
210
0.0
220
0.0
230
1.0
 70
     8
 71
     3
 72
     9
 73
     5
 74
     0
 42
0.0000000001
 43
0.0000000001
 40
0.0
 40
0.0
 40
0.0
 40
0.0
 40
0.6498075679259912
 40
1.0
 40
1.0
 40
1.0
 40
1.0
 10
4.702613064481521
 20
4.736169220404206
 30
0.0
 10
4.695258165626286
 20
4.740155599800512
 30
0.0
 10
4.683939585760081
 20
4.746290307355597
 30
0.0
 10
4.674453870131108
 20
4.753684719122117
 30
0.0
 10
4.671132044305035
 20
4.756274186162391
 30
0.0
  0
SPLINE
  5
C0
330
1F
100
AcDbEntity
  8
0
  6
Continuous
 62
     7
370
    15
100
AcDbSpline
210
0.0
220
0.0
230
1.0
 70
     8
 71
     3
 72
     9
 73
     5
 74
     0
 42
0.0000000001
 43
0.0000000001
 40
0.0
 40
0.0
 40
0.0
 40
0.0
 40
0.6561064852789961
 40
1.0
 40
1.0
 40
1.0
 40
1.0
 10
4.635480829922171
 20
4.840423316154989
 30
0.0
 10
4.636308697054522
 20
4.848881137665026
 30
0.0
 10
4.637570484814476
 20
4.861772065738144
 30
0.0
 10
4.641107752779108
 20
4.874198597810642
 30
0.0
 10
4.642324196291975
 20
4.878472001600847
 30
0.0
  0
SPLINE
  5
C1
330
1F
100
AcDbEntity
  8
0
  6
Continuous
 62
     7
370
    15
100
AcDbSpline
210
0.0
220
0.0
230
1.0
 70
     8
 71
     3
 72
    10
 73
     6
 74
     0
 42
0.0000000001
 43
0.0000000001
 40
0.0
 40
0.0
 40
0.0
 40
0.0
 40
0.1129431638023542
 40
0.9355435056703257
 40
1.0
 40
1.0
 40
1.0
 40
1.0
 10
4.642324196291975
 20
4.878472001600847
 30
0.0
 10
4.642646796236139
 20
4.87883111878222
 30
0.0
 10
4.645318992343732
 20
4.881805798572453
 30
0.0
 10
4.64968708254543
 20
4.885578863440507
 30
0.0
 10
4.655506649367768
 20
4.889507710038103
 30
0.0
 10
4.655929518411304
 20
4.889793193073807
 30
0.0
  0
LINE
  5
C2
330
1F
100
AcDbEntity
  8
0
  6
Continuous
 62
     7
370
    15
100
AcDbLine
 10
4.66074280466398
 20
4.766248174567297
 30
0.0
 11
4.65150352892478
 21
4.779588373258221
 31
0.0
  0
ARC
  5
C3
330
1F
100
AcDbEntity
  8
0
  6
Continuous
 62
     7
370
    15
100
AcDbCircle
 10
5.968571641746124
 20
7.77373473383954
 30
0.0
 40
0.0355073156981806
100
AcDbArc
 50
8.258753797714524
 51
66.98583972076137
  0
LINE
  5
C4
330
1F
100
AcDbEntity
  8
0
  6
Continuous
 62
     7
370
    15
100
AcDbLine
 10
5.098569950182407
 20
8.066898284466903
 30
0.0
 11
5.520659826481222
 21
7.953815741725501
 31
0.0
  0
LINE
  5
C5
330
1F
100
AcDbEntity
  8
0
  6
Continuous
 62
     7
370
    15
100
AcDbLine
 10
5.520659826481222
 20
7.953815741725501
 30
0.0
 11
5.650997244322519
 21
7.966257416704457
 31
0.0
  0
LINE
  5
C6
330
1F
100
AcDbEntity
  8
0
  6
Continuous
 62
     7
370
    15
100
AcDbLine
 10
5.650997244322519
 20
7.966257416704457
 30
0.0
 11
5.565654128107616
 21
7.91808112734145
 31
0.0
  0
LINE
  5
C7
330
1F
100
AcDbEntity
  8
0
  6
Continuous
 62
     7
370
    15
100
AcDbLine
 10
5.565654128107616
 20
7.91808112734145
 30
0.0
 11
5.982453532654958
 21
7.806415960451855
 31
0.0
  0
LWPOLYLINE
  5
C8
330
1F
100
AcDbEntity
  8
0
  6
Continuous
 62
     7
370
    15
100
AcDbPolyline
 90
        3
 70
   128
 43
0.0
 10
5.090482919916583
 20
8.066976141854494
 10
5.094259024496136
 20
8.067474732833259
 10
5.098569950182407
 20
8.066898284466903
  0
LINE
  5
C9
330
1F
100
AcDbEntity
  8
0
  6
Continuous
 62
     7
370
    15
100
AcDbLine
 10
5.650997244322519
 20
7.895216831429264
 30
0.0
 11
5.650997244322519
 21
7.966257416704457
 31
0.0
  0
ARC
  5
CA
330
1F
100
AcDbEntity
  8
0
  6
Continuous
 62
     7
370
    15
100
AcDbCircle
 10
6.962035193539786
 20
7.506153644308707
 30
0.0
 40
0.0369480045884943
100
AcDbArc
 50
356.6363881840862
 51
66.40823735904986
  0
LINE
  5
CB
330
1F
100
AcDbEntity
  8
0
  6
Continuous
 62
     7
370
    15
100
AcDbLine
 10
6.998919547494248
 20
7.383555441312092
 30
0.0
 11
6.998919547494248
 21
7.503985816724846
 31
0.0
  0
LINE
  5
CC
330
1F
100
AcDbEntity
  8
0
  6
Continuous
 62
     7
370
    15
100
AcDbLine
 10
6.092938841106676
 20
7.800495868956094
 30
0.0
 11
6.51502871740549
 21
7.687413326214694
 31
0.0
  0
LINE
  5
CD
330
1F
100
AcDbEntity
  8
0
  6
Continuous
 62
     7
370
    15
100
AcDbLine
 10
6.51502871740549
 20
7.687413326214694
 30
0.0
 11
6.645366135246787
 21
7.699855001193649
 31
0.0
  0
LINE
  5
CE
330
1F
100
AcDbEntity
  8
0
  6
Continuous
 62
     7
370
    15
100
AcDbLine
 10
6.645366135246787
 20
7.699855001193649
 30
0.0
 11
6.560023019031884
 21
7.651678711830641
 31
0.0
  0
LINE
  5
CF
330
1F
100
AcDbEntity
  8
0
  6
Continuous
 62
     7
370
    15
100
AcDbLine
 10
6.560023019031884
 20
7.651678711830641
 30
0.0
 11
6.976822423579227
 21
7.540013544941048
 31
0.0
  0
ARC
  5
D0
330
1F
100
AcDbEntity
  8
0
  6
Continuous
 62
     7
370
    15
100
AcDbCircle
 10
6.97706590308077
 20
7.379995814003703
 30
0.0
 40
0.0221416512646499
100
AcDbArc
 50
290.7471281172997
 51
9.251367204286667
  0
LWPOLYLINE
  5
D1
330
1F
100
AcDbEntity
  8
0
  6
Continuous
 62
     7
370
    15
100
AcDbPolyline
 90
        3
 70
   128
 43
0.0
 10
6.084851810840851
 20
7.800573726343687
 10
6.088627915420404
 20
7.801072317322451
 10
6.092938841106676
 20
7.800495868956094
  0
LINE
  5
D2
330
1F
100
AcDbEntity
  8
0
  6
Continuous
 62
     7
370
    15
100
AcDbLine
 10
6.645366135246787
 20
7.628814415918456
 30
0.0
 11
6.645366135246787
 21
7.699855001193649
 31
0.0
  0
ARC
  5
D3
330
1F
100
AcDbEntity
  8
0
  6
Continuous
 62
     7
370
    15
100
AcDbCircle
 10
3.996151976581708
 20
5.318770854994356
 30
0.0
 40
0.1169453830921955
100
AcDbArc
 50
256.9835476024756
 51
283.0164523975266
  0
ARC
  5
D4
330
1F
100
AcDbEntity
  8
0
  6
Continuous
 62
     7
370
    15
100
AcDbCircle
 10
3.996151976581708
 20
5.680062263839455
 30
0.0
 40
0.1169453830921652
100
AcDbArc
 50
256.9835476024723
 51
283.0164523975301
  0
ARC
  5
D5
330
1F
100
AcDbEntity
  8
0
  6
Continuous
 62
     7
370
    15
100
AcDbCircle
 10
3.996152032556333
 20
5.623392629870244
 30
0.0
 40
0.0549411031066935
100
AcDbArc
 50
256.9835605208896
 51
283.0163751554258
  0
LINE
  5
D6
330
1F
100
AcDbEntity
  8
0
  6
Continuous
 62
     7
370
    15
100
AcDbLine
 10
4.022491682745087
 20
5.566121742049356
 30
0.0
 11
4.008526390863992
 21
5.569863198086841
 31
0.0
  0
LINE
  5
D7
330
1F
100
AcDbEntity
  8
0
  6
Continuous
 62
     7
370
    15
100
AcDbLine
 10
3.96981227041833
 20
5.566121742049356
 30
0.0
 11
3.983777614153324
 21
5.569863211979074
 31
0.0
  0
LINE
  5
D8
330
1F
100
AcDbEntity
  8
0
  6
Continuous
 62
     7
370
    15
100
AcDbLine
 10
3.36544564871447
 20
5.728038239383017
 30
0.0
 11
3.96981227041833
 21
5.566121742049356
 31
0.0
  0
LINE
  5
D9
330
1F
100
AcDbEntity
  8
0
  6
Continuous
 62
     7
370
    15
100
AcDbLine
 10
3.96981227041833
 20
5.204830333204226
 30
0.0
 11
3.36544564871447
 21
5.366746830537887
 31
0.0
  0
LINE
  5
DA
330
1F
100
AcDbEntity
  8
0
  6
Continuous
 62
     7
370
    15
100
AcDbLine
 10
3.379410992449463
 20
5.731779709312736
 30
0.0
 11
3.983777614153324
 21
5.569863211979074
 31
0.0
  0
LINE
  5
DB
330
1F
100
AcDbEntity
  8
0
  6
Continuous
 62
     7
370
    15
100
AcDbLine
 10
4.572479976926343
 20
5.713469684457695
 30
0.0
 11
4.022491682745087
 21
5.566121742049356
 31
0.0
  0
LINE
  5
DC
330
1F
100
AcDbEntity
  8
0
  6
Continuous
 62
     7
370
    15
100
AcDbLine
 10
4.022491682745087
 20
5.204830333204226
 30
0.0
 11
4.572479976926343
 21
5.352178275612566
 31
0.0
  0
LINE
  5
DD
330
1F
100
AcDbEntity
  8
0
  6
Continuous
 62
     7
370
    15
100
AcDbLine
 10
4.558514685045249
 20
5.717211140495181
 30
0.0
 11
4.008526390863992
 21
5.569863198086841
 31
0.0
  0
LINE
  5
DE
330
1F
100
AcDbEntity
  8
0
  6
Continuous
 62
     7
370
    15
100
AcDbLine
 10
4.572479976926343
 20
5.713469684457695
 30
0.0
 11
4.558514685045249
 21
5.717211140495181
 31
0.0
  0
LINE
  5
DF
330
1F
100
AcDbEntity
  8
0
  6
Continuous
 62
     7
370
    15
100
AcDbLine
 10
4.749350253409496
 20
5.672714639549913
 30
0.0
 11
4.597228753637012
 21
5.713469670565463
 31
0.0
  0
LWPOLYLINE
  5
E0
330
1F
100
AcDbEntity
  8
0
  6
Continuous
 62
     7
370
    15
100
AcDbPolyline
 90
       17
 70
   128
 43
0.0
 10
4.749350253409496
 20
5.311423230704783
 10
4.765553144708581
 20
5.322652098804168
 10
4.780170758629867
 20
5.33698719554659
 10
4.792965811734887
 20
5.354195637177994
 10
4.803730681014982
 20
5.373997805794078
 10
4.812290100294013
 20
5.396072208429942
 10
4.818505308540218
 20
5.420060088470668
 10
4.822275294359775
 20
5.445571804150975
 10
4.82353887015273
 20
5.472192984779151
 10
4.822275294359775
 20
5.499491217246935
 10
4.818505308540218
 20
5.527023045311838
 10
4.812290100294013
 20
5.554341171310182
 10
4.803730681014982
 20
5.58100182933915
 10
4.792965811734887
 20
5.606572052859307
 10
4.780170758629867
 20
5.630636366762818
 10
4.765553144708581
 20
5.652803904148098
 10
4.749350253409496
 20
5.672714639549913
  0
LINE
  5
E1
330
1F
100
AcDbEntity
  8
0
  6
Continuous
 62
     7
370
    15
100
AcDbLine
 10
4.597228753637012
 20
5.352178261720333
 30
0.0
 11
4.749350253409496
 21
5.311423230704783
 31
0.0
  0
LINE
  5
E2
330
1F
100
AcDbEntity
  8
0
  6
Continuous
 62
     7
370
    15
100
AcDbLine
 10
4.763315623071439
 20
5.676456116425748
 30
0.0
 11
4.749350253409496
 21
5.672714639549913
 31
0.0
  0
LWPOLYLINE
  5
E3
330
1F
100
AcDbEntity
  8
0
  6
Continuous
 62
     7
370
    15
100
AcDbPolyline
 90
       17
 70
   128
 43
0.0
 10
4.763315623071439
 20
5.315164707580618
 10
4.779518514370524
 20
5.326393575680002
 10
4.794136128291809
 20
5.340728672422423
 10
4.806931181396829
 20
5.357937114053829
 10
4.817696050676924
 20
5.377739282669914
 10
4.826255469955955
 20
5.399813685305778
 10
4.83247067820216
 20
5.423801565346503
 10
4.836240664021717
 20
5.449313281026809
 10
4.837504239814673
 20
5.475934461654986
 10
4.836240664021717
 20
5.503232694122769
 10
4.83247067820216
 20
5.530764522187672
 10
4.826255469955955
 20
5.558082648186018
 10
4.817696050676924
 20
5.584743306214986
 10
4.806931181396829
 20
5.610313529735141
 10
4.794136128291809
 20
5.634377843638652
 10
4.779518514370524
 20
5.656545381023931
 10
4.763315623071439
 20
5.676456116425748
  0
LINE
  5
E4
330
1F
100
AcDbEntity
  8
0
  6
Continuous
 62
     7
370
    15
100
AcDbLine
 10
4.763315623071439
 20
5.315164707580618
 30
0.0
 11
4.749350253409496
 21
5.311423230704783
 31
0.0
  0
LINE
  5
E5
330
1F
100
AcDbEntity
  8
0
  6
Continuous
 62
     7
370
    15
100
AcDbLine
 10
4.597228753637012
 20
5.713469670565463
 30
0.0
 11
4.611194123298955
 21
5.717211147441298
 31
0.0
  0
LINE
  5
E6
330
1F
100
AcDbEntity
  8
0
  6
Continuous
 62
     7
370
    15
100
AcDbLine
 10
4.763315623071439
 20
5.676456116425748
 30
0.0
 11
4.611194123298955
 21
5.717211147441298
 31
0.0
  0
ARC
  5
E7
330
1F
100
AcDbEntity
  8
0
  6
Continuous
 62
     7
370
    15
100
AcDbCircle
 10
4.584854335234091
 20
5.298649004560841
 30
0.0
 40
0.0549409465049302
100
AcDbArc
 50
76.98352276763618
 51
103.0164129086727
  0
ARC
  5
E8
330
1F
100
AcDbEntity
  8
0
  6
Continuous
 62
     7
370
    15
100
AcDbCircle
 10
4.584854335234093
 20
5.659940413405963
 30
0.0
 40
0.0549409465049376
100
AcDbArc
 50
76.98352276764078
 51
103.0164129086738
  0
ARC
  5
E9
330
1F
100
AcDbEntity
  8
0
  6
Continuous
 62
     7
370
    15
100
AcDbCircle
 10
4.584854419195887
 20
5.603270582543757
 30
0.0
 40
0.1169454246279354
100
AcDbArc
 50
76.98355334280542
 51
103.016461766818
  0
LWPOLYLINE
  5
EA
330
1F
100
AcDbEntity
  8
0
  6
Continuous
 62
     7
370
    15
100
AcDbPolyline
 90
        9
 70
   128
 43
0.0
 10
3.365445545006674
 20
5.74215166393565
 10
3.36081312515115
 20
5.740639355513546
 10
3.35737075226084
 20
5.738914023599394
 10
3.355251120461406
 20
5.737041892465176
 10
3.354535277395839
 20
5.735094965551565
 10
3.355251120461406
 20
5.73314801085349
 10
3.357370855968636
 20
5.731275879719272
 10
3.360813021443354
 20
5.72955054780512
 10
3.36544564871447
 20
5.728038239383017
  0
LWPOLYLINE
  5
EB
330
1F
100
AcDbEntity
  8
0
  6
Continuous
 62
     7
370
    15
100
AcDbPolyline
 90
        5
 70
   128
 43
0.0
 10
3.36544564871447
 20
5.366746830537887
 10
3.360813021443354
 20
5.368259138959991
 10
3.357370855968636
 20
5.369984470874142
 10
3.355251120461406
 20
5.371856602008361
 10
3.354535277395839
 20
5.373803556706437
  0
LWPOLYLINE
  5
EC
330
1F
100
AcDbEntity
  8
0
  6
Continuous
 62
     7
370
    15
100
AcDbPolyline
 90
        9
 70
   128
 43
0.0
 10
3.379410940595565
 20
5.738410180113699
 10
3.377234632485326
 20
5.73769970356287
 10
3.375617464960093
 20
5.736889133477398
 10
3.37462155898999
 20
5.736009616242387
 10
3.37428533831363
 20
5.735094951659333
 10
3.374621558989989
 20
5.73418028707628
 10
3.375617413106195
 20
5.733300755949035
 10
3.377234580631428
 20
5.732490213648028
 10
3.379410992449463
 20
5.731779709312736
  0
LINE
  5
ED
330
1F
100
AcDbEntity
  8
0
  6
Continuous
 62
     7
370
    15
100
AcDbLine
 10
3.386045750586542
 20
5.740187719037315
 30
0.0
 11
3.379410940595565
 21
5.738410180113699
 31
0.0
  0
LINE
  5
EE
330
1F
100
AcDbEntity
  8
0
  6
Continuous
 62
     7
370
    15
100
AcDbLine
 10
3.386045698732643
 20
5.747670672788985
 30
0.0
 11
3.365445545006674
 21
5.74215166393565
 31
0.0
  0
ARC
  5
EF
330
1F
100
AcDbEntity
  8
0
  6
Continuous
 62
     7
370
    15
100
AcDbCircle
 10
3.996152032556333
 20
4.961025105863942
 30
0.0
 40
0.0549411031066969
100
AcDbArc
 50
256.9835605208905
 51
283.016375155425
  0
LINE
  5
F0
330
1F
100
AcDbEntity
  8
0
  6
Continuous
 62
     7
370
    15
100
AcDbLine
 10
4.022491682745087
 20
4.903754218043049
 30
0.0
 11
4.008526390863992
 21
4.907495674080536
 31
0.0
  0
ARC
  5
F1
330
1F
100
AcDbEntity
  8
0
  6
Continuous
 62
     7
370
    15
100
AcDbCircle
 10
3.996151976581708
 20
5.01769473983318
 30
0.0
 40
0.1169453830921955
100
AcDbArc
 50
256.9835476024756
 51
283.0164523975266
  0
LINE
  5
F2
330
1F
100
AcDbEntity
  8
0
  6
Continuous
 62
     7
370
    15
100
AcDbLine
 10
3.96981227041833
 20
4.903754218043049
 30
0.0
 11
3.983777614153324
 21
4.907495687972768
 31
0.0
  0
ARC
  5
F3
330
1F
100
AcDbEntity
  8
0
  6
Continuous
 62
     7
370
    15
100
AcDbCircle
 10
3.996151976581708
 20
4.656403375145344
 30
0.0
 40
0.1169453830921652
100
AcDbArc
 50
256.9835476024723
 51
283.0164523975301
  0
LINE
  5
F4
330
1F
100
AcDbEntity
  8
0
  6
Continuous
 62
     7
370
    15
100
AcDbLine
 10
3.379410992449463
 20
5.069412185306429
 30
0.0
 11
3.983777614153324
 21
4.907495687972768
 31
0.0
  0
LINE
  5
F5
330
1F
100
AcDbEntity
  8
0
  6
Continuous
 62
     7
370
    15
100
AcDbLine
 10
3.36544564871447
 20
5.065670715376711
 30
0.0
 11
3.96981227041833
 21
4.903754218043049
 31
0.0
  0
LINE
  5
F6
330
1F
100
AcDbEntity
  8
0
  6
Continuous
 62
     7
370
    15
100
AcDbLine
 10
3.96981227041833
 20
4.542462853355244
 30
0.0
 11
3.36544564871447
 21
4.704379350688905
 31
0.0
  0
LINE
  5
F7
330
1F
100
AcDbEntity
  8
0
  6
Continuous
 62
     7
370
    15
100
AcDbLine
 10
4.558514685045249
 20
5.054843616488875
 30
0.0
 11
4.008526390863992
 21
4.907495674080536
 31
0.0
  0
LINE
  5
F8
330
1F
100
AcDbEntity
  8
0
  6
Continuous
 62
     7
370
    15
100
AcDbLine
 10
4.572479976926343
 20
5.05110216045139
 30
0.0
 11
4.558514685045249
 21
5.054843616488875
 31
0.0
  0
LINE
  5
F9
330
1F
100
AcDbEntity
  8
0
  6
Continuous
 62
     7
370
    15
100
AcDbLine
 10
4.572479976926343
 20
5.05110216045139
 30
0.0
 11
4.022491682745087
 21
4.903754218043049
 31
0.0
  0
LINE
  5
FA
330
1F
100
AcDbEntity
  8
0
  6
Continuous
 62
     7
370
    15
100
AcDbLine
 10
4.022491682745087
 20
4.542462853355244
 30
0.0
 11
4.572479976926343
 21
4.689810795763584
 31
0.0
  0
LINE
  5
FB
330
1F
100
AcDbEntity
  8
0
  6
Continuous
 62
     7
370
    15
100
AcDbLine
 10
4.749350253409496
 20
5.010347115543608
 30
0.0
 11
4.597228753637012
 21
5.051102146559157
 31
0.0
  0
LWPOLYLINE
  5
FC
330
1F
100
AcDbEntity
  8
0
  6
Continuous
 62
     7
370
    15
100
AcDbPolyline
 90
       17
 70
   128
 43
0.0
 10
4.749350253409496
 20
4.649055750855802
 10
4.765553144708581
 20
4.660284610123722
 10
4.780170758629867
 20
4.674619706866143
 10
4.792965811734887
 20
4.691828148497547
 10
4.803730681014982
 20
4.711630334776562
 10
4.812290100294013
 20
4.733704684423637
 10
4.818505308540218
 20
4.757692564464362
 10
4.822275294359775
 20
4.783204297807599
 10
4.82353887015273
 20
4.809825496098704
 10
4.822275294359775
 20
4.837123728566488
 10
4.818505308540218
 20
4.864655521305532
 10
4.812290100294013
 20
4.891973611978018
 10
4.803730681014982
 20
4.918634305332845
 10
4.792965811734887
 20
4.94420456417886
 10
4.780170758629867
 20
4.968268842756512
 10
4.765553144708581
 20
4.990436415467652
 10
4.749350253409496
 20
5.010347115543608
  0
LINE
  5
FD
330
1F
100
AcDbEntity
  8
0
  6
Continuous
 62
     7
370
    15
100
AcDbLine
 10
4.597228753637012
 20
4.689810781871352
 30
0.0
 11
4.749350253409496
 21
4.649055750855802
 31
0.0
  0
LINE
  5
FE
330
1F
100
AcDbEntity
  8
0
  6
Continuous
 62
     7
370
    15
100
AcDbLine
 10
4.763315623071439
 20
5.014088592419442
 30
0.0
 11
4.749350253409496
 21
5.010347115543608
 31
0.0
  0
LWPOLYLINE
  5
FF
330
1F
100
AcDbEntity
  8
0
  6
Continuous
 62
     7
370
    15
100
AcDbPolyline
 90
       17
 70
   128
 43
0.0
 10
4.763315623071439
 20
4.652797227731636
 10
4.779518514370524
 20
4.664026086999556
 10
4.794136128291809
 20
4.678361183741977
 10
4.806931181396829
 20
4.695569625373382
 10
4.817696050676924
 20
4.715371811652397
 10
4.826255469955955
 20
4.737446161299472
 10
4.83247067820216
 20
4.761434041340198
 10
4.836240664021717
 20
4.786945774683434
 10
4.837504239814673
 20
4.813566972974539
 10
4.836240664021717
 20
4.840865205442322
 10
4.83247067820216
 20
4.868396998181366
 10
4.826255469955955
 20
4.895715088853853
 10
4.817696050676924
 20
4.92237578220868
 10
4.806931181396829
 20
4.947946041054695
 10
4.794136128291809
 20
4.972010319632347
 10
4.779518514370524
 20
4.994177892343486
 10
4.763315623071439
 20
5.014088592419442
  0
LINE
  5
100
330
1F
100
AcDbEntity
  8
0
  6
Continuous
 62
     7
370
    15
100
AcDbLine
 10
4.763315623071439
 20
4.652797227731636
 30
0.0
 11
4.749350253409496
 21
4.649055750855802
 31
0.0
  0
LINE
  5
101
330
1F
100
AcDbEntity
  8
0
  6
Continuous
 62
     7
370
    15
100
AcDbLine
 10
4.597228753637012
 20
5.051102146559157
 30
0.0
 11
4.611194123298955
 21
5.054843623434993
 31
0.0
  0
LINE
  5
102
330
1F
100
AcDbEntity
  8
0
  6
Continuous
 62
     7
370
    15
100
AcDbLine
 10
4.763315623071439
 20
5.014088592419442
 30
0.0
 11
4.611194123298955
 21
5.054843623434993
 31
0.0
  0
ARC
  5
103
330
1F
100
AcDbEntity
  8
0
  6
Continuous
 62
     7
370
    15
100
AcDbCircle
 10
4.584854335234093
 20
4.997572889399658
 30
0.0
 40
0.0549409465049367
100
AcDbArc
 50
76.98352276764056
 51
103.016412908674
  0
ARC
  5
104
330
1F
100
AcDbEntity
  8
0
  6
Continuous
 62
     7
370
    15
100
AcDbCircle
 10
4.584854419195887
 20
4.940903058537441
 30
0.0
 40
0.1169454246279458
100
AcDbArc
 50
76.9835533428066
 51
103.0164617668168
  0
ARC
  5
105
330
1F
100
AcDbEntity
  8
0
  6
Continuous
 62
     7
370
    15
100
AcDbCircle
 10
4.584854335234093
 20
4.636281524711868
 30
0.0
 40
0.054940946504922
100
AcDbArc
 50
76.98352276763703
 51
103.0164129086775
  0
LWPOLYLINE
  5
106
330
1F
100
AcDbEntity
  8
0
  6
Continuous
 62
     7
370
    15
100
AcDbPolyline
 90
        9
 70
   128
 43
0.0
 10
3.379410940595565
 20
5.076042656107393
 10
3.377234632485326
 20
5.075332179556564
 10
3.375617464960093
 20
5.074521609471092
 10
3.37462155898999
 20
5.073642092236081
 10
3.37428533831363
 20
5.072727427653028
 10
3.374621558989989
 20
5.071812763069974
 10
3.375617413106195
 20
5.07093323194273
 10
3.377234580631428
 20
5.070122689641722
 10
3.379410992449463
 20
5.069412185306429
  0
LWPOLYLINE
  5
107
330
1F
100
AcDbEntity
  8
0
  6
Continuous
 62
     7
370
    15
100
AcDbPolyline
 90
        9
 70
   128
 43
0.0
 10
3.365445545006674
 20
5.079784139929344
 10
3.36081312515115
 20
5.07827183150724
 10
3.35737075226084
 20
5.076546499593088
 10
3.355251120461406
 20
5.074674368458869
 10
3.354535277395839
 20
5.07272744154526
 10
3.355251120461406
 20
5.070780486847184
 10
3.357370855968636
 20
5.068908355712966
 10
3.360813021443354
 20
5.067183023798814
 10
3.36544564871447
 20
5.065670715376711
  0
LWPOLYLINE
  5
108
330
1F
100
AcDbEntity
  8
0
  6
Continuous
 62
     7
370
    15
100
AcDbPolyline
 90
        5
 70
   128
 43
0.0
 10
3.36544564871447
 20
4.704379350688905
 10
3.360813021443354
 20
4.705891659111008
 10
3.357370855968636
 20
4.707616991025161
 10
3.355251120461406
 20
4.709489122159379
 10
3.354535277395839
 20
4.711436076857454
  0
LINE
  5
109
330
1F
100
AcDbEntity
  8
0
  6
Continuous
 62
     7
370
    15
100
AcDbLine
 10
3.386045750586542
 20
5.07782019503101
 30
0.0
 11
3.379410940595565
 21
5.076042656107393
 31
0.0
  0
LINE
  5
10A
330
1F
100
AcDbEntity
  8
0
  6
Continuous
 62
     7
370
    15
100
AcDbLine
 10
3.386045698732643
 20
5.08530314878268
 30
0.0
 11
3.365445545006674
 21
5.079784139929344
 31
0.0
  0
LINE
  5
10B
330
1F
100
AcDbEntity
  8
0
  6
Continuous
 62
     7
370
    15
100
AcDbLine
 10
3.386045698732643
 20
4.585912854583537
 30
0.0
 11
3.977142804162347
 21
4.427551407312645
 31
0.0
  0
LINE
  5
10C
330
1F
100
AcDbEntity
  8
0
  6
Continuous
 62
     7
370
    15
100
AcDbLine
 10
3.386045698732643
 20
10.24614417287224
 30
0.0
 11
3.386045698732643
 21
5.730002198173583
 31
0.0
  0
LINE
  5
10D
330
1F
100
AcDbEntity
  8
0
  6
Continuous
 62
     7
370
    15
100
AcDbLine
 10
3.386045698732643
 20
5.361227853896818
 30
0.0
 11
3.386045698732643
 21
5.067634674167277
 31
0.0
  0
LINE
  5
10E
330
1F
100
AcDbEntity
  8
0
  6
Continuous
 62
     7
370
    15
100
AcDbLine
 10
3.386045698732643
 20
4.698860365216371
 30
0.0
 11
3.386045698732643
 21
4.585912854583537
 31
0.0
  0
LINE
  5
10F
330
1F
100
AcDbEntity
  8
0
  6
Continuous
 62
     7
370
    15
100
AcDbLine
 10
3.386045698732643
 20
10.24614417287224
 30
0.0
 11
3.644571605163283
 21
10.17688222534567
 31
0.0
  0
LINE
  5
110
330
1F
100
AcDbEntity
  8
0
  6
Continuous
 62
     7
370
    15
100
AcDbLine
 10
3.644571605163283
 20
10.17688222534567
 30
0.0
 11
3.681594251447495
 21
10.28739410725642
 31
0.0
  0
LINE
  5
111
330
1F
100
AcDbEntity
  8
0
  6
Continuous
 62
     7
370
    15
100
AcDbLine
 10
3.681594251447495
 20
10.28739410725642
 30
0.0
 11
3.735897313036768
 21
10.0922000124839
 31
0.0
  0
LINE
  5
112
330
1F
100
AcDbEntity
  8
0
  6
Continuous
 62
     7
370
    15
100
AcDbLine
 10
3.735897313036768
 20
10.0922000124839
 30
0.0
 11
3.977142804162347
 21
10.02756767919841
 31
0.0
  0
LINE
  5
113
330
1F
100
AcDbEntity
  8
0
  6
Continuous
 62
     7
370
    15
100
AcDbLine
 10
3.977142804162347
 20
10.02756767919841
 30
0.0
 11
3.977142804162347
 21
5.57164075090269
 31
0.0
  0
LINE
  5
114
330
1F
100
AcDbEntity
  8
0
  6
Continuous
 62
     7
370
    15
100
AcDbLine
 10
3.977142804162347
 20
5.203304659234032
 30
0.0
 11
3.977142804162347
 21
4.909273226896385
 31
0.0
  0
LINE
  5
115
330
1F
100
AcDbEntity
  8
0
  6
Continuous
 62
     7
370
    15
100
AcDbLine
 10
3.977142804162347
 20
4.540937144059191
 30
0.0
 11
3.977142804162347
 21
4.427551407312645
 31
0.0
  0
LINE
  5
116
330
1F
100
AcDbEntity
  8
0
  6
Continuous
 62
     7
370
    15
100
AcDbLine
 10
3.977142804162347
 20
4.427551407312645
 30
0.0
 11
4.568239883665104
 21
4.585912847637421
 31
0.0
  0
LINE
  5
117
330
1F
100
AcDbEntity
  8
0
  6
Continuous
 62
     7
370
    15
100
AcDbLine
 10
4.568239883665104
 20
10.18592911952318
 30
0.0
 11
3.977142804162347
 21
10.02756767919841
 31
0.0
  0
LINE
  5
118
330
1F
100
AcDbEntity
  8
0
  6
Continuous
 62
     7
370
    15
100
AcDbLine
 10
4.568239883665104
 20
10.18592911952318
 30
0.0
 11
4.568239883665104
 21
5.719086430111048
 31
0.0
  0
LINE
  5
119
330
1F
100
AcDbEntity
  8
0
  6
Continuous
 62
     7
370
    15
100
AcDbLine
 10
4.568239883665104
 20
5.351042341993785
 30
0.0
 11
4.568239883665104
 21
5.056718941430602
 31
0.0
  0
LINE
  5
11A
330
1F
100
AcDbEntity
  8
0
  6
Continuous
 62
     7
370
    15
100
AcDbLine
 10
4.568239883665104
 20
4.688674826818945
 30
0.0
 11
4.568239883665104
 21
4.585912847637421
 31
0.0
  0
LINE
  5
11B
330
1F
100
AcDbEntity
  8
0
  6
Continuous
 62
     7
370
    15
100
AcDbLine
 10
4.326994392539524
 20
10.25056145280867
 30
0.0
 11
3.735897313036768
 21
10.0922000124839
 31
0.0
  0
LINE
  5
11C
330
1F
100
AcDbEntity
  8
0
  6
Continuous
 62
     7
370
    15
100
AcDbLine
 10
4.326994392539524
 20
10.25056145280867
 30
0.0
 11
4.568239883665104
 21
10.18592911952318
 31
0.0
  0
LINE
  5
11D
330
1F
100
AcDbEntity
  8
0
  6
Continuous
 62
     7
370
    15
100
AcDbLine
 10
4.272691330950252
 20
10.44575554758119
 30
0.0
 11
3.681594251447495
 21
10.28739410725642
 31
0.0
  0
LINE
  5
11E
330
1F
100
AcDbEntity
  8
0
  6
Continuous
 62
     7
370
    15
100
AcDbLine
 10
4.272691330950252
 20
10.44575554758119
 30
0.0
 11
4.326994392539524
 21
10.25056145280867
 31
0.0
  0
LINE
  5
11F
330
1F
100
AcDbEntity
  8
0
  6
Continuous
 62
     7
370
    15
100
AcDbLine
 10
3.9771427782354
 20
10.40450561319701
 30
0.0
 11
3.386045698732643
 21
10.24614417287224
 31
0.0
  0
LINE
  5
120
330
1F
100
AcDbEntity
  8
0
  6
Continuous
 62
     7
370
    15
100
AcDbLine
 10
3.9771427782354
 20
10.40450561319701
 30
0.0
 11
4.04793309790185
 21
10.38554010419321
 31
0.0
  0
LINE
  5
121
330
1F
100
AcDbEntity
  8
0
  6
Continuous
 62
     7
370
    15
100
AcDbLine
 10
2.270142885545251
 20
10.01881683948743
 30
0.0
 11
1.839407953254419
 21
10.1342154882731
 31
0.0
  0
LINE
  5
122
330
1F
100
AcDbEntity
  8
0
  6
Continuous
 62
     7
370
    15
100
AcDbLine
 10
5.80567674875037
 20
4.254389835494089
 30
0.0
 11
4.568239883665104
 21
6.271939233843443
 31
0.0
  0
LINE
  5
123
330
1F
100
AcDbEntity
  8
0
  6
Continuous
 62
     7
370
    15
100
AcDbLine
 10
3.386045776513493
 20
8.199419537499675
 30
0.0
 11
2.270142885545251
 21
10.01881683948743
 31
0.0
  0
LINE
  5
124
330
1F
100
AcDbEntity
  8
0
  6
Continuous
 62
     7
370
    15
100
AcDbLine
 10
2.930676768334958
 20
5.02463410436324
 30
0.0
 11
3.35453532924974
 21
4.911077711465956
 31
0.0
  0
LINE
  5
125
330
1F
100
AcDbEntity
  8
0
  6
Continuous
 62
     7
370
    15
100
AcDbLine
 10
4.568239883665104
 20
4.58591284763742
 30
0.0
 11
5.80567674875037
 21
4.254389835494089
 31
0.0
  0
LINE
  5
126
330
1F
100
AcDbEntity
  8
0
  6
Continuous
 62
     7
370
    15
100
AcDbLine
 10
1.927796241498912
 20
6.659756720008708
 30
0.0
 11
2.930676768334958
 21
5.02463410436324
 31
0.0
  0
LINE
  5
127
330
1F
100
AcDbEntity
  8
0
  6
Continuous
 62
     7
370
    15
100
AcDbLine
 10
1.927796241498912
 20
6.659756720008708
 30
0.0
 11
1.927796241498912
 21
8.619149299558028
 31
0.0
  0
LINE
  5
128
330
1F
100
AcDbEntity
  8
0
  6
Continuous
 62
     7
370
    15
100
AcDbLine
 10
1.927796241498912
 20
8.619149299558028
 30
0.0
 11
1.627433158037825
 21
8.861888233883355
 31
0.0
  0
LINE
  5
129
330
1F
100
AcDbEntity
  8
0
  6
Continuous
 62
     7
370
    15
100
AcDbLine
 10
1.627433158037825
 20
8.861888233883355
 30
0.0
 11
1.839407953254419
 21
8.929910886324957
 31
0.0
  0
LINE
  5
12A
330
1F
100
AcDbEntity
  8
0
  6
Continuous
 62
     7
370
    15
100
AcDbLine
 10
1.839407953254419
 20
8.929910886324957
 30
0.0
 11
1.839407953254419
 21
10.1342154882731
 31
0.0
  0
LINE
  5
12B
330
1F
100
AcDbEntity
  8
0
  6
Continuous
 62
     7
370
    15
100
AcDbLine
 10
5.80567674875037
 20
4.254389835494089
 30
0.0
 11
6.070841794972492
 21
4.325430481945677
 31
0.0
  0
LINE
  5
12C
330
1F
100
AcDbEntity
  8
0
  6
Continuous
 62
     7
370
    15
100
AcDbLine
 10
2.270142885545251
 20
10.01881683948743
 30
0.0
 11
2.535307931767373
 21
10.08985748593902
 31
0.0
  0
LINE
  5
12D
330
1F
100
AcDbEntity
  8
0
  6
Continuous
 62
     7
370
    15
100
AcDbLine
 10
6.070841794972492
 20
4.325430481945677
 30
0.0
 11
4.568239857738156
 21
6.775311942537863
 31
0.0
  0
LINE
  5
12E
330
1F
100
AcDbEntity
  8
0
  6
Continuous
 62
     7
370
    15
100
AcDbLine
 10
3.386045750586545
 20
8.702792246194096
 30
0.0
 11
2.535307931767373
 21
10.08985748593902
 31
0.0
  0
LINE
  5
12F
330
1F
100
AcDbEntity
  8
0
  6
Continuous
 62
     7
370
    15
100
AcDbLine
 10
2.104572999476541
 20
10.20525613472468
 30
0.0
 11
1.839407953254419
 21
10.1342154882731
 31
0.0
  0
LINE
  5
130
330
1F
100
AcDbEntity
  8
0
  6
Continuous
 62
     7
370
    15
100
AcDbLine
 10
2.535307931767373
 20
10.08985748593902
 30
0.0
 11
2.104572999476541
 21
10.20525613472468
 31
0.0
  0
LINE
  5
131
330
1F
100
AcDbEntity
  8
0
  6
Continuous
 62
     8
370
    15
100
AcDbLine
 10
4.56823988366511
 20
7.42753249418708
 30
0.0
 11
5.982453532654958
 21
7.806415960451855
 31
0.0
  0
LINE
  5
132
330
1F
100
AcDbEntity
  8
0
  6
Continuous
 62
     8
370
    15
100
AcDbLine
 10
5.098569950182407
 20
8.066898284466903
 30
0.0
 11
4.568240013299858
 21
7.924817033240424
 31
0.0
  0
LINE
  5
133
330
1F
100
AcDbEntity
  8
0
  6
Continuous
 62
     8
370
    15
100
AcDbLine
 10
6.998919547494248
 20
7.503985816724846
 30
0.0
 11
4.568239916073792
 21
6.85277987992061
 31
0.0
  0
LINE
  5
134
330
1F
100
AcDbEntity
  8
0
  6
Continuous
 62
     8
370
    15
100
AcDbLine
 10
4.568239883665105
 20
6.894727663165466
 30
0.0
 11
6.976822423579227
 21
7.540013544941048
 31
0.0
  0
LINE
  5
135
330
1F
100
AcDbEntity
  8
0
  6
Continuous
 62
     8
370
    15
100
AcDbLine
 10
4.590871517563456
 20
6.738412760668377
 30
0.0
 11
6.998919547494248
 21
7.383555441312092
 31
0.0
  0
LINE
  5
136
330
1F
100
AcDbEntity
  8
0
  6
Continuous
 62
     8
370
    15
100
AcDbLine
 10
6.092938841106676
 20
7.800495868956094
 30
0.0
 11
4.568239883665109
 21
7.392012167488228
 31
0.0
  0
LINE
  5
137
330
1F
100
AcDbEntity
  8
0
  6
Continuous
 62
     8
370
    15
100
AcDbLine
 10
3.96981227041833
 20
5.204830333204226
 30
0.0
 11
3.96981227041833
 21
5.566121742049356
 31
0.0
  0
LINE
  5
138
330
1F
100
AcDbEntity
  8
0
  6
Continuous
 62
     8
370
    15
100
AcDbLine
 10
4.022491682745087
 20
5.204830333204226
 30
0.0
 11
4.022491682745087
 21
5.566121742049356
 31
0.0
  0
LINE
  5
139
330
1F
100
AcDbEntity
  8
0
  6
Continuous
 62
     8
370
    15
100
AcDbLine
 10
3.36544564871447
 20
5.366746830537887
 30
0.0
 11
3.36544564871447
 21
5.728038239383017
 31
0.0
  0
LINE
  5
13A
330
1F
100
AcDbEntity
  8
0
  6
Continuous
 62
     8
370
    15
100
AcDbLine
 10
3.36544564871447
 20
5.728038239383017
 30
0.0
 11
3.379410992449463
 21
5.731779709312736
 31
0.0
  0
LINE
  5
13B
330
1F
100
AcDbEntity
  8
0
  6
Continuous
 62
     8
370
    15
100
AcDbLine
 10
4.572479976926343
 20
5.352178275612566
 30
0.0
 11
4.572479976926343
 21
5.713469684457695
 31
0.0
  0
LINE
  5
13C
330
1F
100
AcDbEntity
  8
0
  6
Continuous
 62
     8
370
    15
100
AcDbLine
 10
4.597228753637012
 20
5.352178261720333
 30
0.0
 11
4.597228753637012
 21
5.713469670565463
 31
0.0
  0
LINE
  5
13D
330
1F
100
AcDbEntity
  8
0
  6
Continuous
 62
     8
370
    15
100
AcDbLine
 10
3.365445545006674
 20
5.74215166393565
 30
0.0
 11
3.379410940595565
 21
5.738410180113699
 31
0.0
  0
LINE
  5
13E
330
1F
100
AcDbEntity
  8
0
  6
Continuous
 62
     8
370
    15
100
AcDbLine
 10
3.379410940595565
 20
5.731779728314083
 30
0.0
 11
3.379410940595565
 21
5.738410180113699
 31
0.0
  0
LINE
  5
13F
330
1F
100
AcDbEntity
  8
0
  6
Continuous
 62
     8
370
    15
100
AcDbLine
 10
3.96981227041833
 20
4.542462853355244
 30
0.0
 11
3.96981227041833
 21
4.903754218043049
 31
0.0
  0
LINE
  5
140
330
1F
100
AcDbEntity
  8
0
  6
Continuous
 62
     8
370
    15
100
AcDbLine
 10
4.022491682745087
 20
4.542462853355244
 30
0.0
 11
4.022491682745087
 21
4.903754218043049
 31
0.0
  0
LINE
  5
141
330
1F
100
AcDbEntity
  8
0
  6
Continuous
 62
     8
370
    15
100
AcDbLine
 10
3.36544564871447
 20
5.065670715376711
 30
0.0
 11
3.379410992449463
 21
5.069412185306429
 31
0.0
  0
LINE
  5
142
330
1F
100
AcDbEntity
  8
0
  6
Continuous
 62
     8
370
    15
100
AcDbLine
 10
3.36544564871447
 20
4.704379350688905
 30
0.0
 11
3.36544564871447
 21
5.065670715376711
 31
0.0
  0
LINE
  5
143
330
1F
100
AcDbEntity
  8
0
  6
Continuous
 62
     8
370
    15
100
AcDbLine
 10
4.572479976926343
 20
4.689810795763584
 30
0.0
 11
4.572479976926343
 21
5.05110216045139
 31
0.0
  0
LINE
  5
144
330
1F
100
AcDbEntity
  8
0
  6
Continuous
 62
     8
370
    15
100
AcDbLine
 10
4.597228753637012
 20
4.689810781871352
 30
0.0
 11
4.597228753637012
 21
5.051102146559157
 31
0.0
  0
LINE
  5
145
330
1F
100
AcDbEntity
  8
0
  6
Continuous
 62
     8
370
    15
100
AcDbLine
 10
3.365445545006674
 20
5.079784139929344
 30
0.0
 11
3.379410940595565
 21
5.076042656107393
 31
0.0
  0
LINE
  5
146
330
1F
100
AcDbEntity
  8
0
  6
Continuous
 62
     8
370
    15
100
AcDbLine
 10
3.379410940595565
 20
5.069412204307777
 30
0.0
 11
3.379410940595565
 21
5.076042656107393
 31
0.0
  0
TEXT
  5
14E
330
1F
100
AcDbEntity
  8
0
100
AcDbText
 10
3.507290252783974
 20
3.25343249226308
 30
0.0
 40
0.25
  1
USP  SDPT
100
AcDbText
  0
TEXT
  5
14F
330
1F
100
AcDbEntity
  8
0
100
AcDbText
 10
2.582050606316769
 20
2.709445565137837
 30
0.0
 40
0.25
  1
SIMPSON  DPTZ
100
AcDbText
  0
ENDSEC
  0
SECTION
  2
OBJECTS
  0
DICTIONARY
  5
C
330
0
100
AcDbDictionary
281
     1
  3
ACAD_COLOR
350
14B
  3
ACAD_GROUP
350
D
  3
ACAD_LAYOUT
350
1A
  3
ACAD_MATERIAL
350
14A
  3
ACAD_MLINESTYLE
350
17
  3
ACAD_PLOTSETTINGS
350
19
  3
ACAD_PLOTSTYLENAME
350
E
  0
DICTIONARY
  5
14B
102
{ACAD_REACTORS
330
C
102
}
330
C
100
AcDbDictionary
281
     1
  0
DICTIONARY
  5
D
102
{ACAD_REACTORS
330
C
102
}
330
C
100
AcDbDictionary
281
     1
  0
DICTIONARY
  5
1A
102
{ACAD_REACTORS
330
C
102
}
330
C
100
AcDbDictionary
281
     1
  3
Layout1
350
1E
  3
Layout2
350
26
  3
Model
350
22
  0
DICTIONARY
  5
14A
102
{ACAD_REACTORS
330
C
102
}
330
C
100
AcDbDictionary
281
     1
  0
DICTIONARY
  5
17
102
{ACAD_REACTORS
330
C
102
}
330
C
100
AcDbDictionary
281
     1
  3
Standard
350
18
  0
DICTIONARY
  5
19
102
{ACAD_REACTORS
330
C
102
}
330
C
100
AcDbDictionary
281
     1
  0
ACDBDICTIONARYWDFLT
  5
E
102
{ACAD_REACTORS
330
C
102
}
330
C
100
AcDbDictionary
281
     1
  3
Normal
350
F
100
AcDbDictionaryWithDefault
340
F
  0
LAYOUT
  5
1E
102
{ACAD_REACTORS
330
1A
102
}
330
1A
100
AcDbPlotSettings
  1

  2
none_device
  4

  6

 40
0.0
 41
0.0
 42
0.0
 43
0.0
 44
0.0
 45
0.0
 46
0.0
 47
0.0
 48
0.0
 49
0.0
140
0.0
141
0.0
142
1.0
143
1.0
 70
   688
 72
     0
 73
     0
 74
     5
  7

 75
    16
147
1.0
 76
     0
 77
     2
 78
   300
148
0.0
149
0.0
100
AcDbLayout
  1
Layout1
 70
     1
 71
     1
 10
0.0
 20
0.0
 11
12.0
 21
9.0
 12
0.0
 22
0.0
 32
0.0
 14
1.000000000000000E+20
 24
1.000000000000000E+20
 34
1.000000000000000E+20
 15
-1.000000000000000E+20
 25
-1.000000000000000E+20
 35
-1.000000000000000E+20
146
0.0
 13
0.0
 23
0.0
 33
0.0
 16
1.0
 26
0.0
 36
0.0
 17
0.0
 27
1.0
 37
0.0
 76
     0
330
1B
  0
LAYOUT
  5
26
102
{ACAD_REACTORS
330
1A
102
}
330
1A
100
AcDbPlotSettings
  1

  2
none_device
  4

  6

 40
0.0
 41
0.0
 42
0.0
 43
0.0
 44
0.0
 45
0.0
 46
0.0
 47
0.0
 48
0.0
 49
0.0
140
0.0
141
0.0
142
1.0
143
1.0
 70
   688
 72
     0
 73
     0
 74
     5
  7

 75
    16
147
1.0
 76
     0
 77
     2
 78
   300
148
0.0
149
0.0
100
AcDbLayout
  1
Layout2
 70
     1
 71
     2
 10
0.0
 20
0.0
 11
0.0
 21
0.0
 12
0.0
 22
0.0
 32
0.0
 14
0.0
 24
0.0
 34
0.0
 15
0.0
 25
0.0
 35
0.0
146
0.0
 13
0.0
 23
0.0
 33
0.0
 16
1.0
 26
0.0
 36
0.0
 17
0.0
 27
1.0
 37
0.0
 76
     0
330
23
  0
LAYOUT
  5
22
102
{ACAD_REACTORS
330
1A
102
}
330
1A
100
AcDbPlotSettings
  1

  2
none_device
  4

  6

 40
0.0
 41
0.0
 42
0.0
 43
0.0
 44
0.0
 45
0.0
 46
0.0
 47
0.0
 48
0.0
 49
0.0
140
0.0
141
0.0
142
1.0
143
1.0
 70
  1712
 72
     0
 73
     0
 74
     0
  7

 75
     0
147
1.0
 76
     0
 77
     2
 78
   300
148
0.0
149
0.0
100
AcDbLayout
  1
Model
 70
     1
 71
     0
 10
0.0
 20
0.0
 11
8.5
 21
11.0
 12
0.0
 22
0.0
 32
0.0
 14
0.0
 24
0.0
 34
0.0
 15
8.5
 25
11.0
 35
0.0
146
0.0
 13
0.0
 23
0.0
 33
0.0
 16
1.0
 26
0.0
 36
0.0
 17
0.0
 27
1.0
 37
0.0
 76
     0
330
1F
  0
MLINESTYLE
  5
18
102
{ACAD_REACTORS
330
17
102
}
330
17
100
AcDbMlineStyle
  2
STANDARD
 70
     0
  3

 62
   256
 51
90.0
 52
90.0
 71
     2
 49
0.5
 62
   256
  6
BYLAYER
 49
-0.5
 62
   256
  6
BYLAYER
  0
ACDBPLACEHOLDER
  5
F
102
{ACAD_REACTORS
330
E
102
}
330
E
  0
ENDSEC
  0
EOF
