  0
SECTION
  2
HEADER
  9
$ACADVER
  1
AC1018
  9
$ACADMAINTVER
 70
     0
  9
$DWGCODEPAGE
  3
ANSI_1252
  9
$INSBASE
 10
0.0
 20
0.0
 30
0.0
  9
$EXTMIN
 10
0.271316841884547
 20
2.987264499721335
 30
0.0
  9
$EXTMAX
 10
8.328229661573763
 20
9.736232951157472
 30
0.0
  9
$LIMMIN
 10
0.0
 20
0.0
  9
$LIMMAX
 10
8.5
 20
11.0
  9
$ORTHOMODE
 70
     0
  9
$REGENMODE
 70
     1
  9
$FILLMODE
 70
     1
  9
$QTEXTMODE
 70
     0
  9
$MIRRTEXT
 70
     1
  9
$LTSCALE
 40
1.0
  9
$ATTMODE
 70
     1
  9
$TEXTSIZE
 40
0.25
  9
$TRACEWID
 40
0.05
  9
$TEXTSTYLE
  7
Standard
  9
$CLAYER
  8
0
  9
$CELTYPE
  6
ByLayer
  9
$CECOLOR
 62
   256
  9
$CELTSCALE
 40
1.0
  9
$DISPSILH
 70
     0
  9
$DIMSCALE
 40
1.0
  9
$DIMASZ
 40
0.156
  9
$DIMEXO
 40
0.05
  9
$DIMDLI
 40
0.38
  9
$DIMRND
 40
0.0
  9
$DIMDLE
 40
0.0
  9
$DIMEXE
 40
0.125
  9
$DIMTP
 40
0.0
  9
$DIMTM
 40
0.0
  9
$DIMTXT
 40
0.125
  9
$DIMCEN
 40
0.09
  9
$DIMTSZ
 40
0.0
  9
$DIMTOL
 70
     0
  9
$DIMLIM
 70
     0
  9
$DIMTIH
 70
     1
  9
$DIMTOH
 70
     1
  9
$DIMSE1
 70
     0
  9
$DIMSE2
 70
     0
  9
$DIMTAD
 70
     0
  9
$DIMZIN
 70
     0
  9
$DIMBLK
  1

  9
$DIMASO
 70
     1
  9
$DIMSHO
 70
     1
  9
$DIMPOST
  1

  9
$DIMAPOST
  1

  9
$DIMALT
 70
     0
  9
$DIMALTD
 70
     2
  9
$DIMALTF
 40
25.4
  9
$DIMLFAC
 40
24.0
  9
$DIMTOFL
 70
     0
  9
$DIMTVP
 40
0.0
  9
$DIMTIX
 70
     0
  9
$DIMSOXD
 70
     0
  9
$DIMSAH
 70
     0
  9
$DIMBLK1
  1

  9
$DIMBLK2
  1

  9
$DIMSTYLE
  2
Standard
  9
$DIMCLRD
 70
     0
  9
$DIMCLRE
 70
     0
  9
$DIMCLRT
 70
     0
  9
$DIMTFAC
 40
1.0
  9
$DIMGAP
 40
0.06
  9
$DIMJUST
 70
     0
  9
$DIMSD1
 70
     0
  9
$DIMSD2
 70
     0
  9
$DIMTOLJ
 70
     1
  9
$DIMTZIN
 70
     0
  9
$DIMALTZ
 70
     0
  9
$DIMALTTZ
 70
     0
  9
$DIMUPT
 70
     0
  9
$DIMDEC
 70
     3
  9
$DIMTDEC
 70
     3
  9
$DIMALTU
 70
     2
  9
$DIMALTTD
 70
     2
  9
$DIMTXSTY
  7
Standard
  9
$DIMAUNIT
 70
     0
  9
$DIMADEC
 70
     0
  9
$DIMALTRND
 40
0.0
  9
$DIMAZIN
 70
     0
  9
$DIMDSEP
 70
    46
  9
$DIMATFIT
 70
     3
  9
$DIMFRAC
 70
     0
  9
$DIMLDRBLK
  1

  9
$DIMLUNIT
 70
     2
  9
$DIMLWD
 70
    -2
  9
$DIMLWE
 70
    -2
  9
$DIMTMOVE
 70
     0
  9
$LUNITS
 70
     2
  9
$LUPREC
 70
     3
  9
$SKETCHINC
 40
0.1
  9
$FILLETRAD
 40
0.5
  9
$AUNITS
 70
     0
  9
$AUPREC
 70
     0
  9
$MENU
  1
.
  9
$ELEVATION
 40
0.0
  9
$PELEVATION
 40
0.0
  9
$THICKNESS
 40
0.0
  9
$LIMCHECK
 70
     0
  9
$CHAMFERA
 40
0.5
  9
$CHAMFERB
 40
0.5
  9
$CHAMFERC
 40
1.0
  9
$CHAMFERD
 40
0.0
  9
$SKPOLY
 70
     0
  9
$TDCREATE
 40
2456520.462981053
  9
$TDUCREATE
 40
2456520.671314387
  9
$TDUPDATE
 40
2456526.418989086
  9
$TDUUPDATE
 40
2456526.627322419
  9
$TDINDWG
 40
0.0012613542
  9
$TDUSRTIMER
 40
0.0012613542
  9
$USRTIMER
 70
     1
  9
$ANGBASE
 50
0.0
  9
$ANGDIR
 70
     0
  9
$PDMODE
 70
     0
  9
$PDSIZE
 40
-1.0
  9
$PLINEWID
 40
0.0
  9
$SPLFRAME
 70
     0
  9
$SPLINETYPE
 70
     6
  9
$SPLINESEGS
 70
     8
  9
$HANDSEED
  5
40D
  9
$SURFTAB1
 70
     6
  9
$SURFTAB2
 70
     6
  9
$SURFTYPE
 70
     6
  9
$SURFU
 70
     6
  9
$SURFV
 70
     6
  9
$UCSBASE
  2

  9
$UCSNAME
  2

  9
$UCSORG
 10
0.0
 20
0.0
 30
0.0
  9
$UCSXDIR
 10
1.0
 20
0.0
 30
0.0
  9
$UCSYDIR
 10
0.0
 20
1.0
 30
0.0
  9
$UCSORTHOREF
  2

  9
$UCSORTHOVIEW
 70
     0
  9
$UCSORGTOP
 10
0.0
 20
0.0
 30
0.0
  9
$UCSORGBOTTOM
 10
0.0
 20
0.0
 30
0.0
  9
$UCSORGLEFT
 10
0.0
 20
0.0
 30
0.0
  9
$UCSORGRIGHT
 10
0.0
 20
0.0
 30
0.0
  9
$UCSORGFRONT
 10
0.0
 20
0.0
 30
0.0
  9
$UCSORGBACK
 10
0.0
 20
0.0
 30
0.0
  9
$PUCSBASE
  2

  9
$PUCSNAME
  2

  9
$PUCSORG
 10
0.0
 20
0.0
 30
0.0
  9
$PUCSXDIR
 10
1.0
 20
0.0
 30
0.0
  9
$PUCSYDIR
 10
0.0
 20
1.0
 30
0.0
  9
$PUCSORTHOREF
  2

  9
$PUCSORTHOVIEW
 70
     0
  9
$PUCSORGTOP
 10
0.0
 20
0.0
 30
0.0
  9
$PUCSORGBOTTOM
 10
0.0
 20
0.0
 30
0.0
  9
$PUCSORGLEFT
 10
0.0
 20
0.0
 30
0.0
  9
$PUCSORGRIGHT
 10
0.0
 20
0.0
 30
0.0
  9
$PUCSORGFRONT
 10
0.0
 20
0.0
 30
0.0
  9
$PUCSORGBACK
 10
0.0
 20
0.0
 30
0.0
  9
$USERI1
 70
     0
  9
$USERI2
 70
     0
  9
$USERI3
 70
     0
  9
$USERI4
 70
     0
  9
$USERI5
 70
     0
  9
$USERR1
 40
0.0
  9
$USERR2
 40
0.0
  9
$USERR3
 40
0.0
  9
$USERR4
 40
0.0
  9
$USERR5
 40
0.0
  9
$WORLDVIEW
 70
     1
  9
$SHADEDGE
 70
     3
  9
$SHADEDIF
 70
    70
  9
$TILEMODE
 70
     1
  9
$MAXACTVP
 70
    64
  9
$PINSBASE
 10
0.0
 20
0.0
 30
0.0
  9
$PLIMCHECK
 70
     0
  9
$PEXTMIN
 10
1.000000000000000E+20
 20
1.000000000000000E+20
 30
1.000000000000000E+20
  9
$PEXTMAX
 10
-1.000000000000000E+20
 20
-1.000000000000000E+20
 30
-1.000000000000000E+20
  9
$PLIMMIN
 10
0.0
 20
0.0
  9
$PLIMMAX
 10
12.0
 20
9.0
  9
$UNITMODE
 70
     0
  9
$VISRETAIN
 70
     1
  9
$PLINEGEN
 70
     0
  9
$PSLTSCALE
 70
     1
  9
$TREEDEPTH
 70
  3020
  9
$CMLSTYLE
  2
Standard
  9
$CMLJUST
 70
     0
  9
$CMLSCALE
 40
1.0
  9
$PROXYGRAPHICS
 70
     1
  9
$MEASUREMENT
 70
     0
  9
$CELWEIGHT
370
    -1
  9
$ENDCAPS
280
     0
  9
$JOINSTYLE
280
     0
  9
$LWDISPLAY
290
     1
  9
$INSUNITS
 70
     1
  9
$HYPERLINKBASE
  1

  9
$STYLESHEET
  1

  9
$XEDIT
290
     1
  9
$CEPSNTYPE
380
     0
  9
$PSTYLEMODE
290
     1
  9
$FINGERPRINTGUID
  2
{F6C933C0-CD5C-4DA3-B642-EAE6E43CFE5A}
  9
$VERSIONGUID
  2
{BC99C1C0-343D-4D87-A8B6-C982D05B64E7}
  9
$EXTNAMES
290
     1
  9
$PSVPSCALE
 40
0.0
  9
$OLESTARTUP
290
     0
  9
$SORTENTS
280
   127
  9
$INDEXCTL
280
     0
  9
$HIDETEXT
280
     0
  9
$XCLIPFRAME
290
     0
  9
$HALOGAP
280
     0
  9
$OBSCOLOR
 70
   257
  9
$OBSLTYPE
280
     0
  9
$INTERSECTIONDISPLAY
280
     0
  9
$INTERSECTIONCOLOR
 70
   257
  9
$DIMASSOC
280
     1
  9
$PROJECTNAME
  1

  0
ENDSEC
  0
SECTION
  2
CLASSES
  0
CLASS
  1
ACDBDICTIONARYWDFLT
  2
AcDbDictionaryWithDefault
  3
ObjectDBX Classes
 90
        0
 91
        1
280
     0
281
     0
  0
CLASS
  1
VISUALSTYLE
  2
AcDbVisualStyle
  3
ObjectDBX Classes
 90
     4095
 91
        0
280
     0
281
     0
  0
CLASS
  1
MATERIAL
  2
AcDbMaterial
  3
ObjectDBX Classes
 90
        0
 91
        0
280
     0
281
     0
  0
ENDSEC
  0
SECTION
  2
TABLES
  0
TABLE
  2
VPORT
  5
8
330
0
100
AcDbSymbolTable
 70
     3
  0
VPORT
  5
40C
330
8
100
AcDbSymbolTableRecord
100
AcDbViewportTableRecord
  2
*Active
 70
     0
 10
0.0
 20
0.0
 11
1.0
 21
1.0
 12
4.769371988394894
 22
6.383168609533573
 13
0.0
 23
0.0
 14
0.5
 24
0.5
 15
0.5
 25
0.5
 16
0.0
 26
0.0
 36
1.0
 17
0.0
 27
0.0
 37
0.0
 40
10.76177199215818
 41
2.144329896907216
 42
50.0
 43
0.0
 44
0.0
 50
0.0
 51
0.0
 71
     0
 72
  2000
 73
     1
 74
     3
 75
     0
 76
     0
 77
     0
 78
     0
281
     0
 65
     1
110
0.0
120
0.0
130
0.0
111
1.0
121
0.0
131
0.0
112
0.0
122
1.0
132
0.0
 79
     0
146
0.0
  0
ENDTAB
  0
TABLE
  2
LTYPE
  5
5
330
0
100
AcDbSymbolTable
 70
     6
  0
LTYPE
  5
14
330
5
100
AcDbSymbolTableRecord
100
AcDbLinetypeTableRecord
  2
ByBlock
 70
     0
  3

 72
    65
 73
     0
 40
0.0
  0
LTYPE
  5
15
330
5
100
AcDbSymbolTableRecord
100
AcDbLinetypeTableRecord
  2
ByLayer
 70
     0
  3

 72
    65
 73
     0
 40
0.0
  0
LTYPE
  5
16
330
5
100
AcDbSymbolTableRecord
100
AcDbLinetypeTableRecord
  2
Continuous
 70
     0
  3
Solid line
 72
    65
 73
     0
 40
0.0
  0
LTYPE
  5
3F
330
5
100
AcDbSymbolTableRecord
100
AcDbLinetypeTableRecord
  2
HIDDEN
 70
     0
  3
Hidden __ __ __ __ __ __ __ __ __ __ __ __ __ __
 72
    65
 73
     2
 40
0.075
 49
0.05
 74
     0
 49
-0.025
 74
     0
  0
LTYPE
  5
40
330
5
100
AcDbSymbolTableRecord
100
AcDbLinetypeTableRecord
  2
PHANTOM
 70
     0
  3
Phantom ______  __  __  ______  __  __  ______
 72
    65
 73
     6
 40
0.5
 49
0.25
 74
     0
 49
-0.05
 74
     0
 49
0.05
 74
     0
 49
-0.05
 74
     0
 49
0.05
 74
     0
 49
-0.05
 74
     0
  0
LTYPE
  5
41
330
5
100
AcDbSymbolTableRecord
100
AcDbLinetypeTableRecord
  2
CENTER
 70
     0
  3
Center ____ _ ____ _ ____ _ ____ _ ____ _ ____
 72
    65
 73
     4
 40
0.4
 49
0.25
 74
     0
 49
-0.05
 74
     0
 49
0.05
 74
     0
 49
-0.05
 74
     0
  0
LTYPE
  5
42
330
5
100
AcDbSymbolTableRecord
100
AcDbLinetypeTableRecord
  2
CENTERX2
 70
     0
  3
Center (2x) ________  __  ________  __  _____
 72
    65
 73
     4
 40
0.8
 49
0.5
 74
     0
 49
-0.1
 74
     0
 49
0.1
 74
     0
 49
-0.1
 74
     0
  0
LTYPE
  5
43
330
5
100
AcDbSymbolTableRecord
100
AcDbLinetypeTableRecord
  2
DOT2
 70
     0
  3
Dot (.5x) ........................................
 72
    65
 73
     2
 40
0.025
 49
0.0
 74
     0
 49
-0.025
 74
     0
  0
ENDTAB
  0
TABLE
  2
LAYER
  5
2
330
0
100
AcDbSymbolTable
 70
     7
  0
LAYER
  5
10
330
2
100
AcDbSymbolTableRecord
100
AcDbLayerTableRecord
  2
0
 70
     0
 62
     7
  6
Continuous
370
    -3
390
F
  0
LAYER
  5
44
330
2
100
AcDbSymbolTableRecord
100
AcDbLayerTableRecord
  2
SLD-0
 70
     0
 62
   179
  6
Continuous
370
    -3
390
F
  0
LAYER
  5
45
330
2
100
AcDbSymbolTableRecord
100
AcDbLayerTableRecord
  2
SLD-DEFPOINTS
 70
     0
 62
   179
  6
Continuous
370
    -3
390
F
  0
LAYER
  5
46
330
2
100
AcDbSymbolTableRecord
100
AcDbLayerTableRecord
  2
OBJ
 70
     0
 62
   179
  6
Continuous
370
    -3
390
F
  0
LAYER
  5
47
330
2
100
AcDbSymbolTableRecord
100
AcDbLayerTableRecord
  2
FORMAT
 70
     0
 62
     7
  6
Continuous
370
    -3
390
F
  0
LAYER
  5
48
330
2
100
AcDbSymbolTableRecord
100
AcDbLayerTableRecord
  2
TOLERANCES
 70
     0
 62
     7
  6
Continuous
370
    -3
390
F
  0
LAYER
  5
49
330
2
100
AcDbSymbolTableRecord
100
AcDbLayerTableRecord
  2
QTY-BLANK-SIZE-1
 70
     0
 62
     7
  6
Continuous
370
    -3
390
F
  0
ENDTAB
  0
TABLE
  2
STYLE
  5
3
330
0
100
AcDbSymbolTable
 70
     2
  0
STYLE
  5
11
330
3
100
AcDbSymbolTableRecord
100
AcDbTextStyleTableRecord
  2
Standard
 70
     0
 40
0.0
 41
1.0
 50
0.0
 71
     0
 42
0.25
  3
txt
  4

  0
STYLE
  5
3F8
330
3
100
AcDbSymbolTableRecord
100
AcDbTextStyleTableRecord
  2
SLDTEXTSTYLE0
 70
     0
 40
0.0
 41
0.7
 50
0.0
 71
     0
 42
0.2
  3
TXT
  4

  0
ENDTAB
  0
TABLE
  2
VIEW
  5
6
330
0
100
AcDbSymbolTable
 70
     0
  0
ENDTAB
  0
TABLE
  2
UCS
  5
7
330
0
100
AcDbSymbolTable
 70
     0
  0
ENDTAB
  0
TABLE
  2
APPID
  5
9
330
0
100
AcDbSymbolTable
 70
     1
  0
APPID
  5
12
330
9
100
AcDbSymbolTableRecord
100
AcDbRegAppTableRecord
  2
ACAD
 70
     0
  0
ENDTAB
  0
TABLE
  2
DIMSTYLE
  5
A
330
0
100
AcDbSymbolTable
 70
     1
100
AcDbDimStyleTable
 71
     0
  0
DIMSTYLE
105
27
330
A
100
AcDbSymbolTableRecord
100
AcDbDimStyleTableRecord
  2
Standard
 70
     0
340
11
  0
ENDTAB
  0
TABLE
  2
BLOCK_RECORD
  5
1
330
0
100
AcDbSymbolTable
 70
     1
  0
BLOCK_RECORD
  5
1F
330
1
100
AcDbSymbolTableRecord
100
AcDbBlockTableRecord
  2
*Model_Space
340
22
  0
BLOCK_RECORD
  5
1B
330
1
100
AcDbSymbolTableRecord
100
AcDbBlockTableRecord
  2
*Paper_Space
340
1E
  0
BLOCK_RECORD
  5
23
330
1
100
AcDbSymbolTableRecord
100
AcDbBlockTableRecord
  2
*Paper_Space0
340
26
  0
ENDTAB
  0
ENDSEC
  0
SECTION
  2
BLOCKS
  0
BLOCK
  5
20
330
1F
100
AcDbEntity
  8
0
100
AcDbBlockBegin
  2
*Model_Space
 70
     0
 10
0.0
 20
0.0
 30
0.0
  3
*Model_Space
  1

  0
ENDBLK
  5
21
330
1F
100
AcDbEntity
  8
0
100
AcDbBlockEnd
  0
BLOCK
  5
1C
330
1B
100
AcDbEntity
 67
     1
  8
0
100
AcDbBlockBegin
  2
*Paper_Space
 70
     0
 10
0.0
 20
0.0
 30
0.0
  3
*Paper_Space
  1

  0
ENDBLK
  5
1D
330
1B
100
AcDbEntity
 67
     1
  8
0
100
AcDbBlockEnd
  0
BLOCK
  5
24
330
23
100
AcDbEntity
  8
0
100
AcDbBlockBegin
  2
*Paper_Space0
 70
     0
 10
0.0
 20
0.0
 30
0.0
  3
*Paper_Space0
  1

  0
ENDBLK
  5
25
330
23
100
AcDbEntity
  8
0
100
AcDbBlockEnd
  0
ENDSEC
  0
SECTION
  2
ENTITIES
  0
LINE
  5
4A
330
1F
100
AcDbEntity
  8
0
  6
Continuous
 62
     7
370
    15
100
AcDbLine
 10
2.746199841936588
 20
7.141625012730089
 30
0.0
 11
2.74048858976135
 21
7.140094905152346
 31
0.0
  0
LINE
  5
4B
330
1F
100
AcDbEntity
  8
0
  6
Continuous
 62
     7
370
    15
100
AcDbLine
 10
2.752930142875603
 20
7.093655725337879
 30
0.0
 11
2.758641395050843
 21
7.095185832915623
 31
0.0
  0
LINE
  5
4C
330
1F
100
AcDbEntity
  8
0
  6
Continuous
 62
     7
370
    15
100
AcDbLine
 10
2.671409735928511
 20
7.180189869632912
 30
0.0
 11
2.665698483753272
 21
7.178659762055169
 31
0.0
  0
LINE
  5
4D
330
1F
100
AcDbEntity
  8
0
  6
Continuous
 62
     7
370
    15
100
AcDbLine
 10
2.678139973047343
 20
7.132220599338835
 30
0.0
 11
2.683851225222582
 21
7.133750706916579
 31
0.0
  0
LINE
  5
4E
330
1F
100
AcDbEntity
  8
0
  6
Continuous
 62
     7
370
    15
100
AcDbLine
 10
2.780195321460194
 20
7.178836650384703
 30
0.0
 11
2.774484069284955
 21
7.17730654280696
 31
0.0
  0
LINE
  5
4F
330
1F
100
AcDbEntity
  8
0
  6
Continuous
 62
     7
370
    15
100
AcDbLine
 10
2.786925622399209
 20
7.130867357557747
 30
0.0
 11
2.792636874574448
 21
7.132397465135491
 31
0.0
  0
LINE
  5
50
330
1F
100
AcDbEntity
  8
0
  6
Continuous
 62
     7
370
    15
100
AcDbLine
 10
2.746199841936588
 20
7.401013687531015
 30
0.0
 11
2.74048858976135
 21
7.399483579953272
 31
0.0
  0
LINE
  5
51
330
1F
100
AcDbEntity
  8
0
  6
Continuous
 62
     7
370
    15
100
AcDbLine
 10
2.752930142875603
 20
7.353044394704059
 30
0.0
 11
2.758641395050843
 21
7.354574502281801
 31
0.0
  0
LINE
  5
52
330
1F
100
AcDbEntity
  8
0
  6
Continuous
 62
     7
370
    15
100
AcDbLine
 10
2.677100166769215
 20
7.810417161980141
 30
0.0
 11
2.6828114348995
 21
7.808887050127864
 31
0.0
  0
LINE
  5
53
330
1F
100
AcDbEntity
  8
0
  6
Continuous
 62
     7
370
    15
100
AcDbLine
 10
2.695253003968799
 20
7.855326266825349
 30
0.0
 11
2.689541735838515
 21
7.856856378677625
 31
0.0
  0
LINE
  5
54
330
1F
100
AcDbEntity
  8
0
  6
Continuous
 62
     7
370
    15
100
AcDbLine
 10
2.671409735928511
 20
7.402523011698353
 30
0.0
 11
2.665698483753272
 21
7.40099290412061
 31
0.0
  0
LINE
  5
55
330
1F
100
AcDbEntity
  8
0
  6
Continuous
 62
     7
370
    15
100
AcDbLine
 10
2.678139973047343
 20
7.354553746839023
 30
0.0
 11
2.683851225222582
 21
7.356083854416767
 31
0.0
  0
LINE
  5
56
330
1F
100
AcDbEntity
  8
0
  6
Continuous
 62
     7
370
    15
100
AcDbLine
 10
1.404464620260017
 20
7.803721320582768
 30
0.0
 11
1.398753368084778
 21
7.802191213005024
 31
0.0
  0
LINE
  5
57
330
1F
100
AcDbEntity
  8
0
  6
Continuous
 62
     7
370
    15
100
AcDbLine
 10
1.411194985019214
 20
7.755752016092427
 30
0.0
 11
1.416906237194453
 21
7.757282123670169
 31
0.0
  0
LINE
  5
58
330
1F
100
AcDbEntity
  8
0
  6
Continuous
 62
     7
370
    15
100
AcDbLine
 10
6.439201082555962
 20
6.570252850506154
 30
0.0
 11
6.444912223045882
 21
6.568722772850142
 31
0.0
  0
LINE
  5
59
330
1F
100
AcDbEntity
  8
0
  6
Continuous
 62
     7
370
    15
100
AcDbLine
 10
6.457353776160135
 20
6.615161941795112
 30
0.0
 11
6.451642635670215
 21
6.616692019451124
 31
0.0
  0
LINE
  5
5A
330
1F
100
AcDbEntity
  8
0
  6
Continuous
 62
     7
370
    15
100
AcDbLine
 10
2.690698364960675
 20
6.517634674825553
 30
0.0
 11
2.69640963309096
 21
6.516104562973278
 31
0.0
  0
LINE
  5
5B
330
1F
100
AcDbEntity
  8
0
  6
Continuous
 62
     7
370
    15
100
AcDbLine
 10
2.708851218115305
 20
6.562543783945296
 30
0.0
 11
2.703139949985021
 21
6.564073895797571
 31
0.0
  0
LINE
  5
5C
330
1F
100
AcDbEntity
  8
0
  6
Continuous
 62
     7
370
    15
100
AcDbLine
 10
2.683899265864945
 20
6.664035208499035
 30
0.0
 11
2.68961053399523
 21
6.662505096646761
 31
0.0
  0
LINE
  5
5D
330
1F
100
AcDbEntity
  8
0
  6
Continuous
 62
     7
370
    15
100
AcDbLine
 10
2.702052103064529
 20
6.708944313344245
 30
0.0
 11
2.696340834934245
 21
6.71047442519652
 31
0.0
  0
LINE
  5
5E
330
1F
100
AcDbEntity
  8
0
  6
Continuous
 62
     7
370
    15
100
AcDbLine
 10
2.677100166769215
 20
6.718314727646119
 30
0.0
 11
2.6828114348995
 21
6.716784615793843
 31
0.0
  0
LINE
  5
5F
330
1F
100
AcDbEntity
  8
0
  6
Continuous
 62
     7
370
    15
100
AcDbLine
 10
2.695253003968799
 20
6.763223789013347
 30
0.0
 11
2.689541735838515
 21
6.764753900865623
 31
0.0
  0
LINE
  5
60
330
1F
100
AcDbEntity
  8
0
  6
Continuous
 62
     7
370
    15
100
AcDbLine
 10
2.738292090540878
 20
6.716180970246017
 30
0.0
 11
2.744003358671163
 21
6.714650858393741
 31
0.0
  0
LINE
  5
61
330
1F
100
AcDbEntity
  8
0
  6
Continuous
 62
     7
370
    15
100
AcDbLine
 10
2.756444943695508
 20
6.761090035887779
 30
0.0
 11
2.750733675565224
 21
6.762620147740054
 31
0.0
  0
LINE
  5
62
330
1F
100
AcDbEntity
  8
0
  6
Continuous
 62
     7
370
    15
100
AcDbLine
 10
2.785885824098603
 20
6.533872593834932
 30
0.0
 11
2.791597092228889
 21
6.532342481982656
 31
0.0
  0
LINE
  5
63
330
1F
100
AcDbEntity
  8
0
  6
Continuous
 62
     7
370
    15
100
AcDbLine
 10
2.804038661298188
 20
6.578781611724179
 30
0.0
 11
2.798327393167904
 21
6.580311723576455
 31
0.0
  0
LINE
  5
64
330
1F
100
AcDbEntity
  8
0
  6
Continuous
 62
     7
370
    15
100
AcDbLine
 10
3.892428731430003
 20
7.604472742581345
 30
0.0
 11
3.898139967650196
 21
7.602942639278135
 31
0.0
  0
LINE
  5
65
330
1F
100
AcDbEntity
  8
0
  6
Continuous
 62
     7
370
    15
100
AcDbLine
 10
3.910581552674541
 20
7.649381816772172
 30
0.0
 11
3.904870316454347
 21
7.650911920075382
 31
0.0
  0
LINE
  5
66
330
1F
100
AcDbEntity
  8
0
  6
Continuous
 62
     7
370
    15
100
AcDbLine
 10
2.772287617929621
 20
6.70676095420601
 30
0.0
 11
2.777998886059905
 21
6.705230842353733
 31
0.0
  0
LINE
  5
67
330
1F
100
AcDbEntity
  8
0
  6
Continuous
 62
     7
370
    15
100
AcDbLine
 10
2.790440455129204
 20
6.751670059051217
 30
0.0
 11
2.78472918699892
 21
6.753200170903494
 31
0.0
  0
LINE
  5
68
330
1F
100
AcDbEntity
  8
0
  6
Continuous
 62
     7
370
    15
100
AcDbLine
 10
2.785885824098603
 20
8.053149099035509
 30
0.0
 11
2.791597092228889
 21
8.051618987183234
 31
0.0
  0
LINE
  5
69
330
1F
100
AcDbEntity
  8
0
  6
Continuous
 62
     7
370
    15
100
AcDbLine
 10
2.804038661298188
 20
8.098058160402738
 30
0.0
 11
2.798327393167904
 21
8.099588272255013
 31
0.0
  0
LINE
  5
6A
330
1F
100
AcDbEntity
  8
0
  6
Continuous
 62
     7
370
    15
100
AcDbLine
 10
2.690698364960675
 20
8.018383429962632
 30
0.0
 11
2.69640963309096
 21
8.016853318110356
 31
0.0
  0
LINE
  5
6B
330
1F
100
AcDbEntity
  8
0
  6
Continuous
 62
     7
370
    15
100
AcDbLine
 10
2.708851218115305
 20
8.063292539082373
 30
0.0
 11
2.703139949985021
 21
8.064822650934649
 31
0.0
  0
LINE
  5
6C
330
1F
100
AcDbEntity
  8
0
  6
Continuous
 62
     7
370
    15
100
AcDbLine
 10
1.411589154421267
 20
8.066890336889848
 30
0.0
 11
1.410761789575574
 21
8.067111997075937
 31
0.0
  0
LINE
  5
6D
330
1F
100
AcDbEntity
  8
0
  6
Continuous
 62
     7
370
    15
100
AcDbLine
 10
3.92018744744077
 20
6.818502009574324
 30
0.0
 11
3.914476195265531
 21
6.816971901996581
 31
0.0
  0
LINE
  5
6E
330
1F
100
AcDbEntity
  8
0
  6
Continuous
 62
     7
370
    15
100
AcDbLine
 10
3.92691776433483
 20
6.770532728777078
 30
0.0
 11
3.932629016510069
 21
6.77206283635482
 31
0.0
  0
LINE
  5
6F
330
1F
100
AcDbEntity
  8
0
  6
Continuous
 62
     7
370
    15
100
AcDbLine
 10
3.784205373784653
 20
6.910516398196251
 30
0.0
 11
3.778494121609415
 21
6.908986290618509
 31
0.0
  0
LINE
  5
70
330
1F
100
AcDbEntity
  8
0
  6
Continuous
 62
     7
370
    15
100
AcDbLine
 10
3.790935691675905
 20
6.862547111697099
 30
0.0
 11
3.796646943851143
 21
6.864077219274842
 31
0.0
  0
LINE
  5
71
330
1F
100
AcDbEntity
  8
0
  6
Continuous
 62
     7
370
    15
100
AcDbLine
 10
3.64822330810606
 20
6.891364208213444
 30
0.0
 11
3.642512055930822
 21
6.889834100635701
 31
0.0
  0
LINE
  5
72
330
1F
100
AcDbEntity
  8
0
  6
Continuous
 62
     7
370
    15
100
AcDbLine
 10
3.654953625000121
 20
6.843394927416197
 30
0.0
 11
3.66066487717536
 21
6.84492503499394
 31
0.0
  0
LINE
  5
73
330
1F
100
AcDbEntity
  8
0
  6
Continuous
 62
     7
370
    15
100
AcDbLine
 10
2.712204234772618
 20
7.224843855336209
 30
0.0
 11
2.706492982597379
 21
7.223313747758466
 31
0.0
  0
LINE
  5
74
330
1F
100
AcDbEntity
  8
0
  6
Continuous
 62
     7
370
    15
100
AcDbLine
 10
2.718934599531816
 20
7.176874550845868
 30
0.0
 11
2.724645851707055
 21
7.178404658423611
 31
0.0
  0
LINE
  5
75
330
1F
100
AcDbEntity
  8
0
  6
Continuous
 62
     7
370
    15
100
AcDbLine
 10
2.712204234772618
 20
7.336010431803677
 30
0.0
 11
2.706492982597379
 21
7.334480324225934
 31
0.0
  0
LINE
  5
76
330
1F
100
AcDbEntity
  8
0
  6
Continuous
 62
     7
370
    15
100
AcDbLine
 10
2.718934599531816
 20
7.288041127653007
 30
0.0
 11
2.724645851707055
 21
7.28957123523075
 31
0.0
  0
LINE
  5
77
330
1F
100
AcDbEntity
  8
0
  6
Continuous
 62
     7
370
    15
100
AcDbLine
 10
2.780195321460194
 20
7.345586509651157
 30
0.0
 11
2.774484069284955
 21
7.344056402073415
 31
0.0
  0
LINE
  5
78
330
1F
100
AcDbEntity
  8
0
  6
Continuous
 62
     7
370
    15
100
AcDbLine
 10
2.786925622399209
 20
7.297617224976322
 30
0.0
 11
2.792636874574448
 21
7.299147332554065
 31
0.0
  0
LINE
  5
79
330
1F
100
AcDbEntity
  8
0
  6
Continuous
 62
     7
370
    15
100
AcDbLine
 10
6.344013631395557
 20
6.581806602207272
 30
0.0
 11
6.349724771885477
 21
6.580276524551261
 31
0.0
  0
LINE
  5
7A
330
1F
100
AcDbEntity
  8
0
  6
Continuous
 62
     7
370
    15
100
AcDbLine
 10
6.36216632499973
 20
6.626715715235222
 30
0.0
 11
6.35645518450981
 21
6.628245792891234
 31
0.0
  0
LINE
  5
7B
330
1F
100
AcDbEntity
  8
0
  6
Continuous
 62
     7
370
    15
100
AcDbLine
 10
6.371210027778477
 20
6.570565045566707
 30
0.0
 11
6.376921168268397
 21
6.569034967910695
 31
0.0
  0
LINE
  5
7C
330
1F
100
AcDbEntity
  8
0
  6
Continuous
 62
     7
370
    15
100
AcDbLine
 10
6.389362753292742
 20
6.615474167143724
 30
0.0
 11
6.383651612802823
 21
6.617004244799735
 31
0.0
  0
LINE
  5
7D
330
1F
100
AcDbEntity
  8
0
  6
Continuous
 62
     7
370
    15
100
AcDbLine
 10
5.030619931636174
 20
7.105424873312229
 30
0.0
 11
5.036331199766459
 21
7.103894761459955
 31
0.0
  0
LINE
  5
7E
330
1F
100
AcDbEntity
  8
0
  6
Continuous
 62
     7
370
    15
100
AcDbLine
 10
5.048772752880712
 20
7.150333930404925
 30
0.0
 11
5.043061484750428
 21
7.151864042257201
 31
0.0
  0
LINE
  5
7F
330
1F
100
AcDbEntity
  8
0
  6
Continuous
 62
     7
370
    15
100
AcDbLine
 10
5.132660872642829
 20
6.975276763177072
 30
0.0
 11
5.138372140773114
 21
6.973746651324796
 31
0.0
  0
LINE
  5
80
330
1F
100
AcDbEntity
  8
0
  6
Continuous
 62
     7
370
    15
100
AcDbLine
 10
5.150813725797459
 20
7.020185850557823
 30
0.0
 11
5.145102457667175
 21
7.0217159624101
 31
0.0
  0
LINE
  5
81
330
1F
100
AcDbEntity
  8
0
  6
Continuous
 62
     7
370
    15
100
AcDbLine
 10
1.193692596157517
 20
7.657451280183209
 30
0.0
 11
1.187981343982279
 21
7.655921172605467
 31
0.0
  0
LINE
  5
82
330
1F
100
AcDbEntity
  8
0
  6
Continuous
 62
     7
370
    15
100
AcDbLine
 10
1.200422705635985
 20
7.609482046802771
 30
0.0
 11
1.206133957811224
 21
7.611012154380514
 31
0.0
  0
LINE
  5
83
330
1F
100
AcDbEntity
  8
0
  6
Continuous
 62
     7
370
    15
100
AcDbLine
 10
1.393436428907002
 20
8.133147780910805
 30
0.0
 11
1.399147569396921
 21
8.131617703254793
 31
0.0
  0
LINE
  5
84
330
1F
100
AcDbEntity
  8
0
  6
Continuous
 62
     7
370
    15
100
AcDbLine
 10
1.411589154421267
 20
8.178056880748831
 30
0.0
 11
1.405878013931348
 21
8.179586958404843
 31
0.0
  0
LINE
  5
85
330
1F
100
AcDbEntity
  8
0
  6
Continuous
 62
     7
370
    15
100
AcDbLine
 10
2.683899265864945
 20
7.868339788708186
 30
0.0
 11
2.68961053399523
 21
7.866809676855911
 31
0.0
  0
LINE
  5
86
330
1F
100
AcDbEntity
  8
0
  6
Continuous
 62
     7
370
    15
100
AcDbLine
 10
2.702052103064529
 20
7.913248850075415
 30
0.0
 11
2.696340834934245
 21
7.91477896192769
 31
0.0
  0
LINE
  5
87
330
1F
100
AcDbEntity
  8
0
  6
Continuous
 62
     7
370
    15
100
AcDbLine
 10
2.772287617929621
 20
7.872974475749994
 30
0.0
 11
2.777998886059905
 21
7.871444363897717
 31
0.0
  0
LINE
  5
88
330
1F
100
AcDbEntity
  8
0
  6
Continuous
 62
     7
370
    15
100
AcDbLine
 10
2.790440455129204
 20
7.917883537117221
 30
0.0
 11
2.78472918699892
 21
7.919413648969498
 31
0.0
  0
LINE
  5
89
330
1F
100
AcDbEntity
  8
0
  6
Continuous
 62
     7
370
    15
100
AcDbLine
 10
2.738292090540878
 20
7.84533894818502
 30
0.0
 11
2.744003358671163
 21
7.843808836332745
 31
0.0
  0
LINE
  5
8A
330
1F
100
AcDbEntity
  8
0
  6
Continuous
 62
     7
370
    15
100
AcDbLine
 10
2.756444943695508
 20
7.890248013826781
 30
0.0
 11
2.750733675565224
 21
7.891778125679057
 31
0.0
  0
LINE
  5
8B
330
1F
100
AcDbEntity
  8
0
  6
Continuous
 62
     7
370
    15
100
AcDbLine
 10
5.282243238590143
 20
6.527703264468167
 30
0.0
 11
5.276531986414904
 21
6.526173156890424
 31
0.0
  0
LINE
  5
8C
330
1F
100
AcDbEntity
  8
0
  6
Continuous
 62
     7
370
    15
100
AcDbLine
 10
5.28897360334934
 20
6.479733959977825
 30
0.0
 11
5.294684855524581
 21
6.481264067555569
 31
0.0
  0
LINE
  5
8D
330
1F
100
AcDbEntity
  8
0
  6
Continuous
 62
     7
370
    15
100
AcDbLine
 10
1.288879887767467
 20
7.632008843142123
 30
0.0
 11
1.283168635592228
 21
7.63047873556438
 31
0.0
  0
LINE
  5
8E
330
1F
100
AcDbEntity
  8
0
  6
Continuous
 62
     7
370
    15
100
AcDbLine
 10
1.295610252526664
 20
7.584039538651781
 30
0.0
 11
1.301321504701903
 21
7.585569646229524
 31
0.0
  0
LINE
  5
8F
330
1F
100
AcDbEntity
  8
0
  6
Continuous
 62
     7
370
    15
100
AcDbLine
 10
1.248016479081325
 20
7.799469341260244
 30
0.0
 11
1.253727731256563
 21
7.800999448837987
 31
0.0
  0
LINE
  5
90
330
1F
100
AcDbEntity
  8
0
  6
Continuous
 62
     7
370
    15
100
AcDbLine
 10
5.12580738279658
 20
7.121662746706362
 30
0.0
 11
5.131518650926864
 21
7.120132634854085
 31
0.0
  0
LINE
  5
91
330
1F
100
AcDbEntity
  8
0
  6
Continuous
 62
     7
370
    15
100
AcDbLine
 10
5.143960204041118
 20
7.166571803799056
 30
0.0
 11
5.138248935910833
 21
7.168101915651332
 31
0.0
  0
LINE
  5
92
330
1F
100
AcDbEntity
  8
0
  6
Continuous
 62
     7
370
    15
100
AcDbLine
 10
5.078213641261331
 20
7.071856313744412
 30
0.0
 11
5.083924909391615
 21
7.070326201892135
 31
0.0
  0
LINE
  5
93
330
1F
100
AcDbEntity
  8
0
  6
Continuous
 62
     7
370
    15
100
AcDbLine
 10
5.096366494415961
 20
7.116765422864152
 30
0.0
 11
5.090655226285676
 21
7.118295534716429
 31
0.0
  0
LINE
  5
94
330
1F
100
AcDbEntity
  8
0
  6
Continuous
 62
     7
370
    15
100
AcDbLine
 10
5.248247759066538
 20
6.462699974544563
 30
0.0
 11
5.242536506891299
 21
6.46116986696682
 31
0.0
  0
LINE
  5
95
330
1F
100
AcDbEntity
  8
0
  6
Continuous
 62
     7
370
    15
100
AcDbLine
 10
5.25497799618537
 20
6.414730715119982
 30
0.0
 11
5.26068924836061
 21
6.416260822697725
 31
0.0
  0
LINE
  5
96
330
1F
100
AcDbEntity
  8
0
  6
Continuous
 62
     7
370
    15
100
AcDbLine
 10
6.582038516787427
 20
6.179473744275272
 30
0.0
 11
6.576327264612189
 21
6.177943636697529
 31
0.0
  0
LINE
  5
97
330
1F
100
AcDbEntity
  8
0
  6
Continuous
 62
     7
370
    15
100
AcDbLine
 10
6.588768881546624
 20
6.13150443978493
 30
0.0
 11
6.594480133721863
 21
6.133034547362673
 31
0.0
  0
LINE
  5
98
330
1F
100
AcDbEntity
  8
0
  6
Continuous
 62
     7
370
    15
100
AcDbLine
 10
6.507248410779349
 20
6.180983073877357
 30
0.0
 11
6.501537158604111
 21
6.179452966299614
 31
0.0
  0
LINE
  5
99
330
1F
100
AcDbEntity
  8
0
  6
Continuous
 62
     7
370
    15
100
AcDbLine
 10
6.513978775538546
 20
6.133013774821764
 30
0.0
 11
6.519690027713785
 21
6.134543882399506
 31
0.0
  0
LINE
  5
9A
330
1F
100
AcDbEntity
  8
0
  6
Continuous
 62
     7
370
    15
100
AcDbLine
 10
6.432401967505186
 20
6.62401456437063
 30
0.0
 11
6.438113107995106
 21
6.622484486714618
 31
0.0
  0
LINE
  5
9B
330
1F
100
AcDbEntity
  8
0
  6
Continuous
 62
     7
370
    15
100
AcDbLine
 10
6.450554661109359
 20
6.66892367739858
 30
0.0
 11
6.444843520619439
 21
6.670453755054591
 31
0.0
  0
LINE
  5
9C
330
1F
100
AcDbEntity
  8
0
  6
Continuous
 62
     7
370
    15
100
AcDbLine
 10
5.316238718113749
 20
6.472276092023057
 30
0.0
 11
5.310527465938511
 21
6.470745984445313
 31
0.0
  0
LINE
  5
9D
330
1F
100
AcDbEntity
  8
0
  6
Continuous
 62
     7
370
    15
100
AcDbLine
 10
5.322969082872947
 20
6.424306787532716
 30
0.0
 11
5.328680335048185
 21
6.425836895110458
 31
0.0
  0
LINE
  5
9E
330
1F
100
AcDbEntity
  8
0
  6
Continuous
 62
     7
370
    15
100
AcDbLine
 10
6.534444743342088
 20
6.11811358757983
 30
0.0
 11
6.528733491166849
 21
6.116583480002087
 31
0.0
  0
LINE
  5
9F
330
1F
100
AcDbEntity
  8
0
  6
Continuous
 62
     7
370
    15
100
AcDbLine
 10
6.541175108101286
 20
6.070144293958984
 30
0.0
 11
6.546886360276523
 21
6.071674401536727
 31
0.0
  0
LINE
  5
A0
330
1F
100
AcDbEntity
  8
0
  6
Continuous
 62
     7
370
    15
100
AcDbLine
 10
6.616033996311032
 20
6.124046571830162
 30
0.0
 11
6.610322744135793
 21
6.122516464252418
 31
0.0
  0
LINE
  5
A1
330
1F
100
AcDbEntity
  8
0
  6
Continuous
 62
     7
370
    15
100
AcDbLine
 10
6.62276436107023
 20
6.076077267339821
 30
0.0
 11
6.628475613245468
 21
6.077607374917564
 31
0.0
  0
LINE
  5
A2
330
1F
100
AcDbEntity
  8
0
  6
Continuous
 62
     7
370
    15
100
AcDbLine
 10
3.892428731430003
 20
7.382139611385399
 30
0.0
 11
3.898139967650196
 21
7.38060950808219
 31
0.0
  0
LINE
  5
A3
330
1F
100
AcDbEntity
  8
0
  6
Continuous
 62
     7
370
    15
100
AcDbLine
 10
3.910581552674541
 20
7.427048685576227
 30
0.0
 11
3.904870316454347
 21
7.428578788879437
 31
0.0
  0
LINE
  5
A4
330
1F
100
AcDbEntity
  8
0
  6
Continuous
 62
     7
370
    15
100
AcDbLine
 10
3.92018744744077
 20
7.040835162509261
 30
0.0
 11
3.914476195265531
 21
7.039305054931517
 31
0.0
  0
LINE
  5
A5
330
1F
100
AcDbEntity
  8
0
  6
Continuous
 62
     7
370
    15
100
AcDbLine
 10
3.92691776433483
 20
6.992865870842519
 30
0.0
 11
3.932629016510069
 21
6.994395978420262
 31
0.0
  0
LINE
  5
A6
330
1F
100
AcDbEntity
  8
0
  6
Continuous
 62
     7
370
    15
100
AcDbLine
 10
3.892428731430003
 20
7.270973024048437
 30
0.0
 11
3.898139967650196
 21
7.269442920745227
 31
0.0
  0
LINE
  5
A7
330
1F
100
AcDbEntity
  8
0
  6
Continuous
 62
     7
370
    15
100
AcDbLine
 10
3.910581552674541
 20
7.315882098239264
 30
0.0
 11
3.904870316454347
 21
7.317412201542474
 31
0.0
  0
LINE
  5
A8
330
1F
100
AcDbEntity
  8
0
  6
Continuous
 62
     7
370
    15
100
AcDbLine
 10
4.056169525085647
 20
6.837654196351232
 30
0.0
 11
4.050458272910408
 21
6.836124088773489
 31
0.0
  0
LINE
  5
A9
330
1F
100
AcDbEntity
  8
0
  6
Continuous
 62
     7
370
    15
100
AcDbLine
 10
4.062899841979707
 20
6.789684910119238
 30
0.0
 11
4.068611094154947
 21
6.791215017696981
 31
0.0
  0
LINE
  5
AA
330
1F
100
AcDbEntity
  8
0
  6
Continuous
 62
     7
370
    15
100
AcDbLine
 10
3.892428731430003
 20
7.493306155244382
 30
0.0
 11
3.898139967650196
 21
7.491776051941172
 31
0.0
  0
LINE
  5
AB
330
1F
100
AcDbEntity
  8
0
  6
Continuous
 62
     7
370
    15
100
AcDbLine
 10
3.910581552674541
 20
7.538215272913189
 30
0.0
 11
3.904870316454347
 21
7.5397453762164
 31
0.0
  0
LINE
  5
AC
330
1F
100
AcDbEntity
  8
0
  6
Continuous
 62
     7
370
    15
100
AcDbLine
 10
4.056169525085647
 20
7.05998734385142
 30
0.0
 11
4.050458272910408
 21
7.058457236273677
 31
0.0
  0
LINE
  5
AD
330
1F
100
AcDbEntity
  8
0
  6
Continuous
 62
     7
370
    15
100
AcDbLine
 10
4.062899841979707
 20
7.012018057619426
 30
0.0
 11
4.068611094154947
 21
7.013548165197169
 31
0.0
  0
LINE
  5
AE
330
1F
100
AcDbEntity
  8
0
  6
Continuous
 62
     7
370
    15
100
AcDbLine
 10
5.207453132582066
 20
6.529212594070252
 30
0.0
 11
5.201741880406827
 21
6.527682486492509
 31
0.0
  0
LINE
  5
AF
330
1F
100
AcDbEntity
  8
0
  6
Continuous
 62
     7
370
    15
100
AcDbLine
 10
5.214183369700898
 20
6.481243329210923
 30
0.0
 11
5.219894621876138
 21
6.482773436788665
 31
0.0
  0
LINE
  5
B0
330
1F
100
AcDbEntity
  8
0
  6
Continuous
 62
     7
370
    15
100
AcDbLine
 10
5.248247759066538
 20
6.573866551012031
 30
0.0
 11
5.242536506891299
 21
6.572336443434288
 31
0.0
  0
LINE
  5
B1
330
1F
100
AcDbEntity
  8
0
  6
Continuous
 62
     7
370
    15
100
AcDbLine
 10
5.25497799618537
 20
6.525897280717956
 30
0.0
 11
5.26068924836061
 21
6.527427388295698
 31
0.0
  0
LINE
  5
B2
330
1F
100
AcDbEntity
  8
0
  6
Continuous
 62
     7
370
    15
100
AcDbLine
 10
5.044218129827634
 20
6.933054224855998
 30
0.0
 11
5.049929397957919
 21
6.931524113003723
 31
0.0
  0
LINE
  5
B3
330
1F
100
AcDbEntity
  8
0
  6
Continuous
 62
     7
370
    15
100
AcDbLine
 10
5.062370982982264
 20
6.97796331223675
 30
0.0
 11
5.05665971485198
 21
6.979493424089026
 31
0.0
  0
LINE
  5
B4
330
1F
100
AcDbEntity
  8
0
  6
Continuous
 62
     7
370
    15
100
AcDbLine
 10
6.475857353127593
 20
6.275037537489714
 30
0.0
 11
6.476199397395604
 21
6.274900055123335
 31
0.0
  0
LINE
  5
B5
330
1F
100
AcDbEntity
  8
0
  6
Continuous
 62
     7
370
    15
100
AcDbLine
 10
2.643428893772616
 20
7.729391383658476
 30
0.0
 11
2.643428893772616
 21
7.49628236544394
 31
0.0
  0
SPLINE
  5
B6
330
1F
100
AcDbEntity
  8
0
  6
Continuous
 62
     7
370
    15
100
AcDbSpline
210
0.0
220
0.0
230
1.0
 70
     8
 71
     3
 72
    10
 73
     6
 74
     0
 42
0.0000000001
 43
0.0000000001
 40
0.0
 40
0.0
 40
0.0
 40
0.0
 40
0.5577064627346795
 40
0.9347887921655575
 40
1.0
 40
1.0
 40
1.0
 40
1.0
 10
2.64790918226815
 20
7.062010481262105
 30
0.0
 10
2.647341919385044
 20
7.061837986235038
 30
0.0
 10
2.646391112785569
 20
7.061548862065279
 30
0.0
 10
2.645883674337144
 20
7.061304643813745
 30
0.0
 10
2.645942922278375
 20
7.061240168832762
 30
0.0
 10
2.64595165772098
 20
7.061230662721932
 30
0.0
  0
LINE
  5
B7
330
1F
100
AcDbEntity
  8
0
  6
Continuous
 62
     7
370
    15
100
AcDbLine
 10
2.643428893772616
 20
7.061166802320776
 30
0.0
 11
2.643428893772616
 21
6.828820322666222
 31
0.0
  0
LINE
  5
B8
330
1F
100
AcDbEntity
  8
0
  6
Continuous
 62
     7
370
    15
100
AcDbLine
 10
1.517700945542743
 20
7.814840216533035
 30
0.0
 11
1.518155887713563
 21
7.814962100568558
 31
0.0
  0
LINE
  5
B9
330
1F
100
AcDbEntity
  8
0
  6
Continuous
 62
     7
370
    15
100
AcDbLine
 10
1.489802335691977
 20
7.771201294291994
 30
0.0
 11
1.490114272788901
 21
7.771284865687748
 31
0.0
  0
LINE
  5
BA
330
1F
100
AcDbEntity
  8
0
  6
Continuous
 62
     7
370
    15
100
AcDbLine
 10
1.339275526774207
 20
8.176892520541221
 30
0.0
 11
1.339275526774207
 21
7.879434373892418
 31
0.0
  0
LWPOLYLINE
  5
BB
330
1F
100
AcDbEntity
  8
0
  6
Continuous
 62
     7
370
    15
100
AcDbPolyline
 90
       12
 70
   128
 43
0.0
 10
2.74048858976135
 20
7.140094905152346
 10
2.743855487308353
 20
7.140470835237626
 10
2.7489213419332
 20
7.139245462033181
 10
2.753790630396004
 20
7.136032405540296
 10
2.758030715679721
 20
7.131117148990504
 10
2.761264867247162
 20
7.124936446579225
 10
2.763205702816612
 20
7.118039472932935
 10
2.763680716434823
 20
7.111039071083135
 10
2.762647786781357
 20
7.104557239249363
 10
2.760198687278623
 20
7.099169908183355
 10
2.756550917108518
 20
7.095355803986943
 10
2.752930142875603
 20
7.093655725337879
  0
LWPOLYLINE
  5
BC
330
1F
100
AcDbEntity
  8
0
  6
Continuous
 62
     7
370
    15
100
AcDbPolyline
 90
       21
 70
   128
 43
0.0
 10
2.730966570669948
 20
7.112214109666099
 10
2.733658059225748
 20
7.105513992613131
 10
2.737573874162275
 20
7.099911736229762
 10
2.742330711463546
 20
7.095955724675609
 10
2.747462875257992
 20
7.094033210458897
 10
2.752468036889299
 20
7.094332370458713
 10
2.756856312636739
 20
7.096823918364679
 10
2.760198001211661
 20
7.101263989086016
 10
2.762166151819214
 20
7.107217929722509
 10
2.762568027508301
 20
7.11410293507335
 10
2.761364315046514
 20
7.121245063741894
 10
2.758672762670532
 20
7.127945197892993
 10
2.754756947734005
 20
7.133547454276363
 10
2.750000174252916
 20
7.137503459601878
 10
2.74486801045847
 20
7.13942597381859
 10
2.73986278500698
 20
7.139126820047412
 10
2.735474573079723
 20
7.136635255043311
 10
2.732132820684618
 20
7.132195201420108
 10
2.730164733897249
 20
7.126241243685484
 10
2.729762794387978
 20
7.119356255432774
 10
2.730966570669948
 20
7.112214109666099
  0
LWPOLYLINE
  5
BD
330
1F
100
AcDbEntity
  8
0
  6
Continuous
 62
     7
370
    15
100
AcDbPolyline
 90
       12
 70
   128
 43
0.0
 10
2.758641395050843
 20
7.095185832915623
 10
2.762262169283757
 20
7.096885911564687
 10
2.765909939453862
 20
7.100700015761097
 10
2.768359038956596
 20
7.106087346827106
 10
2.769391968610062
 20
7.112569178660878
 10
2.768916954991851
 20
7.119569580510678
 10
2.766976119422401
 20
7.126466554156967
 10
2.763741967854959
 20
7.132647256568246
 10
2.759501882571243
 20
7.137562513118039
 10
2.754632594108439
 20
7.140775569610924
 10
2.749566739483592
 20
7.142000942815369
 10
2.746199841936588
 20
7.141625012730089
  0
LWPOLYLINE
  5
BE
330
1F
100
AcDbEntity
  8
0
  6
Continuous
 62
     7
370
    15
100
AcDbPolyline
 90
       12
 70
   128
 43
0.0
 10
2.665698483753272
 20
7.178659762055169
 10
2.669065381300275
 20
7.179035703009946
 10
2.67413117210494
 20
7.177810336034137
 10
2.679000524387926
 20
7.17459726244312
 10
2.683240609671643
 20
7.169682016762822
 10
2.686474761239084
 20
7.163501303482047
 10
2.688415532988352
 20
7.156604346933892
 10
2.688890610426745
 20
7.149603927985959
 10
2.687857616953097
 20
7.143122113250319
 10
2.685408581270546
 20
7.137734765086178
 10
2.681760747280258
 20
7.133920677987899
 10
2.678139973047343
 20
7.132220599338835
  0
LWPOLYLINE
  5
BF
330
1F
100
AcDbEntity
  8
0
  6
Continuous
 62
     7
370
    15
100
AcDbPolyline
 90
       21
 70
   128
 43
0.0
 10
2.65617646466187
 20
7.150778977438417
 10
2.658867889397487
 20
7.144078877483581
 10
2.662783768154198
 20
7.138476593132584
 10
2.667540541635286
 20
7.134520598676564
 10
2.672672705429732
 20
7.132598084459853
 10
2.677677867061039
 20
7.132897244459668
 10
2.682066142808479
 20
7.135388792365636
 10
2.685407895203583
 20
7.139828845988841
 10
2.687375981990953
 20
7.145782803723465
 10
2.687777921500223
 20
7.152667802845669
 10
2.686574145218254
 20
7.15980993774285
 10
2.683882592842272
 20
7.16651007189395
 10
2.679966841725927
 20
7.172112311179187
 10
2.675210068244838
 20
7.176068316504703
 10
2.670077904450392
 20
7.177990830721414
 10
2.66507261517872
 20
7.177691694048368
 10
2.660684467071646
 20
7.175200111946136
 10
2.65734271467654
 20
7.17076005832293
 10
2.655374500248806
 20
7.164806134784572
 10
2.654972688379901
 20
7.157921112335597
 10
2.65617646466187
 20
7.150778977438417
  0
LWPOLYLINE
  5
C0
330
1F
100
AcDbEntity
  8
0
  6
Continuous
 62
     7
370
    15
100
AcDbPolyline
 90
       12
 70
   128
 43
0.0
 10
2.683851225222582
 20
7.133750706916579
 10
2.687471999455497
 20
7.135450785565643
 10
2.691119833445784
 20
7.13926487266392
 10
2.693568869128336
 20
7.144652220828062
 10
2.694601862601984
 20
7.151134035563701
 10
2.694126785163591
 20
7.158134454511634
 10
2.692186013414323
 20
7.165031411059791
 10
2.688951861846882
 20
7.171212124340565
 10
2.684711776563165
 20
7.176127370020862
 10
2.679842424280179
 20
7.179340443611879
 10
2.674776633475514
 20
7.180565810587689
 10
2.671409735928511
 20
7.180189869632912
  0
LWPOLYLINE
  5
C1
330
1F
100
AcDbEntity
  8
0
  6
Continuous
 62
     7
370
    15
100
AcDbPolyline
 90
       12
 70
   128
 43
0.0
 10
2.774484069284955
 20
7.17730654280696
 10
2.77785103065214
 20
7.177682466663604
 10
2.782916821456805
 20
7.176457105122543
 10
2.787786173739791
 20
7.173244026096779
 10
2.792026259023508
 20
7.168328774981733
 10
2.795260410590949
 20
7.162148072570454
 10
2.797201182340217
 20
7.155251116022299
 10
2.797676259778611
 20
7.148250697074365
 10
2.796643330125145
 20
7.141768865240594
 10
2.794194166802228
 20
7.136381551272716
 10
2.790546460452306
 20
7.132567429978173
 10
2.786925622399209
 20
7.130867357557747
  0
LWPOLYLINE
  5
C2
330
1F
100
AcDbEntity
  8
0
  6
Continuous
 62
     7
370
    15
100
AcDbPolyline
 90
       21
 70
   128
 43
0.0
 10
2.764962050193553
 20
7.14942575275546
 10
2.767653602569535
 20
7.142725618604361
 10
2.771569417506063
 20
7.137123362220991
 10
2.776326190987151
 20
7.133167356895476
 10
2.78145841860178
 20
7.131244825580632
 10
2.786463580233087
 20
7.131543996449942
 10
2.790851792160344
 20
7.134035561454043
 10
2.794193544555449
 20
7.138475615077248
 10
2.796161695163001
 20
7.144429555713738
 10
2.796563570852089
 20
7.15131456106458
 10
2.795359794570119
 20
7.158456706831256
 10
2.79266830601432
 20
7.165156823884225
 10
2.788752491077793
 20
7.170759080267592
 10
2.783995653776521
 20
7.174715097256493
 10
2.778863489982075
 20
7.176637611473205
 10
2.773858328350768
 20
7.176338446038641
 10
2.769470052603328
 20
7.173846898132675
 10
2.766128364028405
 20
7.169406827411338
 10
2.764160213420853
 20
7.163452886774847
 10
2.763758337731766
 20
7.156567881424004
 10
2.764962050193553
 20
7.14942575275546
  0
LWPOLYLINE
  5
C3
330
1F
100
AcDbEntity
  8
0
  6
Continuous
 62
     7
370
    15
100
AcDbPolyline
 90
       12
 70
   128
 43
0.0
 10
2.792636874574448
 20
7.132397465135491
 10
2.796257712627545
 20
7.134097537555916
 10
2.799905418977468
 20
7.13791165885046
 10
2.802354582300384
 20
7.143298972818336
 10
2.80338751195385
 20
7.149780804652108
 10
2.802912434515456
 20
7.156781223600041
 10
2.800971662766189
 20
7.163678180148197
 10
2.797737511198747
 20
7.169858882559476
 10
2.793497425915031
 20
7.174774133674522
 10
2.788628073632044
 20
7.177987212700286
 10
2.783562282827379
 20
7.179212574241347
 10
2.780195321460194
 20
7.178836650384703
  0
LWPOLYLINE
  5
C4
330
1F
100
AcDbEntity
  8
0
  6
Continuous
 62
     7
370
    15
100
AcDbPolyline
 90
       12
 70
   128
 43
0.0
 10
2.74048858976135
 20
7.399483579953272
 10
2.743855487308353
 20
7.399859510038552
 10
2.7489213419332
 20
7.398634136834107
 10
2.753790630396004
 20
7.395421080341223
 10
2.758030715679721
 20
7.390505823791429
 10
2.761264867247162
 20
7.384325121380151
 10
2.763205702816612
 20
7.377428147733862
 10
2.763680716434823
 20
7.370427745884062
 10
2.762647786781357
 20
7.363945914050289
 10
2.760198687278623
 20
7.358558588419028
 10
2.756550917108518
 20
7.354744484222617
 10
2.752930142875603
 20
7.353044394704059
  0
LWPOLYLINE
  5
C5
330
1F
100
AcDbEntity
  8
0
  6
Continuous
 62
     7
370
    15
100
AcDbPolyline
 90
       21
 70
   128
 43
0.0
 10
2.730966570669948
 20
7.371602784467025
 10
2.733658059225748
 20
7.364902672848804
 10
2.737573874162275
 20
7.359300411030687
 10
2.742330711463546
 20
7.355344394041788
 10
2.747462875257992
 20
7.353421879825076
 10
2.752468036889299
 20
7.353721045259638
 10
2.756856312636739
 20
7.356212593165607
 10
2.760198001211661
 20
7.360652669321691
 10
2.762166151819214
 20
7.366606604523434
 10
2.762568027508301
 20
7.373491620743772
 10
2.761364315046514
 20
7.380633738542821
 10
2.758672762670532
 20
7.387333872693921
 10
2.754756947734005
 20
7.392936129077289
 10
2.750000174252916
 20
7.396892134402805
 10
2.74486801045847
 20
7.398814648619516
 10
2.73986278500698
 20
7.398515494848338
 10
2.735474573079723
 20
7.396023929844238
 10
2.732132820684618
 20
7.391583876221034
 10
2.730164733897249
 20
7.385629918486411
 10
2.729762794387978
 20
7.3787449302337
 10
2.730966570669948
 20
7.371602784467025
  0
LWPOLYLINE
  5
C6
330
1F
100
AcDbEntity
  8
0
  6
Continuous
 62
     7
370
    15
100
AcDbPolyline
 90
       12
 70
   128
 43
0.0
 10
2.758641395050843
 20
7.354574502281801
 10
2.762262169283757
 20
7.35627459180036
 10
2.765909939453862
 20
7.360088695996772
 10
2.768359038956596
 20
7.365476021628033
 10
2.769391968610062
 20
7.371957853461804
 10
2.768916954991851
 20
7.378958255311606
 10
2.766976119422401
 20
7.385855228957893
 10
2.763741967854959
 20
7.392035931369172
 10
2.759501882571243
 20
7.396951187918966
 10
2.754632594108439
 20
7.40016424441185
 10
2.749566739483592
 20
7.401389617616296
 10
2.746199841936588
 20
7.401013687531015
  0
LWPOLYLINE
  5
C7
330
1F
100
AcDbEntity
  8
0
  6
Continuous
 62
     7
370
    15
100
AcDbPolyline
 90
       13
 70
   128
 43
0.0
 10
2.6828114348995
 20
7.808887050127864
 10
2.68222704944356
 20
7.809060875979047
 10
2.67793826936061
 20
7.811587710252262
 10
2.67463522390618
 20
7.815937797583292
 10
2.672611422099504
 20
7.821724514413506
 10
2.672046677304724
 20
7.828433734009371
 10
2.672991168140316
 20
7.835469338491552
 10
2.675360971066316
 20
7.842206108573314
 10
2.678945543300718
 20
7.848045554056318
 10
2.683426342357711
 20
7.852468727989175
 10
2.688405257938972
 20
7.855082626243914
 10
2.693439888539541
 20
7.85565502964914
 10
2.695253003968799
 20
7.855326266825349
  0
LWPOLYLINE
  5
C8
330
1F
100
AcDbEntity
  8
0
  6
Continuous
 62
     7
370
    15
100
AcDbPolyline
 90
       21
 70
   128
 43
0.0
 10
2.701204938007222
 20
7.819215999392136
 10
2.704232902520111
 20
7.825699666224114
 10
2.705826173375765
 20
7.832796173728692
 10
2.705828774048201
 20
7.839810955672374
 10
2.704240481166781
 20
7.846057347944555
 10
2.701216728785936
 20
7.850923823346077
 10
2.697053530867064
 20
7.853934125654618
 10
2.6921584111854
 20
7.854793524555157
 10
2.687010515715972
 20
7.853417911659439
 10
2.682113768619657
 20
7.849941902517644
 10
2.677947507332024
 20
7.844705828603009
 10
2.674919542819136
 20
7.838222161771032
 10
2.673326271963481
 20
7.831125654266453
 10
2.673323655336
 20
7.824110868048238
 10
2.674911964172466
 20
7.817864480050591
 10
2.677935716553311
 20
7.812998004649069
 10
2.682098914472183
 20
7.809987702340527
 10
2.686994034153846
 20
7.809128303439988
 10
2.692141929623274
 20
7.810503959813686
 10
2.69703867671959
 20
7.8139799254775
 10
2.701204938007222
 20
7.819215999392136
  0
LWPOLYLINE
  5
C9
330
1F
100
AcDbEntity
  8
0
  6
Continuous
 62
     7
370
    15
100
AcDbPolyline
 90
       13
 70
   128
 43
0.0
 10
2.689541735838515
 20
7.856856378677625
 10
2.687728620409256
 20
7.857185141501416
 10
2.682693989808687
 20
7.85661273809619
 10
2.677715074227426
 20
7.85399883984145
 10
2.673234275170433
 20
7.849575665908592
 10
2.669649702936031
 20
7.84373622042559
 10
2.667279900010031
 20
7.836999450343829
 10
2.666335409174439
 20
7.829963845861648
 10
2.666900153969219
 20
7.823254626265781
 10
2.668923955775896
 20
7.817467909435569
 10
2.672227001230325
 20
7.813117822104537
 10
2.676515781313276
 20
7.810590987831323
 10
2.677100166769215
 20
7.810417161980141
  0
LWPOLYLINE
  5
CA
330
1F
100
AcDbEntity
  8
0
  6
Continuous
 62
     7
370
    15
100
AcDbPolyline
 90
       12
 70
   128
 43
0.0
 10
2.665698483753272
 20
7.40099290412061
 10
2.669065381300275
 20
7.401368845075386
 10
2.67413117210494
 20
7.400143488969072
 10
2.679000524387926
 20
7.396930415378056
 10
2.683240609671643
 20
7.392015158828263
 10
2.686474761239084
 20
7.385834456416984
 10
2.688415532988352
 20
7.378937499868828
 10
2.688890610426745
 20
7.371937080920894
 10
2.687857616953097
 20
7.365455266185255
 10
2.685408581270546
 20
7.360067918021114
 10
2.681760747280258
 20
7.356253830922836
 10
2.678139973047343
 20
7.354553746839023
  0
LWPOLYLINE
  5
CB
330
1F
100
AcDbEntity
  8
0
  6
Continuous
 62
     7
370
    15
100
AcDbPolyline
 90
       21
 70
   128
 43
0.0
 10
2.65617646466187
 20
7.373112124938606
 10
2.658867889397487
 20
7.366412024983769
 10
2.662783768154198
 20
7.360809746067521
 10
2.667540541635286
 20
7.356853746176753
 10
2.672672705429732
 20
7.354931231960041
 10
2.677677867061039
 20
7.355230397394604
 10
2.682066142808479
 20
7.357721939865824
 10
2.685407895203583
 20
7.362161998923776
 10
2.687375981990953
 20
7.3681159566584
 10
2.687777921500223
 20
7.375000950345857
 10
2.686574145218254
 20
7.382143090677785
 10
2.683882592842272
 20
7.388843224828886
 10
2.679966841725927
 20
7.394445464114122
 10
2.675210068244838
 20
7.398401458570142
 10
2.670077904450392
 20
7.400323983656349
 10
2.66507261517872
 20
7.400024846983304
 10
2.660684467071646
 20
7.397533264881071
 10
2.65734271467654
 20
7.393093211257866
 10
2.655374500248806
 20
7.387139287719509
 10
2.654972688379901
 20
7.380254259835785
 10
2.65617646466187
 20
7.373112124938606
  0
LWPOLYLINE
  5
CC
330
1F
100
AcDbEntity
  8
0
  6
Continuous
 62
     7
370
    15
100
AcDbPolyline
 90
       12
 70
   128
 43
0.0
 10
2.683851225222582
 20
7.356083854416767
 10
2.687471999455497
 20
7.357783938500578
 10
2.691119833445784
 20
7.361598025598857
 10
2.693568869128336
 20
7.366985373762998
 10
2.694601862601984
 20
7.373467188498637
 10
2.694126785163591
 20
7.38046760744657
 10
2.692186013414323
 20
7.387364563994727
 10
2.688951861846882
 20
7.393545266406006
 10
2.684711776563165
 20
7.398460522955798
 10
2.679842424280179
 20
7.401673596546815
 10
2.674776633475514
 20
7.402898952653128
 10
2.671409735928511
 20
7.402523011698353
  0
LWPOLYLINE
  5
CD
330
1F
100
AcDbEntity
  8
0
  6
Continuous
 62
     7
370
    15
100
AcDbPolyline
 90
       12
 70
   128
 43
0.0
 10
1.398753368084778
 20
7.802191213005024
 10
1.40212026563178
 20
7.802567143090305
 10
1.407186311717175
 20
7.801341718591462
 10
1.412055536359797
 20
7.798128679196711
 10
1.416295494003149
 20
7.793213456843182
 10
1.41952964557059
 20
7.787032754431903
 10
1.421470544960223
 20
7.780135763687483
 10
1.421945622398616
 20
7.773135344739549
 10
1.420912756565332
 20
7.766653495807646
 10
1.418463593242416
 20
7.761266181839769
 10
1.414815886892494
 20
7.757452060545225
 10
1.411194985019214
 20
7.755752016092427
  0
LWPOLYLINE
  5
CE
330
1F
100
AcDbEntity
  8
0
  6
Continuous
 62
     7
370
    15
100
AcDbPolyline
 90
       21
 70
   128
 43
0.0
 10
1.389231476633741
 20
7.774310383322513
 10
1.391922901369358
 20
7.767610283367677
 10
1.395838652485703
 20
7.76200804408244
 10
1.400595553607157
 20
7.75805200456066
 10
1.405727717401602
 20
7.756129490343949
 10
1.410733006673275
 20
7.756428627016995
 10
1.415121282420714
 20
7.758920174922963
 10
1.418462907175455
 20
7.763360262742431
 10
1.420431121603189
 20
7.76931418628079
 10
1.420832933472094
 20
7.776199208729765
 10
1.419629284830489
 20
7.783341320300175
 10
1.416937604814143
 20
7.790041488647541
 10
1.413021853697798
 20
7.795643727932777
 10
1.408264952576343
 20
7.799599767454557
 10
1.403132788781898
 20
7.801522281671268
 10
1.398127754790956
 20
7.801223076605693
 10
1.393739479043516
 20
7.798731528699726
 10
1.390397599008046
 20
7.794291509272786
 10
1.388429639861041
 20
7.788337517341898
 10
1.388027827992137
 20
7.781452494892924
 10
1.389231476633741
 20
7.774310383322513
  0
LWPOLYLINE
  5
CF
330
1F
100
AcDbEntity
  8
0
  6
Continuous
 62
     7
370
    15
100
AcDbPolyline
 90
       12
 70
   128
 43
0.0
 10
1.416906237194453
 20
7.757282123670169
 10
1.420527139067733
 20
7.758982168122968
 10
1.424174845417655
 20
7.762796289417511
 10
1.426624008740571
 20
7.768183603385388
 10
1.427656874573855
 20
7.774665452317292
 10
1.427181797135461
 20
7.781665871265225
 10
1.425240897745829
 20
7.788562862009646
 10
1.422006746178388
 20
7.794743564420925
 10
1.417766788535035
 20
7.799658786774453
 10
1.412897563892414
 20
7.802871826169205
 10
1.40783151780702
 20
7.804097250668047
 10
1.404464620260017
 20
7.803721320582768
  0
LWPOLYLINE
  5
D0
330
1F
100
AcDbEntity
  8
0
  6
Continuous
 62
     7
370
    15
100
AcDbPolyline
 90
       13
 70
   128
 43
0.0
 10
6.444912223045882
 20
6.568722772850142
 10
6.444327821634897
 20
6.5688965726878
 10
6.440039041551947
 20
6.571423428700006
 10
6.436735996097516
 20
6.575773472553056
 10
6.43471219429084
 20
6.581560211122258
 10
6.43414744949606
 20
6.588269452457115
 10
6.435091956286697
 20
6.59530503947484
 10
6.437461759212698
 20
6.602041831295592
 10
6.441046315492054
 20
6.607881229026081
 10
6.445527130504093
 20
6.61230440723347
 10
6.450506030130308
 20
6.614918322952669
 10
6.455540676685922
 20
6.615490730632426
 10
6.457353776160135
 20
6.615161941795112
  0
LWPOLYLINE
  5
D1
330
1F
100
AcDbEntity
  8
0
  6
Continuous
 62
     7
370
    15
100
AcDbPolyline
 90
       21
 70
   128
 43
0.0
 10
6.463305710198558
 20
6.579051696100889
 10
6.466333690666492
 20
6.585535345468411
 10
6.467926961522147
 20
6.59263189645097
 10
6.467929546239537
 20
6.599646674120117
 10
6.466341253358116
 20
6.605893022914318
 10
6.463317516932317
 20
6.610759546068354
 10
6.459154303058399
 20
6.613769822363371
 10
6.45425916742169
 20
6.614629195250387
 10
6.449111303862355
 20
6.613253590903735
 10
6.444214540810992
 20
6.609777599226398
 10
6.440048295478406
 20
6.604541529586296
 10
6.437020315010472
 20
6.598057880218775
 10
6.435427044154818
 20
6.590961329236217
 10
6.435424427527335
 20
6.583946543018002
 10
6.437012752318848
 20
6.577700202772867
 10
6.440036488744647
 20
6.572833679618831
 10
6.444199670708473
 20
6.569823394774748
 10
6.449094806345184
 20
6.568964021887733
 10
6.45424270181461
 20
6.57033963478345
 10
6.459139432955881
 20
6.573815617911721
 10
6.463305710198558
 20
6.579051696100889
  0
LWPOLYLINE
  5
D2
330
1F
100
AcDbEntity
  8
0
  6
Continuous
 62
     7
370
    15
100
AcDbPolyline
 90
       13
 70
   128
 43
0.0
 10
6.451642635670215
 20
6.616692019451124
 10
6.449829536196002
 20
6.617020808288438
 10
6.444794889640388
 20
6.61644840060868
 10
6.439815990014173
 20
6.613834484889483
 10
6.435335175002134
 20
6.609411306682091
 10
6.431750618722778
 20
6.603571908951603
 10
6.429380815796777
 20
6.596835117130851
 10
6.42843630900614
 20
6.589799530113127
 10
6.42900105380092
 20
6.58309028877827
 10
6.431024855607597
 20
6.577303550209068
 10
6.434327901062027
 20
6.572953506356016
 10
6.438616681144977
 20
6.570426650343812
 10
6.439201082555962
 20
6.570252850506154
  0
LWPOLYLINE
  5
D3
330
1F
100
AcDbEntity
  8
0
  6
Continuous
 62
     7
370
    15
100
AcDbPolyline
 90
       13
 70
   128
 43
0.0
 10
2.69640963309096
 20
6.516104562973278
 10
2.695825263590066
 20
6.516278349621012
 10
2.691536467552071
 20
6.518805223097675
 10
2.68823342209764
 20
6.523155310428705
 10
2.686209620290965
 20
6.528942027258918
 10
2.685644875496184
 20
6.535651203376803
 10
2.686589366331776
 20
6.542686807858985
 10
2.688959185212822
 20
6.549423669171241
 10
2.692543741492178
 20
6.55526302342375
 10
2.697024556504217
 20
6.55968624510912
 10
2.702003472085478
 20
6.56230014336386
 10
2.707038086731001
 20
6.562872542494552
 10
2.708851218115305
 20
6.562543783945296
  0
LWPOLYLINE
  5
D4
330
1F
100
AcDbEntity
  8
0
  6
Continuous
 62
     7
370
    15
100
AcDbPolyline
 90
       21
 70
   128
 43
0.0
 10
2.714803152153728
 20
6.526433473034101
 10
2.717831116666617
 20
6.53291718334406
 10
2.719424371567226
 20
6.540013730052086
 10
2.719426988194707
 20
6.547028472792319
 10
2.717838679358241
 20
6.553274817311987
 10
2.714814942932442
 20
6.558141296988043
 10
2.71065174501357
 20
6.561151642774563
 10
2.705756609376861
 20
6.562011037400569
 10
2.700608713907433
 20
6.560635424504853
 10
2.695711982766162
 20
6.557159376159609
 10
2.691545705523485
 20
6.551923297970442
 10
2.688517741010596
 20
6.545439674616443
 10
2.686924486109987
 20
6.538343127908418
 10
2.686921869482505
 20
6.531328385168184
 10
2.688510178318972
 20
6.525082040648516
 10
2.691533914744771
 20
6.5202154740165
 10
2.695697112663644
 20
6.51720521518594
 10
2.700592248300352
 20
6.516345820559935
 10
2.705740143769781
 20
6.517721433455651
 10
2.710636874911051
 20
6.521197394844933
 10
2.714803152153728
 20
6.526433473034101
  0
LWPOLYLINE
  5
D5
330
1F
100
AcDbEntity
  8
0
  6
Continuous
 62
     7
370
    15
100
AcDbPolyline
 90
       13
 70
   128
 43
0.0
 10
2.703139949985021
 20
6.564073895797571
 10
2.701326818600717
 20
6.564402654346829
 10
2.696292203955194
 20
6.563830255216137
 10
2.691313288373932
 20
6.561216356961396
 10
2.686832473361894
 20
6.556793135276024
 10
2.683247917082538
 20
6.550953781023517
 10
2.680878098201491
 20
6.544216919711261
 10
2.679933607365899
 20
6.53718131522908
 10
2.680498352160679
 20
6.530472139111195
 10
2.682522153967356
 20
6.524685422280981
 10
2.685825199421786
 20
6.52033533494995
 10
2.690113995459782
 20
6.517808461473288
 10
2.690698364960675
 20
6.517634674825553
  0
LWPOLYLINE
  5
D6
330
1F
100
AcDbEntity
  8
0
  6
Continuous
 62
     7
370
    15
100
AcDbPolyline
 90
       13
 70
   128
 43
0.0
 10
2.68961053399523
 20
6.662505096646761
 10
2.689026148539291
 20
6.662678922497942
 10
2.684737368456341
 20
6.665205756771157
 10
2.68143432300191
 20
6.669555844102187
 10
2.679410521195234
 20
6.6753425609324
 10
2.678845776400454
 20
6.682051780528266
 10
2.679790267236046
 20
6.689087385010448
 10
2.682160086117092
 20
6.695824159366742
 10
2.685744642396448
 20
6.701663600575212
 10
2.690225457408486
 20
6.706086778782602
 10
2.695204372989748
 20
6.708700677037342
 10
2.700238987635271
 20
6.709273076168035
 10
2.702052103064529
 20
6.708944313344245
  0
LWPOLYLINE
  5
D7
330
1F
100
AcDbEntity
  8
0
  6
Continuous
 62
     7
370
    15
100
AcDbPolyline
 90
       21
 70
   128
 43
0.0
 10
2.708004037102953
 20
6.672834045911031
 10
2.711032001615841
 20
6.679317712743009
 10
2.712625272471496
 20
6.686414220247587
 10
2.712627889098977
 20
6.693429006465802
 10
2.71103958026251
 20
6.699675394463449
 10
2.708015843836712
 20
6.704541874139505
 10
2.703852645917839
 20
6.707552176448047
 10
2.69895751028113
 20
6.708411571074051
 10
2.693809614811703
 20
6.707035914700354
 10
2.688912867715386
 20
6.70355994903654
 10
2.684746606427754
 20
6.698323875121904
 10
2.681718641914866
 20
6.691840208289926
 10
2.680125371059212
 20
6.684743700785348
 10
2.680122770386775
 20
6.677728918841666
 10
2.681711063268196
 20
6.671482526569485
 10
2.684734815649041
 20
6.666616051167964
 10
2.688898013567914
 20
6.663605748859422
 10
2.693793133249577
 20
6.662746349958884
 10
2.698941028719004
 20
6.664121962854601
 10
2.703837775815321
 20
6.667597971996396
 10
2.708004037102953
 20
6.672834045911031
  0
LWPOLYLINE
  5
D8
330
1F
100
AcDbEntity
  8
0
  6
Continuous
 62
     7
370
    15
100
AcDbPolyline
 90
       13
 70
   128
 43
0.0
 10
2.696340834934245
 20
6.71047442519652
 10
2.694527719504987
 20
6.710803188020311
 10
2.689493104859463
 20
6.710230788889618
 10
2.684514189278202
 20
6.707616890634878
 10
2.680033374266164
 20
6.703193712427488
 10
2.676448817986807
 20
6.697354271219018
 10
2.674078999105761
 20
6.690617496862723
 10
2.673134508270169
 20
6.683581892380543
 10
2.673699253064949
 20
6.676872672784676
 10
2.675723054871626
 20
6.671085955954463
 10
2.679026100326056
 20
6.666735868623433
 10
2.683314880409007
 20
6.664209034350218
 10
2.683899265864945
 20
6.664035208499035
  0
LWPOLYLINE
  5
D9
330
1F
100
AcDbEntity
  8
0
  6
Continuous
 62
     7
370
    15
100
AcDbPolyline
 90
       13
 70
   128
 43
0.0
 10
2.6828114348995
 20
6.716784615793843
 10
2.68222704944356
 20
6.716958398167045
 10
2.67793826936061
 20
6.719485275918239
 10
2.67463522390618
 20
6.72383531977129
 10
2.672611422099504
 20
6.729622080079484
 10
2.672046677304724
 20
6.73633129967535
 10
2.672991168140316
 20
6.74336686067955
 10
2.675360971066316
 20
6.750103674239293
 10
2.678945543300718
 20
6.755943076244315
 10
2.683426342357711
 20
6.760366250177172
 10
2.688405257938972
 20
6.762980191909893
 10
2.693439888539541
 20
6.763552595315118
 10
2.695253003968799
 20
6.763223789013347
  0
LWPOLYLINE
  5
DA
330
1F
100
AcDbEntity
  8
0
  6
Continuous
 62
     7
370
    15
100
AcDbPolyline
 90
       21
 70
   128
 43
0.0
 10
2.701204938007222
 20
6.727113565058114
 10
2.704232902520111
 20
6.733597188412112
 10
2.705826173375765
 20
6.740693739394671
 10
2.705828774048201
 20
6.747708521338351
 10
2.704240481166781
 20
6.753954870132552
 10
2.701216728785936
 20
6.758821389012055
 10
2.697053530867064
 20
6.761831647842615
 10
2.6921584111854
 20
6.762691046743153
 10
2.687010515715972
 20
6.761315433847436
 10
2.682113768619657
 20
6.757839468183622
 10
2.677947507332024
 20
6.752603350791007
 10
2.674919542819136
 20
6.746119727437009
 10
2.673326271963481
 20
6.73902317645445
 10
2.673323655336
 20
6.732008390236236
 10
2.674911964172466
 20
6.725762045716568
 10
2.677935716553311
 20
6.720895526837066
 10
2.682098914472183
 20
6.717885268006506
 10
2.686994034153846
 20
6.717025869105967
 10
2.692141929623274
 20
6.718401482001683
 10
2.69703867671959
 20
6.721877447665497
 10
2.701204938007222
 20
6.727113565058114
  0
LWPOLYLINE
  5
DB
330
1F
100
AcDbEntity
  8
0
  6
Continuous
 62
     7
370
    15
100
AcDbPolyline
 90
       13
 70
   128
 43
0.0
 10
2.689541735838515
 20
6.764753900865623
 10
2.687728620409256
 20
6.765082707167395
 10
2.682693989808687
 20
6.764510303762168
 10
2.677715074227426
 20
6.761896362029448
 10
2.673234275170433
 20
6.75747318809659
 10
2.669649702936031
 20
6.751633786091568
 10
2.667279900010031
 20
6.744896972531827
 10
2.666335409174439
 20
6.737861411527625
 10
2.666900153969219
 20
6.731152191931759
 10
2.668923955775896
 20
6.725365431623567
 10
2.672227001230325
 20
6.721015387770516
 10
2.676515781313276
 20
6.71848851001932
 10
2.677100166769215
 20
6.718314727646119
  0
LWPOLYLINE
  5
DC
330
1F
100
AcDbEntity
  8
0
  6
Continuous
 62
     7
370
    15
100
AcDbPolyline
 90
       13
 70
   128
 43
0.0
 10
2.744003358671163
 20
6.714650858393741
 10
2.74341898917027
 20
6.714824645041475
 10
2.739130193132273
 20
6.717351518518138
 10
2.735827147677843
 20
6.721701562371189
 10
2.733803345871167
 20
6.727488279201401
 10
2.733238601076387
 20
6.734197542275248
 10
2.734183091911979
 20
6.741233103279449
 10
2.736552910793025
 20
6.747969921113724
 10
2.740137467072382
 20
6.753809318844212
 10
2.744618282084419
 20
6.758232497051603
 10
2.749597197665681
 20
6.760846395306344
 10
2.754631812311203
 20
6.761418794437036
 10
2.756444943695508
 20
6.761090035887779
  0
LWPOLYLINE
  5
DD
330
1F
100
AcDbEntity
  8
0
  6
Continuous
 62
     7
370
    15
100
AcDbPolyline
 90
       21
 70
   128
 43
0.0
 10
2.762396877733931
 20
6.724979768454565
 10
2.765424842246819
 20
6.731463435286543
 10
2.767018097147429
 20
6.738559981994569
 10
2.76702071377491
 20
6.745574768212782
 10
2.765432404938443
 20
6.751821112732451
 10
2.762408668512645
 20
6.756687635886486
 10
2.758245470593772
 20
6.759697894717047
 10
2.753350334957063
 20
6.760557289343052
 10
2.748202439487636
 20
6.759181676447336
 10
2.743305708346364
 20
6.755705671580074
 10
2.739139431103688
 20
6.750469593390906
 10
2.736111466590799
 20
6.743985970036907
 10
2.73451821169019
 20
6.736889423328881
 10
2.734515595062708
 20
6.729874637110667
 10
2.736103903899175
 20
6.723628292591
 10
2.739127640324974
 20
6.718761769436964
 10
2.743290838243846
 20
6.715751467128423
 10
2.748185973880556
 20
6.714892115980398
 10
2.753333869349983
 20
6.716267728876115
 10
2.758230600491254
 20
6.719743690265396
 10
2.762396877733931
 20
6.724979768454565
  0
LWPOLYLINE
  5
DE
330
1F
100
AcDbEntity
  8
0
  6
Continuous
 62
     7
370
    15
100
AcDbPolyline
 90
       13
 70
   128
 43
0.0
 10
2.750733675565224
 20
6.762620147740054
 10
2.748920544180919
 20
6.762948906289312
 10
2.743885929535397
 20
6.76237650715862
 10
2.738907013954134
 20
6.759762608903879
 10
2.734426198942097
 20
6.755339430696489
 10
2.73084164266274
 20
6.749500032966
 10
2.728471823781694
 20
6.742763215131724
 10
2.727527332946102
 20
6.735727654127524
 10
2.728092077740882
 20
6.729018391053677
 10
2.730115879547559
 20
6.723231674223464
 10
2.733418925001989
 20
6.718881630370414
 10
2.737707721039985
 20
6.716354756893752
 10
2.738292090540878
 20
6.716180970246017
  0
LWPOLYLINE
  5
DF
330
1F
100
AcDbEntity
  8
0
  6
Continuous
 62
     7
370
    15
100
AcDbPolyline
 90
       13
 70
   128
 43
0.0
 10
2.791597092228889
 20
6.532342481982656
 10
2.791012714750472
 20
6.532516266493124
 10
2.786723918712476
 20
6.535043139969786
 10
2.783420881235568
 20
6.539393142482122
 10
2.78139707145137
 20
6.545179944131029
 10
2.780832326656589
 20
6.551889120248915
 10
2.781776825469704
 20
6.558924726868363
 10
2.784146636373228
 20
6.565661499087392
 10
2.787731200630107
 20
6.571500942433128
 10
2.792212007664622
 20
6.575924075025271
 10
2.797190923245884
 20
6.578538060235971
 10
2.802225545868929
 20
6.579110461503931
 10
2.804038661298188
 20
6.578781611724179
  0
LWPOLYLINE
  5
E0
330
1F
100
AcDbEntity
  8
0
  6
Continuous
 62
     7
370
    15
100
AcDbPolyline
 90
       21
 70
   128
 43
0.0
 10
2.809990595336611
 20
6.542671387768947
 10
2.8130185598495
 20
6.549155011122944
 10
2.814611830705154
 20
6.556251562105503
 10
2.814614439355113
 20
6.563266389664431
 10
2.813026138496169
 20
6.569512736321365
 10
2.810002394092847
 20
6.574379213860154
 10
2.805839196173975
 20
6.577389472690715
 10
2.800944060537266
 20
6.57824886731672
 10
2.795796173045361
 20
6.576873256558269
 10
2.790899425949044
 20
6.573397290894455
 10
2.786733164661413
 20
6.568161216979819
 10
2.783705200148525
 20
6.561677593625822
 10
2.78211192929287
 20
6.554581042643263
 10
2.782109320642911
 20
6.547566215084335
 10
2.783697621501855
 20
6.541319868427401
 10
2.786721365905177
 20
6.536453390888612
 10
2.790884563824049
 20
6.533443132058051
 10
2.795779691483235
 20
6.532583735294779
 10
2.800927586952663
 20
6.533959348190497
 10
2.805824326071457
 20
6.537435311717044
 10
2.809990595336611
 20
6.542671387768947
  0
LWPOLYLINE
  5
E1
330
1F
100
AcDbEntity
  8
0
  6
Continuous
 62
     7
370
    15
100
AcDbPolyline
 90
       13
 70
   128
 43
0.0
 10
2.798327393167904
 20
6.580311723576455
 10
2.796514277738645
 20
6.580640573356206
 10
2.791479655115599
 20
6.580068172088248
 10
2.786500739534337
 20
6.577454186877546
 10
2.782019932499822
 20
6.573031054285404
 10
2.778435368242942
 20
6.567191610939667
 10
2.776065557339419
 20
6.560454838720639
 10
2.775121058526305
 20
6.553419232101191
 10
2.775685803321085
 20
6.546710055983306
 10
2.777709613105284
 20
6.540923254334399
 10
2.781012650582191
 20
6.536573251822062
 10
2.785301446620188
 20
6.5340463783454
 10
2.785885824098603
 20
6.533872593834932
  0
LWPOLYLINE
  5
E2
330
1F
100
AcDbEntity
  8
0
  6
Continuous
 62
     7
370
    15
100
AcDbPolyline
 90
       13
 70
   128
 43
0.0
 10
3.898139967650196
 20
7.602942639278135
 10
3.897555598149303
 20
7.60311642592587
 10
3.893266818066352
 20
7.605643303677066
 10
3.889963772611922
 20
7.609993347530116
 10
3.887939970805246
 20
7.615780107838309
 10
3.887375226010465
 20
7.622489327434175
 10
3.888319700891012
 20
7.629524884163843
 10
3.890689535727103
 20
7.636261706272651
 10
3.89427409200646
 20
7.64210110400314
 10
3.898754907018498
 20
7.64652428221053
 10
3.903733806644714
 20
7.649138219668719
 10
3.908768421290237
 20
7.649710618799411
 10
3.910581552674541
 20
7.649381816772172
  0
LWPOLYLINE
  5
E3
330
1F
100
AcDbEntity
  8
0
  6
Continuous
 62
     7
370
    15
100
AcDbPolyline
 90
       21
 70
   128
 43
0.0
 10
3.916533422892781
 20
7.613271609915071
 10
3.919561371450624
 20
7.619755228994536
 10
3.92115464230628
 20
7.626851779977095
 10
3.921157258933761
 20
7.633866566195309
 10
3.91956896605234
 20
7.64011291498951
 10
3.916545229626541
 20
7.644979438143545
 10
3.912382015752622
 20
7.647989692699573
 10
3.907486880115914
 20
7.648849087325579
 10
3.902338984646486
 20
7.647473474429862
 10
3.897442253505215
 20
7.64399751304058
 10
3.893275976262538
 20
7.638761434851412
 10
3.890248027704696
 20
7.632277772293967
 10
3.888654756849041
 20
7.625181221311407
 10
3.888652140221559
 20
7.618166435093194
 10
3.89024043310298
 20
7.611920086298994
 10
3.89326420143887
 20
7.607053571694024
 10
3.897427383402697
 20
7.604043308588931
 10
3.902322519039406
 20
7.603183913962925
 10
3.907470414508834
 20
7.604559526858641
 10
3.912367145650105
 20
7.608035488247923
 10
3.916533422892781
 20
7.613271609915071
  0
LWPOLYLINE
  5
E4
330
1F
100
AcDbEntity
  8
0
  6
Continuous
 62
     7
370
    15
100
AcDbPolyline
 90
       13
 70
   128
 43
0.0
 10
3.904870316454347
 20
7.650911920075382
 10
3.903057185070044
 20
7.65124072210262
 10
3.898022570424521
 20
7.650668322971928
 10
3.893043670798305
 20
7.648054385513741
 10
3.888562855786267
 20
7.643631207306349
 10
3.88497829950691
 20
7.637791809575861
 10
3.882608464670818
 20
7.631054987467052
 10
3.881663989790272
 20
7.624019430737385
 10
3.882228734585053
 20
7.61731021114152
 10
3.884252536391729
 20
7.611523450833326
 10
3.887555581846159
 20
7.607173406980275
 10
3.891844361929109
 20
7.60464652922908
 10
3.892428731430003
 20
7.604472742581345
  0
LWPOLYLINE
  5
E5
330
1F
100
AcDbEntity
  8
0
  6
Continuous
 62
     7
370
    15
100
AcDbPolyline
 90
       13
 70
   128
 43
0.0
 10
2.777998886059905
 20
6.705230842353733
 10
2.777414500603966
 20
6.705404668204915
 10
2.773125712543492
 20
6.707931500340864
 10
2.769822675066586
 20
6.712281589809161
 10
2.767798865282387
 20
6.718068304502107
 10
2.767234120487606
 20
6.724777524097973
 10
2.768178619300721
 20
6.731813130717421
 10
2.770548430204244
 20
6.738549902936449
 10
2.774132994461123
 20
6.744389346282185
 10
2.778613801495639
 20
6.748812522352309
 10
2.783592717076901
 20
6.75142642060705
 10
2.788627331722423
 20
6.751998819737742
 10
2.790440455129204
 20
6.751670059051217
  0
LWPOLYLINE
  5
E6
330
1F
100
AcDbEntity
  8
0
  6
Continuous
 62
     7
370
    15
100
AcDbPolyline
 90
       21
 70
   128
 43
0.0
 10
2.796392389167628
 20
6.715559791618003
 10
2.799420353680516
 20
6.722043458449983
 10
2.801013624536171
 20
6.729139965954561
 10
2.80101623318613
 20
6.736154750035508
 10
2.799427924349663
 20
6.742401138033157
 10
2.796404187923864
 20
6.747267617709212
 10
2.792240990004992
 20
6.750277920017753
 10
2.787345854368282
 20
6.751137314643758
 10
2.782197966876378
 20
6.749761660407327
 10
2.777301219780062
 20
6.746285694743512
 10
2.77313495849243
 20
6.741049620828878
 10
2.770106993979541
 20
6.7345659539969
 10
2.768513723123886
 20
6.72746944649232
 10
2.768511114473928
 20
6.720454662411373
 10
2.770099415332872
 20
6.71420827227646
 10
2.773123159736194
 20
6.70934179473767
 10
2.777286357655066
 20
6.706331492429129
 10
2.782181485314252
 20
6.705472095665857
 10
2.787329380783679
 20
6.706847708561574
 10
2.792226119902473
 20
6.710323715566103
 10
2.796392389167628
 20
6.715559791618003
  0
ARC
  5
E7
330
1F
100
AcDbEntity
  8
0
  6
Continuous
 62
     7
370
    15
100
AcDbCircle
 10
2.782562542721203
 20
6.735795386962093
 30
0.0
 40
0.0175391234522426
100
AcDbArc
 50
82.90400725505033
 51
151.4750789931592
  0
ARC
  5
E8
330
1F
100
AcDbEntity
  8
0
  6
Continuous
 62
     7
370
    15
100
AcDbCircle
 10
2.778235734924043
 20
6.722394656284573
 30
0.0
 40
0.0167270062013684
100
AcDbArc
 50
175.5519154745172
 51
249.169802026243
  0
LWPOLYLINE
  5
E9
330
1F
100
AcDbEntity
  8
0
  6
Continuous
 62
     7
370
    15
100
AcDbPolyline
 90
       13
 70
   128
 43
0.0
 10
2.791597092228889
 20
8.051618987183234
 10
2.791012714750472
 20
8.051792771693703
 10
2.786723918712476
 20
8.054319645170364
 10
2.783420881235568
 20
8.05866969116068
 10
2.78139707145137
 20
8.064456449331608
 10
2.780832326656589
 20
8.071165668927474
 10
2.781776825469704
 20
8.078201275546922
 10
2.784146636373228
 20
8.084938047765952
 10
2.787731200630107
 20
8.090777491111687
 10
2.792212007664622
 20
8.09520062370383
 10
2.797190923245884
 20
8.09781452195857
 10
2.802225545868929
 20
8.098386923226529
 10
2.804038661298188
 20
8.098058160402738
  0
LWPOLYLINE
  5
EA
330
1F
100
AcDbEntity
  8
0
  6
Continuous
 62
     7
370
    15
100
AcDbPolyline
 90
       21
 70
   128
 43
0.0
 10
2.809990595336611
 20
8.061947936447506
 10
2.8130185598495
 20
8.068431559801503
 10
2.814611830705154
 20
8.075528110784061
 10
2.814614439355113
 20
8.082542851387028
 10
2.813026138496169
 20
8.088789284999924
 10
2.810002394092847
 20
8.093655762538713
 10
2.805839196173975
 20
8.096666021369273
 10
2.800944060537266
 20
8.097525415995278
 10
2.795796173045361
 20
8.096149805236828
 10
2.790899425949044
 20
8.092673839573015
 10
2.786733164661413
 20
8.087437765658378
 10
2.783705200148525
 20
8.080954055348419
 10
2.78211192929287
 20
8.073857591321822
 10
2.782109320642911
 20
8.066842763762894
 10
2.783697621501855
 20
8.06059641710596
 10
2.786721365905177
 20
8.055729896089191
 10
2.790884563824049
 20
8.052719637258629
 10
2.795779691483235
 20
8.051860240495358
 10
2.800927586952663
 20
8.053235853391075
 10
2.805824326071457
 20
8.056711816917623
 10
2.809990595336611
 20
8.061947936447506
  0
LWPOLYLINE
  5
EB
330
1F
100
AcDbEntity
  8
0
  6
Continuous
 62
     7
370
    15
100
AcDbPolyline
 90
       13
 70
   128
 43
0.0
 10
2.798327393167904
 20
8.099588272255013
 10
2.796514277738645
 20
8.099917035078805
 10
2.791479655115599
 20
8.099344633810845
 10
2.786500739534337
 20
8.096730735556105
 10
2.782019932499822
 20
8.092307602963961
 10
2.778435368242942
 20
8.086468159618226
 10
2.776065557339419
 20
8.079731387399197
 10
2.775121058526305
 20
8.072695780779751
 10
2.775685803321085
 20
8.065986561183883
 10
2.777709613105284
 20
8.060199803012958
 10
2.781012650582191
 20
8.05584975702264
 10
2.785301446620188
 20
8.053322883545979
 10
2.785885824098603
 20
8.053149099035509
  0
LWPOLYLINE
  5
EC
330
1F
100
AcDbEntity
  8
0
  6
Continuous
 62
     7
370
    15
100
AcDbPolyline
 90
       13
 70
   128
 43
0.0
 10
2.69640963309096
 20
8.016853318110356
 10
2.695825263590066
 20
8.017027148236071
 10
2.691536467552071
 20
8.019553978234752
 10
2.68823342209764
 20
8.023904065565783
 10
2.686209620290965
 20
8.029690782395997
 10
2.685644875496184
 20
8.036400001991863
 10
2.686589366331776
 20
8.043435562996064
 10
2.688959185212822
 20
8.050172424308319
 10
2.692543741492178
 20
8.056011778560828
 10
2.697024556504217
 20
8.060435000246199
 10
2.702003472085478
 20
8.063048898500939
 10
2.707038086731001
 20
8.06362129763163
 10
2.708851218115305
 20
8.063292539082373
  0
LWPOLYLINE
  5
ED
330
1F
100
AcDbEntity
  8
0
  6
Continuous
 62
     7
370
    15
100
AcDbPolyline
 90
       21
 70
   128
 43
0.0
 10
2.714803152153728
 20
8.027182271649159
 10
2.717831116666617
 20
8.033665895003158
 10
2.719424371567226
 20
8.040762441711184
 10
2.719426988194707
 20
8.047777227929397
 10
2.717838679358241
 20
8.054023572449066
 10
2.714814942932442
 20
8.058890139081082
 10
2.71065174501357
 20
8.061900397911642
 10
2.705756609376861
 20
8.062759792537647
 10
2.700608713907433
 20
8.06138417964193
 10
2.695711982766162
 20
8.057908218252649
 10
2.691545705523485
 20
8.052672053107519
 10
2.688517741010596
 20
8.046188429753522
 10
2.686924486109987
 20
8.039091883045497
 10
2.686921869482505
 20
8.032077140305263
 10
2.688510178318972
 20
8.025830752307614
 10
2.691533914744771
 20
8.020964272631559
 10
2.695697112663644
 20
8.017953970323018
 10
2.700592248300352
 20
8.017094575697012
 10
2.705740143769781
 20
8.018470188592729
 10
2.710636874911051
 20
8.021946193459992
 10
2.714803152153728
 20
8.027182271649159
  0
LWPOLYLINE
  5
EE
330
1F
100
AcDbEntity
  8
0
  6
Continuous
 62
     7
370
    15
100
AcDbPolyline
 90
       13
 70
   128
 43
0.0
 10
2.703139949985021
 20
8.064822650934649
 10
2.701326818600717
 20
8.065151409483908
 10
2.696292203955194
 20
8.064579010353215
 10
2.691313288373932
 20
8.061965112098475
 10
2.686832473361894
 20
8.057541890413103
 10
2.683247917082538
 20
8.051702536160595
 10
2.680878098201491
 20
8.04496567484834
 10
2.679933607365899
 20
8.037930113844138
 10
2.680498352160679
 20
8.031220894248273
 10
2.682522153967356
 20
8.025434177418059
 10
2.685825199421786
 20
8.021084090087029
 10
2.690113995459782
 20
8.018557260088346
 10
2.690698364960675
 20
8.018383429962632
  0
LINE
  5
EF
330
1F
100
AcDbEntity
  8
0
  6
Continuous
 62
     7
370
    15
100
AcDbLine
 10
1.410784876526587
 20
8.067074207203452
 30
0.0
 11
1.411589154421267
 21
8.066890336889848
 31
0.0
  0
ARC
  5
F0
330
1F
100
AcDbEntity
  8
0
  6
Continuous
 62
     7
370
    15
100
AcDbCircle
 10
1.405747106373364
 20
8.050349242375636
 30
0.0
 40
0.0167571941346097
100
AcDbArc
 50
352.6092439054845
 51
70.43536678802451
  0
LWPOLYLINE
  5
F1
330
1F
100
AcDbEntity
  8
0
  6
Continuous
 62
     7
370
    15
100
AcDbPolyline
 90
        7
 70
   128
 43
0.0
 10
3.936398284352573
 20
6.798417063845367
 10
3.937619866465455
 20
6.791389886057939
 10
3.93733776530384
 20
6.78457261723055
 10
3.935577062199445
 20
6.778571012107723
 10
3.932494204352099
 20
6.773918316089359
 10
3.928363107985015
 20
6.771027977808477
 10
3.92691776433483
 20
6.770532728777078
  0
LWPOLYLINE
  5
F2
330
1F
100
AcDbEntity
  8
0
  6
Continuous
 62
     7
370
    15
100
AcDbPolyline
 90
        7
 70
   128
 43
0.0
 10
3.914476195265531
 20
6.816971901996581
 10
3.915377567590333
 20
6.817173846311448
 10
3.920372414284647
 20
6.816994751160263
 10
3.92539609972392
 20
6.81475046480011
 10
3.930002241619306
 20
6.810640403551619
 10
3.933781577095597
 20
6.805029755292222
 10
3.936398284352573
 20
6.798417063845367
  0
LWPOLYLINE
  5
F3
330
1F
100
AcDbEntity
  8
0
  6
Continuous
 62
     7
370
    15
100
AcDbPolyline
 90
       21
 70
   128
 43
0.0
 10
3.935351920550695
 20
6.79812206058613
 10
3.93266041603985
 20
6.804822181913631
 10
3.928744609080845
 20
6.810424447029229
 10
3.923987795712143
 20
6.814380452171581
 10
3.918855615962651
 20
6.816302970662826
 10
3.913850430398775
 20
6.81600381707481
 10
3.90946219453895
 20
6.813512258482511
 10
3.90612045809889
 20
6.809072189715277
 10
3.904152331423907
 20
6.803118253536482
 10
3.90375045573482
 20
6.796233237316145
 10
3.904954192129175
 20
6.789091113105296
 10
3.90764569664002
 20
6.782390991777795
 10
3.911561503599024
 20
6.776788726662198
 10
3.916318316967727
 20
6.772832732389339
 10
3.921450496717219
 20
6.7709102030286
 10
3.926455682281094
 20
6.771209356616616
 10
3.93084391814092
 20
6.773700915208916
 10
3.934185654580979
 20
6.778140983976149
 10
3.936153789233486
 20
6.784094928887173
 10
3.936555648967528
 20
6.790979938512549
 10
3.935351920550695
 20
6.79812206058613
  0
LWPOLYLINE
  5
F4
330
1F
100
AcDbEntity
  8
0
  6
Continuous
 62
     7
370
    15
100
AcDbPolyline
 90
        7
 70
   128
 43
0.0
 10
3.942109536527812
 20
6.799947171423111
 10
3.939492829270836
 20
6.806559862869966
 10
3.935713493794545
 20
6.812170511129362
 10
3.931107351899159
 20
6.816280572377853
 10
3.926083666459886
 20
6.818524858738006
 10
3.921088819765572
 20
6.81870395388919
 10
3.92018744744077
 20
6.818502009574324
  0
LWPOLYLINE
  5
F5
330
1F
100
AcDbEntity
  8
0
  6
Continuous
 62
     7
370
    15
100
AcDbPolyline
 90
        7
 70
   128
 43
0.0
 10
3.932629016510069
 20
6.77206283635482
 10
3.934074360160254
 20
6.77255808538622
 10
3.938205456527338
 20
6.775448423667101
 10
3.941288314374684
 20
6.780101119685465
 10
3.943049017479079
 20
6.786102724808293
 10
3.943331118640694
 20
6.792919993635683
 10
3.942109536527812
 20
6.799947171423111
  0
LWPOLYLINE
  5
F6
330
1F
100
AcDbEntity
  8
0
  6
Continuous
 62
     7
370
    15
100
AcDbPolyline
 90
        7
 70
   128
 43
0.0
 10
3.800416213064784
 20
6.890431446398046
 10
3.801637791640756
 20
6.883404269558195
 10
3.801355697568542
 20
6.876587009700973
 10
3.799594996271554
 20
6.870585393224424
 10
3.796512133687555
 20
6.865932709344558
 10
3.79238103532609
 20
6.863042360728499
 10
3.790935691675905
 20
6.862547111697099
  0
LWPOLYLINE
  5
F7
330
1F
100
AcDbEntity
  8
0
  6
Continuous
 62
     7
370
    15
100
AcDbPolyline
 90
        7
 70
   128
 43
0.0
 10
3.778494121609415
 20
6.908986290618509
 10
3.779395497922978
 20
6.909188228429993
 10
3.784390342622912
 20
6.909009133813126
 10
3.789414026067804
 20
6.90676484798729
 10
3.794020171951952
 20
6.902654785670164
 10
3.797799504685969
 20
6.897044138145455
 10
3.800416213064784
 20
6.890431446398046
  0
LWPOLYLINE
  5
F8
330
1F
100
AcDbEntity
  8
0
  6
Continuous
 62
     7
370
    15
100
AcDbPolyline
 90
       21
 70
   128
 43
0.0
 10
3.79936984789177
 20
6.890136454375646
 10
3.79667834487671
 20
6.896836575302409
 10
3.792762533430348
 20
6.902438830750724
 10
3.788005722056027
 20
6.906394840793509
 10
3.782873540312154
 20
6.908317359819069
 10
3.77786835873704
 20
6.908018199727673
 10
3.773480124871595
 20
6.905526640601055
 10
3.770138384442774
 20
6.901086583771951
 10
3.768170253779029
 20
6.895132637792293
 10
3.767768386067465
 20
6.888247630304185
 10
3.768972118473059
 20
6.881105496292476
 10
3.771663620989523
 20
6.874405386368787
 10
3.775579431937289
 20
6.868803120184555
 10
3.780336245305992
 20
6.864847115042202
 10
3.785468427049864
 20
6.862924596016641
 10
3.790473606630598
 20
6.863223751207607
 10
3.794861841991828
 20
6.865715309933487
 10
3.798203581423459
 20
6.87015536702975
 10
3.800171712211853
 20
6.876109312976011
 10
3.800573580297363
 20
6.882994331233431
 10
3.79936984789177
 20
6.890136454375646
  0
LWPOLYLINE
  5
F9
330
1F
100
AcDbEntity
  8
0
  6
Continuous
 62
     7
370
    15
100
AcDbPolyline
 90
        7
 70
   128
 43
0.0
 10
3.806127465240023
 20
6.891961553975789
 10
3.803510756861208
 20
6.898574245723197
 10
3.79973142412719
 20
6.904184893247908
 10
3.795125278243043
 20
6.908294955565033
 10
3.790101594798151
 20
6.910539241390869
 10
3.785106750098218
 20
6.910718336007737
 10
3.784205373784653
 20
6.910516398196251
  0
LWPOLYLINE
  5
FA
330
1F
100
AcDbEntity
  8
0
  6
Continuous
 62
     7
370
    15
100
AcDbPolyline
 90
        7
 70
   128
 43
0.0
 10
3.796646943851143
 20
6.864077219274842
 10
3.798092287501328
 20
6.864572468306241
 10
3.802223385862793
 20
6.8674628169223
 10
3.805306248446793
 20
6.872115500802167
 10
3.807066949743781
 20
6.878117117278715
 10
3.807349043815996
 20
6.884934377135938
 10
3.806127465240023
 20
6.891961553975789
  0
LWPOLYLINE
  5
FB
330
1F
100
AcDbEntity
  8
0
  6
Continuous
 62
     7
370
    15
100
AcDbPolyline
 90
        7
 70
   128
 43
0.0
 10
3.664434145017864
 20
6.871279262484486
 10
3.6656557111757
 20
6.864252088971592
 10
3.665373625969131
 20
6.85743481586967
 10
3.663612922864736
 20
6.851433210746841
 10
3.660530057039867
 20
6.846780516865744
 10
3.656398960672783
 20
6.843890178584864
 10
3.654953625000121
 20
6.843394927416197
  0
LWPOLYLINE
  5
FC
330
1F
100
AcDbEntity
  8
0
  6
Continuous
 62
     7
370
    15
100
AcDbPolyline
 90
        7
 70
   128
 43
0.0
 10
3.642512055930822
 20
6.889834100635701
 10
3.643413420278101
 20
6.890036047087834
 10
3.648408274949938
 20
6.889856949799383
 10
3.65343196038921
 20
6.887612663439229
 10
3.658038102284597
 20
6.883502602190739
 10
3.661817437760888
 20
6.877891953931341
 10
3.664434145017864
 20
6.871279262484486
  0
LWPOLYLINE
  5
FD
330
1F
100
AcDbEntity
  8
0
  6
Continuous
 62
     7
370
    15
100
AcDbPolyline
 90
       21
 70
   128
 43
0.0
 10
3.663387781215986
 20
6.870984259225249
 10
3.660696276705141
 20
6.87768438055275
 10
3.656780461768613
 20
6.883286647805614
 10
3.652023656377433
 20
6.8872426508107
 10
3.646891460672896
 20
6.889165173576477
 10
3.641886283086543
 20
6.888866017851197
 10
3.637498055204241
 20
6.88637445712163
 10
3.634156318764181
 20
6.881934388354396
 10
3.632188184111674
 20
6.875980454312868
 10
3.631786308422587
 20
6.869095438092529
 10
3.632990052794465
 20
6.861953311744415
 10
3.635681541350265
 20
6.855253194691447
 10
3.639597356286793
 20
6.849650927438584
 10
3.644354177633018
 20
6.845694931028458
 10
3.649486357382509
 20
6.843772401667719
 10
3.654491534968862
 20
6.844071557393001
 10
3.658879762851165
 20
6.846563118122568
 10
3.662221515246271
 20
6.851003182615269
 10
3.664189633943731
 20
6.856957131800825
 10
3.664591509632818
 20
6.863842137151668
 10
3.663387781215986
 20
6.870984259225249
  0
LWPOLYLINE
  5
FE
330
1F
100
AcDbEntity
  8
0
  6
Continuous
 62
     7
370
    15
100
AcDbPolyline
 90
        7
 70
   128
 43
0.0
 10
3.670145397193103
 20
6.87280937006223
 10
3.667528689936126
 20
6.879422061509085
 10
3.663749354459836
 20
6.885032709768481
 10
3.659143212564449
 20
6.889142771016972
 10
3.654119527125177
 20
6.891387057377126
 10
3.64912467245334
 20
6.891566154665577
 10
3.64822330810606
 20
6.891364208213444
  0
LWPOLYLINE
  5
FF
330
1F
100
AcDbEntity
  8
0
  6
Continuous
 62
     7
370
    15
100
AcDbPolyline
 90
        7
 70
   128
 43
0.0
 10
3.66066487717536
 20
6.84492503499394
 10
3.662110212848022
 20
6.845420286162606
 10
3.666241309215106
 20
6.848310624443487
 10
3.669324175039975
 20
6.852963318324584
 10
3.67108487814437
 20
6.858964923447412
 10
3.671366963350939
 20
6.865782196549335
 10
3.670145397193103
 20
6.87280937006223
  0
LWPOLYLINE
  5
100
330
1F
100
AcDbEntity
  8
0
  6
Continuous
 62
     7
370
    15
100
AcDbPolyline
 90
       12
 70
   128
 43
0.0
 10
2.706492982597379
 20
7.223313747758466
 10
2.709860007784747
 20
7.223689654516977
 10
2.714925798589412
 20
7.222464292975916
 10
2.719795150872398
 20
7.219251219384899
 10
2.724035236156116
 20
7.214335968269854
 10
2.727269387723556
 20
7.208155260423827
 10
2.729210159472824
 20
7.201258309310419
 10
2.729685236911218
 20
7.194257890362485
 10
2.72865224343757
 20
7.187776075626846
 10
2.726203207755018
 20
7.182388727462705
 10
2.722555373764731
 20
7.178574640364427
 10
2.718934599531816
 20
7.176874550845868
  0
LWPOLYLINE
  5
101
330
1F
100
AcDbEntity
  8
0
  6
Continuous
 62
     7
370
    15
100
AcDbPolyline
 90
       21
 70
   128
 43
0.0
 10
2.696971091146342
 20
7.195432928945448
 10
2.699662515881959
 20
7.188732828990613
 10
2.70357839463867
 20
7.183130555509112
 10
2.708335168119758
 20
7.179174550183597
 10
2.713467331914205
 20
7.177252035966884
 10
2.718472493545512
 20
7.177551206836195
 10
2.722860769292951
 20
7.180042743872668
 10
2.726202521688056
 20
7.184482808365368
 10
2.728170608475426
 20
7.190436760665244
 10
2.728572547984695
 20
7.197321754352701
 10
2.727368771702726
 20
7.204463894684629
 10
2.724677219326745
 20
7.211164028835729
 10
2.720761468210399
 20
7.216766268120966
 10
2.71600469472931
 20
7.220722268011734
 10
2.710872403294499
 20
7.222644816424709
 10
2.705867241663192
 20
7.222345650990147
 10
2.701479093556118
 20
7.219854074322663
 10
2.698137341161013
 20
7.21541401526471
 10
2.696169126733278
 20
7.209460091726351
 10
2.695767314864373
 20
7.20257506384263
 10
2.696971091146342
 20
7.195432928945448
  0
LWPOLYLINE
  5
102
330
1F
100
AcDbEntity
  8
0
  6
Continuous
 62
     7
370
    15
100
AcDbPolyline
 90
       12
 70
   128
 43
0.0
 10
2.724645851707055
 20
7.178404658423611
 10
2.72826662593997
 20
7.180104747942169
 10
2.731914459930257
 20
7.183918835040448
 10
2.734363495612809
 20
7.18930618320459
 10
2.735396489086456
 20
7.195787997940229
 10
2.734921411648063
 20
7.202788416888163
 10
2.732980639898795
 20
7.209685368001571
 10
2.729746488331354
 20
7.215866075847597
 10
2.725506403047637
 20
7.220781326962642
 10
2.720637050764651
 20
7.223994400553659
 10
2.715571259959986
 20
7.225219762094719
 10
2.712204234772618
 20
7.224843855336209
  0
LWPOLYLINE
  5
103
330
1F
100
AcDbEntity
  8
0
  6
Continuous
 62
     7
370
    15
100
AcDbPolyline
 90
       12
 70
   128
 43
0.0
 10
2.706492982597379
 20
7.334480324225934
 10
2.709860007784747
 20
7.334856230984445
 10
2.714925798589412
 20
7.333630869443384
 10
2.719795150872398
 20
7.330417790417619
 10
2.724035236156116
 20
7.325502542019949
 10
2.727269387723556
 20
7.319321836891296
 10
2.729210159472824
 20
7.312424883060512
 10
2.729685236911218
 20
7.305424464112579
 10
2.72865224343757
 20
7.298942645300879
 10
2.726203207755018
 20
7.293555299854111
 10
2.722555373764731
 20
7.289741214793863
 10
2.718934599531816
 20
7.288041127653007
  0
LWPOLYLINE
  5
104
330
1F
100
AcDbEntity
  8
0
  6
Continuous
 62
     7
370
    15
100
AcDbPolyline
 90
       21
 70
   128
 43
0.0
 10
2.696971091146342
 20
7.30659950405423
 10
2.699662515881959
 20
7.299899404099394
 10
2.70357839463867
 20
7.294297127221176
 10
2.708335168119758
 20
7.290341126990736
 10
2.713467331914205
 20
7.288418612094681
 10
2.718472493545512
 20
7.288717777868916
 10
2.722860769292951
 20
7.291209323736853
 10
2.726202521688056
 20
7.295649382115461
 10
2.728170608475426
 20
7.301603338491398
 10
2.728572547984695
 20
7.308488330820169
 10
2.727368771702726
 20
7.315630468434724
 10
2.724677219326745
 20
7.322330602585823
 10
2.720761468210399
 20
7.327932844588435
 10
2.71600469472931
 20
7.331888844479202
 10
2.710872403294499
 20
7.333811392892178
 10
2.705867241663192
 20
7.333512227457616
 10
2.701479093556118
 20
7.331020648072756
 10
2.698137341161013
 20
7.326580589014804
 10
2.696169126733278
 20
7.320626668193819
 10
2.695767314864373
 20
7.313741640310097
 10
2.696971091146342
 20
7.30659950405423
  0
LWPOLYLINE
  5
105
330
1F
100
AcDbEntity
  8
0
  6
Continuous
 62
     7
370
    15
100
AcDbPolyline
 90
       12
 70
   128
 43
0.0
 10
2.724645851707055
 20
7.28957123523075
 10
2.72826662593997
 20
7.291271322371606
 10
2.731914459930257
 20
7.295085407431855
 10
2.734363495612809
 20
7.300472752878622
 10
2.735396489086456
 20
7.306954571690323
 10
2.734921411648063
 20
7.313954990638256
 10
2.732980639898795
 20
7.320851944469039
 10
2.729746488331354
 20
7.327032649597692
 10
2.725506403047637
 20
7.331947897995362
 10
2.720637050764651
 20
7.335160977021127
 10
2.715571259959986
 20
7.336386338562188
 10
2.712204234772618
 20
7.336010431803677
  0
LWPOLYLINE
  5
106
330
1F
100
AcDbEntity
  8
0
  6
Continuous
 62
     7
370
    15
100
AcDbPolyline
 90
       12
 70
   128
 43
0.0
 10
2.774484069284955
 20
7.344056402073415
 10
2.77785103065214
 20
7.344432325930058
 10
2.782916821456805
 20
7.343206964388997
 10
2.787786173739791
 20
7.33999389079798
 10
2.792026259023508
 20
7.335078639682935
 10
2.795260410590949
 20
7.328897937271657
 10
2.797201182340217
 20
7.322000980723499
 10
2.797676259778611
 20
7.315000561775566
 10
2.796643330125145
 20
7.308518724507047
 10
2.794194166802228
 20
7.303131415973918
 10
2.790546460452306
 20
7.299317294679375
 10
2.786925622399209
 20
7.297617224976322
  0
LWPOLYLINE
  5
107
330
1F
100
AcDbEntity
  8
0
  6
Continuous
 62
     7
370
    15
100
AcDbPolyline
 90
       21
 70
   128
 43
0.0
 10
2.764962050193553
 20
7.316175617456663
 10
2.767653602569535
 20
7.309475486022935
 10
2.771569417506063
 20
7.303873224204819
 10
2.776326190987151
 20
7.299917224314052
 10
2.78145841860178
 20
7.297994692999208
 10
2.786463580233087
 20
7.29829385843377
 10
2.790851792160344
 20
7.300785420720496
 10
2.794193544555449
 20
7.305225479778449
 10
2.796161695163001
 20
7.31117942041494
 10
2.796563570852089
 20
7.318064425765783
 10
2.795359794570119
 20
7.32520656609771
 10
2.79266830601432
 20
7.331906683150679
 10
2.788752491077793
 20
7.337508939534047
 10
2.783995653776521
 20
7.341464961957695
 10
2.778863489982075
 20
7.343387476174407
 10
2.773858328350768
 20
7.343088310739843
 10
2.769470052603328
 20
7.340596762833876
 10
2.766128364028405
 20
7.336156686677791
 10
2.764160213420853
 20
7.330202746041301
 10
2.763758337731766
 20
7.323317740690458
 10
2.764962050193553
 20
7.316175617456663
  0
LWPOLYLINE
  5
108
330
1F
100
AcDbEntity
  8
0
  6
Continuous
 62
     7
370
    15
100
AcDbPolyline
 90
       12
 70
   128
 43
0.0
 10
2.792636874574448
 20
7.299147332554065
 10
2.796257712627545
 20
7.300847402257118
 10
2.799905418977468
 20
7.304661523551661
 10
2.802354582300384
 20
7.310048832084791
 10
2.80338751195385
 20
7.316530669353309
 10
2.802912434515456
 20
7.323531088301242
 10
2.800971662766189
 20
7.3304280448494
 10
2.797737511198747
 20
7.336608747260679
 10
2.793497425915031
 20
7.341523998375723
 10
2.788628073632044
 20
7.344737071966741
 10
2.783562282827379
 20
7.345962433507801
 10
2.780195321460194
 20
7.345586509651157
  0
LWPOLYLINE
  5
109
330
1F
100
AcDbEntity
  8
0
  6
Continuous
 62
     7
370
    15
100
AcDbPolyline
 90
       13
 70
   128
 43
0.0
 10
6.349724771885477
 20
6.580276524551261
 10
6.349140370474492
 20
6.58045032438892
 10
6.344851590391541
 20
6.582977180401125
 10
6.34154854493711
 20
6.587327224254176
 10
6.339524743130435
 20
6.593113962823379
 10
6.338959998335655
 20
6.599823204158234
 10
6.339904505126292
 20
6.60685879117596
 10
6.342274308052291
 20
6.613595561257721
 10
6.345858864331649
 20
6.61943500246619
 10
6.350339679343687
 20
6.623858180673581
 10
6.355318578969903
 20
6.626472074653787
 10
6.360353225525517
 20
6.627044482333547
 10
6.36216632499973
 20
6.626715715235222
  0
LWPOLYLINE
  5
10A
330
1F
100
AcDbEntity
  8
0
  6
Continuous
 62
     7
370
    15
100
AcDbPolyline
 90
       21
 70
   128
 43
0.0
 10
6.368118259038153
 20
6.590605447802009
 10
6.371146239506087
 20
6.59708909716953
 10
6.372739510361742
 20
6.604185648152089
 10
6.372742095079132
 20
6.611200404082246
 10
6.371153802197711
 20
6.617446796354428
 10
6.368130065771912
 20
6.622313276030483
 10
6.363966851897994
 20
6.625323574064491
 10
6.359071716261285
 20
6.626182968690496
 10
6.353923852701948
 20
6.624807364343845
 10
6.349027089650586
 20
6.621331350927518
 10
6.344860844318001
 20
6.616095281287415
 10
6.341832863850067
 20
6.609611653658884
 10
6.340239592994412
 20
6.602515102676325
 10
6.34023697636693
 20
6.595500316458111
 10
6.341825301158442
 20
6.589253954473987
 10
6.344849037584242
 20
6.584387453058941
 10
6.349012219548068
 20
6.581377168214858
 10
6.353907355184777
 20
6.580517773588852
 10
6.359055250654205
 20
6.581893386484569
 10
6.363951981795476
 20
6.58536936961284
 10
6.368118259038153
 20
6.590605447802009
  0
LWPOLYLINE
  5
10B
330
1F
100
AcDbEntity
  8
0
  6
Continuous
 62
     7
370
    15
100
AcDbPolyline
 90
       13
 70
   128
 43
0.0
 10
6.35645518450981
 20
6.628245792891234
 10
6.354642085035597
 20
6.628574559989559
 10
6.349607438479983
 20
6.628002152309799
 10
6.344628538853767
 20
6.625388258329592
 10
6.340147723841729
 20
6.620965080122201
 10
6.336563167562373
 20
6.615125638913732
 10
6.334193364636372
 20
6.60838886883197
 10
6.333248857845735
 20
6.601353281814246
 10
6.333813602640515
 20
6.594644040479391
 10
6.335837404447191
 20
6.588857301910186
 10
6.339140449901621
 20
6.584507258057136
 10
6.343429229984572
 20
6.581980402044932
 10
6.344013631395557
 20
6.581806602207272
  0
ARC
  5
10C
330
1F
100
AcDbEntity
  8
0
  6
Continuous
 62
     7
370
    15
100
AcDbCircle
 10
6.383716828547103
 20
6.585412813145051
 30
0.0
 40
0.0177317459135897
100
AcDbArc
 50
172.3160648927176
 51
247.4649686379217
  0
ARC
  5
10D
330
1F
100
AcDbEntity
  8
0
  6
Continuous
 62
     7
370
    15
100
AcDbCircle
 10
6.386831910062425
 20
6.599202081729394
 30
0.0
 40
0.0164677239225005
100
AcDbArc
 50
81.15945766813592
 51
147.5081373822137
  0
LWPOLYLINE
  5
10E
330
1F
100
AcDbEntity
  8
0
  6
Continuous
 62
     7
370
    15
100
AcDbPolyline
 90
       21
 70
   128
 43
0.0
 10
6.395314687331164
 20
6.579363921449501
 10
6.398342635889008
 20
6.585847562267955
 10
6.399935906744662
 20
6.592944091511523
 10
6.399938523372145
 20
6.599958877729738
 10
6.398350230490723
 20
6.606205248262928
 10
6.395326462154833
 20
6.611071741128908
 10
6.391163280191006
 20
6.614082025972992
 10
6.386268144554296
 20
6.614941442337988
 10
6.38112024908487
 20
6.61356578596429
 10
6.376223517943598
 20
6.610089824575009
 10
6.372057240700922
 20
6.604853724646851
 10
6.369029292143078
 20
6.598370083828395
 10
6.367436021287423
 20
6.591273554584827
 10
6.367433404659942
 20
6.584258768366614
 10
6.369021697541364
 20
6.578012397833422
 10
6.372045433967162
 20
6.573145896418377
 10
6.37620864784108
 20
6.570135620123358
 10
6.381103783477789
 20
6.569276225497353
 10
6.386251678947217
 20
6.57065186013206
 10
6.391148410088488
 20
6.574127821521342
 10
6.395314687331164
 20
6.579363921449501
  0
ARC
  5
10F
330
1F
100
AcDbEntity
  8
0
  6
Continuous
 62
     7
370
    15
100
AcDbCircle
 10
6.380579053457175
 20
6.603942996095717
 30
0.0
 40
0.0134177806898434
100
AcDbArc
 50
76.76228848225888
 51
128.8705284728823
  0
ARC
  5
110
330
1F
100
AcDbEntity
  8
0
  6
Continuous
 62
     7
370
    15
100
AcDbCircle
 10
6.375956333022116
 20
6.584762118317029
 30
0.0
 40
0.0149694451514983
100
AcDbArc
 50
186.5491547507301
 51
251.5144058245368
  0
LWPOLYLINE
  5
111
330
1F
100
AcDbEntity
  8
0
  6
Continuous
 62
     7
370
    15
100
AcDbPolyline
 90
       13
 70
   128
 43
0.0
 10
5.036331199766459
 20
7.103894761459955
 10
5.035746798355473
 20
7.104068539558623
 10
5.031458018272523
 20
7.106595417309818
 10
5.028154972818093
 20
7.110945461162868
 10
5.026131171011417
 20
7.116732177993081
 10
5.025566426216636
 20
7.123441441066928
 10
5.026510933007275
 20
7.130477006345661
 10
5.028880735933275
 20
7.137213819905404
 10
5.032465292212631
 20
7.143053217635892
 10
5.036946107224669
 20
7.147476395843283
 10
5.041925006850885
 20
7.150090289823491
 10
5.046959653406499
 20
7.150662697503248
 10
5.048772752880712
 20
7.150333930404925
  0
LWPOLYLINE
  5
112
330
1F
100
AcDbEntity
  8
0
  6
Continuous
 62
     7
370
    15
100
AcDbPolyline
 90
       21
 70
   128
 43
0.0
 10
5.054724686919135
 20
7.114223662971711
 10
5.057752667387069
 20
7.120707334078222
 10
5.059345938242724
 20
7.127803885060782
 10
5.059348554870205
 20
7.134818671278996
 10
5.057760230078693
 20
7.141065011524131
 10
5.054736493652895
 20
7.145931534678165
 10
5.050573279778975
 20
7.148941789234193
 10
5.045678176052359
 20
7.149801192409265
 10
5.040530280582931
 20
7.148425579513548
 10
5.035633517531568
 20
7.14494956609722
 10
5.031467272198982
 20
7.139713496457118
 10
5.028439291731048
 20
7.133229868828587
 10
5.026846020875394
 20
7.126133317846027
 10
5.026843436158003
 20
7.11911854017688
 10
5.028431729039424
 20
7.112872191382679
 10
5.031455465465223
 20
7.108005668228644
 10
5.035618679339141
 20
7.104995370194636
 10
5.040513783065759
 20
7.104136010497545
 10
5.045661678535187
 20
7.105511623393261
 10
5.050558441586549
 20
7.108987593331609
 10
5.054724686919135
 20
7.114223662971711
  0
LWPOLYLINE
  5
113
330
1F
100
AcDbEntity
  8
0
  6
Continuous
 62
     7
370
    15
100
AcDbPolyline
 90
       13
 70
   128
 43
0.0
 10
5.043061484750428
 20
7.151864042257201
 10
5.041248385276214
 20
7.152192809355525
 10
5.036213738720601
 20
7.151620401675766
 10
5.031234839094384
 20
7.14900650769556
 10
5.026754024082347
 20
7.144583329488169
 10
5.023169467802991
 20
7.13874393175768
 10
5.02079966487699
 20
7.132007118197937
 10
5.019855158086352
 20
7.124971552919203
 10
5.020419902881132
 20
7.118262289845357
 10
5.022443704687808
 20
7.112475573015144
 10
5.025746750142239
 20
7.108125529162093
 10
5.030035530225189
 20
7.105598651410898
 10
5.030619931636174
 20
7.105424873312229
  0
LWPOLYLINE
  5
114
330
1F
100
AcDbEntity
  8
0
  6
Continuous
 62
     7
370
    15
100
AcDbPolyline
 90
       13
 70
   128
 43
0.0
 10
5.138372140773114
 20
6.973746651324796
 10
5.137787771272221
 20
6.973920459711521
 10
5.133498959279179
 20
6.97644732891365
 10
5.130195913824748
 20
6.980797372766701
 10
5.128172112018073
 20
6.986584089596913
 10
5.127607367223292
 20
6.993293352670761
 10
5.12855187401393
 20
7.000328917949493
 10
5.13092167693993
 20
7.007065731509237
 10
5.134506233219286
 20
7.012905129239725
 10
5.138987048231325
 20
7.017328307447116
 10
5.143965979767632
 20
7.019942253454369
 10
5.149000594413155
 20
7.020514652585061
 10
5.150813725797459
 20
7.020185850557823
  0
LWPOLYLINE
  5
115
330
1F
100
AcDbEntity
  8
0
  6
Continuous
 62
     7
370
    15
100
AcDbPolyline
 90
       21
 70
   128
 43
0.0
 10
5.156765659835881
 20
6.9840756048636
 10
5.159793608393724
 20
6.990559245682055
 10
5.16138687924938
 20
6.997655796664614
 10
5.161389495876861
 20
7.004670582882828
 10
5.159801171085349
 20
7.010916923127962
 10
5.15677743465955
 20
7.015783446281998
 10
5.152614252695722
 20
7.018793709387091
 10
5.147719117059014
 20
7.019653104013098
 10
5.142571221589587
 20
7.01827749111738
 10
5.137674490448315
 20
7.014801529728099
 10
5.133508213205638
 20
7.00956540806095
 10
5.130480232737705
 20
7.003081780432419
 10
5.12888699379214
 20
6.995985237998926
 10
5.128884377164659
 20
6.988970451780713
 10
5.13047267004608
 20
6.982724102986512
 10
5.13349640647188
 20
6.977857579832476
 10
5.137659620345798
 20
6.974847303537459
 10
5.142554755982506
 20
6.973987908911453
 10
5.147702651451934
 20
6.975363543546161
 10
5.152599382593205
 20
6.978839504935441
 10
5.156765659835881
 20
6.9840756048636
  0
LWPOLYLINE
  5
116
330
1F
100
AcDbEntity
  8
0
  6
Continuous
 62
     7
370
    15
100
AcDbPolyline
 90
       13
 70
   128
 43
0.0
 10
5.145102457667175
 20
7.0217159624101
 10
5.143289326282871
 20
7.022044764437337
 10
5.138254711637348
 20
7.021472365306645
 10
5.13327578010104
 20
7.018858419299392
 10
5.128794965089002
 20
7.014435241092001
 10
5.125210408809645
 20
7.008595843361512
 10
5.122840605883646
 20
7.00185902980177
 10
5.121896099093008
 20
6.994823464523036
 10
5.122460843887789
 20
6.988114201449189
 10
5.124484645694464
 20
6.982327484618977
 10
5.127787691148895
 20
6.977977440765926
 10
5.132076503141935
 20
6.975450571563798
 10
5.132660872642829
 20
6.975276763177072
  0
LWPOLYLINE
  5
117
330
1F
100
AcDbEntity
  8
0
  6
Continuous
 62
     7
370
    15
100
AcDbPolyline
 90
       12
 70
   128
 43
0.0
 10
1.187981343982279
 20
7.655921172605467
 10
1.191348241529281
 20
7.656297113560242
 10
1.196414032333946
 20
7.655071752019182
 10
1.201283256976568
 20
7.651858709907055
 10
1.20552346990065
 20
7.64694342731312
 10
1.208757621468091
 20
7.640762722184466
 10
1.210698265576994
 20
7.633865799832575
 10
1.211173343015387
 20
7.626865380884641
 10
1.210140477182104
 20
7.62038352651799
 10
1.207691313859187
 20
7.61499621798486
 10
1.204043607509265
 20
7.611182096690317
 10
1.200422705635985
 20
7.609482046802771
  0
LWPOLYLINE
  5
118
330
1F
100
AcDbEntity
  8
0
  6
Continuous
 62
     7
370
    15
100
AcDbPolyline
 90
       21
 70
   128
 43
0.0
 10
1.178459197250512
 20
7.628040419467605
 10
1.181150621986128
 20
7.62134031951277
 10
1.185066628383203
 20
7.615738011835003
 10
1.189823274223928
 20
7.611782046140501
 10
1.194955438018374
 20
7.609859531923788
 10
1.199960727290046
 20
7.610158663162087
 10
1.204349003037485
 20
7.612650205633307
 10
1.207690627792226
 20
7.617090298887524
 10
1.209658842219961
 20
7.623044222425883
 10
1.210060654088865
 20
7.629929250309604
 10
1.208857005447261
 20
7.637071351010521
 10
1.206165580711644
 20
7.643771450965356
 10
1.202249574314568
 20
7.649373761360496
 10
1.197492928473845
 20
7.653329727054999
 10
1.192360764679398
 20
7.655252243989085
 10
1.187355475407727
 20
7.654953112750787
 10
1.182967199660287
 20
7.652461564844818
 10
1.179625574905547
 20
7.648021471590602
 10
1.177657360477812
 20
7.64206755348699
 10
1.177255548608907
 20
7.635182525603268
 10
1.178459197250512
 20
7.628040419467605
  0
LWPOLYLINE
  5
119
330
1F
100
AcDbEntity
  8
0
  6
Continuous
 62
     7
370
    15
100
AcDbPolyline
 90
       12
 70
   128
 43
0.0
 10
1.206133957811224
 20
7.611012154380514
 10
1.209754859684504
 20
7.612712204268061
 10
1.213402566034426
 20
7.616526325562603
 10
1.215851729357343
 20
7.621913634095733
 10
1.216884595190626
 20
7.628395488462384
 10
1.216409517752233
 20
7.635395907410317
 10
1.21446887364333
 20
7.64229282976221
 10
1.211234722075889
 20
7.648473534890862
 10
1.206994509151807
 20
7.653388817484798
 10
1.202125284509185
 20
7.656601859596924
 10
1.197059493704521
 20
7.657827221137985
 10
1.193692596157517
 20
7.657451280183209
  0
LWPOLYLINE
  5
11A
330
1F
100
AcDbEntity
  8
0
  6
Continuous
 62
     7
370
    15
100
AcDbPolyline
 90
       13
 70
   128
 43
0.0
 10
1.399147569396921
 20
8.131617703254793
 10
1.398563199896028
 20
8.131791489902528
 10
1.394274403858032
 20
8.134318363379192
 10
1.390971358403602
 20
8.138668407232241
 10
1.388947556596926
 20
8.144455167540435
 10
1.388382811802146
 20
8.151164387136301
 10
1.389327302637737
 20
8.1581999481405
 10
1.391697121518783
 20
8.164936765974777
 10
1.39528167779814
 20
8.170776163705266
 10
1.399762492810179
 20
8.175199341912655
 10
1.40474140839144
 20
8.177813283645377
 10
1.409776023036962
 20
8.17838568277607
 10
1.411589154421267
 20
8.178056880748831
  0
LWPOLYLINE
  5
11B
330
1F
100
AcDbEntity
  8
0
  6
Continuous
 62
     7
370
    15
100
AcDbPolyline
 90
       21
 70
   128
 43
0.0
 10
1.41754108845969
 20
8.141946656793598
 10
1.420569052972578
 20
8.148430280147596
 10
1.422162307873187
 20
8.155526826855622
 10
1.422164924500669
 20
8.162541613073836
 10
1.420576615664202
 20
8.168787957593503
 10
1.417552879238403
 20
8.17365448074754
 10
1.413389681319531
 20
8.176664739578098
 10
1.408494545682822
 20
8.177524134204103
 10
1.403346650213394
 20
8.176148521308387
 10
1.398449919072123
 20
8.172672559919107
 10
1.394283641829446
 20
8.167436481729938
 10
1.391255677316558
 20
8.16095281489796
 10
1.389662422415948
 20
8.153856268189935
 10
1.389659805788467
 20
8.146841481971721
 10
1.391248114624934
 20
8.140595137452054
 10
1.394271851050733
 20
8.135728614298017
 10
1.398435048969605
 20
8.132718355467456
 10
1.403330184606314
 20
8.131858960841451
 10
1.408478080075741
 20
8.133234573737169
 10
1.413374811217012
 20
8.13671057860443
 10
1.41754108845969
 20
8.141946656793598
  0
LWPOLYLINE
  5
11C
330
1F
100
AcDbEntity
  8
0
  6
Continuous
 62
     7
370
    15
100
AcDbPolyline
 90
       13
 70
   128
 43
0.0
 10
1.405878013931348
 20
8.179586958404843
 10
1.404064882547043
 20
8.179915760432081
 10
1.39903026790152
 20
8.179343361301388
 10
1.394051352320259
 20
8.176729419568667
 10
1.38957053730822
 20
8.172306241361278
 10
1.385985981028864
 20
8.166466843630788
 10
1.383616162147818
 20
8.159730025796513
 10
1.382671671312226
 20
8.152694464792313
 10
1.383236416107006
 20
8.145985245196445
 10
1.385260217913682
 20
8.140198484888253
 10
1.388563263368112
 20
8.135848441035202
 10
1.392852059406108
 20
8.133321567558541
 10
1.393436428907002
 20
8.133147780910805
  0
LWPOLYLINE
  5
11D
330
1F
100
AcDbEntity
  8
0
  6
Continuous
 62
     7
370
    15
100
AcDbPolyline
 90
       13
 70
   128
 43
0.0
 10
2.68961053399523
 20
7.866809676855911
 10
2.689026148539291
 20
7.866983459229111
 10
2.684737368456341
 20
7.869510336980307
 10
2.68143432300191
 20
7.873860380833359
 10
2.679410521195234
 20
7.879647141141551
 10
2.678845776400454
 20
7.886356360737416
 10
2.679790267236046
 20
7.893391921741617
 10
2.682160086117092
 20
7.900128739575894
 10
2.685744642396448
 20
7.905968137306382
 10
2.690225457408486
 20
7.910391315513773
 10
2.695204372989748
 20
7.913005257246493
 10
2.700238987635271
 20
7.913577656377186
 10
2.702052103064529
 20
7.913248850075415
  0
LWPOLYLINE
  5
11E
330
1F
100
AcDbEntity
  8
0
  6
Continuous
 62
     7
370
    15
100
AcDbPolyline
 90
       21
 70
   128
 43
0.0
 10
2.708004037102953
 20
7.877138626120181
 10
2.711032001615841
 20
7.883622249474179
 10
2.712625272471496
 20
7.890718800456737
 10
2.712627889098977
 20
7.897733586674952
 10
2.71103958026251
 20
7.903979931194619
 10
2.708015843836712
 20
7.908846454348656
 10
2.703852645917839
 20
7.911856713179217
 10
2.69895751028113
 20
7.912716107805222
 10
2.693809614811703
 20
7.911340494909505
 10
2.688912867715386
 20
7.90786452924569
 10
2.684746606427754
 20
7.902628455331055
 10
2.681718641914866
 20
7.896144788499077
 10
2.680125371059212
 20
7.889048237516518
 10
2.680122770386775
 20
7.882033455572837
 10
2.681711063268196
 20
7.875787106778636
 10
2.684734815649041
 20
7.870920587899134
 10
2.688898013567914
 20
7.867910329068573
 10
2.693793133249577
 20
7.867050930168034
 10
2.698941028719004
 20
7.868426543063751
 10
2.703837775815321
 20
7.871902508727566
 10
2.708004037102953
 20
7.877138626120181
  0
LWPOLYLINE
  5
11F
330
1F
100
AcDbEntity
  8
0
  6
Continuous
 62
     7
370
    15
100
AcDbPolyline
 90
       13
 70
   128
 43
0.0
 10
2.696340834934245
 20
7.91477896192769
 10
2.694527719504987
 20
7.915107768229462
 10
2.689493104859463
 20
7.914535369098769
 10
2.684514189278202
 20
7.911921427366048
 10
2.680033374266164
 20
7.907498249158658
 10
2.676448817986807
 20
7.901658851428169
 10
2.674078999105761
 20
7.894922033593894
 10
2.673134508270169
 20
7.887886472589693
 10
2.673699253064949
 20
7.881177252993826
 10
2.675723054871626
 20
7.875390492685633
 10
2.679026100326056
 20
7.871040448832584
 10
2.683314880409007
 20
7.868513571081388
 10
2.683899265864945
 20
7.868339788708186
  0
LWPOLYLINE
  5
120
330
1F
100
AcDbEntity
  8
0
  6
Continuous
 62
     7
370
    15
100
AcDbPolyline
 90
       13
 70
   128
 43
0.0
 10
2.777998886059905
 20
7.871444363897717
 10
2.777414500603966
 20
7.871618146270919
 10
2.773125712543492
 20
7.874145021884848
 10
2.769822675066586
 20
7.878495067875165
 10
2.767798865282387
 20
7.884281826046091
 10
2.767234120487606
 20
7.890991045641958
 10
2.768178619300721
 20
7.898026608783425
 10
2.770548430204244
 20
7.904763424480433
 10
2.774132994461123
 20
7.910602824348189
 10
2.778613801495639
 20
7.915026000418313
 10
2.783592717076901
 20
7.917639942151033
 10
2.788627331722423
 20
7.918212341281726
 10
2.790440455129204
 20
7.917883537117221
  0
LWPOLYLINE
  5
121
330
1F
100
AcDbEntity
  8
0
  6
Continuous
 62
     7
370
    15
100
AcDbPolyline
 90
       21
 70
   128
 43
0.0
 10
2.796392389167628
 20
7.881773313161989
 10
2.799420353680516
 20
7.888256936515986
 10
2.801013624536171
 20
7.895353487498545
 10
2.80101623318613
 20
7.902368271579492
 10
2.799427924349663
 20
7.908614616099161
 10
2.796404187923864
 20
7.913481139253196
 10
2.792240990004992
 20
7.916491398083756
 10
2.787345854368282
 20
7.917350792709761
 10
2.782197966876378
 20
7.915975181951311
 10
2.777301219780062
 20
7.912499216287496
 10
2.77313495849243
 20
7.907263142372862
 10
2.770106993979541
 20
7.900779475540884
 10
2.768513723123886
 20
7.893682924558325
 10
2.768511114473928
 20
7.886668140477378
 10
2.770099415332872
 20
7.880421793820444
 10
2.773123159736194
 20
7.875555272803674
 10
2.777286357655066
 20
7.872545013973113
 10
2.782181485314252
 20
7.871685617209842
 10
2.787329380783679
 20
7.873061230105559
 10
2.792226119902473
 20
7.876537193632106
 10
2.796392389167628
 20
7.881773313161989
  0
LWPOLYLINE
  5
122
330
1F
100
AcDbEntity
  8
0
  6
Continuous
 62
     7
370
    15
100
AcDbPolyline
 90
        9
 70
   128
 43
0.0
 10
2.78472918699892
 20
7.919413648969498
 10
2.782916063592138
 20
7.919742453134002
 10
2.777881448946616
 20
7.91917005400331
 10
2.772902533365354
 20
7.916556112270589
 10
2.768421726330839
 20
7.912132936200465
 10
2.76483716207396
 20
7.90629353633271
 10
2.762467351170436
 20
7.899556720635701
 10
2.761522852357322
 20
7.892521157494233
 10
2.761995257325573
 20
7.886279239342974
  0
ARC
  5
123
330
1F
100
AcDbEntity
  8
0
  6
Continuous
 62
     7
370
    15
100
AcDbCircle
 10
2.775510523549467
 20
7.884563341331788
 30
0.0
 40
0.0120286710033708
100
AcDbArc
 50
223.5323900203014
 51
254.4585577366399
  0
LWPOLYLINE
  5
124
330
1F
100
AcDbEntity
  8
0
  6
Continuous
 62
     7
370
    15
100
AcDbPolyline
 90
       13
 70
   128
 43
0.0
 10
2.744003358671163
 20
7.843808836332745
 10
2.74341898917027
 20
7.843982622980479
 10
2.739130193132273
 20
7.846509496457141
 10
2.735827147677843
 20
7.850859540310191
 10
2.733803345871167
 20
7.856646257140404
 10
2.733238601076387
 20
7.86335552021425
 10
2.734183091911979
 20
7.870391081218451
 10
2.736552910793025
 20
7.877127899052728
 10
2.740137467072382
 20
7.882967296783216
 10
2.744618282084419
 20
7.887390474990607
 10
2.749597197665681
 20
7.890004373245346
 10
2.754631812311203
 20
7.890576772376039
 10
2.756444943695508
 20
7.890248013826781
  0
LWPOLYLINE
  5
125
330
1F
100
AcDbEntity
  8
0
  6
Continuous
 62
     7
370
    15
100
AcDbPolyline
 90
       21
 70
   128
 43
0.0
 10
2.762396877733931
 20
7.854137746393568
 10
2.765424842246819
 20
7.860621413225546
 10
2.767018097147429
 20
7.867717959933571
 10
2.76702071377491
 20
7.874732746151786
 10
2.765432404938443
 20
7.880979090671453
 10
2.762408668512645
 20
7.885845613825489
 10
2.758245470593772
 20
7.88885587265605
 10
2.753350334957063
 20
7.889715267282055
 10
2.748202439487636
 20
7.888339654386338
 10
2.743305708346364
 20
7.884863649519076
 10
2.739139431103688
 20
7.879627571329907
 10
2.736111466590799
 20
7.87314394797591
 10
2.73451821169019
 20
7.866047401267885
 10
2.734515595062708
 20
7.85903261504967
 10
2.736103903899175
 20
7.852786270530003
 10
2.739127640324974
 20
7.847919747375967
 10
2.743290838243846
 20
7.844909445067425
 10
2.748185973880556
 20
7.844050093919401
 10
2.753333869349983
 20
7.845425706815118
 10
2.758230600491254
 20
7.848901668204399
 10
2.762396877733931
 20
7.854137746393568
  0
LWPOLYLINE
  5
126
330
1F
100
AcDbEntity
  8
0
  6
Continuous
 62
     7
370
    15
100
AcDbPolyline
 90
       13
 70
   128
 43
0.0
 10
2.750733675565224
 20
7.891778125679057
 10
2.748920544180919
 20
7.892106884228316
 10
2.743885929535397
 20
7.891534485097622
 10
2.738907013954134
 20
7.888920586842882
 10
2.734426198942097
 20
7.884497408635492
 10
2.73084164266274
 20
7.878658010905002
 10
2.728471823781694
 20
7.871921193070727
 10
2.727527332946102
 20
7.864885632066527
 10
2.728092077740882
 20
7.85817636899268
 10
2.730115879547559
 20
7.852389652162467
 10
2.733418925001989
 20
7.848039608309417
 10
2.737707721039985
 20
7.845512734832755
 10
2.738292090540878
 20
7.84533894818502
  0
LWPOLYLINE
  5
127
330
1F
100
AcDbEntity
  8
0
  6
Continuous
 62
     7
370
    15
100
AcDbPolyline
 90
        7
 70
   128
 43
0.0
 10
5.298454091456993
 20
6.507618309029928
 10
5.299675609749692
 20
6.500591142905887
 10
5.299393524543122
 20
6.493773880673458
 10
5.297632853348819
 20
6.487772256132068
 10
5.294549955613859
 20
6.483119581669533
 10
5.290418875201821
 20
6.48022923911412
 10
5.28897360334934
 20
6.479733959977825
  0
LWPOLYLINE
  5
128
330
1F
100
AcDbEntity
  8
0
  6
Continuous
 62
     7
370
    15
100
AcDbPolyline
 90
        7
 70
   128
 43
0.0
 10
5.276531986414904
 20
6.526173156890424
 10
5.277433382672276
 20
6.526375083923995
 10
5.282428205434021
 20
6.52619599518461
 10
5.287451874918248
 20
6.523951718533737
 10
5.29205803276868
 20
6.519841647575965
 10
5.295837336334879
 20
6.514231013300383
 10
5.298454091456993
 20
6.507618309029928
  0
LWPOLYLINE
  5
129
330
1F
100
AcDbEntity
  8
0
  6
Continuous
 62
     7
370
    15
100
AcDbPolyline
 90
       21
 70
   128
 43
0.0
 10
5.297407647879887
 20
6.507323332578105
 10
5.29471622314427
 20
6.51402343253294
 10
5.29080034438756
 20
6.519625711449188
 10
5.28604357090647
 20
6.523581711339957
 10
5.280911407112025
 20
6.525504225556669
 10
5.275906245480717
 20
6.525205060122105
 10
5.271517969733278
 20
6.522713512216138
 10
5.268176217338172
 20
6.518273453158185
 10
5.266208130550803
 20
6.512319495423562
 10
5.265806191041534
 20
6.505434507170852
 10
5.267009967323503
 20
6.498292372273671
 10
5.269701519699485
 20
6.491592238122571
 10
5.27361727081583
 20
6.485989987967839
 10
5.278374044296919
 20
6.482033993511818
 10
5.283506335731729
 20
6.480111445098843
 10
5.288511497363037
 20
6.480410605098658
 10
5.292899645470112
 20
6.48290218720089
 10
5.296241397865216
 20
6.487342251693591
 10
5.298209612292951
 20
6.493296164362454
 10
5.298611424161856
 20
6.500181192246176
 10
5.297407647879887
 20
6.507323332578105
  0
LWPOLYLINE
  5
12A
330
1F
100
AcDbEntity
  8
0
  6
Continuous
 62
     7
370
    15
100
AcDbPolyline
 90
        7
 70
   128
 43
0.0
 10
5.304165343632233
 20
6.509148416607672
 10
5.301548588510118
 20
6.515761120878127
 10
5.297769284943918
 20
6.521371755153708
 10
5.293163127093487
 20
6.525481826111481
 10
5.28813945760926
 20
6.527726102762353
 10
5.283144634847515
 20
6.527905191501738
 10
5.282243238590143
 20
6.527703264468167
  0
LWPOLYLINE
  5
12B
330
1F
100
AcDbEntity
  8
0
  6
Continuous
 62
     7
370
    15
100
AcDbPolyline
 90
        7
 70
   128
 43
0.0
 10
5.294684855524581
 20
6.481264067555569
 10
5.296130127377059
 20
6.481759346691863
 10
5.300261207789098
 20
6.484649689247276
 10
5.303344105524057
 20
6.489302363709811
 10
5.305104776718362
 20
6.495303988251201
 10
5.305386861924931
 20
6.502121250483629
 10
5.304165343632233
 20
6.509148416607672
  0
LWPOLYLINE
  5
12C
330
1F
100
AcDbEntity
  8
0
  6
Continuous
 62
     7
370
    15
100
AcDbPolyline
 90
       12
 70
   128
 43
0.0
 10
1.283168635592228
 20
7.63047873556438
 10
1.286535533139231
 20
7.630854673801781
 10
1.291601579224626
 20
7.629629243868191
 10
1.296470803867247
 20
7.626416201756065
 10
1.300710761510599
 20
7.621500987554659
 10
1.30394491307804
 20
7.615320282426005
 10
1.305885812467673
 20
7.608423291681584
 10
1.306360889906066
 20
7.601422872733651
 10
1.305328024072783
 20
7.594941023801747
 10
1.302878860749866
 20
7.589553709833871
 10
1.299231154399944
 20
7.585739588539328
 10
1.295610252526664
 20
7.584039538651781
  0
LWPOLYLINE
  5
12D
330
1F
100
AcDbEntity
  8
0
  6
Continuous
 62
     7
370
    15
100
AcDbPolyline
 90
       21
 70
   128
 43
0.0
 10
1.27364674414119
 20
7.602597916751363
 10
1.276338168876808
 20
7.595897816796527
 10
1.280253919993153
 20
7.590295572076542
 10
1.285010821114606
 20
7.58633953798951
 10
1.290142984909053
 20
7.584417023772799
 10
1.295148274180725
 20
7.584716155011096
 10
1.299536294647434
 20
7.587207765874846
 10
1.302878174682905
 20
7.591647790736534
 10
1.304846389110639
 20
7.597601714274893
 10
1.305248200979544
 20
7.604486742158615
 10
1.30404429705721
 20
7.611628911252059
 10
1.301352872321593
 20
7.618329011206895
 10
1.297437121205247
 20
7.62393125592688
 10
1.292680220083794
 20
7.627887290013912
 10
1.287548056289347
 20
7.629809804230623
 10
1.282543022298406
 20
7.629510604599796
 10
1.278154746550966
 20
7.627019059411202
 10
1.274812866515496
 20
7.622579031832141
 10
1.272844907368491
 20
7.616625045336
 10
1.272442840218857
 20
7.609740085844808
 10
1.27364674414119
 20
7.602597916751363
  0
LWPOLYLINE
  5
12E
330
1F
100
AcDbEntity
  8
0
  6
Continuous
 62
     7
370
    15
100
AcDbPolyline
 90
       12
 70
   128
 43
0.0
 10
1.301321504701903
 20
7.585569646229524
 10
1.304942406575183
 20
7.587269696117071
 10
1.308590112925105
 20
7.591083817411615
 10
1.311039276248021
 20
7.596471131379491
 10
1.312072142081305
 20
7.602952980311394
 10
1.311597064642912
 20
7.609953399259327
 10
1.309656165253279
 20
7.616850390003747
 10
1.306422013685838
 20
7.623031095132401
 10
1.302182056042486
 20
7.627946309333808
 10
1.297312831399864
 20
7.631159351445934
 10
1.292246785314469
 20
7.632384781379524
 10
1.288879887767467
 20
7.632008843142123
  0
ARC
  5
12F
330
1F
100
AcDbEntity
  8
0
  6
Continuous
 62
     7
370
    15
100
AcDbCircle
 10
1.24036374210748
 20
7.816513206680165
 30
0.0
 40
0.0186830867803812
100
AcDbArc
 50
294.1801960975013
 51
10.26187534903429
  0
LWPOLYLINE
  5
130
330
1F
100
AcDbEntity
  8
0
  6
Continuous
 62
     7
370
    15
100
AcDbPolyline
 90
        8
 70
   128
 43
0.0
 10
1.236160555916568
 20
7.802588802467403
 10
1.237417047669267
 20
7.801769329728478
 10
1.242549211463713
 20
7.799846815511767
 10
1.247554500735385
 20
7.800145952184812
 10
1.251942776482825
 20
7.80263750009078
 10
1.255284401237565
 20
7.807077587910248
 10
1.2572526156653
 20
7.813031511448607
 10
1.257692464362963
 20
7.819035359898082
  0
ARC
  5
131
330
1F
100
AcDbEntity
  8
0
  6
Continuous
 62
     7
370
    15
100
AcDbCircle
 10
1.244903476969974
 20
7.818915823485439
 30
0.0
 40
0.0199715784108882
100
AcDbArc
 50
296.2213780634119
 51
14.79538801317633
  0
LWPOLYLINE
  5
132
330
1F
100
AcDbEntity
  8
0
  6
Continuous
 62
     7
370
    15
100
AcDbPolyline
 90
       13
 70
   128
 43
0.0
 10
5.131518650926864
 20
7.120132634854085
 10
5.130934249515878
 20
7.120306412952754
 10
5.126645469432928
 20
7.122833290703949
 10
5.123342423978498
 20
7.127183334556999
 10
5.121318622171822
 20
7.132970094865193
 10
5.120753877377042
 20
7.139679314461059
 10
5.12169838416768
 20
7.146714879739793
 10
5.12406818709368
 20
7.153451693299534
 10
5.127652743373036
 20
7.159291091030024
 10
5.132133558385075
 20
7.163714269237414
 10
5.137112489921382
 20
7.166328215244668
 10
5.142147104566904
 20
7.166900614375361
 10
5.143960204041118
 20
7.166571803799056
  0
LWPOLYLINE
  5
133
330
1F
100
AcDbEntity
  8
0
  6
Continuous
 62
     7
370
    15
100
AcDbPolyline
 90
       21
 70
   128
 43
0.0
 10
5.149912138079541
 20
7.130461579843824
 10
5.152940118547475
 20
7.136945207472354
 10
5.154533389403129
 20
7.144041758454913
 10
5.154536006030611
 20
7.151056544673127
 10
5.152947681239099
 20
7.157302884918261
 10
5.1499239448133
 20
7.162169408072297
 10
5.145760730939381
 20
7.165179662628324
 10
5.140865627212764
 20
7.166039065803396
 10
5.135717731743336
 20
7.164663452907679
 10
5.130820968691973
 20
7.161187482969332
 10
5.126654723359388
 20
7.15595141332923
 10
5.123626742891454
 20
7.149467742222718
 10
5.122033472035799
 20
7.14237119124016
 10
5.122030887318408
 20
7.135356413571012
 10
5.12361918019983
 20
7.12911006477681
 10
5.126642916625629
 20
7.124243541622774
 10
5.130806130499546
 20
7.121233287066748
 10
5.135701234226165
 20
7.120373883891676
 10
5.140849129695593
 20
7.121749496787393
 10
5.145745892746954
 20
7.125225510203721
 10
5.149912138079541
 20
7.130461579843824
  0
LWPOLYLINE
  5
134
330
1F
100
AcDbEntity
  8
0
  6
Continuous
 62
     7
370
    15
100
AcDbPolyline
 90
       13
 70
   128
 43
0.0
 10
5.138248935910833
 20
7.168101915651332
 10
5.13643583643662
 20
7.168430726227636
 10
5.131401221791097
 20
7.167858327096944
 10
5.12642229025479
 20
7.16524438108969
 10
5.121941475242752
 20
7.160821202882299
 10
5.118356918963396
 20
7.154981805151811
 10
5.115987116037395
 20
7.148244991592069
 10
5.115042609246757
 20
7.141209426313335
 10
5.115607354041538
 20
7.134500206717468
 10
5.117631155848214
 20
7.128713446409276
 10
5.120934201302644
 20
7.124363402556224
 10
5.125222981385594
 20
7.12183652480503
 10
5.12580738279658
 20
7.121662746706362
  0
LWPOLYLINE
  5
135
330
1F
100
AcDbEntity
  8
0
  6
Continuous
 62
     7
370
    15
100
AcDbPolyline
 90
       13
 70
   128
 43
0.0
 10
5.083924909391615
 20
7.070326201892135
 10
5.083340539890722
 20
7.07050003201785
 10
5.079051759807772
 20
7.073026866291066
 10
5.075748714353341
 20
7.077376953622096
 10
5.073724912546666
 20
7.083163670452308
 10
5.073160167751884
 20
7.089872890048175
 10
5.074104642632431
 20
7.096908490255823
 10
5.076474477468523
 20
7.10364526888665
 10
5.080059033747879
 20
7.10948471009512
 10
5.084539848759917
 20
7.11390788830251
 10
5.089518748386133
 20
7.116521782282719
 10
5.094553363031656
 20
7.117094181413411
 10
5.096366494415961
 20
7.116765422864152
  0
LWPOLYLINE
  5
136
330
1F
100
AcDbEntity
  8
0
  6
Continuous
 62
     7
370
    15
100
AcDbPolyline
 90
       21
 70
   128
 43
0.0
 10
5.102318428454383
 20
7.080655155430939
 10
5.105346377012226
 20
7.087138817988384
 10
5.106939647867881
 20
7.094235325492963
 10
5.106942264495362
 20
7.101250111711177
 10
5.105353971613942
 20
7.107496503983358
 10
5.102330203278052
 20
7.112362975110348
 10
5.098167021314225
 20
7.115373281693421
 10
5.093271885677515
 20
7.116232676319427
 10
5.088123990208088
 20
7.114857063423709
 10
5.083227259066816
 20
7.111381058556448
 10
5.07906098182414
 20
7.106144980367279
 10
5.076033033266297
 20
7.099661361287815
 10
5.074439762410642
 20
7.092564810305256
 10
5.07443714578316
 20
7.085550024087042
 10
5.076025438664582
 20
7.079303631814861
 10
5.079049207000472
 20
7.074437160687872
 10
5.083212388964298
 20
7.071426854104797
 10
5.088107524601007
 20
7.070567459478792
 10
5.093255420070436
 20
7.07194311585249
 10
5.098152151211706
 20
7.07541907724177
 10
5.102318428454383
 20
7.080655155430939
  0
LWPOLYLINE
  5
137
330
1F
100
AcDbEntity
  8
0
  6
Continuous
 62
     7
370
    15
100
AcDbPolyline
 90
       13
 70
   128
 43
0.0
 10
5.090655226285676
 20
7.118295534716429
 10
5.088842094901371
 20
7.118624293265687
 10
5.083807480255849
 20
7.118051894134993
 10
5.078828580629632
 20
7.115438000154787
 10
5.074347765617595
 20
7.111014821947397
 10
5.070763209338239
 20
7.105175380738927
 10
5.068393374502146
 20
7.098438602108099
 10
5.0674488996216
 20
7.091403001900451
 10
5.068013644416381
 20
7.084693782304585
 10
5.070037446223056
 20
7.078907065474371
 10
5.073340491677488
 20
7.074556978143341
 10
5.077629271760438
 20
7.072030143870127
 10
5.078213641261331
 20
7.071856313744412
  0
LWPOLYLINE
  5
138
330
1F
100
AcDbEntity
  8
0
  6
Continuous
 62
     7
370
    15
100
AcDbPolyline
 90
        7
 70
   128
 43
0.0
 10
5.264458611933387
 20
6.442615024541074
 10
5.265680130226087
 20
6.435587863851777
 10
5.265398045019518
 20
6.428770590749855
 10
5.263637373825213
 20
6.422768977077961
 10
5.260554476090254
 20
6.41811629174593
 10
5.256423395678215
 20
6.415225949190516
 10
5.25497799618537
 20
6.414730715119982
  0
LWPOLYLINE
  5
139
330
1F
100
AcDbEntity
  8
0
  6
Continuous
 62
     7
370
    15
100
AcDbPolyline
 90
        7
 70
   128
 43
0.0
 10
5.242536506891299
 20
6.46116986696682
 10
5.243437775508305
 20
6.461371839066151
 10
5.248432725910416
 20
6.461192716130502
 10
5.253456395394643
 20
6.458948434044883
 10
5.258062553245075
 20
6.454838368521857
 10
5.261841856811274
 20
6.449227728811528
 10
5.264458611933387
 20
6.442615024541074
  0
LWPOLYLINE
  5
13A
330
1F
100
AcDbEntity
  8
0
  6
Continuous
 62
     7
370
    15
100
AcDbPolyline
 90
       21
 70
   128
 43
0.0
 10
5.263412168356281
 20
6.442320042654501
 10
5.260720743620665
 20
6.449020142609336
 10
5.256804864863955
 20
6.454622426960333
 10
5.252048091382865
 20
6.458578421416354
 10
5.246915927588419
 20
6.460500935633065
 10
5.241910638316748
 20
6.460201809829515
 10
5.237522490209673
 20
6.457710227727281
 10
5.234180737814567
 20
6.453270163234582
 10
5.232212651027198
 20
6.447316216369454
 10
5.231810711517928
 20
6.440431217247248
 10
5.233014487799898
 20
6.433289082350069
 10
5.235705912535514
 20
6.426588982395232
 10
5.239621791292225
 20
6.420986698044235
 10
5.244378564773314
 20
6.417030714457711
 10
5.249510728567759
 20
6.415108189371505
 10
5.254515890199066
 20
6.415407349371319
 10
5.258904165946506
 20
6.417898897277287
 10
5.262245918341611
 20
6.422338961769987
 10
5.264214005128981
 20
6.42829291950461
 10
5.264615944638251
 20
6.43517790775732
 10
5.263412168356281
 20
6.442320042654501
  0
LWPOLYLINE
  5
13B
330
1F
100
AcDbEntity
  8
0
  6
Continuous
 62
     7
370
    15
100
AcDbPolyline
 90
        7
 70
   128
 43
0.0
 10
5.270169864108626
 20
6.444145132118817
 10
5.267553108986513
 20
6.450757836389271
 10
5.263773805420314
 20
6.4563684760996
 10
5.259167647569882
 20
6.460478541622626
 10
5.254143978085655
 20
6.462722823708245
 10
5.249149027683545
 20
6.462901946643895
 10
5.248247759066538
 20
6.462699974544563
  0
LWPOLYLINE
  5
13C
330
1F
100
AcDbEntity
  8
0
  6
Continuous
 62
     7
370
    15
100
AcDbPolyline
 90
        7
 70
   128
 43
0.0
 10
5.26068924836061
 20
6.416260822697725
 10
5.262134647853454
 20
6.416756056768259
 10
5.266265728265493
 20
6.419646399323672
 10
5.269348626000453
 20
6.424299084655704
 10
5.271109297194756
 20
6.430300698327598
 10
5.271391382401326
 20
6.437117971429521
 10
5.270169864108626
 20
6.444145132118817
  0
LWPOLYLINE
  5
13D
330
1F
100
AcDbEntity
  8
0
  6
Continuous
 62
     7
370
    15
100
AcDbPolyline
 90
        7
 70
   128
 43
0.0
 10
6.598249497294641
 20
6.15938875464077
 10
6.59947101558734
 20
6.152361588516727
 10
6.599188930380771
 20
6.145544326284299
 10
6.597428259186468
 20
6.139542701742909
 10
6.594345233811143
 20
6.134890061476638
 10
6.59021428103947
 20
6.13199968472496
 10
6.588768881546624
 20
6.13150443978493
  0
LWPOLYLINE
  5
13E
330
1F
100
AcDbEntity
  8
0
  6
Continuous
 62
     7
370
    15
100
AcDbPolyline
 90
        7
 70
   128
 43
0.0
 10
6.576327264612189
 20
6.177943636697529
 10
6.577228660869559
 20
6.1781455637311
 10
6.582223483631304
 20
6.177966474991715
 10
6.587247153115532
 20
6.175722198340842
 10
6.591853438606329
 20
6.171612093186806
 10
6.595632614532163
 20
6.166001493107488
 10
6.598249497294641
 20
6.15938875464077
  0
LWPOLYLINE
  5
13F
330
1F
100
AcDbEntity
  8
0
  6
Continuous
 62
     7
370
    15
100
AcDbPolyline
 90
       21
 70
   128
 43
0.0
 10
6.59720292607717
 20
6.15909381238521
 10
6.594511501341552
 20
6.165793912340045
 10
6.590595750225208
 20
6.171396157060029
 10
6.585838849103755
 20
6.175352191147062
 10
6.580706685309309
 20
6.177274705363774
 10
6.575701651318365
 20
6.176975505732945
 10
6.571313375570927
 20
6.174483957826978
 10
6.567971495535457
 20
6.17004393296529
 10
6.566003536388452
 20
6.164089941034402
 10
6.565601469238817
 20
6.157204986977957
 10
6.566805373161152
 20
6.150062817884512
 10
6.569496797896768
 20
6.143362717929676
 10
6.573412549013114
 20
6.137760467774944
 10
6.578169450134567
 20
6.133804439122659
 10
6.583301613929013
 20
6.131881924905948
 10
6.588306903200686
 20
6.132181050709498
 10
6.592694923667395
 20
6.134672667007995
 10
6.596036803702865
 20
6.139112697304431
 10
6.5980050181306
 20
6.145066609973294
 10
6.598406829999504
 20
6.151951637857017
 10
6.59720292607717
 20
6.15909381238521
  0
LWPOLYLINE
  5
140
330
1F
100
AcDbEntity
  8
0
  6
Continuous
 62
     7
370
    15
100
AcDbPolyline
 90
        7
 70
   128
 43
0.0
 10
6.60396074946988
 20
6.160918862218513
 10
6.601343866707402
 20
6.167531600685231
 10
6.597564690781569
 20
6.173142200764549
 10
6.592958405290771
 20
6.177252305918586
 10
6.587934735806544
 20
6.179496582569458
 10
6.582939913044798
 20
6.179675671308843
 10
6.582038516787427
 20
6.179473744275272
  0
LWPOLYLINE
  5
141
330
1F
100
AcDbEntity
  8
0
  6
Continuous
 62
     7
370
    15
100
AcDbPolyline
 90
        7
 70
   128
 43
0.0
 10
6.594480133721863
 20
6.133034547362673
 10
6.595925533214709
 20
6.133529792302703
 10
6.600056485986382
 20
6.136420169054381
 10
6.603139511361707
 20
6.141072809320652
 10
6.60490018255601
 20
6.147074433862042
 10
6.60518226776258
 20
6.153891696094469
 10
6.60396074946988
 20
6.160918862218513
  0
LWPOLYLINE
  5
142
330
1F
100
AcDbEntity
  8
0
  6
Continuous
 62
     7
370
    15
100
AcDbPolyline
 90
        7
 70
   128
 43
0.0
 10
6.523459391286564
 20
6.160898084242855
 10
6.524680909579263
 20
6.153870923553559
 10
6.524398824372694
 20
6.147053661321132
 10
6.522638153178389
 20
6.141052036779742
 10
6.519555127803066
 20
6.136399396513471
 10
6.515424175031391
 20
6.133509008892298
 10
6.513978775538546
 20
6.133013774821764
  0
LWPOLYLINE
  5
143
330
1F
100
AcDbEntity
  8
0
  6
Continuous
 62
     7
370
    15
100
AcDbPolyline
 90
        7
 70
   128
 43
0.0
 10
6.501537158604111
 20
6.179452966299614
 10
6.502438554861481
 20
6.179654898767933
 10
6.507433377623227
 20
6.179475810028549
 10
6.512457047107454
 20
6.177231527942929
 10
6.517063332598252
 20
6.173121428223639
 10
6.520842508524085
 20
6.167510822709575
 10
6.523459391286564
 20
6.160898084242855
  0
LWPOLYLINE
  5
144
330
1F
100
AcDbEntity
  8
0
  6
Continuous
 62
     7
370
    15
100
AcDbPolyline
 90
       21
 70
   128
 43
0.0
 10
6.522412820069093
 20
6.160603147422041
 10
6.519721395333475
 20
6.167303247376878
 10
6.51580564421713
 20
6.172905486662114
 10
6.511048743095677
 20
6.176861520749147
 10
6.505916579301231
 20
6.178784034965858
 10
6.500911290029558
 20
6.17848490372756
 10
6.496523269562849
 20
6.175993287429063
 10
6.493181389527379
 20
6.171553268002123
 10
6.491213430380375
 20
6.165599276071235
 10
6.490811363230739
 20
6.15871432201479
 10
6.492015267153074
 20
6.15157214205185
 10
6.494706691888691
 20
6.144872052966509
 10
6.498622443005037
 20
6.139269802811777
 10
6.503379344126489
 20
6.135313774159492
 10
6.508511507920935
 20
6.133391259942781
 10
6.513516541911878
 20
6.133690454138861
 10
6.517904817659317
 20
6.136182002044828
 10
6.521246697694786
 20
6.140622021471769
 10
6.523214656841791
 20
6.146576013402656
 10
6.523616723991427
 20
6.153460978328596
 10
6.522412820069093
 20
6.160603147422041
  0
LWPOLYLINE
  5
145
330
1F
100
AcDbEntity
  8
0
  6
Continuous
 62
     7
370
    15
100
AcDbPolyline
 90
        7
 70
   128
 43
0.0
 10
6.529170643461803
 20
6.162428191820597
 10
6.526553760699324
 20
6.169040930287317
 10
6.52277458477349
 20
6.174651535801382
 10
6.518168299282693
 20
6.178761635520671
 10
6.513144629798467
 20
6.181005917606292
 10
6.50814980703672
 20
6.181185006345677
 10
6.507248410779349
 20
6.180983073877357
  0
LWPOLYLINE
  5
146
330
1F
100
AcDbEntity
  8
0
  6
Continuous
 62
     7
370
    15
100
AcDbPolyline
 90
        7
 70
   128
 43
0.0
 10
6.519690027713785
 20
6.134543882399506
 10
6.521135427206631
 20
6.135039116470041
 10
6.525266379978305
 20
6.137929504091213
 10
6.528349405353628
 20
6.142582144357485
 10
6.530110076547932
 20
6.148583768898874
 10
6.530392161754502
 20
6.155401031131303
 10
6.529170643461803
 20
6.162428191820597
  0
LWPOLYLINE
  5
147
330
1F
100
AcDbEntity
  8
0
  6
Continuous
 62
     7
370
    15
100
AcDbPolyline
 90
       13
 70
   128
 43
0.0
 10
6.438113107995106
 20
6.622484486714618
 10
6.437528738494212
 20
6.622658295101343
 10
6.433239926501171
 20
6.625185164303473
 10
6.42993688104674
 20
6.629535208156523
 10
6.427913079240064
 20
6.635321924986736
 10
6.427348334445284
 20
6.642031188060583
 10
6.428292841235921
 20
6.649066753339317
 10
6.430662644161922
 20
6.655803566899058
 10
6.434247200441278
 20
6.661642964629547
 10
6.438728015453317
 20
6.666066142836938
 10
6.443706946989624
 20
6.668680088844192
 10
6.448741561635146
 20
6.669252487974884
 10
6.450554661109359
 20
6.66892367739858
  0
LWPOLYLINE
  5
148
330
1F
100
AcDbEntity
  8
0
  6
Continuous
 62
     7
370
    15
100
AcDbPolyline
 90
       21
 70
   128
 43
0.0
 10
6.456506595147782
 20
6.632813431704357
 10
6.459534575615716
 20
6.639297081071878
 10
6.461127846471371
 20
6.646393632054437
 10
6.461130463098853
 20
6.65340841827265
 10
6.45954213830734
 20
6.659654758517786
 10
6.456518401881541
 20
6.664521281671821
 10
6.452355219917714
 20
6.667531544776915
 10
6.447460084281005
 20
6.66839093940292
 10
6.442312188811579
 20
6.667015326507203
 10
6.437415457670307
 20
6.663539365117922
 10
6.43324918042763
 20
6.658303243450773
 10
6.430221199959696
 20
6.651819615822241
 10
6.428627929104042
 20
6.644723064839682
 10
6.428625344386651
 20
6.637708287170535
 10
6.430213637268073
 20
6.631461938376334
 10
6.433237373693871
 20
6.626595415222299
 10
6.437400587567789
 20
6.623585138927281
 10
6.442295723204497
 20
6.622725744301276
 10
6.447443586763834
 20
6.624101370386917
 10
6.452340349815196
 20
6.627577340325264
 10
6.456506595147782
 20
6.632813431704357
  0
LWPOLYLINE
  5
149
330
1F
100
AcDbEntity
  8
0
  6
Continuous
 62
     7
370
    15
100
AcDbPolyline
 90
       13
 70
   128
 43
0.0
 10
6.444843520619439
 20
6.670453755054591
 10
6.443030421145228
 20
6.670782565630896
 10
6.437995806499705
 20
6.670210166500202
 10
6.433016874963397
 20
6.667596220492949
 10
6.428536059951359
 20
6.663173042285558
 10
6.424951503672002
 20
6.657333644555071
 10
6.422581700746001
 20
6.650596830995327
 10
6.421637193955364
 20
6.643561265716594
 10
6.422201938750144
 20
6.636852002642748
 10
6.424225740556821
 20
6.631065285812534
 10
6.427528786011251
 20
6.626715241959484
 10
6.431817598004292
 20
6.624188372757355
 10
6.432401967505186
 20
6.62401456437063
  0
LWPOLYLINE
  5
14A
330
1F
100
AcDbEntity
  8
0
  6
Continuous
 62
     7
370
    15
100
AcDbPolyline
 90
        7
 70
   128
 43
0.0
 10
5.332449570980599
 20
6.452191131150071
 10
5.333671216913663
 20
6.445163936264512
 10
5.333389131707093
 20
6.438346674032084
 10
5.331628332872424
 20
6.432345094556453
 10
5.328545562777829
 20
6.427692385897653
 10
5.324414354725425
 20
6.424802066669009
 10
5.322969082872947
 20
6.424306787532716
  0
LWPOLYLINE
  5
14B
330
1F
100
AcDbEntity
  8
0
  6
Continuous
 62
     7
370
    15
100
AcDbPolyline
 90
        7
 70
   128
 43
0.0
 10
5.310527465938511
 20
6.470745984445313
 10
5.311428862195881
 20
6.470947911478885
 10
5.316423684957626
 20
6.4707688227395
 10
5.321447354441853
 20
6.468524540653881
 10
5.326053512292286
 20
6.464414475130855
 10
5.329832815858484
 20
6.458803846290021
 10
5.332449570980599
 20
6.452191131150071
  0
LWPOLYLINE
  5
14C
330
1F
100
AcDbEntity
  8
0
  6
Continuous
 62
     7
370
    15
100
AcDbPolyline
 90
       21
 70
   128
 43
0.0
 10
5.331403255043857
 20
6.45189612593673
 10
5.328711702667875
 20
6.45859626008783
 10
5.32479595155153
 20
6.464198499373067
 10
5.320039050430076
 20
6.468154538894847
 10
5.31490688663563
 20
6.470077053111558
 10
5.309901725004323
 20
6.469777882242247
 10
5.305513449256883
 20
6.467286345205775
 10
5.302171696861779
 20
6.462846280713074
 10
5.300203610074408
 20
6.456892322978452
 10
5.299801798205503
 20
6.450007300529478
 10
5.301005446847108
 20
6.442865199828561
 10
5.30369699922309
 20
6.436165065677461
 10
5.307612750339435
 20
6.43056281552273
 10
5.312369651460889
 20
6.426606786870444
 10
5.317501815255336
 20
6.424684272653732
 10
5.322506976886642
 20
6.424983432653548
 10
5.326895252634082
 20
6.427474980559516
 10
5.330237005029187
 20
6.431915045052216
 10
5.332205091816557
 20
6.437868991917343
 10
5.332606903685461
 20
6.444754025235813
 10
5.331403255043857
 20
6.45189612593673
  0
LWPOLYLINE
  5
14D
330
1F
100
AcDbEntity
  8
0
  6
Continuous
 62
     7
370
    15
100
AcDbPolyline
 90
        7
 70
   128
 43
0.0
 10
5.338160823155837
 20
6.453721238727815
 10
5.335544068033724
 20
6.460333953867763
 10
5.331764764467525
 20
6.465944582708599
 10
5.327158606617093
 20
6.470054648231624
 10
5.322134937132865
 20
6.472298930317244
 10
5.31714011437112
 20
6.472478019056628
 10
5.316238718113749
 20
6.472276092023057
  0
LWPOLYLINE
  5
14E
330
1F
100
AcDbEntity
  8
0
  6
Continuous
 62
     7
370
    15
100
AcDbPolyline
 90
        7
 70
   128
 43
0.0
 10
5.328680335048185
 20
6.425836895110458
 10
5.330125606900666
 20
6.426332174246752
 10
5.334256814953069
 20
6.429222493475395
 10
5.337339585047662
 20
6.433875202134196
 10
5.339100383882333
 20
6.439876781609827
 10
5.339382469088902
 20
6.446694043842254
 10
5.338160823155837
 20
6.453721238727815
  0
LWPOLYLINE
  5
14F
330
1F
100
AcDbEntity
  8
0
  6
Continuous
 62
     7
370
    15
100
AcDbPolyline
 90
        7
 70
   128
 43
0.0
 10
6.550655723849302
 20
6.098028603380075
 10
6.551877242142001
 20
6.09100144269078
 10
6.551595156935433
 20
6.084184169588857
 10
6.549834485741128
 20
6.078182555916963
 10
6.546751715646533
 20
6.073529836388667
 10
6.54262050759413
 20
6.070639528029517
 10
6.541175108101286
 20
6.070144293958984
  0
LWPOLYLINE
  5
150
330
1F
100
AcDbEntity
  8
0
  6
Continuous
 62
     7
370
    15
100
AcDbPolyline
 90
        7
 70
   128
 43
0.0
 10
6.528733491166849
 20
6.116583480002087
 10
6.52963488742422
 20
6.116785417905153
 10
6.534629710185965
 20
6.116606329165768
 10
6.539653379670192
 20
6.114362047080148
 10
6.544259665160989
 20
6.110251947360858
 10
6.548039096367554
 20
6.104641273454266
 10
6.550655723849302
 20
6.098028603380075
  0
LWPOLYLINE
  5
151
330
1F
100
AcDbEntity
  8
0
  6
Continuous
 62
     7
370
    15
100
AcDbPolyline
 90
       21
 70
   128
 43
0.0
 10
6.54960940791256
 20
6.097733587297239
 10
6.546917727896214
 20
6.104433755644603
 10
6.543001976779868
 20
6.110036005799335
 10
6.538245075658415
 20
6.113992034451619
 10
6.53311291186397
 20
6.115914548668331
 10
6.528107877873027
 20
6.115615354472251
 10
6.523719602125587
 20
6.113123806566283
 10
6.520377977370847
 20
6.108683707877319
 10
6.518409762943112
 20
6.102729795208456
 10
6.518007951074208
 20
6.095844761889986
 10
6.519211599715812
 20
6.088702661189071
 10
6.52190302445143
 20
6.082002561234234
 10
6.525818775567774
 20
6.076400311079503
 10
6.530575676689228
 20
6.072444293296713
 10
6.535707840483674
 20
6.070521768210507
 10
6.540713129755347
 20
6.070820894014057
 10
6.545101405502786
 20
6.073312441920024
 10
6.548443030257526
 20
6.077752540608988
 10
6.55041124468526
 20
6.083706464147347
 10
6.550813056554166
 20
6.090591486596322
 10
6.54960940791256
 20
6.097733587297239
  0
LWPOLYLINE
  5
152
330
1F
100
AcDbEntity
  8
0
  6
Continuous
 62
     7
370
    15
100
AcDbPolyline
 90
        7
 70
   128
 43
0.0
 10
6.556366976024541
 20
6.099558710957818
 10
6.553750348542792
 20
6.106171381032009
 10
6.549970917336228
 20
6.111782054938602
 10
6.545364631845432
 20
6.115892154657892
 10
6.540340962361204
 20
6.118136436743512
 10
6.535346139599458
 20
6.118315525482896
 10
6.534444743342088
 20
6.11811358757983
  0
LWPOLYLINE
  5
153
330
1F
100
AcDbEntity
  8
0
  6
Continuous
 62
     7
370
    15
100
AcDbPolyline
 90
        7
 70
   128
 43
0.0
 10
6.546886360276523
 20
6.071674401536727
 10
6.54833175976937
 20
6.072169635607261
 10
6.552462967821773
 20
6.07505994396641
 10
6.555545737916367
 20
6.079712663494706
 10
6.557306409110672
 20
6.0857142771666
 10
6.55758849431724
 20
6.092531550268522
 10
6.556366976024541
 20
6.099558710957818
  0
LWPOLYLINE
  5
154
330
1F
100
AcDbEntity
  8
0
  6
Continuous
 62
     7
370
    15
100
AcDbPolyline
 90
        7
 70
   128
 43
0.0
 10
6.632244976818247
 20
6.103961576760912
 10
6.633466495110946
 20
6.096934416071617
 10
6.633184409904377
 20
6.090117153839189
 10
6.631423738710073
 20
6.084115540167294
 10
6.628340968615478
 20
6.079462831508494
 10
6.624209760563075
 20
6.07657251227985
 10
6.62276436107023
 20
6.076077267339821
  0
LWPOLYLINE
  5
155
330
1F
100
AcDbEntity
  8
0
  6
Continuous
 62
     7
370
    15
100
AcDbPolyline
 90
        7
 70
   128
 43
0.0
 10
6.610322744135793
 20
6.122516464252418
 10
6.611224140393165
 20
6.12271839128599
 10
6.61621896315491
 20
6.122539302546605
 10
6.621242632639137
 20
6.120295020460985
 10
6.625848918129934
 20
6.116184920741695
 10
6.629628094055768
 20
6.110574326097126
 10
6.632244976818247
 20
6.103961576760912
  0
LWPOLYLINE
  5
156
330
1F
100
AcDbEntity
  8
0
  6
Continuous
 62
     7
370
    15
100
AcDbPolyline
 90
       21
 70
   128
 43
0.0
 10
6.631198660881505
 20
6.103666571547569
 10
6.628506980865159
 20
6.110366739894935
 10
6.624591229748813
 20
6.115968979180172
 10
6.619834328627359
 20
6.119925018701952
 10
6.614702164832914
 20
6.121847532918663
 10
6.609697130841972
 20
6.121548327853088
 10
6.605308855094532
 20
6.119056790816616
 10
6.601966975059061
 20
6.114616760520179
 10
6.599999015912057
 20
6.108662768589293
 10
6.599597204043153
 20
6.101777746140318
 10
6.600800852684757
 20
6.094635645439401
 10
6.603492277420374
 20
6.087935545484566
 10
6.60740802853672
 20
6.082333295329835
 10
6.612164929658172
 20
6.078377266677549
 10
6.617297093452618
 20
6.076454752460837
 10
6.622302382724291
 20
6.076753878264389
 10
6.626690658471731
 20
6.079245426170357
 10
6.63003228322647
 20
6.083685524859321
 10
6.632000497654205
 20
6.089639437528184
 10
6.632402309523109
 20
6.096524470846654
 10
6.631198660881505
 20
6.103666571547569
  0
LWPOLYLINE
  5
157
330
1F
100
AcDbEntity
  8
0
  6
Continuous
 62
     7
370
    15
100
AcDbPolyline
 90
        7
 70
   128
 43
0.0
 10
6.637956228993486
 20
6.105491684338655
 10
6.635339346231007
 20
6.112104433674868
 10
6.631560170305173
 20
6.117715028319439
 10
6.626953884814376
 20
6.121825128038729
 10
6.62193021533015
 20
6.124069410124349
 10
6.616935392568403
 20
6.124248498863733
 10
6.616033996311032
 20
6.124046571830162
  0
LWPOLYLINE
  5
158
330
1F
100
AcDbEntity
  8
0
  6
Continuous
 62
     7
370
    15
100
AcDbPolyline
 90
        7
 70
   128
 43
0.0
 10
6.628475613245468
 20
6.077607374917564
 10
6.629921012738314
 20
6.078102619857593
 10
6.634052220790717
 20
6.080992939086238
 10
6.637134990885312
 20
6.085645647745038
 10
6.638895662079616
 20
6.091647261416932
 10
6.639177747286185
 20
6.098464523649359
 10
6.637956228993486
 20
6.105491684338655
  0
LWPOLYLINE
  5
159
330
1F
100
AcDbEntity
  8
0
  6
Continuous
 62
     7
370
    15
100
AcDbPolyline
 90
       13
 70
   128
 43
0.0
 10
3.898139967650196
 20
7.38060950808219
 10
3.897555598149303
 20
7.380783294729925
 10
3.893266818066352
 20
7.38331017248112
 10
3.889963772611922
 20
7.387660216334171
 10
3.887939970805246
 20
7.393446933164383
 10
3.887375226010465
 20
7.400156152760249
 10
3.888319700891012
 20
7.407191752967897
 10
3.890689535727103
 20
7.413928575076705
 10
3.89427409200646
 20
7.419767972807195
 10
3.898754907018498
 20
7.424191151014586
 10
3.903733806644714
 20
7.426805044994793
 10
3.908768421290237
 20
7.427377444125485
 10
3.910581552674541
 20
7.427048685576227
  0
LWPOLYLINE
  5
15A
330
1F
100
AcDbEntity
  8
0
  6
Continuous
 62
     7
370
    15
100
AcDbPolyline
 90
       21
 70
   128
 43
0.0
 10
3.916533422892781
 20
7.390938435241147
 10
3.919561371450624
 20
7.397422097798591
 10
3.92115464230628
 20
7.40451864878115
 10
3.921157258933761
 20
7.411533391521383
 10
3.91956896605234
 20
7.417779783793564
 10
3.916545229626541
 20
7.422646263469619
 10
3.912382015752622
 20
7.425656561503627
 10
3.907486880115914
 20
7.426515956129634
 10
3.902338984646486
 20
7.425140343233916
 10
3.897442253505215
 20
7.421664338366655
 10
3.893275976262538
 20
7.416428260177486
 10
3.890248027704696
 20
7.409944641098022
 10
3.888654756849041
 20
7.402848090115462
 10
3.888652140221559
 20
7.395833303897249
 10
3.89024043310298
 20
7.389586955103048
 10
3.89326420143887
 20
7.384720440498078
 10
3.897427383402697
 20
7.381710133915004
 10
3.902322519039406
 20
7.380850739288999
 10
3.907470414508834
 20
7.382226395662697
 10
3.912367145650105
 20
7.385702357051978
 10
3.916533422892781
 20
7.390938435241147
  0
LWPOLYLINE
  5
15B
330
1F
100
AcDbEntity
  8
0
  6
Continuous
 62
     7
370
    15
100
AcDbPolyline
 90
       13
 70
   128
 43
0.0
 10
3.904870316454347
 20
7.428578788879437
 10
3.903057185070044
 20
7.428907547428694
 10
3.898022570424521
 20
7.428335148298002
 10
3.893043670798305
 20
7.425721254317795
 10
3.888562855786267
 20
7.421298076110405
 10
3.88497829950691
 20
7.415458678379915
 10
3.882608464670818
 20
7.408721856271107
 10
3.881663989790272
 20
7.401686256063459
 10
3.882228734585053
 20
7.394977036467593
 10
3.884252536391729
 20
7.38919031963738
 10
3.887555581846159
 20
7.38484027578433
 10
3.891844361929109
 20
7.382313398033135
 10
3.892428731430003
 20
7.382139611385399
  0
LWPOLYLINE
  5
15C
330
1F
100
AcDbEntity
  8
0
  6
Continuous
 62
     7
370
    15
100
AcDbPolyline
 90
        7
 70
   128
 43
0.0
 10
3.936398284352573
 20
7.020750211345555
 10
3.937619866465455
 20
7.013723033558127
 10
3.93733776530384
 20
7.006905770165485
 10
3.935577062199445
 20
7.000904159607911
 10
3.932494204352099
 20
6.996251474459042
 10
3.928363107985015
 20
6.993361128026039
 10
3.92691776433483
 20
6.992865870842519
  0
LWPOLYLINE
  5
15D
330
1F
100
AcDbEntity
  8
0
  6
Continuous
 62
     7
370
    15
100
AcDbPolyline
 90
        7
 70
   128
 43
0.0
 10
3.914476195265531
 20
7.039305054931517
 10
3.915377567590333
 20
7.039506993811636
 10
3.920372414284647
 20
7.039327898660452
 10
3.92539609972392
 20
7.037083612300299
 10
3.930002241619306
 20
7.032973551051807
 10
3.933781577095597
 20
7.027362902792411
 10
3.936398284352573
 20
7.020750211345555
  0
LWPOLYLINE
  5
15E
330
1F
100
AcDbEntity
  8
0
  6
Continuous
 62
     7
370
    15
100
AcDbPolyline
 90
       21
 70
   128
 43
0.0
 10
3.935351920550695
 20
7.020455213521066
 10
3.93266041603985
 20
7.027155334848567
 10
3.928744609080845
 20
7.032757594529417
 10
3.923987795712143
 20
7.036713605106517
 10
3.918855615962651
 20
7.038636123597761
 10
3.913850430398775
 20
7.038336964574998
 10
3.90946219453895
 20
7.035845405982699
 10
3.90612045809889
 20
7.031405342650213
 10
3.904152331423907
 20
7.02545140103667
 10
3.90375045573482
 20
7.01856639025108
 10
3.904954192129175
 20
7.011424260605484
 10
3.90764569664002
 20
7.004724141995358
 10
3.911561503599024
 20
6.999121885031882
 10
3.916318316967727
 20
6.99516587445478
 10
3.921450496717219
 20
6.993243355963536
 10
3.926455682281094
 20
6.993542514986299
 10
3.93084391814092
 20
6.996034070861226
 10
3.934185654580979
 20
7.000474134193711
 10
3.936153789233486
 20
7.006428076387361
 10
3.936555648967528
 20
7.013313091447484
 10
3.935351920550695
 20
7.020455213521066
  0
LWPOLYLINE
  5
15F
330
1F
100
AcDbEntity
  8
0
  6
Continuous
 62
     7
370
    15
100
AcDbPolyline
 90
        7
 70
   128
 43
0.0
 10
3.942109536527812
 20
7.022280318923299
 10
3.939492829270836
 20
7.028893010370155
 10
3.935713493794545
 20
7.034503658629549
 10
3.931107351899159
 20
7.038613719878041
 10
3.926083666459886
 20
7.040858006238194
 10
3.921088819765572
 20
7.041037101389379
 10
3.92018744744077
 20
7.040835162509261
  0
LWPOLYLINE
  5
160
330
1F
100
AcDbEntity
  8
0
  6
Continuous
 62
     7
370
    15
100
AcDbPolyline
 90
        7
 70
   128
 43
0.0
 10
3.932629016510069
 20
6.994395978420262
 10
3.934074360160254
 20
6.994891235603783
 10
3.938205456527338
 20
6.997781582036784
 10
3.941288314374684
 20
7.002434267185653
 10
3.943049017479079
 20
7.008435877743228
 10
3.943331118640694
 20
7.015253141135871
 10
3.942109536527812
 20
7.022280318923299
  0
LWPOLYLINE
  5
161
330
1F
100
AcDbEntity
  8
0
  6
Continuous
 62
     7
370
    15
100
AcDbPolyline
 90
       13
 70
   128
 43
0.0
 10
3.898139967650196
 20
7.269442920745227
 10
3.897555598149303
 20
7.269616707392962
 10
3.893266818066352
 20
7.272143585144157
 10
3.889963772611922
 20
7.276493628997208
 10
3.887939970805246
 20
7.282280367566411
 10
3.887375226010465
 20
7.288989587162276
 10
3.888319700891012
 20
7.296025165630934
 10
3.890689535727103
 20
7.302761987739742
 10
3.89427409200646
 20
7.308601385470232
 10
3.898754907018498
 20
7.313024563677623
 10
3.903733806644714
 20
7.31563850113581
 10
3.908768421290237
 20
7.316210900266503
 10
3.910581552674541
 20
7.315882098239264
  0
LWPOLYLINE
  5
162
330
1F
100
AcDbEntity
  8
0
  6
Continuous
 62
     7
370
    15
100
AcDbPolyline
 90
       21
 70
   128
 43
0.0
 10
3.916533422892781
 20
7.279771869643173
 10
3.919561371450624
 20
7.286255510461628
 10
3.92115464230628
 20
7.293352061444187
 10
3.921157258933761
 20
7.30036682592341
 10
3.91956896605234
 20
7.306613196456602
 10
3.916545229626541
 20
7.311479719610638
 10
3.912382015752622
 20
7.314489974166665
 10
3.907486880115914
 20
7.315349368792671
 10
3.902338984646486
 20
7.313973755896953
 10
3.897442253505215
 20
7.310497794507672
 10
3.893275976262538
 20
7.305261672840523
 10
3.890248027704696
 20
7.298778053761059
 10
3.888654756849041
 20
7.291681502778499
 10
3.888652140221559
 20
7.284666716560286
 10
3.89024043310298
 20
7.278420367766085
 10
3.89326420143887
 20
7.273553853161115
 10
3.897427383402697
 20
7.270543568317032
 10
3.902322519039406
 20
7.269684173691026
 10
3.907470414508834
 20
7.271059808325734
 10
3.912367145650105
 20
7.274535791454004
 10
3.916533422892781
 20
7.279771869643173
  0
LWPOLYLINE
  5
163
330
1F
100
AcDbEntity
  8
0
  6
Continuous
 62
     7
370
    15
100
AcDbPolyline
 90
       13
 70
   128
 43
0.0
 10
3.904870316454347
 20
7.317412201542474
 10
3.903057185070044
 20
7.317741003569713
 10
3.898022570424521
 20
7.31716860443902
 10
3.893043670798305
 20
7.314554666980832
 10
3.888562855786267
 20
7.310131488773442
 10
3.88497829950691
 20
7.304292091042952
 10
3.882608464670818
 20
7.297555268934144
 10
3.881663989790272
 20
7.290519690465486
 10
3.882228734585053
 20
7.28381047086962
 10
3.884252536391729
 20
7.278023732300417
 10
3.887555581846159
 20
7.273673688447368
 10
3.891844361929109
 20
7.271146810696172
 10
3.892428731430003
 20
7.270973024048437
  0
LWPOLYLINE
  5
164
330
1F
100
AcDbEntity
  8
0
  6
Continuous
 62
     7
370
    15
100
AcDbPolyline
 90
        7
 70
   128
 43
0.0
 10
4.072380346042406
 20
6.817569249462061
 10
4.073601928155287
 20
6.810542071674634
 10
4.073319842948718
 20
6.803724809442206
 10
4.071559139844322
 20
6.797723193449883
 10
4.068476274019454
 20
6.79307051043828
 10
4.06434517765237
 20
6.790180161287905
 10
4.062899841979707
 20
6.789684910119238
  0
LWPOLYLINE
  5
165
330
1F
100
AcDbEntity
  8
0
  6
Continuous
 62
     7
370
    15
100
AcDbPolyline
 90
        7
 70
   128
 43
0.0
 10
4.050458272910408
 20
6.836124088773489
 10
4.051359637257688
 20
6.836326029790874
 10
4.056354491929525
 20
6.836146932502424
 10
4.061378177368798
 20
6.833902646142271
 10
4.065984319264184
 20
6.829792584893779
 10
4.069763654740474
 20
6.824181936634383
 10
4.072380346042406
 20
6.817569249462061
  0
LWPOLYLINE
  5
166
330
1F
100
AcDbEntity
  8
0
  6
Continuous
 62
     7
370
    15
100
AcDbPolyline
 90
       21
 70
   128
 43
0.0
 10
4.071333998195573
 20
6.817274252797785
 10
4.068642493684728
 20
6.823974374125286
 10
4.0647266787482
 20
6.829576630508655
 10
4.05996987335702
 20
6.833532638948489
 10
4.054837693607528
 20
6.835455157439734
 10
4.04983250006613
 20
6.835156000554237
 10
4.045444272183827
 20
6.83266443982467
 10
4.042102535743768
 20
6.828224381926932
 10
4.040134401091261
 20
6.822270437015908
 10
4.039732525402174
 20
6.815385431665066
 10
4.040936269774052
 20
6.808243294447456
 10
4.043627774284897
 20
6.80154318398945
 10
4.047543573266379
 20
6.795940921011119
 10
4.052300394612605
 20
6.7919849137315
 10
4.057432574362096
 20
6.790062395240255
 10
4.06243775194845
 20
6.790361550965537
 10
4.066825995785797
 20
6.792853107420572
 10
4.070167716270812
 20
6.797293169592842
 10
4.072135866878364
 20
6.803247110229333
 10
4.07253774256745
 20
6.810132126449671
 10
4.071333998195573
 20
6.817274252797785
  0
LWPOLYLINE
  5
167
330
1F
100
AcDbEntity
  8
0
  6
Continuous
 62
     7
370
    15
100
AcDbPolyline
 90
        7
 70
   128
 43
0.0
 10
4.078091598217643
 20
6.819099357039804
 10
4.075474906915713
 20
6.825712044212126
 10
4.071695571439422
 20
6.831322692471522
 10
4.067089429544036
 20
6.835432753720014
 10
4.062065744104764
 20
6.837677040080167
 10
4.057070889432927
 20
6.837856137368618
 10
4.056169525085647
 20
6.837654196351232
  0
LWPOLYLINE
  5
168
330
1F
100
AcDbEntity
  8
0
  6
Continuous
 62
     7
370
    15
100
AcDbPolyline
 90
        7
 70
   128
 43
0.0
 10
4.068611094154947
 20
6.791215017696981
 10
4.07005642982761
 20
6.791710268865648
 10
4.074187526194693
 20
6.794600618016023
 10
4.077270392019562
 20
6.799253301027626
 10
4.079031095123957
 20
6.805254917019949
 10
4.079313180330525
 20
6.812072179252376
 10
4.078091598217643
 20
6.819099357039804
  0
LWPOLYLINE
  5
169
330
1F
100
AcDbEntity
  8
0
  6
Continuous
 62
     7
370
    15
100
AcDbPolyline
 90
       13
 70
   128
 43
0.0
 10
3.898139967650196
 20
7.491776051941172
 10
3.897555598149303
 20
7.491949882066887
 10
3.893266818066352
 20
7.494476716340103
 10
3.889963772611922
 20
7.498826803671133
 10
3.887939970805246
 20
7.504613520501346
 10
3.887375226010465
 20
7.511322740097212
 10
3.888319700891012
 20
7.51835834030486
 10
3.890689535727103
 20
7.525095118935688
 10
3.89427409200646
 20
7.530934560144157
 10
3.898754907018498
 20
7.535357738351548
 10
3.903733806644714
 20
7.537971632331756
 10
3.908768421290237
 20
7.538544031462448
 10
3.910581552674541
 20
7.538215272913189
  0
LWPOLYLINE
  5
16A
330
1F
100
AcDbEntity
  8
0
  6
Continuous
 62
     7
370
    15
100
AcDbPolyline
 90
       21
 70
   128
 43
0.0
 10
3.916533422892781
 20
7.502105022578108
 10
3.919561371450624
 20
7.508588641657573
 10
3.92115464230628
 20
7.515685192640132
 10
3.921157258933761
 20
7.522699978858346
 10
3.91956896605234
 20
7.528946327652547
 10
3.916545229626541
 20
7.533812850806582
 10
3.912382015752622
 20
7.53682314884059
 10
3.907486880115914
 20
7.537682543466597
 10
3.902338984646486
 20
7.536306887092899
 10
3.897442253505215
 20
7.532830925703617
 10
3.893275976262538
 20
7.527594847514449
 10
3.890248027704696
 20
7.521111184957004
 10
3.888654756849041
 20
7.514014633974444
 10
3.888652140221559
 20
7.506999891234212
 10
3.89024043310298
 20
7.500753498962031
 10
3.89326420143887
 20
7.495887027835041
 10
3.897427383402697
 20
7.492876721251968
 10
3.902322519039406
 20
7.492017326625962
 10
3.907470414508834
 20
7.493392939521678
 10
3.912367145650105
 20
7.496868944388941
 10
3.916533422892781
 20
7.502105022578108
  0
LWPOLYLINE
  5
16B
330
1F
100
AcDbEntity
  8
0
  6
Continuous
 62
     7
370
    15
100
AcDbPolyline
 90
       13
 70
   128
 43
0.0
 10
3.904870316454347
 20
7.5397453762164
 10
3.903057185070044
 20
7.540074134765657
 10
3.898022570424521
 20
7.539501735634965
 10
3.893043670798305
 20
7.536887841654758
 10
3.888562855786267
 20
7.532464663447367
 10
3.88497829950691
 20
7.526625222238898
 10
3.882608464670818
 20
7.51988844360807
 10
3.881663989790272
 20
7.512852843400422
 10
3.882228734585053
 20
7.506143623804556
 10
3.884252536391729
 20
7.500356906974343
 10
3.887555581846159
 20
7.496006819643312
 10
3.891844361929109
 20
7.493479985370098
 10
3.892428731430003
 20
7.493306155244382
  0
LWPOLYLINE
  5
16C
330
1F
100
AcDbEntity
  8
0
  6
Continuous
 62
     7
370
    15
100
AcDbPolyline
 90
        7
 70
   128
 43
0.0
 10
4.072380346042406
 20
7.039902402396997
 10
4.073601928155287
 20
7.032875224609568
 10
4.073319842948718
 20
7.026057951507646
 10
4.071559139844322
 20
7.020056346384818
 10
4.068476274019454
 20
7.015403663373216
 10
4.06434517765237
 20
7.01251331422284
 10
4.062899841979707
 20
7.012018057619426
  0
LWPOLYLINE
  5
16D
330
1F
100
AcDbEntity
  8
0
  6
Continuous
 62
     7
370
    15
100
AcDbPolyline
 90
        7
 70
   128
 43
0.0
 10
4.050458272910408
 20
7.058457236273677
 10
4.051359637257688
 20
7.05865918272581
 10
4.056354491929525
 20
7.058480085437359
 10
4.061378177368798
 20
7.056235799077206
 10
4.065984319264184
 20
7.052125737828715
 10
4.069763654740474
 20
7.04651508956932
 10
4.072380346042406
 20
7.039902402396997
  0
LWPOLYLINE
  5
16E
330
1F
100
AcDbEntity
  8
0
  6
Continuous
 62
     7
370
    15
100
AcDbPolyline
 90
       21
 70
   128
 43
0.0
 10
4.071333998195573
 20
7.039607405732721
 10
4.068642493684728
 20
7.046307516190727
 10
4.0647266787482
 20
7.051909783443591
 10
4.05996987335702
 20
7.055865786448677
 10
4.054837693607528
 20
7.057788304939922
 10
4.04983250006613
 20
7.057489153489173
 10
4.045444272183827
 20
7.054997592759606
 10
4.042102535743768
 20
7.050557534861868
 10
4.040134401091261
 20
7.044603589950845
 10
4.039732525402174
 20
7.037718573730507
 10
4.040936269774052
 20
7.030576447382392
 10
4.043627774284897
 20
7.023876326054891
 10
4.047543573266379
 20
7.018274073946056
 10
4.052300394612605
 20
7.014318061231688
 10
4.057432574362096
 20
7.012395542740443
 10
4.06243775194845
 20
7.012694703900473
 10
4.066825995785797
 20
7.015186260355507
 10
4.070167716270812
 20
7.019626322527779
 10
4.072135866878364
 20
7.025580263164269
 10
4.07253774256745
 20
7.032465268515111
 10
4.071333998195573
 20
7.039607405732721
  0
LWPOLYLINE
  5
16F
330
1F
100
AcDbEntity
  8
0
  6
Continuous
 62
     7
370
    15
100
AcDbPolyline
 90
        7
 70
   128
 43
0.0
 10
4.078091598217643
 20
7.041432509974739
 10
4.075474906915713
 20
7.048045197147062
 10
4.071695571439422
 20
7.053655845406457
 10
4.067089429544036
 20
7.05776590665495
 10
4.062065744104764
 20
7.060010193015102
 10
4.057070889432927
 20
7.060189290303553
 10
4.056169525085647
 20
7.05998734385142
  0
LWPOLYLINE
  5
170
330
1F
100
AcDbEntity
  8
0
  6
Continuous
 62
     7
370
    15
100
AcDbPolyline
 90
        7
 70
   128
 43
0.0
 10
4.068611094154947
 20
7.013548165197169
 10
4.07005642982761
 20
7.014043421800582
 10
4.074187526194693
 20
7.016933770950958
 10
4.077270392019562
 20
7.02158645396256
 10
4.079031095123957
 20
7.027588059085389
 10
4.079313180330525
 20
7.034405332187312
 10
4.078091598217643
 20
7.041432509974739
  0
LWPOLYLINE
  5
171
330
1F
100
AcDbEntity
  8
0
  6
Continuous
 62
     7
370
    15
100
AcDbPolyline
 90
        7
 70
   128
 43
0.0
 10
5.223663985448915
 20
6.509127638632015
 10
5.224885503741615
 20
6.502100477942718
 10
5.224603418535045
 20
6.495283215710291
 10
5.222842747340741
 20
6.489281591168902
 10
5.219759849605781
 20
6.484628916706366
 10
5.215628769193743
 20
6.481738563281457
 10
5.214183369700898
 20
6.481243329210923
  0
LWPOLYLINE
  5
172
330
1F
100
AcDbEntity
  8
0
  6
Continuous
 62
     7
370
    15
100
AcDbPolyline
 90
        7
 70
   128
 43
0.0
 10
5.201741880406827
 20
6.527682486492509
 10
5.202643149023833
 20
6.527884453157092
 10
5.207638099425944
 20
6.527705330221444
 10
5.21266176891017
 20
6.525461048135824
 10
5.217267926760603
 20
6.521350982612799
 10
5.221047230326802
 20
6.51574034290247
 10
5.223663985448915
 20
6.509127638632015
  0
LWPOLYLINE
  5
173
330
1F
100
AcDbEntity
  8
0
  6
Continuous
 62
     7
370
    15
100
AcDbPolyline
 90
       21
 70
   128
 43
0.0
 10
5.222617541871809
 20
6.508832667614936
 10
5.219926117136191
 20
6.515532767569773
 10
5.216010238379482
 20
6.521135041051273
 10
5.211253464898393
 20
6.525091040942042
 10
5.206121301103947
 20
6.527013555158753
 10
5.201116011832274
 20
6.526714423920455
 10
5.1967278637252
 20
6.524222841818223
 10
5.193386111330095
 20
6.519782788195018
 10
5.191418024542726
 20
6.513828830460394
 10
5.191016085033456
 20
6.506943842207685
 10
5.192219861315424
 20
6.499801696441009
 10
5.194911286051042
 20
6.493101607355669
 10
5.198827164807752
 20
6.487499323004672
 10
5.203583938288842
 20
6.483543328548652
 10
5.208716102083287
 20
6.48162081433194
 10
5.213721263714594
 20
6.481919974331756
 10
5.218109539462034
 20
6.484411522237723
 10
5.221451291857139
 20
6.488851575860929
 10
5.223419378644509
 20
6.494805533595551
 10
5.223821318153778
 20
6.501690532717756
 10
5.222617541871809
 20
6.508832667614936
  0
LWPOLYLINE
  5
174
330
1F
100
AcDbEntity
  8
0
  6
Continuous
 62
     7
370
    15
100
AcDbPolyline
 90
        7
 70
   128
 43
0.0
 10
5.229375237624154
 20
6.510657746209757
 10
5.226758482502041
 20
6.517270450480212
 10
5.222979178935841
 20
6.522881090190542
 10
5.21837302108541
 20
6.526991155713566
 10
5.213349351601182
 20
6.529235437799187
 10
5.208354401199073
 20
6.529414560734835
 10
5.207453132582066
 20
6.529212594070252
  0
LWPOLYLINE
  5
175
330
1F
100
AcDbEntity
  8
0
  6
Continuous
 62
     7
370
    15
100
AcDbPolyline
 90
        7
 70
   128
 43
0.0
 10
5.219894621876138
 20
6.482773436788665
 10
5.221340021368982
 20
6.4832686708592
 10
5.22547110178102
 20
6.486159024284108
 10
5.228553999515979
 20
6.490811698746645
 10
5.230314670710284
 20
6.496813323288034
 10
5.230596755916853
 20
6.503630585520462
 10
5.229375237624154
 20
6.510657746209757
  0
LWPOLYLINE
  5
176
330
1F
100
AcDbEntity
  8
0
  6
Continuous
 62
     7
370
    15
100
AcDbPolyline
 90
        7
 70
   128
 43
0.0
 10
5.264458611933387
 20
6.553781595573794
 10
5.265680130226087
 20
6.546754434884498
 10
5.265398045019518
 20
6.539937167217322
 10
5.263637373825213
 20
6.533935548110681
 10
5.260554476090254
 20
6.529282873648146
 10
5.256423395678215
 20
6.526392525657985
 10
5.25497799618537
 20
6.525897280717956
  0
LWPOLYLINE
  5
177
330
1F
100
AcDbEntity
  8
0
  6
Continuous
 62
     7
370
    15
100
AcDbPolyline
 90
        7
 70
   128
 43
0.0
 10
5.242536506891299
 20
6.572336443434288
 10
5.243437775508305
 20
6.572538410098871
 10
5.248432725910416
 20
6.572359287163223
 10
5.253456395394643
 20
6.570115005077603
 10
5.258062553245075
 20
6.566004939554578
 10
5.261841856811274
 20
6.560394302561623
 10
5.264458611933387
 20
6.553781595573794
  0
LWPOLYLINE
  5
178
330
1F
100
AcDbEntity
  8
0
  6
Continuous
 62
     7
370
    15
100
AcDbPolyline
 90
       21
 70
   128
 43
0.0
 10
5.263412168356281
 20
6.553486624556716
 10
5.260720743620665
 20
6.560186721794178
 10
5.256804864863955
 20
6.565788997993053
 10
5.252048091382865
 20
6.569744997883821
 10
5.246915927588419
 20
6.571667512100533
 10
5.241910638316748
 20
6.571368380862234
 10
5.237522490209673
 20
6.568876801477376
 10
5.234180737814567
 20
6.564436742419423
 10
5.232212651027198
 20
6.558482787402175
 10
5.231810711517928
 20
6.551597793714716
 10
5.233014487799898
 20
6.544455658817536
 10
5.235705912535514
 20
6.537755558862699
 10
5.239621791292225
 20
6.532153279946451
 10
5.244378564773314
 20
6.528197280055684
 10
5.249510728567759
 20
6.526274765838972
 10
5.254515890199066
 20
6.526573931273535
 10
5.258904165946506
 20
6.529065479179503
 10
5.262245918341611
 20
6.533505538237455
 10
5.264214005128981
 20
6.53945949053733
 10
5.264615944638251
 20
6.546344484224789
 10
5.263412168356281
 20
6.553486624556716
  0
LWPOLYLINE
  5
179
330
1F
100
AcDbEntity
  8
0
  6
Continuous
 62
     7
370
    15
100
AcDbPolyline
 90
        7
 70
   128
 43
0.0
 10
5.270169864108626
 20
6.555311703151537
 10
5.267553108986513
 20
6.561924410139365
 10
5.263773805420314
 20
6.567535047132321
 10
5.259167647569882
 20
6.571645112655346
 10
5.254143978085655
 20
6.573889394740966
 10
5.249149027683545
 20
6.574068517676614
 10
5.248247759066538
 20
6.573866551012031
  0
LWPOLYLINE
  5
17A
330
1F
100
AcDbEntity
  8
0
  6
Continuous
 62
     7
370
    15
100
AcDbPolyline
 90
        7
 70
   128
 43
0.0
 10
5.26068924836061
 20
6.527427388295698
 10
5.262134647853454
 20
6.527922633235727
 10
5.266265728265493
 20
6.530812981225889
 10
5.269348626000453
 20
6.535465655688424
 10
5.271109297194756
 20
6.541467274795066
 10
5.271391382401326
 20
6.548284542462241
 10
5.270169864108626
 20
6.555311703151537
  0
LWPOLYLINE
  5
17B
330
1F
100
AcDbEntity
  8
0
  6
Continuous
 62
     7
370
    15
100
AcDbPolyline
 90
       13
 70
   128
 43
0.0
 10
5.049929397957919
 20
6.931524113003723
 10
5.049345028457025
 20
6.931697921390447
 10
5.045056216463984
 20
6.934224768853586
 10
5.041753202919645
 20
6.938574821255702
 10
5.039729369202878
 20
6.944361551275839
 10
5.039164624408098
 20
6.951070792610696
 10
5.040109131198735
 20
6.95810637962842
 10
5.042478934124734
 20
6.964843149710182
 10
5.046063522314183
 20
6.970682599467717
 10
5.05054430541613
 20
6.975105769126041
 10
5.055523236952437
 20
6.977719671655315
 10
5.06055785159796
 20
6.978292070786007
 10
5.062370982982264
 20
6.97796331223675
  0
LWPOLYLINE
  5
17C
330
1F
100
AcDbEntity
  8
0
  6
Continuous
 62
     7
370
    15
100
AcDbPolyline
 90
       21
 70
   128
 43
0.0
 10
5.068322917020687
 20
6.941853044803536
 10
5.071350865578529
 20
6.948336685621991
 10
5.072944136434185
 20
6.95543323660455
 10
5.072946753061666
 20
6.962448001083774
 10
5.071358460180245
 20
6.968694393355955
 10
5.068334691844354
 20
6.973560864482944
 10
5.064171509880527
 20
6.976571171066018
 10
5.059276374243819
 20
6.977430565692023
 10
5.054128478774391
 20
6.976054952796307
 10
5.04923174763312
 20
6.972578947929044
 10
5.045065470390444
 20
6.967342869739876
 10
5.0420375218326
 20
6.960859250660412
 10
5.040444250976945
 20
6.953762699677852
 10
5.040441634349464
 20
6.946747913459639
 10
5.042029927230885
 20
6.940501542926448
 10
5.045053663656684
 20
6.935635041511402
 10
5.049216877530602
 20
6.932624765216385
 10
5.054112013167311
 20
6.93176537059038
 10
5.059259908636738
 20
6.933140983486096
 10
5.064156639778009
 20
6.936616966614367
 10
5.068322917020687
 20
6.941853044803536
  0
LWPOLYLINE
  5
17D
330
1F
100
AcDbEntity
  8
0
  6
Continuous
 62
     7
370
    15
100
AcDbPolyline
 90
       13
 70
   128
 43
0.0
 10
5.05665971485198
 20
6.979493424089026
 10
5.054846583467675
 20
6.979822182638283
 10
5.049811968822153
 20
6.979249783507591
 10
5.044833037285845
 20
6.976635880978317
 10
5.040352254183899
 20
6.972212711319993
 10
5.03676766599445
 20
6.966373261562457
 10
5.034397863068449
 20
6.959636491480696
 10
5.033453356277813
 20
6.952600904462971
 10
5.034018101072592
 20
6.945891663128115
 10
5.03604193478936
 20
6.940104933107979
 10
5.039344948333699
 20
6.935754880705862
 10
5.04363376032674
 20
6.933228033242722
 10
5.044218129827634
 20
6.933054224855998
  0
LINE
  5
17E
330
1F
100
AcDbEntity
  8
0
  6
Continuous
 62
     7
370
    15
100
AcDbLine
 10
3.837421565699979
 20
6.766862158261892
 30
0.0
 11
3.883932924917861
 21
6.75440125109009
 31
0.0
  0
LINE
  5
17F
330
1F
100
AcDbEntity
  8
0
  6
Continuous
 62
     7
370
    15
100
AcDbLine
 10
4.439142234548243
 20
6.292713015840285
 30
0.0
 11
4.439142234548243
 21
5.200459799870091
 31
0.0
  0
LINE
  5
180
330
1F
100
AcDbEntity
  8
0
  6
Continuous
 62
     7
370
    15
100
AcDbLine
 10
4.439142234548243
 20
5.200459799870091
 30
0.0
 11
4.216809862478628
 21
5.140894500204955
 31
0.0
  0
LINE
  5
181
330
1F
100
AcDbEntity
  8
0
  6
Continuous
 62
     7
370
    15
100
AcDbLine
 10
4.216809862478628
 20
5.140894500204955
 30
0.0
 11
4.194374507551499
 21
5.023717233330468
 31
0.0
  0
LINE
  5
182
330
1F
100
AcDbEntity
  8
0
  6
Continuous
 62
     7
370
    15
100
AcDbLine
 10
4.194374507551499
 20
5.023717233330468
 30
0.0
 11
4.163443868639972
 21
5.089541747490701
 31
0.0
  0
LINE
  5
183
330
1F
100
AcDbEntity
  8
0
  6
Continuous
 62
     7
370
    15
100
AcDbLine
 10
4.163443868639972
 20
5.089541747490701
 30
0.0
 11
3.949606780554755
 21
5.032252428293731
 31
0.0
  0
LINE
  5
184
330
1F
100
AcDbEntity
  8
0
  6
Continuous
 62
     7
370
    15
100
AcDbLine
 10
3.949606780554755
 20
6.733775431939775
 30
0.0
 11
3.949606780554755
 21
5.032252428293731
 31
0.0
  0
LINE
  5
185
330
1F
100
AcDbEntity
  8
0
  6
Continuous
 62
     7
370
    15
100
AcDbLine
 10
3.786428288577531
 20
5.075969749721332
 30
0.0
 11
3.949606780554755
 21
5.032252428293731
 31
0.0
  0
LINE
  5
186
330
1F
100
AcDbEntity
  8
0
  6
Continuous
 62
     7
370
    15
100
AcDbLine
 10
3.786428288577531
 20
6.777492753367376
 30
0.0
 11
3.786428288577531
 21
5.075969749721332
 31
0.0
  0
LINE
  5
187
330
1F
100
AcDbEntity
  8
0
  6
Continuous
 62
     7
370
    15
100
AcDbLine
 10
4.056061713352224
 20
5.060772759510984
 30
0.0
 11
4.194374507551499
 21
5.023717233330468
 31
0.0
  0
LINE
  5
188
330
1F
100
AcDbEntity
  8
0
  6
Continuous
 62
     7
370
    15
100
AcDbLine
 10
2.481000322844024
 20
7.130262400209444
 30
0.0
 11
2.644178828781913
 21
7.086545075041626
 31
0.0
  0
LINE
  5
189
330
1F
100
AcDbEntity
  8
0
  6
Continuous
 62
     7
370
    15
100
AcDbLine
 10
2.644178828781913
 20
7.086545075041626
 30
0.0
 11
2.644178828781913
 21
7.06129217270236
 31
0.0
  0
LINE
  5
18A
330
1F
100
AcDbEntity
  8
0
  6
Continuous
 62
     7
370
    15
100
AcDbLine
 10
2.644178828781913
 20
6.82869115121131
 30
0.0
 11
2.644178828781913
 21
6.696796914956446
 31
0.0
  0
LINE
  5
18B
330
1F
100
AcDbEntity
  8
0
  6
Continuous
 62
     7
370
    15
100
AcDbLine
 10
2.644178828781913
 20
6.483162771131359
 30
0.0
 11
2.644178828781913
 21
5.381991003989074
 31
0.0
  0
LINE
  5
18C
330
1F
100
AcDbEntity
  8
0
  6
Continuous
 62
     7
370
    15
100
AcDbLine
 10
2.481000322844024
 20
5.425708329156893
 30
0.0
 11
2.644178828781913
 21
5.381991003989074
 31
0.0
  0
LINE
  5
18D
330
1F
100
AcDbEntity
  8
0
  6
Continuous
 62
     7
370
    15
100
AcDbLine
 10
2.481000322844024
 20
7.130262400209444
 30
0.0
 11
2.481000322844024
 21
5.425708329156893
 31
0.0
  0
LINE
  5
18E
330
1F
100
AcDbEntity
  8
0
  6
Continuous
 62
     7
370
    15
100
AcDbLine
 10
3.133714282775401
 20
6.558273004042418
 30
0.0
 11
3.133714282775401
 21
5.550198375565434
 31
0.0
  0
LINE
  5
18F
330
1F
100
AcDbEntity
  8
0
  6
Continuous
 62
     7
370
    15
100
AcDbLine
 10
3.133714282775401
 20
5.550198375565434
 30
0.0
 11
2.911381910705785
 21
5.490633075900299
 31
0.0
  0
LINE
  5
190
330
1F
100
AcDbEntity
  8
0
  6
Continuous
 62
     7
370
    15
100
AcDbLine
 10
2.911381910705785
 20
5.490633075900299
 30
0.0
 11
2.888946555778662
 21
5.373455809025813
 31
0.0
  0
LINE
  5
191
330
1F
100
AcDbEntity
  8
0
  6
Continuous
 62
     7
370
    15
100
AcDbLine
 10
2.888946555778662
 20
5.373455809025813
 30
0.0
 11
2.858015916867131
 21
5.439280323186046
 31
0.0
  0
LINE
  5
192
330
1F
100
AcDbEntity
  8
0
  6
Continuous
 62
     7
370
    15
100
AcDbLine
 10
2.858015916867131
 20
5.439280323186046
 30
0.0
 11
2.644178828781913
 21
5.381991003989074
 31
0.0
  0
LINE
  5
193
330
1F
100
AcDbEntity
  8
0
  6
Continuous
 62
     7
370
    15
100
AcDbLine
 10
2.750633796979645
 20
5.410511325722209
 30
0.0
 11
2.888946555778662
 21
5.373455809025813
 31
0.0
  0
LINE
  5
194
330
1F
100
AcDbEntity
  8
0
  6
Continuous
 62
     7
370
    15
100
AcDbLine
 10
1.175572530621637
 20
7.480000933159457
 30
0.0
 11
1.338751036559527
 21
7.436283607991639
 31
0.0
  0
LINE
  5
195
330
1F
100
AcDbEntity
  8
0
  6
Continuous
 62
     7
370
    15
100
AcDbLine
 10
1.338751036559527
 20
7.436283607991639
 30
0.0
 11
1.338751036559527
 21
5.731729536939087
 31
0.0
  0
LINE
  5
196
330
1F
100
AcDbEntity
  8
0
  6
Continuous
 62
     7
370
    15
100
AcDbLine
 10
1.175572530621637
 20
5.775446862106904
 30
0.0
 11
1.338751036559527
 21
5.731729536939087
 31
0.0
  0
LINE
  5
197
330
1F
100
AcDbEntity
  8
0
  6
Continuous
 62
     7
370
    15
100
AcDbLine
 10
1.175572530621637
 20
7.480000933159457
 30
0.0
 11
1.175572530621637
 21
5.775446862106904
 31
0.0
  0
LINE
  5
198
330
1F
100
AcDbEntity
  8
0
  6
Continuous
 62
     7
370
    15
100
AcDbLine
 10
1.828286490553015
 20
6.908011536992431
 30
0.0
 11
1.828286490553015
 21
5.899936908515448
 31
0.0
  0
LINE
  5
199
330
1F
100
AcDbEntity
  8
0
  6
Continuous
 62
     7
370
    15
100
AcDbLine
 10
1.828286490553015
 20
5.899936908515448
 30
0.0
 11
1.6059541184834
 21
5.84037160885031
 31
0.0
  0
LINE
  5
19A
330
1F
100
AcDbEntity
  8
0
  6
Continuous
 62
     7
370
    15
100
AcDbLine
 10
1.6059541184834
 20
5.84037160885031
 30
0.0
 11
1.583518763556281
 21
5.723194341975826
 31
0.0
  0
LINE
  5
19B
330
1F
100
AcDbEntity
  8
0
  6
Continuous
 62
     7
370
    15
100
AcDbLine
 10
1.583518763556281
 20
5.723194341975826
 30
0.0
 11
1.552588124644744
 21
5.789018856136058
 31
0.0
  0
LINE
  5
19C
330
1F
100
AcDbEntity
  8
0
  6
Continuous
 62
     7
370
    15
100
AcDbLine
 10
1.552588124644744
 20
5.789018856136058
 30
0.0
 11
1.338751036559527
 21
5.731729536939087
 31
0.0
  0
LINE
  5
19D
330
1F
100
AcDbEntity
  8
0
  6
Continuous
 62
     7
370
    15
100
AcDbLine
 10
1.445205877116899
 20
5.760249892868487
 30
0.0
 11
1.583518763556281
 21
5.723194341975826
 31
0.0
  0
LINE
  5
19E
330
1F
100
AcDbEntity
  8
0
  6
Continuous
 62
     7
370
    15
100
AcDbLine
 10
5.010266909600581
 20
6.452643928500799
 30
0.0
 11
5.17344541553847
 21
6.408926603332981
 31
0.0
  0
LINE
  5
19F
330
1F
100
AcDbEntity
  8
0
  6
Continuous
 62
     7
370
    15
100
AcDbLine
 10
5.662980869531958
 20
5.880654532333772
 30
0.0
 11
5.662980869531958
 21
4.872579903856789
 31
0.0
  0
LINE
  5
1A0
330
1F
100
AcDbEntity
  8
0
  6
Continuous
 62
     7
370
    15
100
AcDbLine
 10
5.662980869531958
 20
4.872579903856789
 30
0.0
 11
5.440648497462342
 21
4.813014604191653
 31
0.0
  0
LINE
  5
1A1
330
1F
100
AcDbEntity
  8
0
  6
Continuous
 62
     7
370
    15
100
AcDbLine
 10
5.440648497462342
 20
4.813014604191653
 30
0.0
 11
5.418213142535208
 21
4.695837337317164
 31
0.0
  0
LINE
  5
1A2
330
1F
100
AcDbEntity
  8
0
  6
Continuous
 62
     7
370
    15
100
AcDbLine
 10
5.418213142535208
 20
4.695837337317164
 30
0.0
 11
5.387282503623687
 21
4.7616618514774
 31
0.0
  0
LINE
  5
1A3
330
1F
100
AcDbEntity
  8
0
  6
Continuous
 62
     7
370
    15
100
AcDbLine
 10
5.387282503623687
 20
4.7616618514774
 30
0.0
 11
5.17344541553847
 21
4.704372532280429
 31
0.0
  0
LINE
  5
1A4
330
1F
100
AcDbEntity
  8
0
  6
Continuous
 62
     7
370
    15
100
AcDbLine
 10
5.17344541553847
 20
6.408926603332981
 30
0.0
 11
5.17344541553847
 21
4.704372532280429
 31
0.0
  0
LINE
  5
1A5
330
1F
100
AcDbEntity
  8
0
  6
Continuous
 62
     7
370
    15
100
AcDbLine
 10
5.010266909600581
 20
4.748089857448246
 30
0.0
 11
5.17344541553847
 21
4.704372532280429
 31
0.0
  0
LINE
  5
1A6
330
1F
100
AcDbEntity
  8
0
  6
Continuous
 62
     7
370
    15
100
AcDbLine
 10
5.010266909600581
 20
6.452643928500799
 30
0.0
 11
5.010266909600581
 21
4.748089857448246
 31
0.0
  0
LINE
  5
1A7
330
1F
100
AcDbEntity
  8
0
  6
Continuous
 62
     7
370
    15
100
AcDbLine
 10
5.27990038373619
 20
4.73289285401356
 30
0.0
 11
5.418213142535208
 21
4.695837337317164
 31
0.0
  0
LINE
  5
1A8
330
1F
100
AcDbEntity
  8
0
  6
Continuous
 62
     7
370
    15
100
AcDbLine
 10
6.315694957103696
 20
6.102905327158257
 30
0.0
 11
6.478873463041585
 21
6.059188001990439
 31
0.0
  0
LINE
  5
1A9
330
1F
100
AcDbEntity
  8
0
  6
Continuous
 62
     7
370
    15
100
AcDbLine
 10
6.478873463041585
 20
6.059188001990439
 30
0.0
 11
6.478873463041585
 21
4.354633930937887
 31
0.0
  0
LINE
  5
1AA
330
1F
100
AcDbEntity
  8
0
  6
Continuous
 62
     7
370
    15
100
AcDbLine
 10
6.315694957103696
 20
4.398351256105705
 30
0.0
 11
6.478873463041585
 21
4.354633930937887
 31
0.0
  0
LINE
  5
1AB
330
1F
100
AcDbEntity
  8
0
  6
Continuous
 62
     7
370
    15
100
AcDbLine
 10
6.315694957103696
 20
6.102905327158257
 30
0.0
 11
6.315694957103696
 21
4.398351256105705
 31
0.0
  0
LINE
  5
1AC
330
1F
100
AcDbEntity
  8
0
  6
Continuous
 62
     7
370
    15
100
AcDbLine
 10
6.968408917035073
 20
5.928036021789232
 30
0.0
 11
6.968408917035073
 21
4.522841302514247
 31
0.0
  0
LINE
  5
1AD
330
1F
100
AcDbEntity
  8
0
  6
Continuous
 62
     7
370
    15
100
AcDbLine
 10
6.968408917035073
 20
4.522841302514247
 30
0.0
 11
6.746076544965458
 21
4.463276002849112
 31
0.0
  0
LINE
  5
1AE
330
1F
100
AcDbEntity
  8
0
  6
Continuous
 62
     7
370
    15
100
AcDbLine
 10
6.746076544965458
 20
4.463276002849112
 30
0.0
 11
6.723641190038318
 21
4.346098735974621
 31
0.0
  0
LINE
  5
1AF
330
1F
100
AcDbEntity
  8
0
  6
Continuous
 62
     7
370
    15
100
AcDbLine
 10
6.723641190038318
 20
4.346098735974621
 30
0.0
 11
6.692710551126803
 21
4.411923250134859
 31
0.0
  0
LINE
  5
1B0
330
1F
100
AcDbEntity
  8
0
  6
Continuous
 62
     7
370
    15
100
AcDbLine
 10
6.692710551126803
 20
4.411923250134859
 30
0.0
 11
6.478873463041585
 21
4.354633930937887
 31
0.0
  0
LINE
  5
1B1
330
1F
100
AcDbEntity
  8
0
  6
Continuous
 62
     7
370
    15
100
AcDbLine
 10
6.585328303598936
 20
4.383154286867283
 30
0.0
 11
6.723641190038318
 21
4.346098735974621
 31
0.0
  0
LINE
  5
1B2
330
1F
100
AcDbEntity
  8
0
  6
Continuous
 62
     7
370
    15
100
AcDbLine
 10
6.432544254602029
 20
6.266078027865458
 30
0.0
 11
6.466539781990771
 21
6.27518580536693
 31
0.0
  0
LINE
  5
1B3
330
1F
100
AcDbEntity
  8
0
  6
Continuous
 62
     7
370
    15
100
AcDbLine
 10
6.35645288698324
 20
6.4680254624637
 30
0.0
 11
6.432544254602029
 21
6.266078027865458
 31
0.0
  0
LINE
  5
1B4
330
1F
100
AcDbEntity
  8
0
  6
Continuous
 62
     7
370
    15
100
AcDbLine
 10
6.363252002034016
 20
6.469847020528715
 30
0.0
 11
6.35645288698324
 21
6.4680254624637
 31
0.0
  0
LINE
  5
1B5
330
1F
100
AcDbEntity
  8
0
  6
Continuous
 62
     7
370
    15
100
AcDbLine
 10
6.315694893283512
 20
6.596064157931853
 30
0.0
 11
6.363252002034016
 21
6.469847020528715
 31
0.0
  0
LINE
  5
1B6
330
1F
100
AcDbEntity
  8
0
  6
Continuous
 62
     7
370
    15
100
AcDbLine
 10
6.308895778232737
 20
6.594242599866838
 30
0.0
 11
6.315694893283512
 21
6.596064157931853
 31
0.0
  0
LINE
  5
1B7
330
1F
100
AcDbEntity
  8
0
  6
Continuous
 62
     7
370
    15
100
AcDbLine
 10
6.308895778232737
 20
6.659089790306061
 30
0.0
 11
6.308895778232737
 21
6.594242599866838
 31
0.0
  0
LINE
  5
1B8
330
1F
100
AcDbEntity
  8
0
  6
Continuous
 62
     7
370
    15
100
AcDbLine
 10
6.478873367311313
 20
6.704628664989826
 30
0.0
 11
6.308895778232737
 21
6.659089790306061
 31
0.0
  0
LINE
  5
1B9
330
1F
100
AcDbEntity
  8
0
  6
Continuous
 62
     7
370
    15
100
AcDbLine
 10
6.478873367311313
 20
6.639781474550604
 30
0.0
 11
6.478873367311313
 21
6.704628664989826
 31
0.0
  0
LINE
  5
1BA
330
1F
100
AcDbEntity
  8
0
  6
Continuous
 62
     7
370
    15
100
AcDbLine
 10
6.465275169119852
 20
6.636138366969641
 30
0.0
 11
6.478873367311313
 21
6.639781474550604
 31
0.0
  0
LINE
  5
1BB
330
1F
100
AcDbEntity
  8
0
  6
Continuous
 62
     7
370
    15
100
AcDbLine
 10
6.465275169119852
 20
6.534235676403418
 30
0.0
 11
6.465275169119852
 21
6.582817710881338
 31
0.0
  0
LINE
  5
1BC
330
1F
100
AcDbEntity
  8
0
  6
Continuous
 62
     7
370
    15
100
AcDbLine
 10
6.465275169119852
 20
6.608061743712594
 30
0.0
 11
6.465275169119852
 21
6.636138366969641
 31
0.0
  0
ARC
  5
1BD
330
1F
100
AcDbEntity
  8
0
  6
Continuous
 62
     7
370
    15
100
AcDbCircle
 10
6.50018453230379
 20
6.532523713954499
 30
0.0
 40
0.034951315473593
100
AcDbArc
 50
177.1924522485143
 51
221.4268752326476
  0
LINE
  5
1BE
330
1F
100
AcDbEntity
  8
0
  6
Continuous
 62
     7
370
    15
100
AcDbLine
 10
6.473978008303964
 20
6.275765731941235
 30
0.0
 11
6.473978008303964
 21
6.509397699313382
 31
0.0
  0
ARC
  5
1BF
330
1F
100
AcDbEntity
  8
0
  6
Continuous
 62
     7
370
    15
100
AcDbCircle
 10
6.471759579120793
 20
6.256227768107972
 30
0.0
 40
0.0196635057604343
100
AcDbArc
 50
83.52212020116573
 51
105.3940548144575
  0
LINE
  5
1C0
330
1F
100
AcDbEntity
  8
0
  6
Continuous
 62
     7
370
    15
100
AcDbLine
 10
6.308895778232737
 20
6.659089790306061
 30
0.0
 11
6.303239012538292
 21
6.66060530035342
 31
0.0
  0
LINE
  5
1C1
330
1F
100
AcDbEntity
  8
0
  6
Continuous
 62
     7
370
    15
100
AcDbLine
 10
6.308895778232737
 20
6.594242599866838
 30
0.0
 11
6.303239012538292
 21
6.595758109914199
 31
0.0
  0
LINE
  5
1C2
330
1F
100
AcDbEntity
  8
0
  6
Continuous
 62
     7
370
    15
100
AcDbLine
 10
6.303239012538292
 20
6.66060530035342
 30
0.0
 11
6.303239012538292
 21
6.595758109914199
 31
0.0
  0
LINE
  5
1C3
330
1F
100
AcDbEntity
  8
0
  6
Continuous
 62
     7
370
    15
100
AcDbLine
 10
6.478873367311313
 20
6.704628664989826
 30
0.0
 11
6.473216601616867
 21
6.706144175037187
 31
0.0
  0
LINE
  5
1C4
330
1F
100
AcDbEntity
  8
0
  6
Continuous
 62
     7
370
    15
100
AcDbLine
 10
6.473216601616867
 20
6.706144175037187
 30
0.0
 11
6.303239012538292
 21
6.66060530035342
 31
0.0
  0
LINE
  5
1C5
330
1F
100
AcDbEntity
  8
0
  6
Continuous
 62
     7
370
    15
100
AcDbLine
 10
6.363252002034016
 20
6.469847020528715
 30
0.0
 11
6.357595236339572
 21
6.471362530576076
 31
0.0
  0
LINE
  5
1C6
330
1F
100
AcDbEntity
  8
0
  6
Continuous
 62
     7
370
    15
100
AcDbLine
 10
6.311075460835126
 20
6.594826513613792
 30
0.0
 11
6.357595236339572
 21
6.471362530576076
 31
0.0
  0
LWPOLYLINE
  5
1C7
330
1F
100
AcDbEntity
  8
0
  6
Continuous
 62
     7
370
    15
100
AcDbPolyline
 90
       19
 70
   128
 43
0.0
 10
6.541209602909916
 20
6.35442835826931
 10
6.540389385924663
 20
6.360984964766522
 10
6.53802829445357
 20
6.367190078280346
 10
6.534410455949049
 20
6.3722954300875
 10
6.529972655740004
 20
6.375685145092983
 10
6.525249962236361
 20
6.376950406877187
 10
6.520812162027316
 20
6.375938563315662
 10
6.517194578803525
 20
6.372771660954437
 10
6.514833232051703
 20
6.367831740832288
 10
6.514013015066448
 20
6.361714624725632
 10
6.514833232051703
 20
6.355158007358924
 10
6.517194578803525
 20
6.348952830887319
 10
6.520812162027316
 20
6.343847542037946
 10
6.525249962236361
 20
6.340457837901959
 10
6.529972655740004
 20
6.339192576117754
 10
6.534410455949049
 20
6.340204408809785
 10
6.53802829445357
 20
6.343371248213228
 10
6.540389385924663
 20
6.348311231293158
 10
6.541209602909916
 20
6.35442835826931
  0
ARC
  5
1C8
330
1F
100
AcDbEntity
  8
0
  6
Continuous
 62
     7
370
    15
100
AcDbCircle
 10
6.49950310888673
 20
6.52273238501948
 30
0.0
 40
0.0265031953669393
100
AcDbArc
 50
233.581245998255
 51
254.3445400829725
  0
LINE
  5
1C9
330
1F
100
AcDbEntity
  8
0
  6
Continuous
 62
     7
370
    15
100
AcDbLine
 10
6.526346648252126
 20
6.488104645485985
 30
0.0
 11
6.492351168728522
 21
6.497212410163859
 31
0.0
  0
LINE
  5
1CA
330
1F
100
AcDbEntity
  8
0
  6
Continuous
 62
     7
370
    15
100
AcDbLine
 10
6.60560850680633
 20
6.244536364652889
 30
0.0
 11
6.526346648252126
 21
6.488104645485985
 31
0.0
  0
LINE
  5
1CB
330
1F
100
AcDbEntity
  8
0
  6
Continuous
 62
     7
370
    15
100
AcDbLine
 10
6.598809359845462
 20
6.246357931266969
 30
0.0
 11
6.60560850680633
 21
6.244536364652889
 31
0.0
  0
LINE
  5
1CC
330
1F
100
AcDbEntity
  8
0
  6
Continuous
 62
     7
370
    15
100
AcDbLine
 10
6.643196041480733
 20
6.104771911300752
 30
0.0
 11
6.598809359845462
 21
6.246357931266969
 31
0.0
  0
LINE
  5
1CD
330
1F
100
AcDbEntity
  8
0
  6
Continuous
 62
     7
370
    15
100
AcDbLine
 10
6.649995188441599
 20
6.102950344686671
 30
0.0
 11
6.643196041480733
 21
6.104771911300752
 31
0.0
  0
LINE
  5
1CE
330
1F
100
AcDbEntity
  8
0
  6
Continuous
 62
     7
370
    15
100
AcDbLine
 10
6.649995188441599
 20
6.028839300954691
 30
0.0
 11
6.649995188441599
 21
6.102950344686671
 31
0.0
  0
LINE
  5
1CF
330
1F
100
AcDbEntity
  8
0
  6
Continuous
 62
     7
370
    15
100
AcDbLine
 10
6.480017535542843
 20
6.074378192736587
 30
0.0
 11
6.649995188441599
 21
6.028839300954691
 31
0.0
  0
LINE
  5
1D0
330
1F
100
AcDbEntity
  8
0
  6
Continuous
 62
     7
370
    15
100
AcDbLine
 10
6.480017535542843
 20
6.14848923646857
 30
0.0
 11
6.480017535542843
 21
6.074378192736587
 31
0.0
  0
LINE
  5
1D1
330
1F
100
AcDbEntity
  8
0
  6
Continuous
 62
     7
370
    15
100
AcDbLine
 10
6.493615829464577
 20
6.144846103240408
 30
0.0
 11
6.480017535542843
 21
6.14848923646857
 31
0.0
  0
LINE
  5
1D2
330
1F
100
AcDbEntity
  8
0
  6
Continuous
 62
     7
370
    15
100
AcDbLine
 10
6.493615829464577
 20
6.237484916057507
 30
0.0
 11
6.493615829464577
 21
6.172352773651843
 31
0.0
  0
LINE
  5
1D3
330
1F
100
AcDbEntity
  8
0
  6
Continuous
 62
     7
370
    15
100
AcDbLine
 10
6.493615829464577
 20
6.147108740820587
 30
0.0
 11
6.493615829464577
 21
6.144846103240408
 31
0.0
  0
ARC
  5
1D4
330
1F
100
AcDbEntity
  8
0
  6
Continuous
 62
     7
370
    15
100
AcDbCircle
 10
6.439008775859917
 20
6.237378553304487
 30
0.0
 40
0.0546071571904028
100
AcDbArc
 50
0.1115996695741051
 51
34.94821553490266
  0
LINE
  5
1D5
330
1F
100
AcDbEntity
  8
0
  6
Continuous
 62
     7
370
    15
100
AcDbLine
 10
6.483768630588385
 20
6.268659490328556
 30
0.0
 11
6.483768630588385
 21
6.501405276510893
 31
0.0
  0
LINE
  5
1D6
330
1F
100
AcDbEntity
  8
0
  6
Continuous
 62
     7
370
    15
100
AcDbLine
 10
6.60560850680633
 20
6.244536364652889
 30
0.0
 11
6.611265368231048
 21
6.246051900347448
 31
0.0
  0
LINE
  5
1D7
330
1F
100
AcDbEntity
  8
0
  6
Continuous
 62
     7
370
    15
100
AcDbLine
 10
6.526346648252126
 20
6.488104645485985
 30
0.0
 11
6.532003509676845
 21
6.489620181180544
 31
0.0
  0
LINE
  5
1D8
330
1F
100
AcDbEntity
  8
0
  6
Continuous
 62
     7
370
    15
100
AcDbLine
 10
6.611265368231048
 20
6.246051900347448
 30
0.0
 11
6.532003509676845
 21
6.489620181180544
 31
0.0
  0
LINE
  5
1D9
330
1F
100
AcDbEntity
  8
0
  6
Continuous
 62
     7
370
    15
100
AcDbLine
 10
6.35645288698324
 20
6.4680254624637
 30
0.0
 11
6.350796121288796
 21
6.469540972511061
 31
0.0
  0
LINE
  5
1DA
330
1F
100
AcDbEntity
  8
0
  6
Continuous
 62
     7
370
    15
100
AcDbLine
 10
6.357595236339572
 20
6.471362530576076
 30
0.0
 11
6.350796121288796
 21
6.469540972511061
 31
0.0
  0
LINE
  5
1DB
330
1F
100
AcDbEntity
  8
0
  6
Continuous
 62
     7
370
    15
100
AcDbLine
 10
6.432544254602029
 20
6.266078027865458
 30
0.0
 11
6.426887488907584
 21
6.267593537912818
 31
0.0
  0
LINE
  5
1DC
330
1F
100
AcDbEntity
  8
0
  6
Continuous
 62
     7
370
    15
100
AcDbLine
 10
6.350796121288796
 20
6.469540972511061
 30
0.0
 11
6.426887488907584
 21
6.267593537912818
 31
0.0
  0
LINE
  5
1DD
330
1F
100
AcDbEntity
  8
0
  6
Continuous
 62
     7
370
    15
100
AcDbLine
 10
6.643196041480733
 20
6.104771911300752
 30
0.0
 11
6.648852902905451
 21
6.106287446995311
 31
0.0
  0
LINE
  5
1DE
330
1F
100
AcDbEntity
  8
0
  6
Continuous
 62
     7
370
    15
100
AcDbLine
 10
6.648852902905451
 20
6.106287446995311
 30
0.0
 11
6.605503682156602
 21
6.244564452317681
 31
0.0
  0
LINE
  5
1DF
330
1F
100
AcDbEntity
  8
0
  6
Continuous
 62
     7
370
    15
100
AcDbLine
 10
6.649995188441599
 20
6.102950344686671
 30
0.0
 11
6.655652049866318
 21
6.104465880381232
 31
0.0
  0
LINE
  5
1E0
330
1F
100
AcDbEntity
  8
0
  6
Continuous
 62
     7
370
    15
100
AcDbLine
 10
6.655652049866318
 20
6.104465880381232
 30
0.0
 11
6.648852902905451
 21
6.106287446995311
 31
0.0
  0
LINE
  5
1E1
330
1F
100
AcDbEntity
  8
0
  6
Continuous
 62
     7
370
    15
100
AcDbLine
 10
6.649995188441599
 20
6.028839300954691
 30
0.0
 11
6.655652049866318
 21
6.030354836649249
 31
0.0
  0
LINE
  5
1E2
330
1F
100
AcDbEntity
  8
0
  6
Continuous
 62
     7
370
    15
100
AcDbLine
 10
6.655652049866318
 20
6.030354836649249
 30
0.0
 11
6.655652049866318
 21
6.104465880381232
 31
0.0
  0
LINE
  5
1E3
330
1F
100
AcDbEntity
  8
0
  6
Continuous
 62
     7
370
    15
100
AcDbLine
 10
6.492351168728522
 20
6.497212410163859
 30
0.0
 11
6.49800803015324
 21
6.498727945858418
 31
0.0
  0
LINE
  5
1E4
330
1F
100
AcDbEntity
  8
0
  6
Continuous
 62
     7
370
    15
100
AcDbLine
 10
6.532003509676845
 20
6.489620181180544
 30
0.0
 11
6.49800803015324
 21
6.498727945858418
 31
0.0
  0
ARC
  5
1E5
330
1F
100
AcDbEntity
  8
0
  6
Continuous
 62
     7
370
    15
100
AcDbCircle
 10
6.541065533631214
 20
6.361675989639547
 30
0.0
 40
0.0217338014072712
100
AcDbArc
 50
135.4053698843069
 51
254.5904693173841
  0
LINE
  5
1E6
330
1F
100
AcDbEntity
  8
0
  6
Continuous
 62
     7
370
    15
100
AcDbLine
 10
6.489425492013105
 20
6.502920812205451
 30
0.0
 11
6.483768630588385
 21
6.501405276510893
 31
0.0
  0
ARC
  5
1E7
330
1F
100
AcDbEntity
  8
0
  6
Continuous
 62
     7
370
    15
100
AcDbCircle
 10
6.505159970311441
 20
6.524247920714024
 30
0.0
 40
0.0265031953669225
100
AcDbArc
 50
233.5812459982522
 51
254.3445400829785
  0
SPLINE
  5
1E8
330
1F
100
AcDbEntity
  8
0
  6
Continuous
 62
     7
370
    15
100
AcDbSpline
210
0.0
220
0.0
230
1.0
 70
     8
 71
     3
 72
    12
 73
     8
 74
     0
 42
0.0000000001
 43
0.0000000001
 40
0.0
 40
0.0
 40
0.0
 40
0.0
 40
0.1910830632032863
 40
0.3399845813912153
 40
0.5106912431166839
 40
0.682474671632554
 40
1.0
 40
1.0
 40
1.0
 40
1.0
 10
6.483768630588385
 20
6.501405276510893
 30
0.0
 10
6.483171574352152
 20
6.501944894101585
 30
0.0
 10
6.482109261915145
 20
6.502905008816136
 30
0.0
 10
6.480146839835957
 20
6.504201767779328
 30
0.0
 10
6.478179475970867
 20
6.505326044029269
 30
0.0
 10
6.476059562839092
 20
6.507294277988158
 30
0.0
 10
6.47479719318889
 20
6.508569908867743
 30
0.0
 10
6.473978008303964
 20
6.509397699313382
 30
0.0
  0
SPLINE
  5
1E9
330
1F
100
AcDbEntity
  8
0
  6
Continuous
 62
     7
370
    15
100
AcDbSpline
210
0.0
220
0.0
230
1.0
 70
     8
 71
     3
 72
    11
 73
     7
 74
     0
 42
0.0000000001
 43
0.0000000001
 40
0.0
 40
0.0
 40
0.0
 40
0.0
 40
0.3106236706825924
 40
0.5512973671875157
 40
0.82107234099033
 40
1.0
 40
1.0
 40
1.0
 40
1.0
 10
6.489425492013105
 20
6.502920812205451
 30
0.0
 10
6.488140113939214
 20
6.503611339264652
 30
0.0
 10
6.485858814685944
 20
6.504836892194573
 30
0.0
 10
6.481659403411679
 20
6.506327480047846
 30
0.0
 10
6.477930244208084
 20
6.507316200076082
 30
0.0
 10
6.475760261553647
 20
6.508155666301369
 30
0.0
 10
6.47489494477577
 20
6.508490417460652
 30
0.0
  0
SPLINE
  5
1EA
330
1F
100
AcDbEntity
  8
0
  6
Continuous
 62
     7
370
    15
100
AcDbSpline
210
0.0
220
0.0
230
1.0
 70
     8
 71
     3
 72
    12
 73
     8
 74
     0
 42
0.0000000001
 43
0.0000000001
 40
0.0
 40
0.0
 40
0.0
 40
0.0
 40
0.1921226148189044
 40
0.3417767117085254
 40
0.5130527418462963
 40
0.6869436257396682
 40
1.0
 40
1.0
 40
1.0
 40
1.0
 10
6.473978008303964
 20
6.275765731941235
 30
0.0
 10
6.474570560299064
 20
6.275541653621263
 30
0.0
 10
6.475624681244653
 20
6.275143029276922
 30
0.0
 10
6.477572277687542
 20
6.274328817873186
 30
0.0
 10
6.479534676008683
 20
6.273389567042058
 30
0.0
 10
6.481686509835311
 20
6.271378461737609
 30
0.0
 10
6.482953857820714
 20
6.269723474661311
 30
0.0
 10
6.483768630588385
 20
6.268659490328556
 30
0.0
  0
LINE
  5
1EB
330
1F
100
AcDbEntity
  8
0
  6
Continuous
 62
     7
370
    15
100
AcDbLine
 10
6.480017535542843
 20
6.14848923646857
 30
0.0
 11
6.485674396967562
 21
6.150004772163129
 31
0.0
  0
LINE
  5
1EC
330
1F
100
AcDbEntity
  8
0
  6
Continuous
 62
     7
370
    15
100
AcDbLine
 10
6.493248320943757
 20
6.14797563422391
 30
0.0
 11
6.485674396967562
 21
6.150004772163129
 31
0.0
  0
LINE
  5
1ED
330
1F
100
AcDbEntity
  8
0
  6
Continuous
 62
     7
370
    15
100
AcDbLine
 10
0.3324836683694533
 20
7.928206909997274
 30
0.0
 11
0.4249892359115223
 21
7.903423646093574
 31
0.0
  0
LINE
  5
1EE
330
1F
100
AcDbEntity
  8
0
  6
Continuous
 62
     7
370
    15
100
AcDbLine
 10
1.398069343368939
 20
7.642724730954328
 30
0.0
 11
1.730417155774272
 21
7.553685078947298
 31
0.0
  0
LINE
  5
1EF
330
1F
100
AcDbEntity
  8
0
  6
Continuous
 62
     7
370
    15
100
AcDbLine
 10
2.42868487701796
 20
7.366611439264503
 30
0.0
 11
2.644178828781913
 21
7.308878227976562
 31
0.0
  0
LINE
  5
1F0
330
1F
100
AcDbEntity
  8
0
  6
Continuous
 62
     7
370
    15
100
AcDbLine
 10
2.819813311195298
 20
7.26182380904917
 30
0.0
 11
3.035845075637023
 21
7.20394651180102
 31
0.0
  0
LINE
  5
1F1
330
1F
100
AcDbEntity
  8
0
  6
Continuous
 62
     7
370
    15
100
AcDbLine
 10
3.851019771868962
 20
6.985552201478598
 30
0.0
 11
3.872376130937157
 21
6.979830596856599
 31
0.0
  0
LINE
  5
1F2
330
1F
100
AcDbEntity
  8
0
  6
Continuous
 62
     7
370
    15
100
AcDbLine
 10
4.136582141305223
 20
6.90904688670945
 30
0.0
 11
4.259683742530829
 21
6.876066607238652
 31
0.0
  0
LINE
  5
1F3
330
1F
100
AcDbEntity
  8
0
  6
Continuous
 62
     7
370
    15
100
AcDbLine
 10
4.957951463774517
 20
6.688992967555858
 30
0.0
 11
5.116682979397084
 21
6.646467040241058
 31
0.0
  0
LINE
  5
1F4
330
1F
100
AcDbEntity
  8
0
  6
Continuous
 62
     7
370
    15
100
AcDbLine
 10
5.311470090033764
 20
6.594281420540357
 30
0.0
 11
5.56511166239358
 21
6.526328040092375
 31
0.0
  0
LINE
  5
1F5
330
1F
100
AcDbEntity
  8
0
  6
Continuous
 62
     7
370
    15
100
AcDbLine
 10
6.263379255996903
 20
6.339254434605845
 30
0.0
 11
6.41521334157758
 21
6.298576405028743
 31
0.0
  0
LINE
  5
1F6
330
1F
100
AcDbEntity
  8
0
  6
Continuous
 62
     7
370
    15
100
AcDbLine
 10
6.611265368231048
 20
6.246051900347462
 30
0.0
 11
7.294765737450303
 21
6.062934597478816
 31
0.0
  0
LINE
  5
1F7
330
1F
100
AcDbEntity
  8
0
  6
Continuous
 62
     7
370
    15
100
AcDbLine
 10
7.757104858881052
 20
6.201372753947929
 30
0.0
 11
7.59392637687573
 21
6.157655435191911
 31
0.0
  0
LINE
  5
1F8
330
1F
100
AcDbEntity
  8
0
  6
Continuous
 62
     7
370
    15
100
AcDbLine
 10
7.593926384853256
 20
6.113938112161361
 30
0.0
 11
7.52212803737079
 21
6.123847470405291
 31
0.0
  0
LINE
  5
1F9
330
1F
100
AcDbEntity
  8
0
  6
Continuous
 62
     7
370
    15
100
AcDbLine
 10
7.52212803737079
 20
6.123847470405291
 30
0.0
 11
7.294765737450303
 21
6.062934597478816
 31
0.0
  0
LINE
  5
1FA
330
1F
100
AcDbEntity
  8
0
  6
Continuous
 62
     7
370
    15
100
AcDbLine
 10
0.3324836683694533
 20
7.832765395148565
 30
0.0
 11
0.3324836683694533
 21
7.928206909997274
 31
0.0
  0
LINE
  5
1FB
330
1F
100
AcDbEntity
  8
0
  6
Continuous
 62
     7
370
    15
100
AcDbLine
 10
7.294765737450303
 20
5.840601444543881
 30
0.0
 11
7.294765737450303
 21
6.062934597478816
 31
0.0
  0
LINE
  5
1FC
330
1F
100
AcDbEntity
  8
0
  6
Continuous
 62
     7
370
    15
100
AcDbLine
 10
0.9077628777508921
 20
7.551750098960051
 30
0.0
 11
1.576744666017027
 21
7.372522484386164
 31
0.0
  0
LINE
  5
1FD
330
1F
100
AcDbEntity
  8
0
  6
Continuous
 62
     7
370
    15
100
AcDbLine
 10
2.213190797613643
 20
7.202011531813774
 30
0.0
 11
2.6574683606608
 21
7.082984662577141
 31
0.0
  0
LINE
  5
1FE
330
1F
100
AcDbEntity
  8
0
  6
Continuous
 62
     7
370
    15
100
AcDbLine
 10
2.777804888660206
 20
7.050745176782863
 30
0.0
 11
2.882172585879778
 21
7.022783917239886
 31
0.0
  0
LINE
  5
1FF
330
1F
100
AcDbEntity
  8
0
  6
Continuous
 62
     7
370
    15
100
AcDbLine
 10
3.518618749386485
 20
6.85227295611843
 30
0.0
 11
3.639165197921117
 21
6.81997723029275
 31
0.0
  0
LINE
  5
200
330
1F
100
AcDbEntity
  8
0
  6
Continuous
 62
     7
370
    15
100
AcDbLine
 10
4.082189284719198
 20
6.701286181196498
 30
0.0
 11
4.106011252773583
 21
6.694904012677517
 31
0.0
  0
LINE
  5
201
330
1F
100
AcDbEntity
  8
0
  6
Continuous
 62
     7
370
    15
100
AcDbLine
 10
4.742457448190382
 20
6.524393043006996
 30
0.0
 11
5.411439172636334
 21
6.345165445531241
 31
0.0
  0
LINE
  5
202
330
1F
100
AcDbEntity
  8
0
  6
Continuous
 62
     7
370
    15
100
AcDbLine
 10
6.04788530423295
 20
6.174654492958851
 30
0.0
 11
7.294765737450303
 21
5.840601444543881
 31
0.0
  0
LINE
  5
203
330
1F
100
AcDbEntity
  8
0
  6
Continuous
 62
     7
370
    15
100
AcDbLine
 10
7.52212803737079
 20
5.901514317470356
 30
0.0
 11
7.52212803737079
 21
6.123847470405291
 31
0.0
  0
LINE
  5
204
330
1F
100
AcDbEntity
  8
0
  6
Continuous
 62
     7
370
    15
100
AcDbLine
 10
7.52212803737079
 20
5.901514317470356
 30
0.0
 11
7.294765737450303
 21
5.840601444543881
 31
0.0
  0
LINE
  5
205
330
1F
100
AcDbEntity
  8
0
  6
Continuous
 62
     7
370
    15
100
AcDbLine
 10
7.593926384853256
 20
5.891604959226426
 30
0.0
 11
7.593926384853256
 21
6.113938112161361
 31
0.0
  0
LINE
  5
206
330
1F
100
AcDbEntity
  8
0
  6
Continuous
 62
     7
370
    15
100
AcDbLine
 10
7.593926384853256
 20
5.891604959226426
 30
0.0
 11
7.52212803737079
 21
5.901514317470356
 31
0.0
  0
LINE
  5
207
330
1F
100
AcDbEntity
  8
0
  6
Continuous
 62
     7
370
    15
100
AcDbLine
 10
7.757104858881052
 20
5.979039601012994
 30
0.0
 11
7.757104858881052
 21
6.201372753947929
 31
0.0
  0
LINE
  5
208
330
1F
100
AcDbEntity
  8
0
  6
Continuous
 62
     7
370
    15
100
AcDbLine
 10
7.757104858881052
 20
5.979039601012994
 30
0.0
 11
7.59392637687573
 21
5.935322282256976
 31
0.0
  0
LINE
  5
209
330
1F
100
AcDbEntity
  8
0
  6
Continuous
 62
     7
370
    15
100
AcDbLine
 10
0.3324836683694533
 20
8.150540062932211
 30
0.0
 11
0.6404831876754747
 21
8.068023587740569
 31
0.0
  0
LINE
  5
20A
330
1F
100
AcDbEntity
  8
0
  6
Continuous
 62
     7
370
    15
100
AcDbLine
 10
1.338751036559527
 20
7.880949913861511
 30
0.0
 11
1.339275383178797
 21
7.8808094356072
 31
0.0
  0
LINE
  5
20B
330
1F
100
AcDbEntity
  8
0
  6
Continuous
 62
     7
370
    15
100
AcDbLine
 10
1.542169443955759
 20
7.826451874366986
 30
0.0
 11
1.94591123517859
 21
7.718284986398027
 31
0.0
  0
LINE
  5
20C
330
1F
100
AcDbEntity
  8
0
  6
Continuous
 62
     7
370
    15
100
AcDbLine
 10
2.758021780854174
 20
7.500711595874236
 30
0.0
 11
3.251339091221158
 21
7.368546436349883
 31
0.0
  0
LINE
  5
20D
330
1F
100
AcDbEntity
  8
0
  6
Continuous
 62
     7
370
    15
100
AcDbLine
 10
3.949606780554755
 20
7.181472805216154
 30
0.0
 11
3.959178675118766
 21
7.178908388875155
 31
0.0
  0
LINE
  5
20E
330
1F
100
AcDbEntity
  8
0
  6
Continuous
 62
     7
370
    15
100
AcDbLine
 10
4.068591086527739
 20
7.149595594647331
 30
0.0
 11
4.083331538345256
 21
7.145646464695914
 31
0.0
  0
LINE
  5
20F
330
1F
100
AcDbEntity
  8
0
  6
Continuous
 62
     7
370
    15
100
AcDbLine
 10
4.136582141305223
 20
7.131380039644385
 30
0.0
 11
4.475177758114964
 21
7.040666531787515
 31
0.0
  0
LINE
  5
210
330
1F
100
AcDbEntity
  8
0
  6
Continuous
 62
     7
370
    15
100
AcDbLine
 10
5.198212751955956
 20
6.846957466051313
 30
0.0
 11
5.780605614157532
 21
6.69092798173937
 31
0.0
  0
LINE
  5
211
330
1F
100
AcDbEntity
  8
0
  6
Continuous
 62
     7
370
    15
100
AcDbLine
 10
6.49800803015324
 20
6.498727945858418
 30
0.0
 11
7.294765737450303
 21
6.285267750413751
 31
0.0
  0
LINE
  5
212
330
1F
100
AcDbEntity
  8
0
  6
Continuous
 62
     7
370
    15
100
AcDbLine
 10
0.3324836683694533
 20
8.150540062932211
 30
0.0
 11
0.55984596828994
 21
8.211452935858686
 31
0.0
  0
LINE
  5
213
330
1F
100
AcDbEntity
  8
0
  6
Continuous
 62
     7
370
    15
100
AcDbLine
 10
0.55984596828994
 20
8.211452935858686
 30
0.0
 11
0.5228584749599898
 21
8.230688506654985
 31
0.0
  0
LINE
  5
214
330
1F
100
AcDbEntity
  8
0
  6
Continuous
 62
     7
370
    15
100
AcDbLine
 10
0.5228584749599898
 20
8.230688506654985
 30
0.0
 11
0.6464790299994453
 21
8.220090494420105
 31
0.0
  0
LINE
  5
215
330
1F
100
AcDbEntity
  8
0
  6
Continuous
 62
     7
370
    15
100
AcDbLine
 10
0.6464790299994453
 20
8.220090494420105
 30
0.0
 11
0.8492154549256783
 21
8.274405823273736
 31
0.0
  0
LINE
  5
216
330
1F
100
AcDbEntity
  8
0
  6
Continuous
 62
     7
370
    15
100
AcDbLine
 10
7.757104858881052
 20
6.423705906882864
 30
0.0
 11
6.968408917035073
 21
6.635006266265631
 31
0.0
  0
LINE
  5
217
330
1F
100
AcDbEntity
  8
0
  6
Continuous
 62
     7
370
    15
100
AcDbLine
 10
6.034840905674976
 20
6.885119454177996
 30
0.0
 11
5.662980869531958
 21
6.984744867608173
 31
0.0
  0
LINE
  5
218
330
1F
100
AcDbEntity
  8
0
  6
Continuous
 62
     7
370
    15
100
AcDbLine
 10
4.729413017722317
 20
7.234858012775207
 30
0.0
 11
4.439142234548243
 21
7.312624763621474
 31
0.0
  0
LINE
  5
219
330
1F
100
AcDbEntity
  8
0
  6
Continuous
 62
     7
370
    15
100
AcDbLine
 10
3.505574318918419
 20
7.562737925886642
 30
0.0
 11
3.133714282775401
 21
7.662363339316818
 31
0.0
  0
LINE
  5
21A
330
1F
100
AcDbEntity
  8
0
  6
Continuous
 62
     7
370
    15
100
AcDbLine
 10
2.200146399055669
 20
7.912476493032919
 30
0.0
 11
1.828286490553015
 21
8.01210187226683
 31
0.0
  0
LINE
  5
21B
330
1F
100
AcDbEntity
  8
0
  6
Continuous
 62
     7
370
    15
100
AcDbLine
 10
0.8947184791929185
 20
8.262215060179196
 30
0.0
 11
0.8492154549256783
 21
8.274405823273736
 31
0.0
  0
LINE
  5
21C
330
1F
100
AcDbEntity
  8
0
  6
Continuous
 62
     7
370
    15
100
AcDbLine
 10
7.757104858881052
 20
6.423705906882864
 30
0.0
 11
7.554368433954819
 21
6.369390578029233
 31
0.0
  0
LINE
  5
21D
330
1F
100
AcDbEntity
  8
0
  6
Continuous
 62
     7
370
    15
100
AcDbLine
 10
7.554368433954819
 20
6.369390578029233
 30
0.0
 11
7.593926384853253
 21
6.336271265096296
 31
0.0
  0
LINE
  5
21E
330
1F
100
AcDbEntity
  8
0
  6
Continuous
 62
     7
370
    15
100
AcDbLine
 10
7.593926384853253
 20
6.336271265096296
 30
0.0
 11
7.52212803737079
 21
6.346180623340226
 31
0.0
  0
LINE
  5
21F
330
1F
100
AcDbEntity
  8
0
  6
Continuous
 62
     7
370
    15
100
AcDbLine
 10
7.52212803737079
 20
6.346180623340226
 30
0.0
 11
7.294765737450303
 21
6.285267750413751
 31
0.0
  0
LINE
  5
220
330
1F
100
AcDbEntity
  8
0
  6
Continuous
 62
     7
370
    15
100
AcDbLine
 10
0.3324836683694533
 20
7.928206909997274
 30
0.0
 11
0.3324836683694533
 21
8.150540062932211
 31
0.0
  0
LINE
  5
221
330
1F
100
AcDbEntity
  8
0
  6
Continuous
 62
     7
370
    15
100
AcDbLine
 10
7.294765737450303
 20
6.062934597478816
 30
0.0
 11
7.294765737450303
 21
6.285267750413751
 31
0.0
  0
LINE
  5
222
330
1F
100
AcDbEntity
  8
0
  6
Continuous
 62
     7
370
    15
100
AcDbLine
 10
7.52212803737079
 20
6.123847470405291
 30
0.0
 11
7.52212803737079
 21
6.346180623340226
 31
0.0
  0
LINE
  5
223
330
1F
100
AcDbEntity
  8
0
  6
Continuous
 62
     7
370
    15
100
AcDbLine
 10
7.593926384853253
 20
6.11393811216136
 30
0.0
 11
7.593926384853253
 21
6.336271265096296
 31
0.0
  0
LINE
  5
224
330
1F
100
AcDbEntity
  8
0
  6
Continuous
 62
     7
370
    15
100
AcDbLine
 10
7.757104858881052
 20
6.201372753947929
 30
0.0
 11
7.757104858881052
 21
6.423705906882864
 31
0.0
  0
LINE
  5
225
330
1F
100
AcDbEntity
  8
0
  6
Continuous
 62
     7
370
    15
100
AcDbLine
 10
0.5228584749599898
 20
8.20154362941848
 30
0.0
 11
0.5228584749599898
 21
8.230688506654985
 31
0.0
  0
LINE
  5
226
330
1F
100
AcDbEntity
  8
0
  6
Continuous
 62
     7
370
    15
100
AcDbLine
 10
5.132748912584562
 20
6.617325624866995
 30
0.0
 11
5.16674442401826
 21
6.626433398093936
 31
0.0
  0
LINE
  5
227
330
1F
100
AcDbEntity
  8
0
  6
Continuous
 62
     7
370
    15
100
AcDbLine
 10
5.056657544965775
 20
6.819273059465227
 30
0.0
 11
5.132748912584562
 21
6.617325624866995
 31
0.0
  0
LINE
  5
228
330
1F
100
AcDbEntity
  8
0
  6
Continuous
 62
     7
370
    15
100
AcDbLine
 10
5.063456628106459
 20
6.821094608981175
 30
0.0
 11
5.056657544965775
 21
6.819273059465227
 31
0.0
  0
LINE
  5
229
330
1F
100
AcDbEntity
  8
0
  6
Continuous
 62
     7
370
    15
100
AcDbLine
 10
5.015899519355956
 20
6.947311746384314
 30
0.0
 11
5.063456628106459
 21
6.821094608981175
 31
0.0
  0
LINE
  5
22A
330
1F
100
AcDbEntity
  8
0
  6
Continuous
 62
     7
370
    15
100
AcDbLine
 10
5.00910040430518
 20
6.945490188319299
 30
0.0
 11
5.015899519355956
 21
6.947311746384314
 31
0.0
  0
LINE
  5
22B
330
1F
100
AcDbEntity
  8
0
  6
Continuous
 62
     7
370
    15
100
AcDbLine
 10
5.00910040430518
 20
7.158559466222484
 30
0.0
 11
5.00910040430518
 21
6.945490188319299
 31
0.0
  0
LINE
  5
22C
330
1F
100
AcDbEntity
  8
0
  6
Continuous
 62
     7
370
    15
100
AcDbLine
 10
5.1790780093388
 20
7.204098345180783
 30
0.0
 11
5.00910040430518
 21
7.158559466222484
 31
0.0
  0
LINE
  5
22D
330
1F
100
AcDbEntity
  8
0
  6
Continuous
 62
     7
370
    15
100
AcDbLine
 10
5.1790780093388
 20
6.991029067277597
 30
0.0
 11
5.1790780093388
 21
7.204098345180783
 31
0.0
  0
LINE
  5
22E
330
1F
100
AcDbEntity
  8
0
  6
Continuous
 62
     7
370
    15
100
AcDbLine
 10
5.16547981114734
 20
6.987385959696635
 30
0.0
 11
5.1790780093388
 21
6.991029067277597
 31
0.0
  0
LINE
  5
22F
330
1F
100
AcDbEntity
  8
0
  6
Continuous
 62
     7
370
    15
100
AcDbLine
 10
5.16547981114734
 20
6.885483269130412
 30
0.0
 11
5.16547981114734
 21
6.987385959696635
 31
0.0
  0
ARC
  5
230
330
1F
100
AcDbEntity
  8
0
  6
Continuous
 62
     7
370
    15
100
AcDbCircle
 10
5.207272811906843
 20
6.884934673101473
 30
0.0
 40
0.0417966011786458
100
AcDbArc
 50
179.2479498619534
 51
202.111016471049
  0
LINE
  5
231
330
1F
100
AcDbEntity
  8
0
  6
Continuous
 62
     7
370
    15
100
AcDbLine
 10
5.168550088441214
 20
6.626835393046489
 30
0.0
 11
5.168550088441214
 21
6.869202331969552
 31
0.0
  0
ARC
  5
232
330
1F
100
AcDbEntity
  8
0
  6
Continuous
 62
     7
370
    15
100
AcDbCircle
 10
5.172300024522326
 20
6.605735281984792
 30
0.0
 40
0.0214307421110038
100
AcDbArc
 50
100.0774530314348
 51
105.0246803408407
  0
LINE
  5
233
330
1F
100
AcDbEntity
  8
0
  6
Continuous
 62
     7
370
    15
100
AcDbLine
 10
5.1790780093388
 20
7.204098345180783
 30
0.0
 11
5.17342111600399
 21
7.205613889424409
 31
0.0
  0
LINE
  5
234
330
1F
100
AcDbEntity
  8
0
  6
Continuous
 62
     7
370
    15
100
AcDbLine
 10
5.00910040430518
 20
7.158559466222484
 30
0.0
 11
5.003443510970369
 21
7.16007501046611
 31
0.0
  0
LINE
  5
235
330
1F
100
AcDbEntity
  8
0
  6
Continuous
 62
     7
370
    15
100
AcDbLine
 10
5.17342111600399
 20
7.205613889424409
 30
0.0
 11
5.003443510970369
 21
7.16007501046611
 31
0.0
  0
LINE
  5
236
330
1F
100
AcDbEntity
  8
0
  6
Continuous
 62
     7
370
    15
100
AcDbLine
 10
5.00910040430518
 20
6.945490188319299
 30
0.0
 11
5.003443510970369
 21
6.947005732562924
 31
0.0
  0
LINE
  5
237
330
1F
100
AcDbEntity
  8
0
  6
Continuous
 62
     7
370
    15
100
AcDbLine
 10
5.003443510970369
 20
7.16007501046611
 30
0.0
 11
5.003443510970369
 21
6.947005732562924
 31
0.0
  0
LINE
  5
238
330
1F
100
AcDbEntity
  8
0
  6
Continuous
 62
     7
370
    15
100
AcDbLine
 10
5.063456628106459
 20
6.821094608981175
 30
0.0
 11
5.057799734771649
 21
6.8226101532248
 31
0.0
  0
LINE
  5
239
330
1F
100
AcDbEntity
  8
0
  6
Continuous
 62
     7
370
    15
100
AcDbLine
 10
5.011279991177294
 20
6.946074144811583
 30
0.0
 11
5.057799734771649
 21
6.8226101532248
 31
0.0
  0
LWPOLYLINE
  5
23A
330
1F
100
AcDbEntity
  8
0
  6
Continuous
 62
     7
370
    15
100
AcDbPolyline
 90
       19
 70
   128
 43
0.0
 10
5.241414197072268
 20
6.702657912658469
 10
5.240594107727378
 20
6.709214484959417
 10
5.238232888615922
 20
6.715419632669505
 10
5.234615050111401
 20
6.72052498447666
 10
5.230177249902355
 20
6.723914699482143
 10
5.225454684039077
 20
6.725179927070082
 10
5.221016883830031
 20
6.724168083508557
 10
5.217399172965876
 20
6.721001215343596
 10
5.215037826214055
 20
6.716061295221448
 10
5.214217736869165
 20
6.709944144918527
 10
5.215037826214055
 20
6.703387561748083
 10
5.217399172965876
 20
6.697182385276478
 10
5.221016883830031
 20
6.692077062230841
 10
5.225454684039077
 20
6.688687358094854
 10
5.230177249902355
 20
6.687422130506914
 10
5.234615050111401
 20
6.688433963198944
 10
5.238232888615922
 20
6.691600802602389
 10
5.240594107727378
 20
6.696540751486053
 10
5.241414197072268
 20
6.702657912658469
  0
ARC
  5
23B
330
1F
100
AcDbEntity
  8
0
  6
Continuous
 62
     7
370
    15
100
AcDbCircle
 10
5.201317156359084
 20
6.874404442913896
 30
0.0
 40
0.0302586667341583
100
AcDbArc
 50
220.5948189469838
 51
253.1692422998606
  0
LINE
  5
23C
330
1F
100
AcDbEntity
  8
0
  6
Continuous
 62
     7
370
    15
100
AcDbLine
 10
5.226551370054842
 20
6.83633416567888
 30
0.0
 11
5.192555890531237
 21
6.845441930356754
 31
0.0
  0
LINE
  5
23D
330
1F
100
AcDbEntity
  8
0
  6
Continuous
 62
     7
370
    15
100
AcDbLine
 10
5.305813228609046
 20
6.592765884845793
 30
0.0
 11
5.226551370054842
 21
6.83633416567888
 31
0.0
  0
LINE
  5
23E
330
1F
100
AcDbEntity
  8
0
  6
Continuous
 62
     7
370
    15
100
AcDbLine
 10
5.299014081648178
 20
6.594587451459874
 30
0.0
 11
5.305813228609046
 21
6.592765884845793
 31
0.0
  0
LINE
  5
23F
330
1F
100
AcDbEntity
  8
0
  6
Continuous
 62
     7
370
    15
100
AcDbLine
 10
5.343400763283449
 20
6.453001431493647
 30
0.0
 11
5.299014081648178
 21
6.594587451459874
 31
0.0
  0
LINE
  5
240
330
1F
100
AcDbEntity
  8
0
  6
Continuous
 62
     7
370
    15
100
AcDbLine
 10
5.350199910244317
 20
6.451179864879566
 30
0.0
 11
5.343400763283449
 21
6.453001431493647
 31
0.0
  0
LINE
  5
241
330
1F
100
AcDbEntity
  8
0
  6
Continuous
 62
     7
370
    15
100
AcDbLine
 10
5.350199910244317
 20
6.377068821147585
 30
0.0
 11
5.350199910244317
 21
6.451179864879566
 31
0.0
  0
LINE
  5
242
330
1F
100
AcDbEntity
  8
0
  6
Continuous
 62
     7
370
    15
100
AcDbLine
 10
5.180222257345559
 20
6.422607712929482
 30
0.0
 11
5.350199910244317
 21
6.377068821147585
 31
0.0
  0
LINE
  5
243
330
1F
100
AcDbEntity
  8
0
  6
Continuous
 62
     7
370
    15
100
AcDbLine
 10
5.180222257345559
 20
6.496718756661465
 30
0.0
 11
5.180222257345559
 21
6.422607712929482
 31
0.0
  0
LINE
  5
244
330
1F
100
AcDbEntity
  8
0
  6
Continuous
 62
     7
370
    15
100
AcDbLine
 10
5.193820423626928
 20
6.493075657629568
 30
0.0
 11
5.180222257345559
 21
6.496718756661465
 31
0.0
  0
LINE
  5
245
330
1F
100
AcDbEntity
  8
0
  6
Continuous
 62
     7
370
    15
100
AcDbLine
 10
5.193820423626928
 20
6.585714470446666
 30
0.0
 11
5.193820423626928
 21
6.520582328041002
 31
0.0
  0
LINE
  5
246
330
1F
100
AcDbEntity
  8
0
  6
Continuous
 62
     7
370
    15
100
AcDbLine
 10
5.193820423626928
 20
6.495338295209746
 30
0.0
 11
5.193820423626928
 21
6.493075657629568
 31
0.0
  0
ARC
  5
247
330
1F
100
AcDbEntity
  8
0
  6
Continuous
 62
     7
370
    15
100
AcDbCircle
 10
5.141511412601068
 20
6.586153359081195
 30
0.0
 40
0.0523108521985368
100
AcDbArc
 50
359.5192821296782
 51
45.24719984398518
  0
LINE
  5
248
330
1F
100
AcDbEntity
  8
0
  6
Continuous
 62
     7
370
    15
100
AcDbLine
 10
5.178340838366
 20
6.623301961417791
 30
0.0
 11
5.178340838366
 21
6.854714960340463
 31
0.0
  0
LINE
  5
249
330
1F
100
AcDbEntity
  8
0
  6
Continuous
 62
     7
370
    15
100
AcDbLine
 10
5.305813228609046
 20
6.592765884845793
 30
0.0
 11
5.311470090033764
 21
6.594281420540354
 31
0.0
  0
LINE
  5
24A
330
1F
100
AcDbEntity
  8
0
  6
Continuous
 62
     7
370
    15
100
AcDbLine
 10
5.226551370054842
 20
6.83633416567888
 30
0.0
 11
5.232208231479561
 21
6.837849701373439
 31
0.0
  0
LINE
  5
24B
330
1F
100
AcDbEntity
  8
0
  6
Continuous
 62
     7
370
    15
100
AcDbLine
 10
5.311470090033764
 20
6.594281420540354
 30
0.0
 11
5.232208231479561
 21
6.837849701373439
 31
0.0
  0
LINE
  5
24C
330
1F
100
AcDbEntity
  8
0
  6
Continuous
 62
     7
370
    15
100
AcDbLine
 10
5.056657544965775
 20
6.819273059465227
 30
0.0
 11
5.051000651630965
 21
6.820788603708852
 31
0.0
  0
LINE
  5
24D
330
1F
100
AcDbEntity
  8
0
  6
Continuous
 62
     7
370
    15
100
AcDbLine
 10
5.057799734771649
 20
6.8226101532248
 30
0.0
 11
5.051000651630965
 21
6.820788603708852
 31
0.0
  0
LINE
  5
24E
330
1F
100
AcDbEntity
  8
0
  6
Continuous
 62
     7
370
    15
100
AcDbLine
 10
5.132748912584562
 20
6.617325624866995
 30
0.0
 11
5.127092019249753
 21
6.618841169110621
 31
0.0
  0
LINE
  5
24F
330
1F
100
AcDbEntity
  8
0
  6
Continuous
 62
     7
370
    15
100
AcDbLine
 10
5.051000651630965
 20
6.820788603708852
 30
0.0
 11
5.127092019249753
 21
6.618841169110621
 31
0.0
  0
LINE
  5
250
330
1F
100
AcDbEntity
  8
0
  6
Continuous
 62
     7
370
    15
100
AcDbLine
 10
5.343400763283449
 20
6.453001431493647
 30
0.0
 11
5.349057624708168
 21
6.454516967188207
 31
0.0
  0
LINE
  5
251
330
1F
100
AcDbEntity
  8
0
  6
Continuous
 62
     7
370
    15
100
AcDbLine
 10
5.349057624708168
 20
6.454516967188207
 30
0.0
 11
5.30570840395932
 21
6.592793972510576
 31
0.0
  0
LINE
  5
252
330
1F
100
AcDbEntity
  8
0
  6
Continuous
 62
     7
370
    15
100
AcDbLine
 10
5.350199910244317
 20
6.451179864879566
 30
0.0
 11
5.355856771669035
 21
6.452695400574127
 31
0.0
  0
LINE
  5
253
330
1F
100
AcDbEntity
  8
0
  6
Continuous
 62
     7
370
    15
100
AcDbLine
 10
5.355856771669035
 20
6.452695400574127
 30
0.0
 11
5.349057624708168
 21
6.454516967188207
 31
0.0
  0
LINE
  5
254
330
1F
100
AcDbEntity
  8
0
  6
Continuous
 62
     7
370
    15
100
AcDbLine
 10
5.350199910244317
 20
6.377068821147585
 30
0.0
 11
5.355856771669035
 21
6.378584356842144
 31
0.0
  0
LINE
  5
255
330
1F
100
AcDbEntity
  8
0
  6
Continuous
 62
     7
370
    15
100
AcDbLine
 10
5.355856771669035
 20
6.378584356842144
 30
0.0
 11
5.355856771669035
 21
6.452695400574127
 31
0.0
  0
LINE
  5
256
330
1F
100
AcDbEntity
  8
0
  6
Continuous
 62
     7
370
    15
100
AcDbLine
 10
5.192555890531237
 20
6.845441930356754
 30
0.0
 11
5.198212751955956
 21
6.846957466051313
 31
0.0
  0
LINE
  5
257
330
1F
100
AcDbEntity
  8
0
  6
Continuous
 62
     7
370
    15
100
AcDbLine
 10
5.232208231479561
 20
6.837849701373439
 30
0.0
 11
5.198212751955956
 21
6.846957466051313
 31
0.0
  0
ARC
  5
258
330
1F
100
AcDbEntity
  8
0
  6
Continuous
 62
     7
370
    15
100
AcDbCircle
 10
5.241270181955258
 20
6.709905559108815
 30
0.0
 40
0.0217338293878874
100
AcDbArc
 50
135.4054984399346
 51
254.5906905797114
  0
LINE
  5
259
330
1F
100
AcDbEntity
  8
0
  6
Continuous
 62
     7
370
    15
100
AcDbLine
 10
5.183997699790719
 20
6.856230496035023
 30
0.0
 11
5.178340838366
 21
6.854714960340463
 31
0.0
  0
ARC
  5
25A
330
1F
100
AcDbEntity
  8
0
  6
Continuous
 62
     7
370
    15
100
AcDbCircle
 10
5.206974017783802
 20
6.875919978608453
 30
0.0
 40
0.0302586667341553
100
AcDbArc
 50
220.5948189469798
 51
253.1692422998592
  0
SPLINE
  5
25B
330
1F
100
AcDbEntity
  8
0
  6
Continuous
 62
     7
370
    15
100
AcDbSpline
210
0.0
220
0.0
230
1.0
 70
     8
 71
     3
 72
    12
 73
     8
 74
     0
 42
0.0000000001
 43
0.0000000001
 40
0.0
 40
0.0
 40
0.0
 40
0.0
 40
0.1346420513597842
 40
0.2662768949265249
 40
0.5199302498725471
 40
0.7639652548151834
 40
1.0
 40
1.0
 40
1.0
 40
1.0
 10
5.168550088441214
 20
6.626835393046489
 30
0.0
 10
5.168931422399412
 20
6.626832159480072
 30
0.0
 10
5.169685573285359
 20
6.626825764568406
 30
0.0
 10
5.171448901747642
 20
6.626613135360199
 30
0.0
 10
5.173786504489182
 20
6.626047506973056
 30
0.0
 10
5.176431906193557
 20
6.624920685485967
 30
0.0
 10
5.177711636452247
 20
6.623835508023709
 30
0.0
 10
5.178340838366
 20
6.623301961417791
 30
0.0
  0
SPLINE
  5
25C
330
1F
100
AcDbEntity
  8
0
  6
Continuous
 62
     7
370
    15
100
AcDbSpline
210
0.0
220
0.0
230
1.0
 70
     8
 71
     3
 72
    11
 73
     7
 74
     0
 42
0.0000000001
 43
0.0000000001
 40
0.0
 40
0.0
 40
0.0
 40
0.0
 40
0.1738261425937063
 40
0.3153934419039661
 40
0.5017764967627512
 40
1.0
 40
1.0
 40
1.0
 40
1.0
 10
5.178340838366
 20
6.854714960340463
 30
0.0
 10
5.177738537048944
 20
6.855577169443503
 30
0.0
 10
5.176645710143766
 20
6.857141577953013
 30
0.0
 10
5.17452715456014
 20
6.859469629843615
 30
0.0
 10
5.171062778074392
 20
6.863217869166954
 30
0.0
 10
5.169608466201903
 20
6.866681597909798
 30
0.0
 10
5.168550088441214
 20
6.869202331969552
 30
0.0
  0
SPLINE
  5
25D
330
1F
100
AcDbEntity
  8
0
  6
Continuous
 62
     7
370
    15
100
AcDbSpline
210
0.0
220
0.0
230
1.0
 70
     8
 71
     3
 72
    10
 73
     6
 74
     0
 42
0.0000000001
 43
0.0000000001
 40
0.0
 40
0.0
 40
0.0
 40
0.0
 40
0.3772852991261146
 40
0.6800504216017873
 40
1.0
 40
1.0
 40
1.0
 40
1.0
 10
5.183997699790719
 20
6.856230496035021
 30
0.0
 10
5.182706538922688
 20
6.857244226846266
 30
0.0
 10
5.18037924312109
 20
6.859071459625211
 30
0.0
 10
5.176108674007483
 20
6.861416199188762
 30
0.0
 10
5.17347725110999
 20
6.862818389445358
 30
0.0
 10
5.172125231243653
 20
6.863538832018502
 30
0.0
  0
LINE
  5
25E
330
1F
100
AcDbEntity
  8
0
  6
Continuous
 62
     7
370
    15
100
AcDbLine
 10
5.180222257345559
 20
6.496718756661465
 30
0.0
 11
5.185879118770278
 21
6.498234292356024
 31
0.0
  0
LINE
  5
25F
330
1F
100
AcDbEntity
  8
0
  6
Continuous
 62
     7
370
    15
100
AcDbLine
 10
5.193452915106108
 20
6.496205188613069
 30
0.0
 11
5.185879118770278
 21
6.498234292356024
 31
0.0
  0
LINE
  5
260
330
1F
100
AcDbEntity
  8
0
  6
Continuous
 62
     7
370
    15
100
AcDbLine
 10
4.07653242329448
 20
7.663214322712653
 30
0.0
 11
3.954502123607057
 21
7.695907588661491
 31
0.0
  0
LINE
  5
261
330
1F
100
AcDbEntity
  8
0
  6
Continuous
 62
     7
370
    15
100
AcDbLine
 10
4.130925279880504
 20
7.574530788080707
 30
0.0
 11
4.07653242329448
 21
7.663214322712653
 31
0.0
  0
LINE
  5
262
330
1F
100
AcDbEntity
  8
0
  6
Continuous
 62
     7
370
    15
100
AcDbLine
 10
4.130925279880504
 20
6.777717525254677
 30
0.0
 11
4.130925279880504
 21
7.574530788080707
 31
0.0
  0
LINE
  5
263
330
1F
100
AcDbEntity
  8
0
  6
Continuous
 62
     7
370
    15
100
AcDbLine
 10
4.07653242329448
 20
6.699770645501939
 30
0.0
 11
4.106011252773583
 21
6.732038258313984
 31
0.0
  0
LINE
  5
264
330
1F
100
AcDbEntity
  8
0
  6
Continuous
 62
     7
370
    15
100
AcDbLine
 10
3.886157536928715
 20
6.750774181557148
 30
0.0
 11
4.07653242329448
 21
6.699770645501939
 31
0.0
  0
LINE
  5
265
330
1F
100
AcDbEntity
  8
0
  6
Continuous
 62
     7
370
    15
100
AcDbLine
 10
3.886157536928715
 20
6.750774181557148
 30
0.0
 11
3.858961120601987
 21
6.79511592392823
 31
0.0
  0
LINE
  5
266
330
1F
100
AcDbEntity
  8
0
  6
Continuous
 62
     7
370
    15
100
AcDbLine
 10
3.858961120601987
 20
6.79511592392823
 30
0.0
 11
3.83176470427526
 21
6.765346622567332
 31
0.0
  0
LINE
  5
267
330
1F
100
AcDbEntity
  8
0
  6
Continuous
 62
     7
370
    15
100
AcDbLine
 10
3.641389793976927
 20
6.816350165034342
 30
0.0
 11
3.83176470427526
 21
6.765346622567332
 31
0.0
  0
LINE
  5
268
330
1F
100
AcDbEntity
  8
0
  6
Continuous
 62
     7
370
    15
100
AcDbLine
 10
3.587219015670894
 20
6.904671628305308
 30
0.0
 11
3.641389793976927
 21
6.816350165034342
 31
0.0
  0
LINE
  5
269
330
1F
100
AcDbEntity
  8
0
  6
Continuous
 62
     7
370
    15
100
AcDbLine
 10
3.586996969300994
 20
7.720255193908011
 30
0.0
 11
3.586996969300994
 21
7.62493063482669
 31
0.0
  0
LINE
  5
26A
330
1F
100
AcDbEntity
  8
0
  6
Continuous
 62
     7
370
    15
100
AcDbLine
 10
3.641389793976927
 20
7.779793842245057
 30
0.0
 11
3.586996969300994
 21
7.720255193908011
 31
0.0
  0
LINE
  5
26B
330
1F
100
AcDbEntity
  8
0
  6
Continuous
 62
     7
370
    15
100
AcDbLine
 10
3.751220626457295
 20
7.750368948387872
 30
0.0
 11
3.641389793976927
 21
7.779793842245057
 31
0.0
  0
LINE
  5
26C
330
1F
100
AcDbEntity
  8
0
  6
Continuous
 62
     7
370
    15
100
AcDbLine
 10
3.943949919130036
 20
7.179957269521596
 30
0.0
 11
3.954148575751154
 21
7.177224936698607
 31
0.0
  0
LWPOLYLINE
  5
26D
330
1F
100
AcDbEntity
  8
0
  6
Continuous
 62
     7
370
    15
100
AcDbPolyline
 90
        9
 70
   128
 43
0.0
 10
3.954148575751154
 20
7.177224936698607
 10
3.956709567988824
 20
7.177221118521465
 10
3.95889333508289
 20
7.178582441932707
 10
3.960378175448509
 20
7.181108422278268
 10
3.960945377320315
 20
7.184426940244017
 10
3.960511384124394
 20
7.188049167465524
 10
3.959140143683593
 20
7.191441561901608
 10
3.957033614965375
 20
7.194104410691312
 10
3.954502123607057
 20
7.19564544572578
  0
LINE
  5
26E
330
1F
100
AcDbEntity
  8
0
  6
Continuous
 62
     7
370
    15
100
AcDbLine
 10
3.954502123607057
 20
7.356514734225542
 30
0.0
 11
3.954502123607057
 21
7.19564544572578
 31
0.0
  0
ARC
  5
26F
330
1F
100
AcDbEntity
  8
0
  6
Continuous
 62
     7
370
    15
100
AcDbCircle
 10
3.995285379300778
 20
7.362863262480992
 30
0.0
 40
0.0412744201169398
100
AcDbArc
 50
188.847940795315
 51
211.2015066654222
  0
LINE
  5
270
330
1F
100
AcDbEntity
  8
0
  6
Continuous
 62
     7
370
    15
100
AcDbLine
 10
4.041712051957254
 20
7.208225101557204
 30
0.0
 11
3.959981277733656
 21
7.341481069690542
 31
0.0
  0
LWPOLYLINE
  5
271
330
1F
100
AcDbEntity
  8
0
  6
Continuous
 62
     7
370
    15
100
AcDbPolyline
 90
       12
 70
   128
 43
0.0
 10
4.070558200057326
 20
7.239800211393267
 10
4.074037421125496
 20
7.232535565243831
 10
4.076066280681634
 20
7.224580428715075
 10
4.07648047366594
 20
7.216579273597286
 10
4.075246382797292
 20
7.209180363078049
 10
4.072464014301639
 20
7.202983052519512
 10
4.068358781063505
 20
7.198489447690644
 10
4.063263250053804
 20
7.196063577736619
 10
4.057590258077962
 20
7.195901989307476
 10
4.051799358314987
 20
7.198017736062384
 10
4.046359740791436
 20
7.202239443189347
 10
4.041712051957254
 20
7.208225101557204
  0
LINE
  5
272
330
1F
100
AcDbEntity
  8
0
  6
Continuous
 62
     7
370
    15
100
AcDbLine
 10
3.988827425833728
 20
7.373056223004584
 30
0.0
 11
4.070558200057326
 21
7.239800211393267
 31
0.0
  0
LWPOLYLINE
  5
273
330
1F
100
AcDbEntity
  8
0
  6
Continuous
 62
     7
370
    15
100
AcDbPolyline
 90
        9
 70
   128
 43
0.0
 10
3.954502123607057
 20
7.36868661224016
 10
3.956385122136133
 20
7.375119265292983
 10
3.959544396674477
 20
7.380287561064635
 10
3.963756161752219
 20
7.383825500381353
 10
3.968722137791482
 20
7.385482432553295
 10
3.974090563901475
 20
7.385141077835868
 10
3.979481215390017
 20
7.382825520519291
 10
3.984512288015412
 20
7.37869983238977
 10
3.988827425833728
 20
7.373056223004584
  0
LINE
  5
274
330
1F
100
AcDbEntity
  8
0
  6
Continuous
 62
     7
370
    15
100
AcDbLine
 10
3.954502123607057
 20
7.695907588661491
 30
0.0
 11
3.954502123607057
 21
7.36868661224016
 31
0.0
  0
LWPOLYLINE
  5
275
330
1F
100
AcDbEntity
  8
0
  6
Continuous
 62
     7
370
    15
100
AcDbPolyline
 90
       19
 70
   128
 43
0.0
 10
3.872559326770971
 20
6.976750445278947
 10
3.871739253381127
 20
6.983307020098796
 10
3.869377950505681
 20
6.98951218753281
 10
3.865760223686479
 20
6.994617513494293
 10
3.861322423477434
 20
6.998007220347654
 10
3.85659981373778
 20
6.99927245969056
 10
3.852162013528735
 20
6.998260624281155
 10
3.848544286709533
 20
6.995093756314667
 10
3.846182983834087
 20
6.990153827154927
 10
3.845362910444243
 20
6.984036665784039
 10
3.846182983834087
 20
6.977480090964189
 10
3.848544286709533
 20
6.971274923530176
 10
3.852162013528735
 20
6.966169597568693
 10
3.85659981373778
 20
6.962779890715331
 10
3.861322423477434
 20
6.961514651372425
 10
3.865760223686479
 20
6.96252648678183
 10
3.869377950505681
 20
6.965693354748317
 10
3.871739253381127
 20
6.970633283908059
 10
3.872559326770971
 20
6.976750445278947
  0
LINE
  5
276
330
1F
100
AcDbEntity
  8
0
  6
Continuous
 62
     7
370
    15
100
AcDbLine
 10
4.069733340153796
 20
7.535341491350157
 30
0.0
 11
4.058194874531748
 21
7.52271148390793
 31
0.0
  0
LINE
  5
277
330
1F
100
AcDbEntity
  8
0
  6
Continuous
 62
     7
370
    15
100
AcDbLine
 10
4.058194874531748
 20
7.52271148390793
 30
0.0
 11
4.069733340153796
 21
7.503898868064267
 31
0.0
  0
LINE
  5
278
330
1F
100
AcDbEntity
  8
0
  6
Continuous
 62
     7
370
    15
100
AcDbLine
 10
4.069733340153796
 20
7.503898868064267
 30
0.0
 11
4.081271805775843
 21
7.516528918984476
 31
0.0
  0
LINE
  5
279
330
1F
100
AcDbEntity
  8
0
  6
Continuous
 62
     7
370
    15
100
AcDbLine
 10
4.081271805775843
 20
7.516528918984476
 30
0.0
 11
4.069733340153796
 21
7.535341491350157
 31
0.0
  0
LINE
  5
27A
330
1F
100
AcDbEntity
  8
0
  6
Continuous
 62
     7
370
    15
100
AcDbLine
 10
4.058194874531748
 20
7.305991186075115
 30
0.0
 11
4.069733340153796
 21
7.287178570231453
 31
0.0
  0
LINE
  5
27B
330
1F
100
AcDbEntity
  8
0
  6
Continuous
 62
     7
370
    15
100
AcDbLine
 10
4.069733340153796
 20
7.287178570231453
 30
0.0
 11
4.081271805775843
 21
7.29980862115166
 31
0.0
  0
LINE
  5
27C
330
1F
100
AcDbEntity
  8
0
  6
Continuous
 62
     7
370
    15
100
AcDbLine
 10
4.081271805775843
 20
7.29980862115166
 30
0.0
 11
4.069733340153796
 21
7.318621236995323
 31
0.0
  0
LINE
  5
27D
330
1F
100
AcDbEntity
  8
0
  6
Continuous
 62
     7
370
    15
100
AcDbLine
 10
4.069733340153796
 20
7.318621236995323
 30
0.0
 11
4.058194874531748
 21
7.305991186075115
 31
0.0
  0
LINE
  5
27E
330
1F
100
AcDbEntity
  8
0
  6
Continuous
 62
     7
370
    15
100
AcDbLine
 10
3.991160516199756
 20
7.554529900839455
 30
0.0
 11
4.111352810586752
 21
7.358565243515299
 31
0.0
  0
LWPOLYLINE
  5
27F
330
1F
100
AcDbEntity
  8
0
  6
Continuous
 62
     7
370
    15
100
AcDbPolyline
 90
       12
 70
   128
 43
0.0
 10
3.962314368099684
 20
7.522954791003393
 10
3.958835147031513
 20
7.530219437152829
 10
3.95680627152033
 20
7.538174599695109
 10
3.956392094491069
 20
7.546175728799374
 10
3.957626185359717
 20
7.553574661057602
 10
3.96040855385537
 20
7.559771928138158
 10
3.964513787093504
 20
7.564265576445006
 10
3.969609302148159
 20
7.566691407195584
 10
3.975282310079046
 20
7.566853013089184
 10
3.981073193886977
 20
7.56473727060881
 10
3.986512827365574
 20
7.560515559207312
 10
3.991160516199756
 20
7.554529900839455
  0
LINE
  5
280
330
1F
100
AcDbEntity
  8
0
  6
Continuous
 62
     7
370
    15
100
AcDbLine
 10
4.082506662486681
 20
7.326990090201256
 30
0.0
 11
3.962314368099684
 21
7.522954791003393
 31
0.0
  0
LWPOLYLINE
  5
281
330
1F
100
AcDbEntity
  8
0
  6
Continuous
 62
     7
370
    15
100
AcDbPolyline
 90
       12
 70
   128
 43
0.0
 10
4.111352810586752
 20
7.358565243515299
 10
4.114832031654922
 20
7.351300553887883
 10
4.116860907166106
 20
7.343345434823584
 10
4.117275100150412
 20
7.335344301444784
 10
4.116041009281764
 20
7.327945369186558
 10
4.113258640786111
 20
7.321748058628021
 10
4.109153407547977
 20
7.317254453799153
 10
4.104057876538276
 20
7.314828583845128
 10
4.098384868607389
 20
7.314666977951527
 10
4.092593984799459
 20
7.316782763909883
 10
4.087154367275908
 20
7.321004471036846
 10
4.082506662486681
 20
7.326990090201256
  0
LINE
  5
282
330
1F
100
AcDbEntity
  8
0
  6
Continuous
 62
     7
370
    15
100
AcDbLine
 10
4.063260585561185
 20
7.175480511303021
 30
0.0
 11
4.063260585561185
 21
7.175784270213378
 31
0.0
  0
LINE
  5
283
330
1F
100
AcDbEntity
  8
0
  6
Continuous
 62
     7
370
    15
100
AcDbLine
 10
4.06293422510302
 20
7.175871705787013
 30
0.0
 11
4.063260585561185
 21
7.175784270213378
 31
0.0
  0
LINE
  5
284
330
1F
100
AcDbEntity
  8
0
  6
Continuous
 62
     7
370
    15
100
AcDbLine
 10
4.06293422510302
 20
7.148080058952772
 30
0.0
 11
4.06293422510302
 21
7.175871705787013
 31
0.0
  0
LINE
  5
285
330
1F
100
AcDbEntity
  8
0
  6
Continuous
 62
     7
370
    15
100
AcDbLine
 10
4.083331538345256
 20
7.142615393306796
 30
0.0
 11
4.06293422510302
 21
7.148080058952772
 31
0.0
  0
LINE
  5
286
330
1F
100
AcDbEntity
  8
0
  6
Continuous
 62
     7
370
    15
100
AcDbLine
 10
4.083331538345256
 20
7.165679570632635
 30
0.0
 11
4.083331538345256
 21
7.142615393306796
 31
0.0
  0
LINE
  5
287
330
1F
100
AcDbEntity
  8
0
  6
Continuous
 62
     7
370
    15
100
AcDbLine
 10
4.083331538345256
 20
7.170103281230678
 30
0.0
 11
4.083331538345256
 21
7.165679570632635
 31
0.0
  0
LINE
  5
288
330
1F
100
AcDbEntity
  8
0
  6
Continuous
 62
     7
370
    15
100
AcDbLine
 10
4.083331538345256
 20
7.170407040141036
 30
0.0
 11
4.083331538345256
 21
7.170103281230678
 31
0.0
  0
LINE
  5
289
330
1F
100
AcDbEntity
  8
0
  6
Continuous
 62
     7
370
    15
100
AcDbLine
 10
4.083005193842136
 20
7.170494471440137
 30
0.0
 11
4.083331538345256
 21
7.170407040141036
 31
0.0
  0
LINE
  5
28A
330
1F
100
AcDbEntity
  8
0
  6
Continuous
 62
     7
370
    15
100
AcDbLine
 10
4.083005193842136
 20
7.170494471440137
 30
0.0
 11
4.083005193842136
 21
7.170190712529779
 31
0.0
  0
LINE
  5
28B
330
1F
100
AcDbEntity
  8
0
  6
Continuous
 62
     7
370
    15
100
AcDbLine
 10
4.083005193842136
 20
7.170190712529779
 30
0.0
 11
4.063260585561185
 21
7.175480511303021
 31
0.0
  0
LINE
  5
28C
330
1F
100
AcDbEntity
  8
0
  6
Continuous
 62
     7
370
    15
100
AcDbLine
 10
4.07653242329448
 20
7.663214322712653
 30
0.0
 11
4.082189284719198
 21
7.664729858407213
 31
0.0
  0
LINE
  5
28D
330
1F
100
AcDbEntity
  8
0
  6
Continuous
 62
     7
370
    15
100
AcDbLine
 10
4.082189284719198
 20
7.664729858407213
 30
0.0
 11
4.136582141305223
 21
7.576046323775266
 31
0.0
  0
LINE
  5
28E
330
1F
100
AcDbEntity
  8
0
  6
Continuous
 62
     7
370
    15
100
AcDbLine
 10
4.136582141305223
 20
7.576046323775266
 30
0.0
 11
4.130925279880504
 21
7.574530788080707
 31
0.0
  0
LINE
  5
28F
330
1F
100
AcDbEntity
  8
0
  6
Continuous
 62
     7
370
    15
100
AcDbLine
 10
4.136582141305223
 20
6.782038379811797
 30
0.0
 11
4.136582141305223
 21
7.576046323775266
 31
0.0
  0
LINE
  5
290
330
1F
100
AcDbEntity
  8
0
  6
Continuous
 62
     7
370
    15
100
AcDbLine
 10
3.97664938625294
 20
7.542489279239698
 30
0.0
 11
4.096841680639937
 21
7.34652462191554
 31
0.0
  0
LINE
  5
291
330
1F
100
AcDbEntity
  8
0
  6
Continuous
 62
     7
370
    15
100
AcDbLine
 10
3.97664938625294
 20
7.542489279239698
 30
0.0
 11
3.991160516199756
 21
7.554529900839455
 31
0.0
  0
LINE
  5
292
330
1F
100
AcDbEntity
  8
0
  6
Continuous
 62
     7
370
    15
100
AcDbLine
 10
4.096841680639937
 20
7.34652462191554
 30
0.0
 11
4.111352810586752
 21
7.358565243515299
 31
0.0
  0
LINE
  5
293
330
1F
100
AcDbEntity
  8
0
  6
Continuous
 62
     7
370
    15
100
AcDbLine
 10
3.954502123607057
 20
7.695907588661491
 30
0.0
 11
3.960158985031776
 21
7.697423124356049
 31
0.0
  0
LINE
  5
294
330
1F
100
AcDbEntity
  8
0
  6
Continuous
 62
     7
370
    15
100
AcDbLine
 10
4.082189284719198
 20
7.664729858407213
 30
0.0
 11
3.960158985031776
 21
7.697423124356049
 31
0.0
  0
LINE
  5
295
330
1F
100
AcDbEntity
  8
0
  6
Continuous
 62
     7
370
    15
100
AcDbLine
 10
3.967527439930471
 20
7.532504360072971
 30
0.0
 11
4.087719734317468
 21
7.336539659270834
 31
0.0
  0
ARC
  5
296
330
1F
100
AcDbEntity
  8
0
  6
Continuous
 62
     7
370
    15
100
AcDbCircle
 10
4.000264134687211
 20
7.511756258746486
 30
0.0
 40
0.0387579010299845
100
AcDbArc
 50
127.5380840646204
 51
147.6339962724706
  0
ARC
  5
297
330
1F
100
AcDbEntity
  8
0
  6
Continuous
 62
     7
370
    15
100
AcDbCircle
 10
4.120455743466139
 20
7.315792318116503
 30
0.0
 40
0.0387569149953416
100
AcDbArc
 50
127.5379259146545
 51
147.6344028927655
  0
LINE
  5
298
330
1F
100
AcDbEntity
  8
0
  6
Continuous
 62
     7
370
    15
100
AcDbLine
 10
3.962314368099684
 20
7.522954791003393
 30
0.0
 11
3.967527439930471
 21
7.532504360072971
 31
0.0
  0
LINE
  5
299
330
1F
100
AcDbEntity
  8
0
  6
Continuous
 62
     7
370
    15
100
AcDbLine
 10
4.082506662486681
 20
7.326990090201256
 30
0.0
 11
4.087719734317468
 21
7.336539659270834
 31
0.0
  0
LINE
  5
29A
330
1F
100
AcDbEntity
  8
0
  6
Continuous
 62
     7
370
    15
100
AcDbLine
 10
3.882320811153328
 20
7.682223521718807
 30
0.0
 11
3.887977656623002
 21
7.680707990298781
 31
0.0
  0
LINE
  5
29B
330
1F
100
AcDbEntity
  8
0
  6
Continuous
 62
     7
370
    15
100
AcDbLine
 10
3.887977656623002
 20
7.680707990298781
 30
0.0
 11
3.860781228329989
 21
7.636366222982808
 31
0.0
  0
LINE
  5
29C
330
1F
100
AcDbEntity
  8
0
  6
Continuous
 62
     7
370
    15
100
AcDbLine
 10
3.860781228329989
 20
7.636366222982808
 30
0.0
 11
3.855124382860316
 21
7.637881754402835
 31
0.0
  0
LINE
  5
29D
330
1F
100
AcDbEntity
  8
0
  6
Continuous
 62
     7
370
    15
100
AcDbLine
 10
3.855124382860316
 20
7.637881754402835
 30
0.0
 11
3.882320811153328
 21
7.682223521718807
 31
0.0
  0
LINE
  5
29E
330
1F
100
AcDbEntity
  8
0
  6
Continuous
 62
     7
370
    15
100
AcDbLine
 10
3.944711405592362
 20
7.195657967384147
 30
0.0
 11
3.860781228329989
 21
7.173172145310446
 31
0.0
  0
LINE
  5
29F
330
1F
100
AcDbEntity
  8
0
  6
Continuous
 62
     7
370
    15
100
AcDbLine
 10
3.860781228329989
 20
7.173172145310446
 30
0.0
 11
3.860781228329989
 21
7.636366222982808
 31
0.0
  0
LINE
  5
2A0
330
1F
100
AcDbEntity
  8
0
  6
Continuous
 62
     7
370
    15
100
AcDbLine
 10
3.944711405592362
 20
7.695907588661491
 30
0.0
 11
3.887977656623002
 21
7.680707990298781
 31
0.0
  0
LINE
  5
2A1
330
1F
100
AcDbEntity
  8
0
  6
Continuous
 62
     7
370
    15
100
AcDbLine
 10
3.944711405592362
 20
7.695907588661491
 30
0.0
 11
3.944711405592362
 21
7.195657967384147
 31
0.0
  0
LWPOLYLINE
  5
2A2
330
1F
100
AcDbEntity
  8
0
  6
Continuous
 62
     7
370
    15
100
AcDbPolyline
 90
        9
 70
   128
 43
0.0
 10
4.087719734317468
 20
7.336539659270834
 10
4.089812334280859
 20
7.334073953944482
 10
4.092280707478702
 20
7.332743653799588
 10
4.094749112586637
 20
7.332751336475749
 10
4.096841680639937
 20
7.334095789036511
 10
4.098239917017928
 20
7.336572385059145
 10
4.098730917591851
 20
7.339804079756005
 10
4.098239917017928
 20
7.343298819935335
 10
4.096841680639937
 20
7.34652462191554
  0
LINE
  5
2A3
330
1F
100
AcDbEntity
  8
0
  6
Continuous
 62
     7
370
    15
100
AcDbLine
 10
4.063851735956467
 20
7.52422701960249
 30
0.0
 11
4.058194874531748
 21
7.52271148390793
 31
0.0
  0
LINE
  5
2A4
330
1F
100
AcDbEntity
  8
0
  6
Continuous
 62
     7
370
    15
100
AcDbLine
 10
4.071449464860728
 20
7.532543524247213
 30
0.0
 11
4.063851735956467
 21
7.52422701960249
 31
0.0
  0
LINE
  5
2A5
330
1F
100
AcDbEntity
  8
0
  6
Continuous
 62
     7
370
    15
100
AcDbLine
 10
4.063851735956467
 20
7.52422701960249
 30
0.0
 11
4.073674076871582
 21
7.508212418322361
 31
0.0
  0
LINE
  5
2A6
330
1F
100
AcDbEntity
  8
0
  6
Continuous
 62
     7
370
    15
100
AcDbLine
 10
3.855124382860316
 20
7.174687676730473
 30
0.0
 11
3.860781228329989
 21
7.173172145310446
 31
0.0
  0
LINE
  5
2A7
330
1F
100
AcDbEntity
  8
0
  6
Continuous
 62
     7
370
    15
100
AcDbLine
 10
3.855124382860316
 20
7.174687676730473
 30
0.0
 11
3.855124382860316
 21
7.637881754402835
 31
0.0
  0
LINE
  5
2A8
330
1F
100
AcDbEntity
  8
0
  6
Continuous
 62
     7
370
    15
100
AcDbLine
 10
3.944711405592362
 20
7.695907588661491
 30
0.0
 11
3.939054560122689
 21
7.697423120081516
 31
0.0
  0
LINE
  5
2A9
330
1F
100
AcDbEntity
  8
0
  6
Continuous
 62
     7
370
    15
100
AcDbLine
 10
3.939054560122689
 20
7.697423120081516
 30
0.0
 11
3.882320811153328
 21
7.682223521718807
 31
0.0
  0
LINE
  5
2AA
330
1F
100
AcDbEntity
  8
0
  6
Continuous
 62
     7
370
    15
100
AcDbLine
 10
3.974316311841958
 20
7.361015597130293
 30
0.0
 11
4.05604707011051
 21
7.227759589793508
 31
0.0
  0
LINE
  5
2AB
330
1F
100
AcDbEntity
  8
0
  6
Continuous
 62
     7
370
    15
100
AcDbLine
 10
3.974316311841958
 20
7.361015597130293
 30
0.0
 11
3.988827425833728
 21
7.373056223004584
 31
0.0
  0
LINE
  5
2AC
330
1F
100
AcDbEntity
  8
0
  6
Continuous
 62
     7
370
    15
100
AcDbLine
 10
4.05604707011051
 20
7.227759589793508
 30
0.0
 11
4.070558200057326
 21
7.239800211393267
 31
0.0
  0
LINE
  5
2AD
330
1F
100
AcDbEntity
  8
0
  6
Continuous
 62
     7
370
    15
100
AcDbLine
 10
3.965194349564443
 20
7.35103063876012
 30
0.0
 11
4.046925123788041
 21
7.217774670626782
 31
0.0
  0
ARC
  5
2AE
330
1F
100
AcDbEntity
  8
0
  6
Continuous
 62
     7
370
    15
100
AcDbCircle
 10
3.997931678466187
 20
7.330282041028962
 30
0.0
 40
0.0387587023961121
100
AcDbArc
 50
127.5383262832154
 51
147.6338782889664
  0
ARC
  5
2AF
330
1F
100
AcDbEntity
  8
0
  6
Continuous
 62
     7
370
    15
100
AcDbCircle
 10
4.079661818544771
 20
7.197026569300304
 30
0.0
 40
0.0387579010299724
100
AcDbArc
 50
127.5380840646162
 51
147.6339962724718
  0
LINE
  5
2B0
330
1F
100
AcDbEntity
  8
0
  6
Continuous
 62
     7
370
    15
100
AcDbLine
 10
4.063851735956467
 20
7.307506721769675
 30
0.0
 11
4.058194874531748
 21
7.305991186075115
 31
0.0
  0
LINE
  5
2B1
330
1F
100
AcDbEntity
  8
0
  6
Continuous
 62
     7
370
    15
100
AcDbLine
 10
4.071449464860728
 20
7.315823226414398
 30
0.0
 11
4.063851735956467
 21
7.307506721769675
 31
0.0
  0
LINE
  5
2B2
330
1F
100
AcDbEntity
  8
0
  6
Continuous
 62
     7
370
    15
100
AcDbLine
 10
4.063851735956467
 20
7.307506721769675
 30
0.0
 11
4.073674076871582
 21
7.291492120489546
 31
0.0
  0
LINE
  5
2B3
330
1F
100
AcDbEntity
  8
0
  6
Continuous
 62
     7
370
    15
100
AcDbLine
 10
3.954220277726172
 20
7.195729364909761
 30
0.0
 11
3.954502123607057
 21
7.19564544572578
 31
0.0
  0
ARC
  5
2B4
330
1F
100
AcDbEntity
  8
0
  6
Continuous
 62
     7
370
    15
100
AcDbCircle
 10
3.949626996175375
 20
7.174230769858955
 30
0.0
 40
0.0219838082361406
100
AcDbArc
 50
77.93980011123654
 51
102.9205963593409
  0
ARC
  5
2B5
330
1F
100
AcDbEntity
  8
0
  6
Continuous
 62
     7
370
    15
100
AcDbCircle
 10
3.949606764599709
 20
7.674731194137561
 30
0.0
 40
0.0217348619697468
100
AcDbArc
 50
76.98355323137286
 51
103.0164467686226
  0
SPLINE
  5
2B6
330
1F
100
AcDbEntity
  8
0
  6
Continuous
 62
     7
370
    15
100
AcDbSpline
210
0.0
220
0.0
230
1.0
 70
     8
 71
     3
 72
     9
 73
     5
 74
     0
 42
0.0000000001
 43
0.0000000001
 40
0.0
 40
0.0
 40
0.0
 40
0.0
 40
0.7056773977090997
 40
1.0
 40
1.0
 40
1.0
 40
1.0
 10
3.954502123607057
 20
7.356514734225542
 30
0.0
 10
3.954221582847591
 20
7.359462677523104
 30
0.0
 10
3.953824034675612
 20
7.363640143468781
 30
0.0
 10
3.954347929514692
 20
7.367539070028857
 30
0.0
 10
3.954502123607057
 20
7.36868661224016
 30
0.0
  0
LWPOLYLINE
  5
2B7
330
1F
100
AcDbEntity
  8
0
  6
Continuous
 62
     7
370
    15
100
AcDbPolyline
 90
        9
 70
   128
 43
0.0
 10
3.97664938625294
 20
7.542489279239698
 10
3.974556786289549
 20
7.54495502804403
 10
3.972088413091706
 20
7.546285328188923
 10
3.969620023938816
 20
7.54627764123823
 10
3.967527439930471
 20
7.54493314947402
 10
3.96612920355248
 20
7.542456553451385
 10
3.965638218933603
 20
7.539224897957974
 10
3.96612920355248
 20
7.535730162053177
 10
3.967527439930471
 20
7.532504360072971
  0
ARC
  5
2B8
330
1F
100
AcDbEntity
  8
0
  6
Continuous
 62
     7
370
    15
100
AcDbCircle
 10
3.949606781822647
 20
7.651776223259152
 30
0.0
 40
0.0468507051421499
100
AcDbArc
 50
76.98357293527208
 51
103.0164502743321
  0
LINE
  5
2B9
330
1F
100
AcDbEntity
  8
0
  6
Continuous
 62
     7
370
    15
100
AcDbLine
 10
4.041712051957254
 20
7.208225101557204
 30
0.0
 11
4.046925123788041
 21
7.217774670626782
 31
0.0
  0
LWPOLYLINE
  5
2BA
330
1F
100
AcDbEntity
  8
0
  6
Continuous
 62
     7
370
    15
100
AcDbPolyline
 90
        9
 70
   128
 43
0.0
 10
4.046925123788041
 20
7.217774670626782
 10
4.049017707796386
 20
7.215308947835973
 10
4.051486096949275
 20
7.213978643416547
 10
4.053954486102164
 20
7.21398633036724
 10
4.05604707011051
 20
7.215330800392459
 10
4.057445306488501
 20
7.217807396415094
 10
4.057936291107378
 20
7.221039051908505
 10
4.057445306488501
 20
7.224533809552293
 10
4.05604707011051
 20
7.227759589793508
  0
LINE
  5
2BB
330
1F
100
AcDbEntity
  8
0
  6
Continuous
 62
     7
370
    15
100
AcDbLine
 10
3.959981277733656
 20
7.341481069690542
 30
0.0
 11
3.965194349564443
 21
7.35103063876012
 31
0.0
  0
ARC
  5
2BC
330
1F
100
AcDbEntity
  8
0
  6
Continuous
 62
     7
370
    15
100
AcDbCircle
 10
4.097057246870056
 20
7.170134853894907
 30
0.0
 40
0.0140521640499453
100
AcDbArc
 50
179.7722434462881
 51
192.3746543560644
  0
ARC
  5
2BD
330
1F
100
AcDbEntity
  8
0
  6
Continuous
 62
     7
370
    15
100
AcDbCircle
 10
4.074238250365879
 20
7.175001232466152
 30
0.0
 40
0.0109881223495044
100
AcDbArc
 50
177.500085222442
 51
219.1252215870199
  0
LINE
  5
2BE
330
1F
100
AcDbEntity
  8
0
  6
Continuous
 62
     7
370
    15
100
AcDbLine
 10
4.083331554300301
 20
7.153643141081021
 30
0.0
 11
4.077452901786413
 21
7.155218097059574
 31
0.0
  0
LINE
  5
2BF
330
1F
100
AcDbEntity
  8
0
  6
Continuous
 62
     7
370
    15
100
AcDbLine
 10
4.077452901786413
 20
7.155218097059574
 30
0.0
 11
4.065714008881283
 21
7.168067536490704
 31
0.0
  0
LINE
  5
2C0
330
1F
100
AcDbEntity
  8
0
  6
Continuous
 62
     7
370
    15
100
AcDbLine
 10
4.068591086527739
 20
7.149595594647331
 30
0.0
 11
4.06293422510302
 21
7.148080058952772
 31
0.0
  0
LINE
  5
2C1
330
1F
100
AcDbEntity
  8
0
  6
Continuous
 62
     7
370
    15
100
AcDbLine
 10
4.068591086527739
 20
7.149595594647331
 30
0.0
 11
4.068591086527739
 21
7.164918278426595
 31
0.0
  0
LWPOLYLINE
  5
2C2
330
1F
100
AcDbEntity
  8
0
  6
Continuous
 62
     7
370
    15
100
AcDbPolyline
 90
        9
 70
   128
 43
0.0
 10
3.965194349564443
 20
7.35103063876012
 10
3.963796129141497
 20
7.354256436465791
 10
3.963305128567575
 20
7.357751176645122
 10
3.963796129141497
 20
7.36098287134198
 10
3.965194349564443
 20
7.363459471639148
 10
3.967286949527834
 20
7.364803915650845
 10
3.969755322725678
 20
7.36481160687607
 10
3.972223711878567
 20
7.363481302456645
 10
3.974316311841958
 20
7.361015597130293
  0
LINE
  5
2C3
330
1F
100
AcDbEntity
  8
0
  6
Continuous
 62
     7
370
    15
100
AcDbLine
 10
4.082189284719198
 20
6.701286181196498
 30
0.0
 11
4.07653242329448
 21
6.699770645501939
 31
0.0
  0
LINE
  5
2C4
330
1F
100
AcDbEntity
  8
0
  6
Continuous
 62
     7
370
    15
100
AcDbLine
 10
4.106011252773583
 20
6.727361781589756
 30
0.0
 11
4.082189284719198
 21
6.701286181196498
 31
0.0
  0
LINE
  5
2C5
330
1F
100
AcDbEntity
  8
0
  6
Continuous
 62
     7
370
    15
100
AcDbLine
 10
3.712343214097231
 20
7.727762398539839
 30
0.0
 11
3.704162934567278
 21
7.7144250570482
 31
0.0
  0
LINE
  5
2C6
330
1F
100
AcDbEntity
  8
0
  6
Continuous
 62
     7
370
    15
100
AcDbLine
 10
3.712343214097231
 20
7.727762398539839
 30
0.0
 11
3.726638073400661
 21
7.731592149332105
 31
0.0
  0
LINE
  5
2C7
330
1F
100
AcDbEntity
  8
0
  6
Continuous
 62
     7
370
    15
100
AcDbLine
 10
3.691771264903157
 20
7.704959970268539
 30
0.0
 11
3.706686360650035
 21
7.729277932097132
 31
0.0
  0
LINE
  5
2C8
330
1F
100
AcDbEntity
  8
0
  6
Continuous
 62
     7
370
    15
100
AcDbLine
 10
3.706686360650035
 20
7.729277932097132
 30
0.0
 11
3.712343214097231
 21
7.727762398539839
 31
0.0
  0
LINE
  5
2C9
330
1F
100
AcDbEntity
  8
0
  6
Continuous
 62
     7
370
    15
100
AcDbLine
 10
3.706686360650035
 20
7.729277932097132
 30
0.0
 11
3.732750140254454
 21
7.736260706706568
 31
0.0
  0
LINE
  5
2CA
330
1F
100
AcDbEntity
  8
0
  6
Continuous
 62
     7
370
    15
100
AcDbLine
 10
3.647046655401646
 20
7.781309377939615
 30
0.0
 11
3.641389793976927
 21
7.779793842245057
 31
0.0
  0
LINE
  5
2CB
330
1F
100
AcDbEntity
  8
0
  6
Continuous
 62
     7
370
    15
100
AcDbLine
 10
3.754158460917473
 20
7.752612941456555
 30
0.0
 11
3.647046655401646
 21
7.781309377939615
 31
0.0
  0
ARC
  5
2CC
330
1F
100
AcDbEntity
  8
0
  6
Continuous
 62
     7
370
    15
100
AcDbCircle
 10
3.872415328625232
 20
6.983998086091355
 30
0.0
 40
0.0217338250664049
100
AcDbArc
 50
135.4054688786214
 51
254.5904446963347
  0
LINE
  5
2CD
330
1F
100
AcDbEntity
  8
0
  6
Continuous
 62
     7
370
    15
100
AcDbLine
 10
3.837421565699979
 20
6.766862158261892
 30
0.0
 11
3.83176470427526
 21
6.765346622567332
 31
0.0
  0
LINE
  5
2CE
330
1F
100
AcDbEntity
  8
0
  6
Continuous
 62
     7
370
    15
100
AcDbLine
 10
3.86067724530892
 20
6.792317913347306
 30
0.0
 11
3.837421565699979
 21
6.766862158261892
 31
0.0
  0
LINE
  5
2CF
330
1F
100
AcDbEntity
  8
0
  6
Continuous
 62
     7
370
    15
100
AcDbLine
 10
2.657777026973374
 20
7.181108449623472
 30
0.0
 11
2.657777026973374
 21
7.171559598168916
 31
0.0
  0
LINE
  5
2D0
330
1F
100
AcDbEntity
  8
0
  6
Continuous
 62
     7
370
    15
100
AcDbLine
 10
2.657777026973374
 20
7.146315565337659
 30
0.0
 11
2.657777026973374
 21
7.088469644958495
 31
0.0
  0
LINE
  5
2D1
330
1F
100
AcDbEntity
  8
0
  6
Continuous
 62
     7
370
    15
100
AcDbLine
 10
2.644178860692004
 20
7.184751548655368
 30
0.0
 11
2.657777026973374
 21
7.181108449623472
 31
0.0
  0
LINE
  5
2D2
330
1F
100
AcDbEntity
  8
0
  6
Continuous
 62
     7
370
    15
100
AcDbLine
 10
2.644178860692004
 20
7.184751548655368
 30
0.0
 11
2.644178860692004
 21
7.370029179724314
 31
0.0
  0
LINE
  5
2D3
330
1F
100
AcDbEntity
  8
0
  6
Continuous
 62
     7
370
    15
100
AcDbLine
 10
2.644178860692004
 20
7.370029179724314
 30
0.0
 11
2.657777026973374
 21
7.366386080692417
 31
0.0
  0
LINE
  5
2D4
330
1F
100
AcDbEntity
  8
0
  6
Continuous
 62
     7
370
    15
100
AcDbLine
 10
2.657777026973374
 20
7.366386080692417
 30
0.0
 11
2.657777026973374
 21
7.368648712837847
 31
0.0
  0
LINE
  5
2D5
330
1F
100
AcDbEntity
  8
0
  6
Continuous
 62
     7
370
    15
100
AcDbLine
 10
2.657777026973374
 20
7.393892751103851
 30
0.0
 11
2.657777026973374
 21
7.459024896226889
 31
0.0
  0
ARC
  5
2D6
330
1F
100
AcDbEntity
  8
0
  6
Continuous
 62
     7
370
    15
100
AcDbCircle
 10
2.603512429187911
 20
7.458990882321725
 30
0.0
 40
0.0542646084456872
100
AcDbArc
 50
0.0359138929427293
 51
36.91496271585627
  0
LINE
  5
2D7
330
1F
100
AcDbEntity
  8
0
  6
Continuous
 62
     7
370
    15
100
AcDbLine
 10
2.646898493948278
 20
7.724421606387231
 30
0.0
 11
2.646898493948278
 21
7.491583782075704
 31
0.0
  0
ARC
  5
2D8
330
1F
100
AcDbEntity
  8
0
  6
Continuous
 62
     7
370
    15
100
AcDbCircle
 10
2.665507377329692
 20
7.745263387759819
 30
0.0
 40
0.0279404794426624
100
AcDbArc
 50
228.2394708290687
 51
253.9383164153164
  0
LINE
  5
2D9
330
1F
100
AcDbEntity
  8
0
  6
Continuous
 62
     7
370
    15
100
AcDbLine
 10
2.657777026973374
 20
7.71841358189731
 30
0.0
 11
2.691772634137344
 21
7.709305783023173
 31
0.0
  0
LINE
  5
2DA
330
1F
100
AcDbEntity
  8
0
  6
Continuous
 62
     7
370
    15
100
AcDbLine
 10
2.691772634137344
 20
7.709305783023173
 30
0.0
 11
2.752964573864052
 21
7.516870312835514
 31
0.0
  0
LINE
  5
2DB
330
1F
100
AcDbEntity
  8
0
  6
Continuous
 62
     7
370
    15
100
AcDbLine
 10
2.752964573864052
 20
7.516870312835514
 30
0.0
 11
2.746165490723368
 21
7.518691862351463
 31
0.0
  0
LINE
  5
2DC
330
1F
100
AcDbEntity
  8
0
  6
Continuous
 62
     7
370
    15
100
AcDbLine
 10
2.746165490723368
 20
7.518691862351463
 30
0.0
 11
2.807357494270259
 21
7.326256407674158
 31
0.0
  0
LINE
  5
2DD
330
1F
100
AcDbEntity
  8
0
  6
Continuous
 62
     7
370
    15
100
AcDbLine
 10
2.807357494270259
 20
7.326256407674158
 30
0.0
 11
2.814156449770578
 21
7.324490305040547
 31
0.0
  0
LINE
  5
2DE
330
1F
100
AcDbEntity
  8
0
  6
Continuous
 62
     7
370
    15
100
AcDbLine
 10
2.814156449770578
 20
7.324490305040547
 30
0.0
 11
2.814156449770578
 21
7.139212673971603
 31
0.0
  0
LINE
  5
2DF
330
1F
100
AcDbEntity
  8
0
  6
Continuous
 62
     7
370
    15
100
AcDbLine
 10
2.807357494270259
 20
7.14108960197736
 30
0.0
 11
2.814156449770578
 21
7.139212673971603
 31
0.0
  0
LINE
  5
2E0
330
1F
100
AcDbEntity
  8
0
  6
Continuous
 62
     7
370
    15
100
AcDbLine
 10
2.746165490723368
 20
6.981442175372182
 30
0.0
 11
2.807357494270259
 21
7.14108960197736
 31
0.0
  0
LINE
  5
2E1
330
1F
100
AcDbEntity
  8
0
  6
Continuous
 62
     7
370
    15
100
AcDbLine
 10
2.752964573864052
 20
6.979620625856234
 30
0.0
 11
2.746165490723368
 21
6.981442175372182
 31
0.0
  0
LINE
  5
2E2
330
1F
100
AcDbEntity
  8
0
  6
Continuous
 62
     7
370
    15
100
AcDbLine
 10
2.691772634137344
 20
6.819973171283431
 30
0.0
 11
2.752964573864052
 21
6.979620625856234
 31
0.0
  0
LINE
  5
2E3
330
1F
100
AcDbEntity
  8
0
  6
Continuous
 62
     7
370
    15
100
AcDbLine
 10
2.657777026973374
 20
6.829080970157568
 30
0.0
 11
2.691772634137344
 21
6.819973171283431
 31
0.0
  0
ARC
  5
2E4
330
1F
100
AcDbEntity
  8
0
  6
Continuous
 62
     7
370
    15
100
AcDbCircle
 10
2.652636758299603
 20
6.810831253278982
 30
0.0
 40
0.0189598135061265
100
AcDbArc
 50
74.26943983239822
 51
107.6170814884161
  0
LINE
  5
2E5
330
1F
100
AcDbEntity
  8
0
  6
Continuous
 62
     7
370
    15
100
AcDbLine
 10
2.646898493948278
 20
7.061739706691219
 30
0.0
 11
2.646898493948278
 21
6.828901860640701
 31
0.0
  0
ARC
  5
2E6
330
1F
100
AcDbEntity
  8
0
  6
Continuous
 62
     7
370
    15
100
AcDbCircle
 10
2.624835205644441
 20
7.086297647834478
 30
0.0
 40
0.0330133482696624
100
AcDbArc
 50
311.9370842652845
 51
3.772299030003774
  0
LWPOLYLINE
  5
2E7
330
1F
100
AcDbEntity
  8
0
  6
Continuous
 62
     7
370
    15
100
AcDbPolyline
 90
       19
 70
   128
 43
0.0
 10
2.67817434021561
 20
6.953310641912054
 10
2.678994429560499
 20
6.95942780308447
 10
2.681355776312321
 20
6.964367701467628
 10
2.684973487176477
 20
6.967534580502084
 10
2.689411287385522
 20
6.968546413194115
 10
2.694133853248801
 20
6.967281185606174
 10
2.698571653457846
 20
6.963891481470187
 10
2.702189364322002
 20
6.958786152989802
 10
2.704550711073824
 20
6.95258099282244
 10
2.705370800418713
 20
6.946024409651997
 10
2.704550711073824
 20
6.93990724847958
 10
2.702189364322002
 20
6.934967328357432
 10
2.698571653457846
 20
6.931800449322977
 10
2.694133853248801
 20
6.930788616630946
 10
2.689411287385522
 20
6.932053844218885
 10
2.684973487176477
 20
6.935443548354873
 10
2.681355776312321
 20
6.940548876835258
 10
2.678994429560499
 20
6.946754058741611
 10
2.67817434021561
 20
6.953310641912054
  0
LWPOLYLINE
  5
2E8
330
1F
100
AcDbEntity
  8
0
  6
Continuous
 62
     7
370
    15
100
AcDbPolyline
 90
       19
 70
   128
 43
0.0
 10
2.67817434021561
 20
7.58325455711188
 10
2.678994429560499
 20
7.576697973941437
 10
2.681355776312321
 20
7.570492813774075
 10
2.684973487176477
 20
7.565387485293689
 10
2.689411287385522
 20
7.561997781157702
 10
2.694133853248801
 20
7.560732553569762
 10
2.698571653457846
 20
7.561744386261793
 10
2.702189364322002
 20
7.564911265296249
 10
2.704550711073824
 20
7.569851163679406
 10
2.705370800418713
 20
7.575968324851823
 10
2.704550711073824
 20
7.582524908022265
 10
2.702189364322002
 20
7.588730089928618
 10
2.698571653457846
 20
7.593835418409004
 10
2.694133853248801
 20
7.597225122544991
 10
2.689411287385522
 20
7.598490350132931
 10
2.684973487176477
 20
7.5974785174409
 10
2.681355776312321
 20
7.594311638406445
 10
2.678994429560499
 20
7.589371718284296
 10
2.67817434021561
 20
7.58325455711188
  0
LINE
  5
2E9
330
1F
100
AcDbEntity
  8
0
  6
Continuous
 62
     7
370
    15
100
AcDbLine
 10
2.807357494270259
 20
7.326256407674158
 30
0.0
 11
2.813014355694978
 21
7.327771943368718
 31
0.0
  0
LINE
  5
2EA
330
1F
100
AcDbEntity
  8
0
  6
Continuous
 62
     7
370
    15
100
AcDbLine
 10
2.752875959540677
 20
7.51689405757471
 30
0.0
 11
2.813014355694978
 21
7.327771943368718
 31
0.0
  0
LINE
  5
2EB
330
1F
100
AcDbEntity
  8
0
  6
Continuous
 62
     7
370
    15
100
AcDbLine
 10
2.752964573864052
 20
7.516870312835514
 30
0.0
 11
2.758621435288771
 21
7.518385848530074
 31
0.0
  0
LINE
  5
2EC
330
1F
100
AcDbEntity
  8
0
  6
Continuous
 62
     7
370
    15
100
AcDbLine
 10
2.691772634137344
 20
7.709305783023173
 30
0.0
 11
2.697429495562063
 21
7.710821318717731
 31
0.0
  0
LINE
  5
2ED
330
1F
100
AcDbEntity
  8
0
  6
Continuous
 62
     7
370
    15
100
AcDbLine
 10
2.697429495562063
 20
7.710821318717731
 30
0.0
 11
2.758621435288771
 21
7.518385848530074
 31
0.0
  0
LINE
  5
2EE
330
1F
100
AcDbEntity
  8
0
  6
Continuous
 62
     7
370
    15
100
AcDbLine
 10
2.662379770444043
 20
7.865891096499026
 30
0.0
 11
2.662379770444043
 21
7.763988405932803
 31
0.0
  0
LINE
  5
2EF
330
1F
100
AcDbEntity
  8
0
  6
Continuous
 62
     7
370
    15
100
AcDbLine
 10
2.648781556297537
 20
7.86224798464353
 30
0.0
 11
2.662379770444043
 21
7.865891096499026
 31
0.0
  0
LINE
  5
2F0
330
1F
100
AcDbEntity
  8
0
  6
Continuous
 62
     7
370
    15
100
AcDbLine
 10
2.648781556297537
 20
8.075317306024695
 30
0.0
 11
2.648781556297537
 21
7.86224798464353
 31
0.0
  0
LINE
  5
2F1
330
1F
100
AcDbEntity
  8
0
  6
Continuous
 62
     7
370
    15
100
AcDbLine
 10
2.818759145376111
 20
8.120856180708463
 30
0.0
 11
2.648781556297537
 21
8.075317306024695
 31
0.0
  0
LINE
  5
2F2
330
1F
100
AcDbEntity
  8
0
  6
Continuous
 62
     7
370
    15
100
AcDbLine
 10
2.818759145376111
 20
7.907786859327297
 30
0.0
 11
2.818759145376111
 21
8.120856180708463
 31
0.0
  0
LINE
  5
2F3
330
1F
100
AcDbEntity
  8
0
  6
Continuous
 62
     7
370
    15
100
AcDbLine
 10
2.811960046280381
 20
7.905965305536815
 30
0.0
 11
2.818759145376111
 21
7.907786859327297
 31
0.0
  0
LINE
  5
2F4
330
1F
100
AcDbEntity
  8
0
  6
Continuous
 62
     7
370
    15
100
AcDbLine
 10
2.764402929552355
 20
7.75426603767725
 30
0.0
 11
2.811960046280381
 21
7.905965305536815
 31
0.0
  0
LINE
  5
2F5
330
1F
100
AcDbEntity
  8
0
  6
Continuous
 62
     7
370
    15
100
AcDbLine
 10
2.771202036625608
 20
7.756087593604997
 30
0.0
 11
2.764402929552355
 21
7.75426603767725
 31
0.0
  0
LINE
  5
2F6
330
1F
100
AcDbEntity
  8
0
  6
Continuous
 62
     7
370
    15
100
AcDbLine
 10
2.727432224919159
 20
7.616469132633522
 30
0.0
 11
2.771202036625608
 21
7.756087593604997
 31
0.0
  0
ARC
  5
2F7
330
1F
100
AcDbEntity
  8
0
  6
Continuous
 62
     7
370
    15
100
AcDbCircle
 10
2.607765936299833
 20
7.764096097543209
 30
0.0
 40
0.0546139403212607
100
AcDbArc
 50
325.0957708945208
 51
359.8870200771539
  0
LINE
  5
2F8
330
1F
100
AcDbEntity
  8
0
  6
Continuous
 62
     7
370
    15
100
AcDbLine
 10
2.813102252041301
 20
8.122371724952087
 30
0.0
 11
2.643124662962727
 21
8.076832850268321
 31
0.0
  0
LINE
  5
2F9
330
1F
100
AcDbEntity
  8
0
  6
Continuous
 62
     7
370
    15
100
AcDbLine
 10
2.818759145376111
 20
8.120856180708463
 30
0.0
 11
2.813102252041301
 21
8.122371724952087
 31
0.0
  0
LINE
  5
2FA
330
1F
100
AcDbEntity
  8
0
  6
Continuous
 62
     7
370
    15
100
AcDbLine
 10
2.643124662962727
 20
8.076832850268321
 30
0.0
 11
2.648781556297537
 21
8.075317306024695
 31
0.0
  0
LINE
  5
2FB
330
1F
100
AcDbEntity
  8
0
  6
Continuous
 62
     7
370
    15
100
AcDbLine
 10
2.643124662962727
 20
7.863763528887155
 30
0.0
 11
2.648781556297537
 21
7.86224798464353
 31
0.0
  0
LINE
  5
2FC
330
1F
100
AcDbEntity
  8
0
  6
Continuous
 62
     7
370
    15
100
AcDbLine
 10
2.643124662962727
 20
8.076832850268321
 30
0.0
 11
2.643124662962727
 21
7.863763528887155
 31
0.0
  0
LINE
  5
2FD
330
1F
100
AcDbEntity
  8
0
  6
Continuous
 62
     7
370
    15
100
AcDbLine
 10
2.814156449770578
 20
7.139212673971603
 30
0.0
 11
2.819813311195298
 21
7.140728209666161
 31
0.0
  0
LINE
  5
2FE
330
1F
100
AcDbEntity
  8
0
  6
Continuous
 62
     7
370
    15
100
AcDbLine
 10
2.814156449770578
 20
7.324490305040547
 30
0.0
 11
2.819813311195298
 21
7.326005840735107
 31
0.0
  0
LINE
  5
2FF
330
1F
100
AcDbEntity
  8
0
  6
Continuous
 62
     7
370
    15
100
AcDbLine
 10
2.819813311195298
 20
7.326005840735107
 30
0.0
 11
2.819813311195298
 21
7.140728209666161
 31
0.0
  0
LINE
  5
300
330
1F
100
AcDbEntity
  8
0
  6
Continuous
 62
     7
370
    15
100
AcDbLine
 10
2.813014355694978
 20
7.327771943368718
 30
0.0
 11
2.819813311195298
 21
7.326005840735107
 31
0.0
  0
LINE
  5
301
330
1F
100
AcDbEntity
  8
0
  6
Continuous
 62
     7
370
    15
100
AcDbLine
 10
2.657777026973374
 20
7.71841358189731
 30
0.0
 11
2.663433888398093
 21
7.71992911759187
 31
0.0
  0
LINE
  5
302
330
1F
100
AcDbEntity
  8
0
  6
Continuous
 62
     7
370
    15
100
AcDbLine
 10
2.663433888398093
 20
7.71992911759187
 30
0.0
 11
2.697429495562063
 21
7.710821318717731
 31
0.0
  0
ARC
  5
303
330
1F
100
AcDbEntity
  8
0
  6
Continuous
 62
     7
370
    15
100
AcDbCircle
 10
2.705226799370963
 20
7.583215979082076
 30
0.0
 40
0.0217338415756686
100
AcDbArc
 50
135.4055186803534
 51
254.5903119232738
  0
LINE
  5
304
330
1F
100
AcDbEntity
  8
0
  6
Continuous
 62
     7
370
    15
100
AcDbLine
 10
2.656722877109233
 20
7.765503950176429
 30
0.0
 11
2.662379770444043
 21
7.763988405932803
 31
0.0
  0
LINE
  5
305
330
1F
100
AcDbEntity
  8
0
  6
Continuous
 62
     7
370
    15
100
AcDbLine
 10
2.656722877109233
 20
7.864375573336142
 30
0.0
 11
2.656722877109233
 21
7.765503950176429
 31
0.0
  0
LINE
  5
306
330
1F
100
AcDbEntity
  8
0
  6
Continuous
 62
     7
370
    15
100
AcDbLine
 10
2.646898493948278
 20
7.724421606387231
 30
0.0
 11
2.652555355372997
 21
7.725937142081791
 31
0.0
  0
ARC
  5
307
330
1F
100
AcDbEntity
  8
0
  6
Continuous
 62
     7
370
    15
100
AcDbCircle
 10
2.671164238754389
 20
7.746778923454336
 30
0.0
 40
0.0279404794426155
100
AcDbArc
 50
228.2394708290445
 51
253.938316415336
  0
LINE
  5
308
330
1F
100
AcDbEntity
  8
0
  6
Continuous
 62
     7
370
    15
100
AcDbLine
 10
2.746165490723368
 20
6.981442175372182
 30
0.0
 11
2.751822352148087
 21
6.982957711066743
 31
0.0
  0
LINE
  5
309
330
1F
100
AcDbEntity
  8
0
  6
Continuous
 62
     7
370
    15
100
AcDbLine
 10
2.751822352148087
 20
6.982957711066743
 30
0.0
 11
2.811947728985162
 21
7.139822418547017
 31
0.0
  0
SPLINE
  5
30A
330
1F
100
AcDbEntity
  8
0
  6
Continuous
 62
     7
370
    15
100
AcDbSpline
210
0.0
220
0.0
230
1.0
 70
     8
 71
     3
 72
    11
 73
     7
 74
     0
 42
0.0000000001
 43
0.0000000001
 40
0.0
 40
0.0
 40
0.0
 40
0.0
 40
0.2500012156283046
 40
0.5000036338548558
 40
0.7499972204728673
 40
1.0
 40
1.0
 40
1.0
 40
1.0
 10
2.652555355372997
 20
7.732845650882357
 30
0.0
 10
2.65223986184394
 20
7.732284946776241
 30
0.0
 10
2.651608873268185
 20
7.731163535866813
 30
0.0
 10
2.651338894691108
 20
7.729391418205198
 30
0.0
 10
2.651608838566883
 20
7.72761921477605
 30
0.0
 10
2.652239845903736
 20
7.726497839852393
 30
0.0
 10
2.652555355372997
 20
7.725937142081791
 30
0.0
  0
SPLINE
  5
30B
330
1F
100
AcDbEntity
  8
0
  6
Continuous
 62
     7
370
    15
100
AcDbSpline
210
0.0
220
0.0
230
1.0
 70
     8
 71
     3
 72
    11
 73
     7
 74
     0
 42
0.0000000001
 43
0.0000000001
 40
0.0
 40
0.0
 40
0.0
 40
0.0
 40
0.2500012245487081
 40
0.5000020538662488
 40
0.7499985518445068
 40
1.0
 40
1.0
 40
1.0
 40
1.0
 10
2.646898462038187
 20
7.734361195125983
 30
0.0
 10
2.645926769108984
 20
7.733579114389076
 30
0.0
 10
2.643983384786745
 20
7.732014954151667
 30
0.0
 10
2.643151665314135
 20
7.72939140807302
 30
0.0
 10
2.64398332252099
 20
7.726767805633589
 30
0.0
 10
2.645926763725571
 20
7.725203677964511
 30
0.0
 10
2.646898493948278
 20
7.724421606387231
 30
0.0
  0
LINE
  5
30C
330
1F
100
AcDbEntity
  8
0
  6
Continuous
 62
     7
370
    15
100
AcDbLine
 10
2.646898462038187
 20
7.734361195125983
 30
0.0
 11
2.652555355372997
 21
7.732845650882357
 31
0.0
  0
SPLINE
  5
30D
330
1F
100
AcDbEntity
  8
0
  6
Continuous
 62
     7
370
    15
100
AcDbSpline
210
0.0
220
0.0
230
1.0
 70
     8
 71
     3
 72
     9
 73
     5
 74
     0
 42
0.0000000001
 43
0.0000000001
 40
0.0
 40
0.0
 40
0.0
 40
0.0
 40
0.5000053442700345
 40
1.0
 40
1.0
 40
1.0
 40
1.0
 10
2.646898493948278
 20
7.491583782075704
 30
0.0
 10
2.645903661077117
 20
7.49232066076672
 30
0.0
 10
2.643914016601188
 20
7.493794402396606
 30
0.0
 10
2.643590600229857
 20
7.495453050337671
 30
0.0
 10
2.643428893772616
 20
7.49628236544394
 30
0.0
  0
ARC
  5
30E
330
1F
100
AcDbEntity
  8
0
  6
Continuous
 62
     7
370
    15
100
AcDbCircle
 10
2.602109042965029
 20
7.765611641786833
 30
0.0
 40
0.0546139403212545
100
AcDbArc
 50
325.0957708945187
 51
359.8870200771567
  0
LINE
  5
30F
330
1F
100
AcDbEntity
  8
0
  6
Continuous
 62
     7
370
    15
100
AcDbLine
 10
2.644178860692004
 20
7.370029179724314
 30
0.0
 11
2.649835722116724
 21
7.371544715418872
 31
0.0
  0
LINE
  5
310
330
1F
100
AcDbEntity
  8
0
  6
Continuous
 62
     7
370
    15
100
AcDbLine
 10
2.649835722116724
 20
7.371544715418872
 30
0.0
 11
2.657409518452553
 21
7.369515611675918
 31
0.0
  0
LINE
  5
311
330
1F
100
AcDbEntity
  8
0
  6
Continuous
 62
     7
370
    15
100
AcDbLine
 10
2.752964573864052
 20
6.979620625856234
 30
0.0
 11
2.758621435288771
 21
6.981136161550794
 31
0.0
  0
LINE
  5
312
330
1F
100
AcDbEntity
  8
0
  6
Continuous
 62
     7
370
    15
100
AcDbLine
 10
2.691772634137344
 20
6.819973171283431
 30
0.0
 11
2.697429495562063
 21
6.821488706977989
 31
0.0
  0
LINE
  5
313
330
1F
100
AcDbEntity
  8
0
  6
Continuous
 62
     7
370
    15
100
AcDbLine
 10
2.697429495562063
 20
6.821488706977989
 30
0.0
 11
2.758621435288771
 21
6.981136161550794
 31
0.0
  0
LINE
  5
314
330
1F
100
AcDbEntity
  8
0
  6
Continuous
 62
     7
370
    15
100
AcDbLine
 10
2.758621435288771
 20
6.981136161550794
 30
0.0
 11
2.751822352148087
 21
6.982957711066743
 31
0.0
  0
LINE
  5
315
330
1F
100
AcDbEntity
  8
0
  6
Continuous
 62
     7
370
    15
100
AcDbLine
 10
2.765545143290798
 20
7.757603137848622
 30
0.0
 11
2.771202036625608
 21
7.756087593604997
 31
0.0
  0
LINE
  5
316
330
1F
100
AcDbEntity
  8
0
  6
Continuous
 62
     7
370
    15
100
AcDbLine
 10
2.765545143290798
 20
7.757603137848622
 30
0.0
 11
2.765440246843366
 21
7.757575034931055
 31
0.0
  0
ARC
  5
317
330
1F
100
AcDbEntity
  8
0
  6
Continuous
 62
     7
370
    15
100
AcDbCircle
 10
2.705226783887825
 20
6.95327205973416
 30
0.0
 40
0.0217338334625379
100
AcDbArc
 50
135.4054822360662
 51
254.5903483675616
  0
SPLINE
  5
318
330
1F
100
AcDbEntity
  8
0
  6
Continuous
 62
     7
370
    15
100
AcDbSpline
210
0.0
220
0.0
230
1.0
 70
     8
 71
     3
 72
    25
 73
    21
 74
     0
 42
0.0000000001
 43
0.0000000001
 40
0.0
 40
0.0
 40
0.0
 40
0.0
 40
0.0640215992345328
 40
0.0986257061056997
 40
0.1159239455373133
 40
0.1245644901671932
 40
0.1288946164009852
 40
0.1310568206443582
 40
0.132131108214956
 40
0.1326668181154379
 40
0.1329353900080873
 40
0.1330766165316038
 40
0.1331474476921855
 40
0.1331761784309887
 40
0.1331970151311797
 40
0.1332043364013492
 40
0.1332234279381884
 40
0.4225924191028148
 40
0.6753903137654091
 40
1.0
 40
1.0
 40
1.0
 40
1.0
 10
2.643430186131312
 20
7.061166806595308
 30
0.0
 10
2.643432482148507
 20
7.061152715227764
 30
0.0
 10
2.643436019178505
 20
7.06113100738087
 30
0.0
 10
2.643461195544081
 20
7.06110430888391
 30
0.0
 10
2.643477898244942
 20
7.061090216460486
 30
0.0
 10
2.643487081522259
 20
7.061083158594578
 30
0.0
 10
2.643492052513637
 20
7.061079580963787
 30
0.0
 10
2.643494656052489
 20
7.06107777796218
 30
0.0
 10
2.643495821304365
 20
7.061076923357425
 30
0.0
 10
2.643496435726952
 20
7.061076494142316
 30
0.0
 10
2.643496755868162
 20
7.061076286779625
 30
0.0
 10
2.643496873565254
 20
7.061076163889294
 30
0.0
 10
2.643497145398415
 20
7.061076068086427
 30
0.0
 10
2.64349698685566
 20
7.061076096842413
 30
0.0
 10
2.643497175894
 20
7.061076032688665
 30
0.0
 10
2.643497016483178
 20
7.061076068173231
 30
0.0
 10
2.6444442071258
 20
7.060722525277861
 30
0.0
 10
2.643640894924422
 20
7.061251529445309
 30
0.0
 10
2.645189074227638
 20
7.061307433604837
 30
0.0
 10
2.646283323685602
 20
7.061584144224678
 30
0.0
 10
2.646898493948278
 20
7.061739706691219
 30
0.0
  0
SPLINE
  5
319
330
1F
100
AcDbEntity
  8
0
  6
Continuous
 62
     7
370
    15
100
AcDbSpline
210
0.0
220
0.0
230
1.0
 70
     8
 71
     3
 72
    12
 73
     8
 74
     0
 42
0.0000000001
 43
0.0000000001
 40
0.0
 40
0.0
 40
0.0
 40
0.0
 40
0.2859360427465157
 40
0.5707615365199667
 40
0.8545172834446056
 40
0.9962207713728988
 40
1.0
 40
1.0
 40
1.0
 40
1.0
 10
2.646898493948278
 20
6.828901860640701
 30
0.0
 10
2.646315432839926
 20
6.828839806365617
 30
0.0
 10
2.645151575178292
 20
6.828715938828476
 30
0.0
 10
2.644009863365047
 20
6.82869478049278
 30
0.0
 10
2.643518250465718
 20
6.828746006381275
 30
0.0
 10
2.643417977091448
 20
6.82879932922532
 30
0.0
 10
2.643429426024167
 20
6.828819807789306
 30
0.0
 10
2.643429723434989
 20
6.828820339764354
 30
0.0
  0
SPLINE
  5
31A
330
1F
100
AcDbEntity
  8
0
  6
Continuous
 62
     7
370
    15
100
AcDbSpline
210
0.0
220
0.0
230
1.0
 70
     8
 71
     3
 72
     9
 73
     5
 74
     0
 42
0.0000000001
 43
0.0000000001
 40
0.0
 40
0.0
 40
0.0
 40
0.0
 40
0.4240715125314689
 40
1.0
 40
1.0
 40
1.0
 40
1.0
 10
2.644117002980134
 20
6.828709086127076
 30
0.0
 10
2.644397850947242
 20
6.82862572960637
 30
0.0
 10
2.645060116529363
 20
6.828429167191205
 30
0.0
 10
2.646226632347462
 20
6.82811810440296
 30
0.0
 10
2.646898462038187
 20
6.827938954481818
 30
0.0
  0
SPLINE
  5
31B
330
1F
100
AcDbEntity
  8
0
  6
Continuous
 62
     7
370
    15
100
AcDbSpline
210
0.0
220
0.0
230
1.0
 70
     8
 71
     3
 72
    24
 73
    20
 74
     0
 42
0.0000000001
 43
0.0000000001
 40
0.0
 40
0.0
 40
0.0
 40
0.0
 40
0.0562097939109936
 40
0.0857722575369174
 40
0.1005130805369126
 40
0.1078731138575021
 40
0.1115608852435118
 40
0.1134157410118079
 40
0.1143195007549059
 40
0.1147846545574328
 40
0.1150172314586962
 40
0.1151413409785937
 40
0.1151882105981771
 40
0.1152380207175164
 40
0.1152523996604209
 40
0.1152667786033253
 40
0.2120485589434034
 40
0.3918119391495434
 40
1.0
 40
1.0
 40
1.0
 40
1.0
 10
2.65142916847788
 20
6.828820331215288
 30
0.0
 10
2.65143002015129
 20
6.828791998088199
 30
0.0
 10
2.651431319746004
 20
6.828748763696032
 30
0.0
 10
2.651439671723575
 20
6.828699215989471
 30
0.0
 10
2.651445239378177
 20
6.82867385172363
 30
0.0
 10
2.651448264865113
 20
6.828661331524894
 30
0.0
 10
2.651450119108838
 20
6.828654877922066
 30
0.0
 10
2.651450558715551
 20
6.828651910139907
 30
0.0
 10
2.651451326170868
 20
6.828650220964282
 30
0.0
 10
2.65145130906747
 20
6.828649533315617
 30
0.0
 10
2.651451658435882
 20
6.828649012961653
 30
0.0
 10
2.651451342881982
 20
6.828648989790439
 30
0.0
 10
2.651451677806572
 20
6.828648765384955
 30
0.0
 10
2.651451493999727
 20
6.828648799523527
 30
0.0
 10
2.651451571488376
 20
6.828648726869865
 30
0.0
 10
2.65151841819614
 20
6.828572562475644
 30
0.0
 10
2.651463000883141
 20
6.828414419793501
 30
0.0
 10
2.651787642334433
 20
6.827662082202808
 30
0.0
 10
2.652220923245279
 20
6.826963002090698
 30
0.0
 10
2.652555355372997
 20
6.826423410238192
 30
0.0
  0
LINE
  5
31C
330
1F
100
AcDbEntity
  8
0
  6
Continuous
 62
     7
370
    15
100
AcDbLine
 10
2.743232394911739
 20
6.940986774268218
 30
0.0
 11
2.771202036625608
 21
6.866754981865255
 31
0.0
  0
LINE
  5
31D
330
1F
100
AcDbEntity
  8
0
  6
Continuous
 62
     7
370
    15
100
AcDbLine
 10
2.771202036625608
 20
6.866754981865255
 30
0.0
 11
2.764402929552355
 21
6.864933425937507
 31
0.0
  0
LINE
  5
31E
330
1F
100
AcDbEntity
  8
0
  6
Continuous
 62
     7
370
    15
100
AcDbLine
 10
2.764402929552355
 20
6.864933425937507
 30
0.0
 11
2.811960046280381
 21
6.738716268932645
 31
0.0
  0
LINE
  5
31F
330
1F
100
AcDbEntity
  8
0
  6
Continuous
 62
     7
370
    15
100
AcDbLine
 10
2.811960046280381
 20
6.738716268932645
 30
0.0
 11
2.818759145376111
 21
6.740537822723126
 31
0.0
  0
LINE
  5
320
330
1F
100
AcDbEntity
  8
0
  6
Continuous
 62
     7
370
    15
100
AcDbLine
 10
2.818759145376111
 20
6.740537822723126
 30
0.0
 11
2.818759145376111
 21
6.52746854481994
 31
0.0
  0
LINE
  5
321
330
1F
100
AcDbEntity
  8
0
  6
Continuous
 62
     7
370
    15
100
AcDbLine
 10
2.818759145376111
 20
6.52746854481994
 30
0.0
 11
2.648781556297537
 21
6.481929670136175
 31
0.0
  0
LINE
  5
322
330
1F
100
AcDbEntity
  8
0
  6
Continuous
 62
     7
370
    15
100
AcDbLine
 10
2.648781556297537
 20
6.481929670136175
 30
0.0
 11
2.648781556297537
 21
6.694998948039361
 31
0.0
  0
LINE
  5
323
330
1F
100
AcDbEntity
  8
0
  6
Continuous
 62
     7
370
    15
100
AcDbLine
 10
2.648781556297537
 20
6.694998948039361
 30
0.0
 11
2.662379770444043
 21
6.698642059894856
 31
0.0
  0
LINE
  5
324
330
1F
100
AcDbEntity
  8
0
  6
Continuous
 62
     7
370
    15
100
AcDbLine
 10
2.662379770444043
 20
6.698642059894856
 30
0.0
 11
2.662379770444043
 21
6.800544750461079
 31
0.0
  0
ARC
  5
325
330
1F
100
AcDbEntity
  8
0
  6
Continuous
 62
     7
370
    15
100
AcDbCircle
 10
2.62851816170254
 20
6.802493907908119
 30
0.0
 40
0.0339176614953926
100
AcDbArc
 50
356.7055495125393
 51
44.87136389534148
  0
LINE
  5
326
330
1F
100
AcDbEntity
  8
0
  6
Continuous
 62
     7
370
    15
100
AcDbLine
 10
2.646898493948278
 20
6.828901860640701
 30
0.0
 11
2.64912096798302
 21
6.829497285997095
 31
0.0
  0
LINE
  5
327
330
1F
100
AcDbEntity
  8
0
  6
Continuous
 62
     7
370
    15
100
AcDbLine
 10
2.646898462038187
 20
6.827938954481818
 30
0.0
 11
2.652555355372997
 21
6.826423410238192
 31
0.0
  0
LINE
  5
328
330
1F
100
AcDbEntity
  8
0
  6
Continuous
 62
     7
370
    15
100
AcDbLine
 10
2.656722877109233
 20
6.802060294704705
 30
0.0
 11
2.662379770444043
 21
6.800544750461079
 31
0.0
  0
ARC
  5
329
330
1F
100
AcDbEntity
  8
0
  6
Continuous
 62
     7
370
    15
100
AcDbCircle
 10
2.622861268367729
 20
6.804009452151746
 30
0.0
 40
0.0339176614953923
100
AcDbArc
 50
356.7055495125363
 51
44.87136389533829
  0
LINE
  5
32A
330
1F
100
AcDbEntity
  8
0
  6
Continuous
 62
     7
370
    15
100
AcDbLine
 10
2.656722877109233
 20
6.700157604138482
 30
0.0
 11
2.662379770444043
 21
6.698642059894856
 31
0.0
  0
LINE
  5
32B
330
1F
100
AcDbEntity
  8
0
  6
Continuous
 62
     7
370
    15
100
AcDbLine
 10
2.656722877109233
 20
6.700157604138482
 30
0.0
 11
2.656722877109233
 21
6.802060294704705
 31
0.0
  0
LINE
  5
32C
330
1F
100
AcDbEntity
  8
0
  6
Continuous
 62
     7
370
    15
100
AcDbLine
 10
2.643124662962727
 20
6.696514492282986
 30
0.0
 11
2.648781556297537
 21
6.694998948039361
 31
0.0
  0
LINE
  5
32D
330
1F
100
AcDbEntity
  8
0
  6
Continuous
 62
     7
370
    15
100
AcDbLine
 10
2.643124662962727
 20
6.696514492282986
 30
0.0
 11
2.656722877109233
 21
6.700157604138482
 31
0.0
  0
LINE
  5
32E
330
1F
100
AcDbEntity
  8
0
  6
Continuous
 62
     7
370
    15
100
AcDbLine
 10
2.643124662962727
 20
6.4834452143798
 30
0.0
 11
2.648781556297537
 21
6.481929670136175
 31
0.0
  0
LINE
  5
32F
330
1F
100
AcDbEntity
  8
0
  6
Continuous
 62
     7
370
    15
100
AcDbLine
 10
2.643124662962727
 20
6.4834452143798
 30
0.0
 11
2.643124662962727
 21
6.696514492282986
 31
0.0
  0
LINE
  5
330
330
1F
100
AcDbEntity
  8
0
  6
Continuous
 62
     7
370
    15
100
AcDbLine
 10
2.813102252041301
 20
6.742053366966752
 30
0.0
 11
2.818759145376111
 21
6.740537822723126
 31
0.0
  0
LINE
  5
331
330
1F
100
AcDbEntity
  8
0
  6
Continuous
 62
     7
370
    15
100
AcDbLine
 10
2.810922649214142
 20
6.741469427280676
 30
0.0
 11
2.813102252041301
 21
6.742053366966752
 31
0.0
  0
LINE
  5
332
330
1F
100
AcDbEntity
  8
0
  6
Continuous
 62
     7
370
    15
100
AcDbLine
 10
1.308876458128854
 20
7.85813092536958
 30
0.0
 11
1.345958026396543
 21
7.848196363410124
 31
0.0
  0
LWPOLYLINE
  5
333
330
1F
100
AcDbEntity
  8
0
  6
Continuous
 62
     7
370
    15
100
AcDbPolyline
 90
        9
 70
   128
 43
0.0
 10
1.345958026396543
 20
7.848196363410124
 10
1.349860758195662
 20
7.848208532475851
 10
1.353169451736242
 20
7.850334338350068
 10
1.355380438138137
 20
7.854250113754546
 10
1.356156746837844
 20
7.859359836906125
 10
1.355380438138137
 20
7.864885523418327
 10
1.353169451736242
 20
7.869985994207992
 10
1.349860758195662
 20
7.87388467121573
 10
1.345958026396543
 20
7.875988010244366
  0
LINE
  5
334
330
1F
100
AcDbEntity
  8
0
  6
Continuous
 62
     7
370
    15
100
AcDbLine
 10
1.345958026396543
 20
7.875988010244366
 30
0.0
 11
1.343646204106328
 21
7.876607372985866
 31
0.0
  0
LINE
  5
335
330
1F
100
AcDbEntity
  8
0
  6
Continuous
 62
     7
370
    15
100
AcDbLine
 10
1.343646204106328
 20
7.876607372985866
 30
0.0
 11
1.343646204106328
 21
8.16580018164074
 31
0.0
  0
LINE
  5
336
330
1F
100
AcDbEntity
  8
0
  6
Continuous
 62
     7
370
    15
100
AcDbLine
 10
1.343646204106328
 20
8.16580018164074
 30
0.0
 11
1.536512582531039
 21
7.851346124854281
 31
0.0
  0
LINE
  5
337
330
1F
100
AcDbEntity
  8
0
  6
Continuous
 62
     7
370
    15
100
AcDbLine
 10
1.536512582531039
 20
7.79894170198682
 30
0.0
 11
1.536512582531039
 21
7.851346124854281
 31
0.0
  0
LINE
  5
338
330
1F
100
AcDbEntity
  8
0
  6
Continuous
 62
     7
370
    15
100
AcDbLine
 10
1.536512582531039
 20
7.79894170198682
 30
0.0
 11
1.267281781836792
 21
7.504240627184451
 31
0.0
  0
LINE
  5
339
330
1F
100
AcDbEntity
  8
0
  6
Continuous
 62
     7
370
    15
100
AcDbLine
 10
1.22882016594312
 20
7.514544919155009
 30
0.0
 11
1.267281781836792
 21
7.504240627184451
 31
0.0
  0
LINE
  5
33A
330
1F
100
AcDbEntity
  8
0
  6
Continuous
 62
     7
370
    15
100
AcDbLine
 10
1.22882016594312
 20
7.514544919155009
 30
0.0
 11
1.110855451205463
 21
7.706877514126483
 31
0.0
  0
LWPOLYLINE
  5
33B
330
1F
100
AcDbEntity
  8
0
  6
Continuous
 62
     7
370
    15
100
AcDbPolyline
 90
        9
 70
   128
 43
0.0
 10
1.508021721386843
 20
7.820155696186295
 10
1.510948004393993
 20
7.816709121105527
 10
1.514399399862601
 20
7.81485032970533
 10
1.51785028476975
 20
7.814862358676685
 10
1.52077554665398
 20
7.81674328367564
 10
1.522729720641569
 20
7.82020682184655
 10
1.523415404682151
 20
7.824725632661618
 10
1.522727933676459
 20
7.829611826892732
 10
1.520772228004491
 20
7.834121495479522
  0
LINE
  5
33C
330
1F
100
AcDbEntity
  8
0
  6
Continuous
 62
     7
370
    15
100
AcDbLine
 10
1.520772228004491
 20
7.834121495479522
 30
0.0
 11
1.371695429587751
 21
8.077075529671354
 31
0.0
  0
SPLINE
  5
33D
330
1F
100
AcDbEntity
  8
0
  6
Continuous
 62
     7
370
    15
100
AcDbSpline
210
0.0
220
0.0
230
1.0
 70
     8
 71
     3
 72
    15
 73
    11
 74
     0
 42
0.0000000001
 43
0.0000000001
 40
0.0
 40
0.0
 40
0.0
 40
0.0
 40
0.1249977351712591
 40
0.249993581886974
 40
0.375001799085721
 40
0.4999989746539353
 40
0.6249976482749388
 40
0.7499999307095289
 40
0.8750012590892366
 40
1.0
 40
1.0
 40
1.0
 40
1.0
 10
1.371709214747166
 20
8.077090792874269
 30
0.0
 10
1.3707775662071
 20
8.078347757147126
 30
0.0
 10
1.368914283202238
 20
8.080861666702729
 30
0.0
 10
1.36531285660874
 20
8.082709112370968
 30
0.0
 10
1.361782982906768
 20
8.082713191641714
 30
0.0
 10
1.358775334468222
 20
8.080777807866649
 30
0.0
 10
1.356765304201658
 20
8.077216914249744
 30
0.0
 10
1.356075680042099
 20
8.072591745902244
 30
0.0
 10
1.35672559408912
 20
8.067511121393236
 30
0.0
 10
1.358205151780854
 20
8.064576879578806
 30
0.0
 10
1.358944922970103
 20
8.063109773856107
 30
0.0
  0
LINE
  5
33E
330
1F
100
AcDbEntity
  8
0
  6
Continuous
 62
     7
370
    15
100
AcDbLine
 10
1.358944922970103
 20
8.063109773856107
 30
0.0
 11
1.508021721386843
 21
7.820155696186295
 31
0.0
  0
LWPOLYLINE
  5
33F
330
1F
100
AcDbEntity
  8
0
  6
Continuous
 62
     7
370
    15
100
AcDbPolyline
 90
       22
 70
   128
 43
0.0
 10
1.231026046730416
 20
7.731054843386597
 10
1.231782443533189
 20
7.737689559832076
 10
1.233984239828807
 20
7.74332950908885
 10
1.237436145858875
 20
7.747473466098766
 10
1.241831058905292
 20
7.749753313239915
 10
1.246778654732002
 20
7.74996643988763
 10
1.251839339922067
 20
7.748093901467137
 10
1.256563309829361
 20
7.744302112926914
 10
1.260531138214611
 20
7.738927909135431
 10
1.26338977182833
 20
7.732448939706808
 10
1.2648857169057
 20
7.725440761887107
 10
1.2648857169057
 20
7.718526167898435
 10
1.26338977182833
 20
7.712319547799787
 10
1.260531138214611
 20
7.707372300165242
 10
1.256563309829361
 20
7.704124146526394
 10
1.251839339922067
 20
7.702863565479869
 10
1.246778654732002
 20
7.703702651326874
 10
1.241831058905292
 20
7.706566809178877
 10
1.237436145858875
 20
7.711201550591654
 10
1.233984239828807
 20
7.717195112435114
 10
1.231782443533189
 20
7.724014832814997
 10
1.231026046730416
 20
7.731054843386597
  0
LWPOLYLINE
  5
340
330
1F
100
AcDbEntity
  8
0
  6
Continuous
 62
     7
370
    15
100
AcDbPolyline
 90
       17
 70
   128
 43
0.0
 10
1.439663668649998
 20
7.916596330960124
 10
1.438984621908393
 20
7.92142948595663
 10
1.437050870379198
 20
7.925890664365103
 10
1.43415700802475
 20
7.92930066247025
 10
1.43074313882344
 20
7.931140465443721
 10
1.427329524902861
 20
7.931129820655036
 10
1.424435407267682
 20
7.929270486357092
 10
1.422501911019217
 20
7.92584538636856
 10
1.421822864277613
 20
7.921376079625674
 10
1.422501911019217
 20
7.916542946368157
 10
1.424435407267682
 20
7.912081836352213
 10
1.427329524902861
 20
7.908671769854537
 10
1.43074313882344
 20
7.906832035273595
 10
1.43415700802475
 20
7.906842611669751
 10
1.437050870379198
 20
7.908702014360224
 10
1.438984621908393
 20
7.912127045956228
 10
1.439663668649998
 20
7.916596330960124
  0
LWPOLYLINE
  5
341
330
1F
100
AcDbEntity
  8
0
  6
Continuous
 62
     7
370
    15
100
AcDbPolyline
 90
        9
 70
   128
 43
0.0
 10
1.480137662537683
 20
7.776531060236427
 10
1.483064200825562
 20
7.773084764586974
 10
1.486515596294171
 20
7.771226397097087
 10
1.489966481201319
 20
7.771238839109256
 10
1.492891487804819
 20
7.773120202063574
 10
1.494845406511678
 20
7.77658403688641
 10
1.495530835271531
 20
7.781102992180471
 10
1.494843108985109
 20
7.78598917871765
 10
1.49288714803241
 20
7.790498665698581
  0
LINE
  5
342
330
1F
100
AcDbEntity
  8
0
  6
Continuous
 62
     7
370
    15
100
AcDbLine
 10
1.49288714803241
 20
7.790498665698581
 30
0.0
 11
1.382079483838978
 21
7.971057605676787
 31
0.0
  0
SPLINE
  5
343
330
1F
100
AcDbEntity
  8
0
  6
Continuous
 62
     7
370
    15
100
AcDbSpline
210
0.0
220
0.0
230
1.0
 70
     8
 71
     3
 72
    15
 73
    11
 74
     0
 42
0.0000000001
 43
0.0000000001
 40
0.0
 40
0.0
 40
0.0
 40
0.0
 40
0.1249983916673007
 40
0.2499985916623643
 40
0.3749977779961831
 40
0.4999963939999376
 40
0.6249979270487011
 40
0.7499987949340479
 40
0.8750007538332958
 40
1.0
 40
1.0
 40
1.0
 40
1.0
 10
1.369316213184834
 20
7.957074747881214
 30
0.0
 10
1.368576350304528
 20
7.958541795375089
 30
0.0
 10
1.367096613840462
 20
7.961475911586334
 30
0.0
 10
1.366446544694384
 20
7.966556465656589
 30
0.0
 10
1.367135509977474
 20
7.971181932491832
 30
0.0
 10
1.369145357875513
 20
7.974743185311001
 30
0.0
 10
1.372152895521084
 20
7.976678754485434
 30
0.0
 10
1.37568271342776
 20
7.976675278036974
 30
0.0
 10
1.379284236086826
 20
7.974828233269755
 30
0.0
 10
1.381147741328484
 20
7.972314472448938
 30
0.0
 10
1.382079483838978
 20
7.971057605676787
 30
0.0
  0
LINE
  5
344
330
1F
100
AcDbEntity
  8
0
  6
Continuous
 62
     7
370
    15
100
AcDbLine
 10
1.36932999834425
 20
7.957089989345136
 30
0.0
 11
1.480137662537683
 21
7.776531060236427
 31
0.0
  0
LINE
  5
345
330
1F
100
AcDbEntity
  8
0
  6
Continuous
 62
     7
370
    15
100
AcDbLine
 10
1.536512582531039
 20
7.851346124854281
 30
0.0
 11
1.542169443955759
 21
7.85286166054884
 31
0.0
  0
LINE
  5
346
330
1F
100
AcDbEntity
  8
0
  6
Continuous
 62
     7
370
    15
100
AcDbLine
 10
1.349303065531047
 20
8.167315717335299
 30
0.0
 11
1.343646204106328
 21
8.16580018164074
 31
0.0
  0
LINE
  5
347
330
1F
100
AcDbEntity
  8
0
  6
Continuous
 62
     7
370
    15
100
AcDbLine
 10
1.349303065531047
 20
8.167315717335299
 30
0.0
 11
1.542169443955759
 21
7.85286166054884
 31
0.0
  0
LINE
  5
348
330
1F
100
AcDbEntity
  8
0
  6
Continuous
 62
     7
370
    15
100
AcDbLine
 10
1.363349839830125
 20
8.070080776211117
 30
0.0
 11
1.512426638246865
 21
7.827126698541304
 31
0.0
  0
LINE
  5
349
330
1F
100
AcDbEntity
  8
0
  6
Continuous
 62
     7
370
    15
100
AcDbLine
 10
1.363349839830125
 20
8.070080776211117
 30
0.0
 11
1.37170465160412
 21
8.077083189365144
 31
0.0
  0
LINE
  5
34A
330
1F
100
AcDbEntity
  8
0
  6
Continuous
 62
     7
370
    15
100
AcDbLine
 10
1.512426638246865
 20
7.827126698541304
 30
0.0
 11
1.520772228004491
 21
7.834121495479522
 31
0.0
  0
LINE
  5
34B
330
1F
100
AcDbEntity
  8
0
  6
Continuous
 62
     7
370
    15
100
AcDbLine
 10
1.362116993455035
 20
8.068731059697331
 30
0.0
 11
1.511193791871775
 21
7.825777025505499
 31
0.0
  0
ARC
  5
34C
330
1F
100
AcDbEntity
  8
0
  6
Continuous
 62
     7
370
    15
100
AcDbCircle
 10
1.366719053468278
 20
8.065765547053885
 30
0.0
 40
0.0054747805073742
100
AcDbArc
 50
128.0098306984297
 51
147.2027503397326
  0
ARC
  5
34D
330
1F
100
AcDbEntity
  8
0
  6
Continuous
 62
     7
370
    15
100
AcDbCircle
 10
1.36335931823544
 20
8.07006605959028
 30
0.0
 40
0.000017504830653
100
AcDbArc
 50
122.7840160304294
 51
131.575779866536
  0
ARC
  5
34E
330
1F
100
AcDbEntity
  8
0
  6
Continuous
 62
     7
370
    15
100
AcDbCircle
 10
1.515803875795521
 20
7.822803889491278
 30
0.0
 40
0.0054856550696378
100
AcDbArc
 50
127.9990861817579
 51
147.1812149766942
  0
LINE
  5
34F
330
1F
100
AcDbEntity
  8
0
  6
Continuous
 62
     7
370
    15
100
AcDbLine
 10
1.358944922970103
 20
8.063109773856107
 30
0.0
 11
1.362116993455035
 21
8.068731059697331
 31
0.0
  0
ARC
  5
350
330
1F
100
AcDbEntity
  8
0
  6
Continuous
 62
     7
370
    15
100
AcDbCircle
 10
1.51119167991519
 20
7.825777240132925
 30
0.0
 40
0.0000021228343191
100
AcDbArc
 50
312.7817334362362
 51
354.1972423127808
  0
LINE
  5
351
330
1F
100
AcDbEntity
  8
0
  6
Continuous
 62
     7
370
    15
100
AcDbLine
 10
1.508021721386843
 20
7.820155696186295
 30
0.0
 11
1.511193121759859
 21
7.825775682086232
 31
0.0
  0
LINE
  5
352
330
1F
100
AcDbEntity
  8
0
  6
Continuous
 62
     7
370
    15
100
AcDbLine
 10
1.542169443955759
 20
7.80045723768138
 30
0.0
 11
1.536512582531039
 21
7.79894170198682
 31
0.0
  0
LINE
  5
353
330
1F
100
AcDbEntity
  8
0
  6
Continuous
 62
     7
370
    15
100
AcDbLine
 10
1.542169443955759
 20
7.85286166054884
 30
0.0
 11
1.542169443955759
 21
7.80045723768138
 31
0.0
  0
LINE
  5
354
330
1F
100
AcDbEntity
  8
0
  6
Continuous
 62
     7
370
    15
100
AcDbLine
 10
1.267281781836792
 20
7.504240627184451
 30
0.0
 11
1.272938643261511
 21
7.505756162879011
 31
0.0
  0
LINE
  5
355
330
1F
100
AcDbEntity
  8
0
  6
Continuous
 62
     7
370
    15
100
AcDbLine
 10
1.542169443955759
 20
7.80045723768138
 30
0.0
 11
1.272938643261511
 21
7.505756162879011
 31
0.0
  0
LWPOLYLINE
  5
356
330
1F
100
AcDbEntity
  8
0
  6
Continuous
 62
     7
370
    15
100
AcDbPolyline
 90
        9
 70
   128
 43
0.0
 10
1.508035761826989
 20
7.820170869257689
 10
1.510958726184649
 20
7.816728096304486
 10
1.514406292442309
 20
7.814871352524763
 10
1.517853603419239
 20
7.814883295519991
 10
1.52077554665398
 20
7.816762240075113
 10
1.522727678395729
 20
7.820221955849219
 10
1.523412596594122
 20
7.824735841440181
 10
1.522725891430619
 20
7.829616721831007
 10
1.520772228004491
 20
7.834121495479522
  0
LINE
  5
357
330
1F
100
AcDbEntity
  8
0
  6
Continuous
 62
     7
370
    15
100
AcDbLine
 10
1.508035761826989
 20
7.820170869257689
 30
0.0
 11
1.511193121759859
 21
7.825775682086232
 31
0.0
  0
LWPOLYLINE
  5
358
330
1F
100
AcDbEntity
  8
0
  6
Continuous
 62
     7
370
    15
100
AcDbPolyline
 90
        9
 70
   128
 43
0.0
 10
1.511193121759859
 20
7.825775682086232
 10
1.511476228089348
 20
7.82544227121557
 10
1.511810135284092
 20
7.825262444805452
 10
1.512144042478836
 20
7.825263573749932
 10
1.512426893527595
 20
7.825445575773979
 10
1.512616056548471
 20
7.825780611813572
 10
1.512682429538251
 20
7.826217739865428
 10
1.51261580126774
 20
7.826690456946848
 10
1.512426638246865
 20
7.827126698541304
  0
LINE
  5
359
330
1F
100
AcDbEntity
  8
0
  6
Continuous
 62
     7
370
    15
100
AcDbLine
 10
1.373718481507283
 20
7.964045134950648
 30
0.0
 11
1.484526145700715
 21
7.783486205841938
 31
0.0
  0
LINE
  5
35A
330
1F
100
AcDbEntity
  8
0
  6
Continuous
 62
     7
370
    15
100
AcDbLine
 10
1.373718481507283
 20
7.964045134950648
 30
0.0
 11
1.382079483838978
 21
7.971057605676787
 31
0.0
  0
LINE
  5
35B
330
1F
100
AcDbEntity
  8
0
  6
Continuous
 62
     7
370
    15
100
AcDbLine
 10
1.484528028396099
 20
7.783487863256223
 30
0.0
 11
1.49288714803241
 21
7.790498665698581
 31
0.0
  0
LINE
  5
35C
330
1F
100
AcDbEntity
  8
0
  6
Continuous
 62
     7
370
    15
100
AcDbLine
 10
1.484526145700715
 20
7.783486205841938
 30
0.0
 11
1.484528028396099
 21
7.783487863256223
 31
0.0
  0
LINE
  5
35D
330
1F
100
AcDbEntity
  8
0
  6
Continuous
 62
     7
370
    15
100
AcDbLine
 10
1.508021721386843
 20
7.820155696186295
 30
0.0
 11
1.508041681148915
 21
7.820161043627146
 31
0.0
  0
LINE
  5
35E
330
1F
100
AcDbEntity
  8
0
  6
Continuous
 62
     7
370
    15
100
AcDbLine
 10
1.37248710299639
 20
7.962695566213895
 30
0.0
 11
1.483294767189822
 21
7.782136626235691
 31
0.0
  0
ARC
  5
35F
330
1F
100
AcDbEntity
  8
0
  6
Continuous
 62
     7
370
    15
100
AcDbCircle
 10
1.372488247711433
 20
7.962695816544617
 30
0.0
 40
0.0000011717670415
100
AcDbArc
 50
113.8931312399543
 51
192.3354716129718
  0
ARC
  5
360
330
1F
100
AcDbEntity
  8
0
  6
Continuous
 62
     7
370
    15
100
AcDbCircle
 10
1.377085863165938
 20
7.95973548598367
 30
0.0
 40
0.0054692168958292
100
AcDbArc
 50
128.0025992895456
 51
147.2164221521007
  0
ARC
  5
361
330
1F
100
AcDbEntity
  8
0
  6
Continuous
 62
     7
370
    15
100
AcDbCircle
 10
1.48789353971805
 20
7.77917718570035
 30
0.0
 40
0.0054687290158311
100
AcDbArc
 50
128.006757650872
 51
147.2375700094087
  0
LINE
  5
362
330
1F
100
AcDbEntity
  8
0
  6
Continuous
 62
     7
370
    15
100
AcDbLine
 10
1.369326711604852
 20
7.957083782992586
 30
0.0
 11
1.37248710299639
 21
7.962695566213895
 31
0.0
  0
LINE
  5
363
330
1F
100
AcDbEntity
  8
0
  6
Continuous
 62
     7
370
    15
100
AcDbLine
 10
1.480137662537683
 20
7.776531060236427
 30
0.0
 11
1.483294767189822
 21
7.782136626235691
 31
0.0
  0
LWPOLYLINE
  5
364
330
1F
100
AcDbEntity
  8
0
  6
Continuous
 62
     7
370
    15
100
AcDbPolyline
 90
        9
 70
   128
 43
0.0
 10
1.484528028396099
 20
7.783487863256223
 10
1.484717191416974
 20
7.783051632531262
 10
1.484783819687485
 20
7.782578926319338
 10
1.484717446697704
 20
7.782141787397987
 10
1.484528538957558
 20
7.78180667209637
 10
1.484245432628069
 20
7.781624705856367
 10
1.483911780714055
 20
7.781623454171882
 10
1.483577873519311
 20
7.78180323710402
 10
1.483294767189822
 20
7.782136626235691
  0
LINE
  5
365
330
1F
100
AcDbEntity
  8
0
  6
Continuous
 62
     7
370
    15
100
AcDbLine
 10
1.484528028396099
 20
7.783487863256223
 30
0.0
 11
1.492873362872994
 21
7.790483424234658
 31
0.0
  0
LWPOLYLINE
  5
366
330
1F
100
AcDbEntity
  8
0
  6
Continuous
 62
     7
370
    15
100
AcDbPolyline
 90
        9
 70
   128
 43
0.0
 10
1.492873362872994
 20
7.790483424234658
 10
1.494827026299123
 20
7.785978889715035
 10
1.495513986743356
 20
7.78109802788764
 10
1.494829579106423
 20
7.776583929425156
 10
1.492877702645403
 20
7.773123884390638
 10
1.489955759410663
 20
7.771244602881168
 10
1.486508703714462
 20
7.771232156713606
 10
1.483060882176073
 20
7.773088555845043
 10
1.480137662537683
 20
7.776531060236427
  0
LINE
  5
367
330
1F
100
AcDbEntity
  8
0
  6
Continuous
 62
     7
370
    15
100
AcDbLine
 10
1.492873362872994
 20
7.790483424234658
 30
0.0
 11
1.49289330668002
 21
7.790488767400976
 31
0.0
  0
ARC
  5
368
330
1F
100
AcDbEntity
  8
0
  6
Continuous
 62
     7
370
    15
100
AcDbCircle
 10
1.438132534035769
 20
7.923720700803917
 30
0.0
 40
0.010685022607754
100
AcDbArc
 50
135.5703307939069
 51
184.4502381972179
  0
ARC
  5
369
330
1F
100
AcDbEntity
  8
0
  6
Continuous
 62
     7
370
    15
100
AcDbCircle
 10
1.441735650597248
 20
7.921658883193766
 30
0.0
 40
0.0143091237713956
100
AcDbArc
 50
175.0578379120632
 51
249.1426105114642
  0
LINE
  5
36A
330
1F
100
AcDbEntity
  8
0
  6
Continuous
 62
     7
370
    15
100
AcDbLine
 10
1.399112213015827
 20
8.267679410439249
 30
0.0
 11
1.349303145306275
 21
8.186469448441254
 31
0.0
  0
LINE
  5
36B
330
1F
100
AcDbEntity
  8
0
  6
Continuous
 62
     7
370
    15
100
AcDbLine
 10
1.42256740648149
 20
8.273963315992366
 30
0.0
 11
1.399112213015827
 21
8.267679410439249
 31
0.0
  0
LINE
  5
36C
330
1F
100
AcDbEntity
  8
0
  6
Continuous
 62
     7
370
    15
100
AcDbLine
 10
1.42256740648149
 20
8.047863730828717
 30
0.0
 11
1.42256740648149
 21
8.273963315992366
 31
0.0
  0
LINE
  5
36D
330
1F
100
AcDbEntity
  8
0
  6
Continuous
 62
     7
370
    15
100
AcDbLine
 10
1.393455447321382
 20
8.26919492048661
 30
0.0
 11
1.34364637961183
 21
8.187984958488614
 31
0.0
  0
LINE
  5
36E
330
1F
100
AcDbEntity
  8
0
  6
Continuous
 62
     7
370
    15
100
AcDbLine
 10
1.399112213015827
 20
8.267679410439249
 30
0.0
 11
1.393455447321382
 21
8.26919492048661
 31
0.0
  0
LINE
  5
36F
330
1F
100
AcDbEntity
  8
0
  6
Continuous
 62
     7
370
    15
100
AcDbLine
 10
1.349303145306275
 20
8.186469448441254
 30
0.0
 11
1.34364637961183
 21
8.187984958488614
 31
0.0
  0
LWPOLYLINE
  5
370
330
1F
100
AcDbEntity
  8
0
  6
Continuous
 62
     7
370
    15
100
AcDbPolyline
 90
        9
 70
   128
 43
0.0
 10
1.363347701854012
 20
8.070079154580875
 10
1.363065361366713
 20
8.070411838538184
 10
1.362732220014159
 20
8.070591264119803
 10
1.362399078661604
 20
8.070590082170667
 10
1.362116738174305
 20
8.07040850857531
 10
1.36192808571489
 20
8.070074227049257
 10
1.361861968005839
 20
8.069637987120442
 10
1.36192834099562
 20
8.069166338425102
 10
1.362116993455035
 20
8.068731059697331
  0
LINE
  5
371
330
1F
100
AcDbEntity
  8
0
  6
Continuous
 62
     7
370
    15
100
AcDbLine
 10
1.371700248011528
 20
8.077083064787951
 30
0.0
 11
1.363349839830125
 21
8.070080776211117
 31
0.0
  0
SPLINE
  5
372
330
1F
100
AcDbEntity
  8
0
  6
Continuous
 62
     7
370
    15
100
AcDbSpline
210
0.0
220
0.0
230
1.0
 70
     8
 71
     3
 72
    11
 73
     7
 74
     0
 42
0.0000000001
 43
0.0000000001
 40
0.0
 40
0.0
 40
0.0
 40
0.0
 40
0.2500030438712876
 40
0.5000044172422226
 40
0.7500034889806706
 40
1.0
 40
1.0
 40
1.0
 40
1.0
 10
1.349303145306275
 20
8.186469448441254
 30
0.0
 10
1.348735288284519
 20
8.184900297679771
 30
0.0
 10
1.347599578035381
 20
8.181762006641744
 30
0.0
 10
1.347113522055914
 20
8.176892546046284
 30
0.0
 10
1.347599514627023
 20
8.172023090144527
 30
0.0
 10
1.348735217168532
 20
8.168884836247537
 30
0.0
 10
1.349303065531046
 20
8.167315717335299
 30
0.0
  0
SPLINE
  5
373
330
1F
100
AcDbEntity
  8
0
  6
Continuous
 62
     7
370
    15
100
AcDbSpline
210
0.0
220
0.0
230
1.0
 70
     8
 71
     3
 72
    11
 73
     7
 74
     0
 42
0.0000000001
 43
0.0000000001
 40
0.0
 40
0.0
 40
0.0
 40
0.0
 40
0.2500005159457834
 40
0.5000050037186743
 40
0.7500037406748687
 40
1.0
 40
1.0
 40
1.0
 40
1.0
 10
1.34364637961183
 20
8.187984958488614
 30
0.0
 10
1.342422201660489
 20
8.186194449734703
 30
0.0
 10
1.339973826308953
 20
8.182613403780573
 30
0.0
 10
1.338926338799036
 20
8.176892585702729
 30
0.0
 10
1.339973970127765
 20
8.171171672321694
 30
0.0
 10
1.342422130157272
 20
8.1675906726194
 30
0.0
 10
1.343646204106328
 20
8.16580018164074
 30
0.0
  0
LWPOLYLINE
  5
374
330
1F
100
AcDbEntity
  8
0
  6
Continuous
 62
     7
370
    15
100
AcDbPolyline
 90
        5
 70
   128
 43
0.0
 10
1.343646204106328
 20
7.876607372985866
 10
1.341790377019943
 20
7.877213211104781
 10
1.340411414337062
 20
7.877904403099734
 10
1.339562302764189
 20
7.878654382747787
 10
1.339275526774207
 20
7.879434373892418
  0
LWPOLYLINE
  5
375
330
1F
100
AcDbEntity
  8
0
  6
Continuous
 62
     7
370
    15
100
AcDbPolyline
 90
        9
 70
   128
 43
0.0
 10
1.372487773108307
 20
7.962696887894174
 10
1.372298865368161
 20
7.963132213275482
 10
1.37223249237838
 20
7.963603861970823
 10
1.372298865368161
 20
7.964039990029128
 10
1.372487262546846
 20
7.96437440516468
 10
1.372769603034146
 20
7.964556022238018
 10
1.3731027443867
 20
7.964557204187154
 10
1.373435885739254
 20
7.964377822083515
 10
1.373718481507283
 20
7.964045134950648
  0
LINE
  5
376
330
1F
100
AcDbEntity
  8
0
  6
Continuous
 62
     7
370
    15
100
AcDbLine
 10
1.37248710299639
 20
7.962695566213895
 30
0.0
 11
1.369319755204962
 21
7.957080864102245
 31
0.0
  0
LINE
  5
377
330
1F
100
AcDbEntity
  8
0
  6
Continuous
 62
     7
370
    15
100
AcDbLine
 10
1.416910640787045
 20
8.275478826039726
 30
0.0
 11
1.42256740648149
 21
8.273963315992366
 31
0.0
  0
LINE
  5
378
330
1F
100
AcDbEntity
  8
0
  6
Continuous
 62
     7
370
    15
100
AcDbLine
 10
1.393455447321382
 20
8.26919492048661
 30
0.0
 11
1.416910640787045
 21
8.275478826039726
 31
0.0
  0
LINE
  5
379
330
1F
100
AcDbEntity
  8
0
  6
Continuous
 62
     7
370
    15
100
AcDbLine
 10
1.345958026396543
 20
7.848196363410124
 30
0.0
 11
1.351614887821262
 21
7.849711899104685
 31
0.0
  0
LINE
  5
37A
330
1F
100
AcDbEntity
  8
0
  6
Continuous
 62
     7
370
    15
100
AcDbLine
 10
1.351614887821262
 20
7.849711899104685
 30
0.0
 11
1.352349330481261
 21
7.849551220522876
 31
0.0
  0
LINE
  5
37B
330
1F
100
AcDbEntity
  8
0
  6
Continuous
 62
     7
370
    15
100
AcDbLine
 10
1.311814324499125
 20
7.860374909889196
 30
0.0
 11
1.351614887821262
 21
7.849711899104685
 31
0.0
  0
ARC
  5
37C
330
1F
100
AcDbEntity
  8
0
  6
Continuous
 62
     7
370
    15
100
AcDbCircle
 10
1.255715803839202
 20
7.734464199483777
 30
0.0
 40
0.0191268835370006
100
AcDbArc
 50
124.9865292234294
 51
185.6823684287065
  0
ARC
  5
37D
330
1F
100
AcDbEntity
  8
0
  6
Continuous
 62
     7
370
    15
100
AcDbCircle
 10
1.262556992200988
 20
7.729792967546146
 30
0.0
 40
0.0260227254538559
100
AcDbArc
 50
173.8731381760213
 51
257.6921816603493
  0
LINE
  5
37E
330
1F
100
AcDbEntity
  8
0
  6
Continuous
 62
     7
370
    15
100
AcDbLine
 10
3.045351091817664
 20
6.490778800486314
 30
0.0
 11
3.943949919130036
 21
7.177151939789542
 31
0.0
  0
LINE
  5
37F
330
1F
100
AcDbEntity
  8
0
  6
Continuous
 62
     7
370
    15
100
AcDbLine
 10
3.949606780554755
 20
7.181472805216154
 30
0.0
 11
3.960067131834139
 21
7.189462693732794
 31
0.0
  0
LINE
  5
380
330
1F
100
AcDbEntity
  8
0
  6
Continuous
 62
     7
370
    15
100
AcDbLine
 10
4.136582125350178
 20
7.324289424977607
 30
0.0
 11
5.754315655826405
 21
8.559956333604313
 31
0.0
  0
LINE
  5
381
330
1F
100
AcDbEntity
  8
0
  6
Continuous
 62
     7
370
    15
100
AcDbLine
 10
3.045351091817664
 20
6.490778800486314
 30
0.0
 11
3.045351091817664
 21
7.042850130998245
 31
0.0
  0
LINE
  5
382
330
1F
100
AcDbEntity
  8
0
  6
Continuous
 62
     7
370
    15
100
AcDbLine
 10
5.598535313082155
 20
8.993038517344299
 30
0.0
 11
3.882470309930791
 21
7.68226357409353
 31
0.0
  0
LINE
  5
383
330
1F
100
AcDbEntity
  8
0
  6
Continuous
 62
     7
370
    15
100
AcDbLine
 10
3.88223522828862
 20
7.682083985179956
 30
0.0
 11
3.045351091817664
 21
7.042850130998245
 31
0.0
  0
LINE
  5
384
330
1F
100
AcDbEntity
  8
0
  6
Continuous
 62
     7
370
    15
100
AcDbLine
 10
5.598535313082155
 20
8.993038517344299
 30
0.0
 11
5.650184986764569
 21
8.813526674133147
 31
0.0
  0
LINE
  5
385
330
1F
100
AcDbEntity
  8
0
  6
Continuous
 62
     7
370
    15
100
AcDbLine
 10
5.650184986764569
 20
8.813526674133147
 30
0.0
 11
5.740316188237591
 21
8.825298855464509
 31
0.0
  0
LINE
  5
386
330
1F
100
AcDbEntity
  8
0
  6
Continuous
 62
     7
370
    15
100
AcDbLine
 10
5.740316188237591
 20
8.825298855464509
 30
0.0
 11
5.695698732822466
 21
8.763683666364386
 31
0.0
  0
LINE
  5
387
330
1F
100
AcDbEntity
  8
0
  6
Continuous
 62
     7
370
    15
100
AcDbLine
 10
5.695698732822466
 20
8.763683666364386
 30
0.0
 11
5.754315655826405
 21
8.559956333604313
 31
0.0
  0
LINE
  5
388
330
1F
100
AcDbEntity
  8
0
  6
Continuous
 62
     7
370
    15
100
AcDbLine
 10
3.045351091817664
 20
6.490778800486314
 30
0.0
 11
2.882172599840439
 21
6.534496121913916
 31
0.0
  0
LINE
  5
389
330
1F
100
AcDbEntity
  8
0
  6
Continuous
 62
     7
370
    15
100
AcDbLine
 10
2.882172599840439
 20
6.534496121913916
 30
0.0
 11
2.882172599840439
 21
7.086567452425846
 31
0.0
  0
LINE
  5
38A
330
1F
100
AcDbEntity
  8
0
  6
Continuous
 62
     7
370
    15
100
AcDbLine
 10
2.882172599840439
 20
7.086567452425846
 30
0.0
 11
3.045351091817664
 21
7.042850130998245
 31
0.0
  0
LINE
  5
38B
330
1F
100
AcDbEntity
  8
0
  6
Continuous
 62
     7
370
    15
100
AcDbLine
 10
5.43535682110493
 20
9.036755838771901
 30
0.0
 11
2.882172599840439
 21
7.086567452425846
 31
0.0
  0
LINE
  5
38C
330
1F
100
AcDbEntity
  8
0
  6
Continuous
 62
     7
370
    15
100
AcDbLine
 10
5.43535682110493
 20
9.036755838771901
 30
0.0
 11
5.598535313082155
 21
8.993038517344299
 31
0.0
  0
LINE
  5
38D
330
1F
100
AcDbEntity
  8
0
  6
Continuous
 62
     7
370
    15
100
AcDbLine
 10
5.638986993838541
 20
8.852446066520741
 30
0.0
 11
5.740316188237591
 21
8.825298855464509
 31
0.0
  0
LINE
  5
38E
330
1F
100
AcDbEntity
  8
0
  6
Continuous
 62
     7
370
    15
100
AcDbLine
 10
4.269189726801378
 20
6.162898904473013
 30
0.0
 11
5.06876688212012
 21
6.773636729769772
 31
0.0
  0
LINE
  5
38F
330
1F
100
AcDbEntity
  8
0
  6
Continuous
 62
     7
370
    15
100
AcDbLine
 10
5.180375090727558
 20
6.858885967084973
 30
0.0
 11
6.978154290810119
 21
8.232076437591011
 31
0.0
  0
LINE
  5
390
330
1F
100
AcDbEntity
  8
0
  6
Continuous
 62
     7
370
    15
100
AcDbLine
 10
4.269189726801378
 20
6.162898904473013
 30
0.0
 11
4.269189726801378
 21
6.714970234984942
 31
0.0
  0
LINE
  5
391
330
1F
100
AcDbEntity
  8
0
  6
Continuous
 62
     7
370
    15
100
AcDbLine
 10
6.82237394806587
 20
8.665158621330997
 30
0.0
 11
4.269189726801378
 21
6.714970234984942
 31
0.0
  0
LINE
  5
392
330
1F
100
AcDbEntity
  8
0
  6
Continuous
 62
     7
370
    15
100
AcDbLine
 10
6.82237394806587
 20
8.665158621330997
 30
0.0
 11
6.874023621748285
 21
8.485646778119845
 31
0.0
  0
LINE
  5
393
330
1F
100
AcDbEntity
  8
0
  6
Continuous
 62
     7
370
    15
100
AcDbLine
 10
6.874023621748285
 20
8.485646778119845
 30
0.0
 11
6.964154823221305
 21
8.497418959451207
 31
0.0
  0
LINE
  5
394
330
1F
100
AcDbEntity
  8
0
  6
Continuous
 62
     7
370
    15
100
AcDbLine
 10
6.964154823221305
 20
8.497418959451207
 30
0.0
 11
6.919537367806181
 21
8.435803770351084
 31
0.0
  0
LINE
  5
395
330
1F
100
AcDbEntity
  8
0
  6
Continuous
 62
     7
370
    15
100
AcDbLine
 10
6.919537367806181
 20
8.435803770351084
 30
0.0
 11
6.978154290810119
 21
8.232076437591011
 31
0.0
  0
LINE
  5
396
330
1F
100
AcDbEntity
  8
0
  6
Continuous
 62
     7
370
    15
100
AcDbLine
 10
4.269189726801378
 20
6.162898904473013
 30
0.0
 11
4.106011220863489
 21
6.20661622964083
 31
0.0
  0
LINE
  5
397
330
1F
100
AcDbEntity
  8
0
  6
Continuous
 62
     7
370
    15
100
AcDbLine
 10
4.106011220863489
 20
6.20661622964083
 30
0.0
 11
4.106011220863489
 21
6.75868756015276
 31
0.0
  0
LINE
  5
398
330
1F
100
AcDbEntity
  8
0
  6
Continuous
 62
     7
370
    15
100
AcDbLine
 10
4.106011220863489
 20
6.75868756015276
 30
0.0
 11
4.269189726801378
 21
6.714970234984942
 31
0.0
  0
LINE
  5
399
330
1F
100
AcDbEntity
  8
0
  6
Continuous
 62
     7
370
    15
100
AcDbLine
 10
6.659195442127981
 20
8.708875946498814
 30
0.0
 11
4.106011220863489
 21
6.75868756015276
 31
0.0
  0
LINE
  5
39A
330
1F
100
AcDbEntity
  8
0
  6
Continuous
 62
     7
370
    15
100
AcDbLine
 10
6.659195442127981
 20
8.708875946498814
 30
0.0
 11
6.82237394806587
 21
8.665158621330997
 31
0.0
  0
LINE
  5
39B
330
1F
100
AcDbEntity
  8
0
  6
Continuous
 62
     7
370
    15
100
AcDbLine
 10
6.862825604889686
 20
8.524566176919238
 30
0.0
 11
6.964154823221305
 21
8.497418959451207
 31
0.0
  0
LINE
  5
39C
330
1F
100
AcDbEntity
  8
0
  6
Continuous
 62
     7
370
    15
100
AcDbLine
 10
1.739923140044823
 20
6.840517376181657
 30
0.0
 11
1.576744634106933
 21
6.884234701349475
 31
0.0
  0
LINE
  5
39D
330
1F
100
AcDbEntity
  8
0
  6
Continuous
 62
     7
370
    15
100
AcDbLine
 10
1.576744634106933
 20
6.884234701349475
 30
0.0
 11
1.576744634106933
 21
7.436306031861406
 31
0.0
  0
LINE
  5
39E
330
1F
100
AcDbEntity
  8
0
  6
Continuous
 62
     7
370
    15
100
AcDbLine
 10
1.576744634106933
 20
7.436306031861406
 30
0.0
 11
1.739923140044823
 21
7.392588706693588
 31
0.0
  0
LINE
  5
39F
330
1F
100
AcDbEntity
  8
0
  6
Continuous
 62
     7
370
    15
100
AcDbLine
 10
1.739923140044823
 20
6.840517376181657
 30
0.0
 11
1.739923140044823
 21
7.392588706693588
 31
0.0
  0
LINE
  5
3A0
330
1F
100
AcDbEntity
  8
0
  6
Continuous
 62
     7
370
    15
100
AcDbLine
 10
1.739923140044823
 20
6.840517376181657
 30
0.0
 11
2.643428813997388
 21
7.53063848953898
 31
0.0
  0
LINE
  5
3A1
330
1F
100
AcDbEntity
  8
0
  6
Continuous
 62
     7
370
    15
100
AcDbLine
 10
2.732975502374106
 20
7.599036598415903
 30
0.0
 11
4.448887704053563
 21
8.909694909299657
 31
0.0
  0
LINE
  5
3A2
330
1F
100
AcDbEntity
  8
0
  6
Continuous
 62
     7
370
    15
100
AcDbLine
 10
4.293107361309314
 20
9.342777093039641
 30
0.0
 11
1.739923140044823
 21
7.392588706693588
 31
0.0
  0
LINE
  5
3A3
330
1F
100
AcDbEntity
  8
0
  6
Continuous
 62
     7
370
    15
100
AcDbLine
 10
4.293107361309314
 20
9.342777093039641
 30
0.0
 11
4.344757034991728
 21
9.163265249828489
 31
0.0
  0
LINE
  5
3A4
330
1F
100
AcDbEntity
  8
0
  6
Continuous
 62
     7
370
    15
100
AcDbLine
 10
4.344757034991728
 20
9.163265249828489
 30
0.0
 11
4.434888236464749
 21
9.175037431159852
 31
0.0
  0
LINE
  5
3A5
330
1F
100
AcDbEntity
  8
0
  6
Continuous
 62
     7
370
    15
100
AcDbLine
 10
4.434888236464749
 20
9.175037431159852
 30
0.0
 11
4.390270781049625
 21
9.113422242059728
 31
0.0
  0
LINE
  5
3A6
330
1F
100
AcDbEntity
  8
0
  6
Continuous
 62
     7
370
    15
100
AcDbLine
 10
4.390270781049625
 20
9.113422242059728
 30
0.0
 11
4.448887704053563
 21
8.909694909299657
 31
0.0
  0
LINE
  5
3A7
330
1F
100
AcDbEntity
  8
0
  6
Continuous
 62
     7
370
    15
100
AcDbLine
 10
4.129928855371423
 20
9.38649441820746
 30
0.0
 11
1.576744634106933
 21
7.436306031861406
 31
0.0
  0
LINE
  5
3A8
330
1F
100
AcDbEntity
  8
0
  6
Continuous
 62
     7
370
    15
100
AcDbLine
 10
4.129928855371423
 20
9.38649441820746
 30
0.0
 11
4.293107361309314
 21
9.342777093039641
 31
0.0
  0
LINE
  5
3A9
330
1F
100
AcDbEntity
  8
0
  6
Continuous
 62
     7
370
    15
100
AcDbLine
 10
4.333559145773494
 20
9.202184614431619
 30
0.0
 11
4.434888236464749
 21
9.175037431159852
 31
0.0
  0
LINE
  5
3AA
330
1F
100
AcDbEntity
  8
0
  6
Continuous
 62
     7
370
    15
100
AcDbLine
 10
5.574617774304496
 20
5.81316030313047
 30
0.0
 11
5.411439268366606
 21
5.856877628298287
 31
0.0
  0
LINE
  5
3AB
330
1F
100
AcDbEntity
  8
0
  6
Continuous
 62
     7
370
    15
100
AcDbLine
 10
5.411439268366606
 20
5.856877628298287
 30
0.0
 11
5.411439268366606
 21
6.408948958810219
 31
0.0
  0
LINE
  5
3AC
330
1F
100
AcDbEntity
  8
0
  6
Continuous
 62
     7
370
    15
100
AcDbLine
 10
5.411439268366606
 20
6.408948958810219
 30
0.0
 11
5.574617774304496
 21
6.365231633642402
 31
0.0
  0
LINE
  5
3AD
330
1F
100
AcDbEntity
  8
0
  6
Continuous
 62
     7
370
    15
100
AcDbLine
 10
5.574617774304496
 20
5.81316030313047
 30
0.0
 11
5.574617774304496
 21
6.365231633642402
 31
0.0
  0
LINE
  5
3AE
330
1F
100
AcDbEntity
  8
0
  6
Continuous
 62
     7
370
    15
100
AcDbLine
 10
5.574617774304496
 20
5.81316030313047
 30
0.0
 11
6.369379633034812
 21
6.420220083524879
 31
0.0
  0
LINE
  5
3AF
330
1F
100
AcDbEntity
  8
0
  6
Continuous
 62
     7
370
    15
100
AcDbLine
 10
6.481917829341372
 20
6.506179678369809
 30
0.0
 11
8.283582338313236
 21
7.882337836248471
 31
0.0
  0
LINE
  5
3B0
330
1F
100
AcDbEntity
  8
0
  6
Continuous
 62
     7
370
    15
100
AcDbLine
 10
8.127801995568987
 20
8.315420019988454
 30
0.0
 11
5.574617774304496
 21
6.365231633642402
 31
0.0
  0
LINE
  5
3B1
330
1F
100
AcDbEntity
  8
0
  6
Continuous
 62
     7
370
    15
100
AcDbLine
 10
8.127801995568987
 20
8.315420019988454
 30
0.0
 11
8.179451669251401
 21
8.135908176777302
 31
0.0
  0
LINE
  5
3B2
330
1F
100
AcDbEntity
  8
0
  6
Continuous
 62
     7
370
    15
100
AcDbLine
 10
8.179451669251401
 20
8.135908176777302
 30
0.0
 11
8.269582870724422
 21
8.147680358108665
 31
0.0
  0
LINE
  5
3B3
330
1F
100
AcDbEntity
  8
0
  6
Continuous
 62
     7
370
    15
100
AcDbLine
 10
8.269582870724422
 20
8.147680358108665
 30
0.0
 11
8.224965415309297
 21
8.086065169008541
 31
0.0
  0
LINE
  5
3B4
330
1F
100
AcDbEntity
  8
0
  6
Continuous
 62
     7
370
    15
100
AcDbLine
 10
8.224965415309297
 20
8.086065169008541
 30
0.0
 11
8.283582338313236
 21
7.882337836248471
 31
0.0
  0
LINE
  5
3B5
330
1F
100
AcDbEntity
  8
0
  6
Continuous
 62
     7
370
    15
100
AcDbLine
 10
7.964623489631097
 20
8.359137345156272
 30
0.0
 11
5.411439268366606
 21
6.408948958810219
 31
0.0
  0
LINE
  5
3B6
330
1F
100
AcDbEntity
  8
0
  6
Continuous
 62
     7
370
    15
100
AcDbLine
 10
7.964623489631097
 20
8.359137345156272
 30
0.0
 11
8.127801995568987
 21
8.315420019988454
 31
0.0
  0
LINE
  5
3B7
330
1F
100
AcDbEntity
  8
0
  6
Continuous
 62
     7
370
    15
100
AcDbLine
 10
8.168253524752437
 20
8.174827609772959
 30
0.0
 11
8.269582870724422
 21
8.147680358108665
 31
0.0
  0
LINE
  5
3B8
330
1F
100
AcDbEntity
  8
0
  6
Continuous
 62
     7
370
    15
100
AcDbLine
 10
0.4344953478224367
 20
7.19025590913167
 30
0.0
 11
1.339275510819162
 21
7.88135053333008
 31
0.0
  0
LINE
  5
3B9
330
1F
100
AcDbEntity
  8
0
  6
Continuous
 62
     7
370
    15
100
AcDbLine
 10
1.465542337815129
 20
7.977796407890589
 30
0.0
 11
3.143459911831178
 21
9.259433442249669
 31
0.0
  0
LINE
  5
3BA
330
1F
100
AcDbEntity
  8
0
  6
Continuous
 62
     7
370
    15
100
AcDbLine
 10
0.4344953478224367
 20
7.19025590913167
 30
0.0
 11
0.4344953478224367
 21
7.7423272396436
 31
0.0
  0
LINE
  5
3BB
330
1F
100
AcDbEntity
  8
0
  6
Continuous
 62
     7
370
    15
100
AcDbLine
 10
2.987679569086928
 20
9.692515625989654
 30
0.0
 11
0.4344953478224367
 21
7.7423272396436
 31
0.0
  0
LINE
  5
3BC
330
1F
100
AcDbEntity
  8
0
  6
Continuous
 62
     7
370
    15
100
AcDbLine
 10
2.987679569086928
 20
9.692515625989654
 30
0.0
 11
3.039329242769342
 21
9.513003782778502
 31
0.0
  0
LINE
  5
3BD
330
1F
100
AcDbEntity
  8
0
  6
Continuous
 62
     7
370
    15
100
AcDbLine
 10
3.039329242769342
 20
9.513003782778502
 30
0.0
 11
3.129460444242364
 21
9.524775964109865
 31
0.0
  0
LINE
  5
3BE
330
1F
100
AcDbEntity
  8
0
  6
Continuous
 62
     7
370
    15
100
AcDbLine
 10
3.129460444242364
 20
9.524775964109865
 30
0.0
 11
3.084842988827239
 21
9.463160775009741
 31
0.0
  0
LINE
  5
3BF
330
1F
100
AcDbEntity
  8
0
  6
Continuous
 62
     7
370
    15
100
AcDbLine
 10
3.084842988827239
 20
9.463160775009741
 30
0.0
 11
3.143459911831178
 21
9.259433442249669
 31
0.0
  0
LINE
  5
3C0
330
1F
100
AcDbEntity
  8
0
  6
Continuous
 62
     7
370
    15
100
AcDbLine
 10
0.4344953478224367
 20
7.19025590913167
 30
0.0
 11
0.271316841884547
 21
7.233973234299488
 31
0.0
  0
LINE
  5
3C1
330
1F
100
AcDbEntity
  8
0
  6
Continuous
 62
     7
370
    15
100
AcDbLine
 10
0.271316841884547
 20
7.233973234299488
 30
0.0
 11
0.271316841884547
 21
7.786044564811419
 31
0.0
  0
LINE
  5
3C2
330
1F
100
AcDbEntity
  8
0
  6
Continuous
 62
     7
370
    15
100
AcDbLine
 10
0.271316841884547
 20
7.786044564811419
 30
0.0
 11
0.4344953478224367
 21
7.7423272396436
 31
0.0
  0
LINE
  5
3C3
330
1F
100
AcDbEntity
  8
0
  6
Continuous
 62
     7
370
    15
100
AcDbLine
 10
2.824501063149038
 20
9.736232951157472
 30
0.0
 11
0.271316841884547
 21
7.786044564811419
 31
0.0
  0
LINE
  5
3C4
330
1F
100
AcDbEntity
  8
0
  6
Continuous
 62
     7
370
    15
100
AcDbLine
 10
2.824501063149038
 20
9.736232951157472
 30
0.0
 11
2.987679569086928
 21
9.692515625989654
 31
0.0
  0
LINE
  5
3C5
330
1F
100
AcDbEntity
  8
0
  6
Continuous
 62
     7
370
    15
100
AcDbLine
 10
3.028131098270379
 20
9.551923215774159
 30
0.0
 11
3.129460444242364
 21
9.524775964109865
 31
0.0
  0
LINE
  5
3C6
330
1F
100
AcDbEntity
  8
0
  6
Continuous
 62
     7
370
    15
100
AcDbLine
 10
4.136582125350178
 20
7.324289424977607
 30
0.0
 11
4.995708249572865
 21
7.980512321480689
 31
0.0
  0
LINE
  5
3C7
330
1F
100
AcDbEntity
  8
0
  6
Continuous
 62
     7
370
    15
100
AcDbLine
 10
5.717373726117985
 20
8.173854478397602
 30
0.0
 11
5.717373726117985
 21
7.989488058842759
 31
0.0
  0
LINE
  5
3C8
330
1F
100
AcDbEntity
  8
0
  6
Continuous
 62
     7
370
    15
100
AcDbLine
 10
3.949606780554755
 20
7.181472805216154
 30
0.0
 11
3.960946701589102
 21
7.184510895388548
 31
0.0
  0
LINE
  5
3C9
330
1F
100
AcDbEntity
  8
0
  6
Continuous
 62
     7
370
    15
100
AcDbLine
 10
4.136582125350178
 20
7.23156556651339
 30
0.0
 11
5.04304240251587
 21
7.474416292844014
 31
0.0
  0
LINE
  5
3CA
330
1F
100
AcDbEntity
  8
0
  6
Continuous
 62
     7
370
    15
100
AcDbLine
 10
5.717373726117985
 20
8.173854478397602
 30
0.0
 11
4.995708249572865
 21
7.980512321480689
 31
0.0
  0
LINE
  5
3CB
330
1F
100
AcDbEntity
  8
0
  6
Continuous
 62
     7
370
    15
100
AcDbLine
 10
5.554195234140761
 20
8.217571799825204
 30
0.0
 11
5.717373726117985
 21
8.173854478397602
 31
0.0
  0
LINE
  5
3CC
330
1F
100
AcDbEntity
  8
0
  6
Continuous
 62
     7
370
    15
100
AcDbLine
 10
5.554195234140761
 20
8.217571799825204
 30
0.0
 11
5.172018027297755
 21
8.115182302340508
 31
0.0
  0
LINE
  5
3CD
330
1F
100
AcDbEntity
  8
0
  6
Continuous
 62
     7
370
    15
100
AcDbLine
 10
8.246640408604816
 20
7.496235981041759
 30
0.0
 11
8.246640408604816
 21
7.299250468965472
 31
0.0
  0
LINE
  5
3CE
330
1F
100
AcDbEntity
  8
0
  6
Continuous
 62
     7
370
    15
100
AcDbLine
 10
8.246640408604816
 20
7.299250468965472
 30
0.0
 11
8.328229661573763
 21
7.25870592534676
 31
0.0
  0
LINE
  5
3CF
330
1F
100
AcDbEntity
  8
0
  6
Continuous
 62
     7
370
    15
100
AcDbLine
 10
8.328229661573763
 20
7.25870592534676
 30
0.0
 11
8.273836868807919
 21
7.223312455403019
 31
0.0
  0
LINE
  5
3D0
330
1F
100
AcDbEntity
  8
0
  6
Continuous
 62
     7
370
    15
100
AcDbLine
 10
8.273836868807919
 20
7.223312455403019
 30
0.0
 11
8.273836868807919
 21
6.984744841960973
 31
0.0
  0
LINE
  5
3D1
330
1F
100
AcDbEntity
  8
0
  6
Continuous
 62
     7
370
    15
100
AcDbLine
 10
6.484316080113714
 20
6.505312445125011
 30
0.0
 11
8.273836868807919
 21
6.984744841960973
 31
0.0
  0
LINE
  5
3D2
330
1F
100
AcDbEntity
  8
0
  6
Continuous
 62
     7
370
    15
100
AcDbLine
 10
6.481917829341372
 20
6.506179678369809
 30
0.0
 11
7.524974932059696
 21
7.302893824124845
 31
0.0
  0
LINE
  5
3D3
330
1F
100
AcDbEntity
  8
0
  6
Continuous
 62
     7
370
    15
100
AcDbLine
 10
8.246640408604816
 20
7.496235981041759
 30
0.0
 11
7.524974932059696
 21
7.302893824124845
 31
0.0
  0
LINE
  5
3D4
330
1F
100
AcDbEntity
  8
0
  6
Continuous
 62
     7
370
    15
100
AcDbLine
 10
8.083461902666927
 20
7.539953306209576
 30
0.0
 11
8.246640408604816
 21
7.496235981041759
 31
0.0
  0
LINE
  5
3D5
330
1F
100
AcDbEntity
  8
0
  6
Continuous
 62
     7
370
    15
100
AcDbLine
 10
8.083461902666927
 20
7.539953306209576
 30
0.0
 11
7.70128469582392
 21
7.437563808724881
 31
0.0
  0
LINE
  5
3D6
330
1F
100
AcDbEntity
  8
0
  6
Continuous
 62
     7
370
    15
100
AcDbLine
 10
4.411945774345144
 20
8.523593054092945
 30
0.0
 11
4.411945774345144
 21
8.32660754201666
 31
0.0
  0
LINE
  5
3D7
330
1F
100
AcDbEntity
  8
0
  6
Continuous
 62
     7
370
    15
100
AcDbLine
 10
4.411945774345144
 20
8.32660754201666
 30
0.0
 11
4.468704764196676
 21
8.298402008779012
 31
0.0
  0
LINE
  5
3D8
330
1F
100
AcDbEntity
  8
0
  6
Continuous
 62
     7
370
    15
100
AcDbLine
 10
2.745878985969163
 20
7.558457976998518
 30
0.0
 11
3.907358585594085
 21
7.869631198255466
 31
0.0
  0
LINE
  5
3D9
330
1F
100
AcDbEntity
  8
0
  6
Continuous
 62
     7
370
    15
100
AcDbLine
 10
2.732975502374106
 20
7.599036598415903
 30
0.0
 11
3.690280297800024
 21
8.330250897176032
 31
0.0
  0
LINE
  5
3DA
330
1F
100
AcDbEntity
  8
0
  6
Continuous
 62
     7
370
    15
100
AcDbLine
 10
4.411945774345144
 20
8.523593054092945
 30
0.0
 11
3.690280297800024
 21
8.330250897176032
 31
0.0
  0
LINE
  5
3DB
330
1F
100
AcDbEntity
  8
0
  6
Continuous
 62
     7
370
    15
100
AcDbLine
 10
4.248767268407255
 20
8.567310379260764
 30
0.0
 11
4.411945774345144
 21
8.523593054092945
 31
0.0
  0
LINE
  5
3DC
330
1F
100
AcDbEntity
  8
0
  6
Continuous
 62
     7
370
    15
100
AcDbLine
 10
4.248767268407255
 20
8.567310379260764
 30
0.0
 11
3.866590061564248
 21
8.464920881776068
 31
0.0
  0
LINE
  5
3DD
330
1F
100
AcDbEntity
  8
0
  6
Continuous
 62
     7
370
    15
100
AcDbLine
 10
3.106517982122758
 20
8.873331587042958
 30
0.0
 11
3.106517982122758
 21
8.676346074966673
 31
0.0
  0
LINE
  5
3DE
330
1F
100
AcDbEntity
  8
0
  6
Continuous
 62
     7
370
    15
100
AcDbLine
 10
3.106517982122758
 20
8.676346074966673
 30
0.0
 11
3.163276971974291
 21
8.648140541729025
 31
0.0
  0
LINE
  5
3DF
330
1F
100
AcDbEntity
  8
0
  6
Continuous
 62
     7
370
    15
100
AcDbLine
 10
1.338751036559527
 20
7.880949913861511
 30
0.0
 11
1.339275510819162
 21
7.881090426312086
 31
0.0
  0
LINE
  5
3E0
330
1F
100
AcDbEntity
  8
0
  6
Continuous
 62
     7
370
    15
100
AcDbLine
 10
1.498664852972659
 20
7.923792592624733
 30
0.0
 11
2.601930793371699
 21
8.219369731205478
 31
0.0
  0
LINE
  5
3E1
330
1F
100
AcDbEntity
  8
0
  6
Continuous
 62
     7
370
    15
100
AcDbLine
 10
1.338751036559527
 20
7.880949913861511
 30
0.0
 11
1.339275510819162
 21
7.88135053333008
 31
0.0
  0
LINE
  5
3E2
330
1F
100
AcDbEntity
  8
0
  6
Continuous
 62
     7
370
    15
100
AcDbLine
 10
1.465542337815129
 20
7.977796407890589
 30
0.0
 11
2.384852505577638
 21
8.679989430126045
 31
0.0
  0
LINE
  5
3E3
330
1F
100
AcDbEntity
  8
0
  6
Continuous
 62
     7
370
    15
100
AcDbLine
 10
3.106517982122758
 20
8.873331587042958
 30
0.0
 11
2.384852505577638
 21
8.679989430126045
 31
0.0
  0
LINE
  5
3E4
330
1F
100
AcDbEntity
  8
0
  6
Continuous
 62
     7
370
    15
100
AcDbLine
 10
2.943339476184869
 20
8.917048912210777
 30
0.0
 11
3.106517982122758
 21
8.873331587042958
 31
0.0
  0
LINE
  5
3E5
330
1F
100
AcDbEntity
  8
0
  6
Continuous
 62
     7
370
    15
100
AcDbLine
 10
2.943339476184869
 20
8.917048912210777
 30
0.0
 11
2.561162269341862
 21
8.814659414726081
 31
0.0
  0
LINE
  5
3E6
330
1F
100
AcDbEntity
  8
0
  6
Continuous
 62
     7
370
    15
100
AcDbLine
 10
6.941212361101701
 20
7.8459745823843
 30
0.0
 11
6.941212361101701
 21
7.648989070308013
 31
0.0
  0
LINE
  5
3E7
330
1F
100
AcDbEntity
  8
0
  6
Continuous
 62
     7
370
    15
100
AcDbLine
 10
6.941212361101701
 20
7.648989070308013
 30
0.0
 11
6.997971350953233
 21
7.620783537070368
 31
0.0
  0
LINE
  5
3E8
330
1F
100
AcDbEntity
  8
0
  6
Continuous
 62
     7
370
    15
100
AcDbLine
 10
5.183808361264341
 20
6.856369256892706
 30
0.0
 11
6.436625172350641
 21
7.19201272654682
 31
0.0
  0
LINE
  5
3E9
330
1F
100
AcDbEntity
  8
0
  6
Continuous
 62
     7
370
    15
100
AcDbLine
 10
5.180375090727558
 20
6.858885967084973
 30
0.0
 11
6.219546884556581
 21
7.652632425467388
 31
0.0
  0
LINE
  5
3EA
330
1F
100
AcDbEntity
  8
0
  6
Continuous
 62
     7
370
    15
100
AcDbLine
 10
6.941212361101701
 20
7.8459745823843
 30
0.0
 11
6.219546884556581
 21
7.652632425467388
 31
0.0
  0
LINE
  5
3EB
330
1F
100
AcDbEntity
  8
0
  6
Continuous
 62
     7
370
    15
100
AcDbLine
 10
6.77803385516381
 20
7.889691907552118
 30
0.0
 11
6.941212361101701
 21
7.8459745823843
 31
0.0
  0
LINE
  5
3EC
330
1F
100
AcDbEntity
  8
0
  6
Continuous
 62
     7
370
    15
100
AcDbLine
 10
6.77803385516381
 20
7.889691907552118
 30
0.0
 11
6.395856648320805
 21
7.787302410067422
 31
0.0
  0
LINE
  5
3ED
330
1F
100
AcDbEntity
  8
0
  6
Continuous
 62
     8
370
    15
100
AcDbLine
 10
4.083005193842136
 20
7.170190712529779
 30
0.0
 11
4.083331554300301
 21
7.170278148103414
 31
0.0
  0
LINE
  5
3EE
330
1F
100
AcDbEntity
  8
0
  6
Continuous
 62
     8
370
    15
100
AcDbLine
 10
4.083331554300301
 20
7.163347601366189
 30
0.0
 11
4.065714008881283
 21
7.168067536490704
 31
0.0
  0
LINE
  5
3EF
330
1F
100
AcDbEntity
  8
0
  6
Continuous
 62
     8
370
    15
100
AcDbLine
 10
3.958779942573666
 20
7.178465731055606
 30
0.0
 11
3.954148575751154
 21
7.177224936698607
 31
0.0
  0
LINE
  5
3F0
330
1F
100
AcDbEntity
  8
0
  6
Continuous
 62
     8
370
    15
100
AcDbLine
 10
2.652555355372997
 20
7.732845650882357
 30
0.0
 11
2.652555355372997
 21
7.725937173702059
 31
0.0
  0
LINE
  5
3F1
330
1F
100
AcDbEntity
  8
0
  6
Continuous
 62
     8
370
    15
100
AcDbLine
 10
2.652555355372997
 20
6.829790475477556
 30
0.0
 11
2.652555355372997
 21
6.826423410238192
 31
0.0
  0
LINE
  5
3F2
330
1F
100
AcDbEntity
  8
0
  6
Continuous
 62
     8
370
    15
100
AcDbLine
 10
1.349303145306275
 20
8.167315702415351
 30
0.0
 11
1.349303145306275
 21
8.186469448441254
 31
0.0
  0
ARC
  5
3F3
330
1F
100
AcDbEntity
  8
OBJ
 62
     7
100
AcDbCircle
 10
2.583531066737437
 20
6.268255118448017
 30
0.0
 40
1.875629182313279
100
AcDbArc
 50
137.0846672127439
 51
211.3821040857139
  0
ARC
  5
3F4
330
1F
100
AcDbEntity
  8
OBJ
 62
     7
100
AcDbCircle
 10
4.354586194922098
 20
6.001377237129307
 30
0.0
 40
2.133940656850863
100
AcDbArc
 50
143.2760012365648
 51
209.289549874835
  0
ARC
  5
3F5
330
1F
100
AcDbEntity
  8
OBJ
 62
     7
100
AcDbCircle
 10
6.198144445329453
 20
5.533020795978436
 30
0.0
 40
2.764316064246841
100
AcDbArc
 50
152.9335809752602
 51
200.725733576709
  0
ARC
  5
3F6
330
1F
100
AcDbEntity
  8
OBJ
 62
     7
100
AcDbCircle
 10
6.665511051409115
 20
5.346313199712836
 30
0.0
 40
1.834255322898348
100
AcDbArc
 50
144.0715408151643
 51
214.9580911075238
  0
ARC
  5
3F7
330
1F
100
AcDbEntity
  8
OBJ
 62
     7
100
AcDbCircle
 10
7.600641887333008
 20
5.012074860717992
 30
0.0
 40
1.544113678968257
100
AcDbArc
 50
136.5303990457721
 51
221.9521206594681
  0
MTEXT
  5
3FA
330
1F
100
AcDbEntity
  8
OBJ
 62
     7
100
AcDbMText
 10
0.9855326460481096
 20
5.242926042004556
 30
0.0
 40
0.1458333333333333
 41
0.0
 71
     1
 72
     1
  1
RT15
  7
SLDTEXTSTYLE0
 73
     1
 44
1.0
  0
MTEXT
  5
3FB
330
1F
100
AcDbEntity
  8
OBJ
 62
     7
100
AcDbMText
 10
2.50574045925206
 20
4.905222249782394
 30
0.0
 40
0.1458333333333333
 41
0.0
 71
     1
 72
     1
  1
RT10
  7
SLDTEXTSTYLE0
 73
     1
 44
1.0
  0
MTEXT
  5
3FC
330
1F
100
AcDbEntity
  8
OBJ
 62
     7
100
AcDbMText
 10
3.636737022825943
 20
4.493950772119162
 30
0.0
 40
0.1458333333333333
 41
0.0
 71
     1
 72
     1
  1
RT16AR
  7
SLDTEXTSTYLE0
 73
     1
 44
1.0
  0
MTEXT
  5
3FD
330
1F
100
AcDbEntity
  8
OBJ
 62
     7
100
AcDbMText
 10
5.166152830386081
 20
4.236906098579642
 30
0.0
 40
0.1458333333333333
 41
0.0
 71
     1
 72
     1
  1
RT7
  7
SLDTEXTSTYLE0
 73
     1
 44
1.0
  0
MTEXT
  5
3FE
330
1F
100
AcDbEntity
  8
OBJ
 62
     7
100
AcDbMText
 10
6.464228431760649
 20
3.928452490332219
 30
0.0
 40
0.1458333333333333
 41
0.0
 71
     1
 72
     1
  1
RT3
  7
SLDTEXTSTYLE0
 73
     1
 44
1.0
  0
TEXT
  5
404
330
1F
100
AcDbEntity
  8
0
100
AcDbText
 10
3.931928635655467
 20
3.47383009383811
 30
0.0
 40
0.25
  1
USP  RT
100
AcDbText
  0
TEXT
  5
405
330
1F
100
AcDbEntity
  8
0
100
AcDbText
 10
3.016893798531349
 20
2.987264499721336
 30
0.0
 40
0.25
  1
SIMPSON  H
100
AcDbText
  0
ENDSEC
  0
SECTION
  2
OBJECTS
  0
DICTIONARY
  5
C
330
0
100
AcDbDictionary
281
     1
  3
ACAD_COLOR
350
401
  3
ACAD_GROUP
350
D
  3
ACAD_LAYOUT
350
1A
  3
ACAD_MATERIAL
350
400
  3
ACAD_MLINESTYLE
350
17
  3
ACAD_PLOTSETTINGS
350
19
  3
ACAD_PLOTSTYLENAME
350
E
  0
DICTIONARY
  5
401
102
{ACAD_REACTORS
330
C
102
}
330
C
100
AcDbDictionary
281
     1
  0
DICTIONARY
  5
D
102
{ACAD_REACTORS
330
C
102
}
330
C
100
AcDbDictionary
281
     1
  0
DICTIONARY
  5
1A
102
{ACAD_REACTORS
330
C
102
}
330
C
100
AcDbDictionary
281
     1
  3
Layout1
350
1E
  3
Layout2
350
26
  3
Model
350
22
  0
DICTIONARY
  5
400
102
{ACAD_REACTORS
330
C
102
}
330
C
100
AcDbDictionary
281
     1
  0
DICTIONARY
  5
17
102
{ACAD_REACTORS
330
C
102
}
330
C
100
AcDbDictionary
281
     1
  3
Standard
350
18
  0
DICTIONARY
  5
19
102
{ACAD_REACTORS
330
C
102
}
330
C
100
AcDbDictionary
281
     1
  0
ACDBDICTIONARYWDFLT
  5
E
102
{ACAD_REACTORS
330
C
102
}
330
C
100
AcDbDictionary
281
     1
  3
Normal
350
F
100
AcDbDictionaryWithDefault
340
F
  0
LAYOUT
  5
1E
102
{ACAD_REACTORS
330
1A
102
}
330
1A
100
AcDbPlotSettings
  1

  2
none_device
  4

  6

 40
0.0
 41
0.0
 42
0.0
 43
0.0
 44
0.0
 45
0.0
 46
0.0
 47
0.0
 48
0.0
 49
0.0
140
0.0
141
0.0
142
1.0
143
1.0
 70
   688
 72
     0
 73
     0
 74
     5
  7

 75
    16
147
1.0
 76
     0
 77
     2
 78
   300
148
0.0
149
0.0
100
AcDbLayout
  1
Layout1
 70
     1
 71
     1
 10
0.0
 20
0.0
 11
12.0
 21
9.0
 12
0.0
 22
0.0
 32
0.0
 14
1.000000000000000E+20
 24
1.000000000000000E+20
 34
1.000000000000000E+20
 15
-1.000000000000000E+20
 25
-1.000000000000000E+20
 35
-1.000000000000000E+20
146
0.0
 13
0.0
 23
0.0
 33
0.0
 16
1.0
 26
0.0
 36
0.0
 17
0.0
 27
1.0
 37
0.0
 76
     0
330
1B
  0
LAYOUT
  5
26
102
{ACAD_REACTORS
330
1A
102
}
330
1A
100
AcDbPlotSettings
  1

  2
none_device
  4

  6

 40
0.0
 41
0.0
 42
0.0
 43
0.0
 44
0.0
 45
0.0
 46
0.0
 47
0.0
 48
0.0
 49
0.0
140
0.0
141
0.0
142
1.0
143
1.0
 70
   688
 72
     0
 73
     0
 74
     5
  7

 75
    16
147
1.0
 76
     0
 77
     2
 78
   300
148
0.0
149
0.0
100
AcDbLayout
  1
Layout2
 70
     1
 71
     2
 10
0.0
 20
0.0
 11
0.0
 21
0.0
 12
0.0
 22
0.0
 32
0.0
 14
0.0
 24
0.0
 34
0.0
 15
0.0
 25
0.0
 35
0.0
146
0.0
 13
0.0
 23
0.0
 33
0.0
 16
1.0
 26
0.0
 36
0.0
 17
0.0
 27
1.0
 37
0.0
 76
     0
330
23
  0
LAYOUT
  5
22
102
{ACAD_REACTORS
330
1A
102
}
330
1A
100
AcDbPlotSettings
  1

  2
none_device
  4

  6

 40
0.0
 41
0.0
 42
0.0
 43
0.0
 44
0.0
 45
0.0
 46
0.0
 47
0.0
 48
0.0
 49
0.0
140
0.0
141
0.0
142
1.0
143
1.0
 70
  1712
 72
     0
 73
     0
 74
     0
  7

 75
     0
147
1.0
 76
     0
 77
     2
 78
   300
148
0.0
149
0.0
100
AcDbLayout
  1
Model
 70
     1
 71
     0
 10
0.0
 20
0.0
 11
8.5
 21
11.0
 12
0.0
 22
0.0
 32
0.0
 14
0.0
 24
0.0
 34
0.0
 15
8.5
 25
11.0
 35
0.0
146
0.0
 13
0.0
 23
0.0
 33
0.0
 16
1.0
 26
0.0
 36
0.0
 17
0.0
 27
1.0
 37
0.0
 76
     0
330
1F
  0
MLINESTYLE
  5
18
102
{ACAD_REACTORS
330
17
102
}
330
17
100
AcDbMlineStyle
  2
STANDARD
 70
     0
  3

 62
   256
 51
90.0
 52
90.0
 71
     2
 49
0.5
 62
   256
  6
BYLAYER
 49
-0.5
 62
   256
  6
BYLAYER
  0
ACDBPLACEHOLDER
  5
F
102
{ACAD_REACTORS
330
E
102
}
330
E
  0
ENDSEC
  0
EOF
