  0
SECTION
  2
HEADER
  9
$ACADVER
  1
AC1018
  9
$ACADMAINTVER
 70
     0
  9
$DWGCODEPAGE
  3
ANSI_1252
  9
$INSBASE
 10
0.0
 20
0.0
 30
0.0
  9
$EXTMIN
 10
0.9514003774484647
 20
-0.1240728397392132
 30
-0.0000000000000034
  9
$EXTMAX
 10
3.24890858696599
 20
2.37834265394409
 30
0.0
  9
$LIMMIN
 10
0.0
 20
0.0
  9
$LIMMAX
 10
12.0
 20
9.0
  9
$ORTHOMODE
 70
     0
  9
$REGENMODE
 70
     1
  9
$FILLMODE
 70
     1
  9
$QTEXTMODE
 70
     0
  9
$MIRRTEXT
 70
     0
  9
$LTSCALE
 40
1.5
  9
$ATTMODE
 70
     1
  9
$TEXTSIZE
 40
0.125
  9
$TRACEWID
 40
0.05
  9
$TEXTSTYLE
  7
STANDARD
  9
$CLAYER
  8
0
  9
$CELTYPE
  6
BYLAYER
  9
$CECOLOR
 62
   256
  9
$CELTSCALE
 40
1.0
  9
$DISPSILH
 70
     1
  9
$DIMSCALE
 40
1.0
  9
$DIMASZ
 40
0.18
  9
$DIMEXO
 40
0.0625
  9
$DIMDLI
 40
0.38
  9
$DIMRND
 40
0.0
  9
$DIMDLE
 40
0.0
  9
$DIMEXE
 40
0.18
  9
$DIMTP
 40
0.0
  9
$DIMTM
 40
0.0
  9
$DIMTXT
 40
0.18
  9
$DIMCEN
 40
0.09
  9
$DIMTSZ
 40
0.0
  9
$DIMTOL
 70
     0
  9
$DIMLIM
 70
     0
  9
$DIMTIH
 70
     1
  9
$DIMTOH
 70
     1
  9
$DIMSE1
 70
     0
  9
$DIMSE2
 70
     0
  9
$DIMTAD
 70
     0
  9
$DIMZIN
 70
     0
  9
$DIMBLK
  1

  9
$DIMASO
 70
     1
  9
$DIMSHO
 70
     1
  9
$DIMPOST
  1

  9
$DIMAPOST
  1

  9
$DIMALT
 70
     0
  9
$DIMALTD
 70
     2
  9
$DIMALTF
 40
25.4
  9
$DIMLFAC
 40
1.0
  9
$DIMTOFL
 70
     0
  9
$DIMTVP
 40
0.0
  9
$DIMTIX
 70
     0
  9
$DIMSOXD
 70
     0
  9
$DIMSAH
 70
     0
  9
$DIMBLK1
  1

  9
$DIMBLK2
  1

  9
$DIMSTYLE
  2
STANDARD
  9
$DIMCLRD
 70
     0
  9
$DIMCLRE
 70
     0
  9
$DIMCLRT
 70
     0
  9
$DIMTFAC
 40
1.0
  9
$DIMGAP
 40
0.09
  9
$DIMJUST
 70
     0
  9
$DIMSD1
 70
     0
  9
$DIMSD2
 70
     0
  9
$DIMTOLJ
 70
     1
  9
$DIMTZIN
 70
     0
  9
$DIMALTZ
 70
     0
  9
$DIMALTTZ
 70
     0
  9
$DIMUPT
 70
     0
  9
$DIMDEC
 70
     4
  9
$DIMTDEC
 70
     4
  9
$DIMALTU
 70
     2
  9
$DIMALTTD
 70
     2
  9
$DIMTXSTY
  7
STANDARD
  9
$DIMAUNIT
 70
     0
  9
$DIMADEC
 70
     0
  9
$DIMALTRND
 40
0.0
  9
$DIMAZIN
 70
     0
  9
$DIMDSEP
 70
    46
  9
$DIMATFIT
 70
     3
  9
$DIMFRAC
 70
     0
  9
$DIMLDRBLK
  1

  9
$DIMLUNIT
 70
     2
  9
$DIMLWD
 70
    -2
  9
$DIMLWE
 70
    -2
  9
$DIMTMOVE
 70
     0
  9
$LUNITS
 70
     5
  9
$LUPREC
 70
     6
  9
$SKETCHINC
 40
0.1
  9
$FILLETRAD
 40
0.0
  9
$AUNITS
 70
     0
  9
$AUPREC
 70
     1
  9
$MENU
  1
CUSTOM
  9
$ELEVATION
 40
0.0
  9
$PELEVATION
 40
0.0
  9
$THICKNESS
 40
0.0
  9
$LIMCHECK
 70
     0
  9
$CHAMFERA
 40
0.0
  9
$CHAMFERB
 40
0.0
  9
$CHAMFERC
 40
0.0
  9
$CHAMFERD
 40
0.0
  9
$SKPOLY
 70
     0
  9
$TDCREATE
 40
2451263.704898032
  9
$TDUCREATE
 40
2451263.913231366
  9
$TDUPDATE
 40
2456573.358627917
  9
$TDUUPDATE
 40
2456573.566961250
  9
$TDINDWG
 40
0.6566151968
  9
$TDUSRTIMER
 40
0.6566151968
  9
$USRTIMER
 70
     1
  9
$ANGBASE
 50
0.0
  9
$ANGDIR
 70
     0
  9
$PDMODE
 70
     0
  9
$PDSIZE
 40
0.0
  9
$PLINEWID
 40
0.0
  9
$SPLFRAME
 70
     0
  9
$SPLINETYPE
 70
     6
  9
$SPLINESEGS
 70
     8
  9
$HANDSEED
  5
2F8
  9
$SURFTAB1
 70
     6
  9
$SURFTAB2
 70
     6
  9
$SURFTYPE
 70
     6
  9
$SURFU
 70
     6
  9
$SURFV
 70
     6
  9
$UCSBASE
  2

  9
$UCSNAME
  2

  9
$UCSORG
 10
0.0
 20
0.0
 30
0.0
  9
$UCSXDIR
 10
1.0
 20
0.0
 30
0.0
  9
$UCSYDIR
 10
0.0
 20
1.0
 30
0.0
  9
$UCSORTHOREF
  2

  9
$UCSORTHOVIEW
 70
     1
  9
$UCSORGTOP
 10
0.0
 20
0.0
 30
0.0
  9
$UCSORGBOTTOM
 10
0.0
 20
0.0
 30
0.0
  9
$UCSORGLEFT
 10
0.0
 20
0.0
 30
0.0
  9
$UCSORGRIGHT
 10
0.0
 20
0.0
 30
0.0
  9
$UCSORGFRONT
 10
0.0
 20
0.0
 30
0.0
  9
$UCSORGBACK
 10
0.0
 20
0.0
 30
0.0
  9
$PUCSBASE
  2

  9
$PUCSNAME
  2

  9
$PUCSORG
 10
0.0
 20
0.0
 30
0.0
  9
$PUCSXDIR
 10
1.0
 20
0.0
 30
0.0
  9
$PUCSYDIR
 10
0.0
 20
1.0
 30
0.0
  9
$PUCSORTHOREF
  2

  9
$PUCSORTHOVIEW
 70
     0
  9
$PUCSORGTOP
 10
0.0
 20
0.0
 30
0.0
  9
$PUCSORGBOTTOM
 10
0.0
 20
0.0
 30
0.0
  9
$PUCSORGLEFT
 10
0.0
 20
0.0
 30
0.0
  9
$PUCSORGRIGHT
 10
0.0
 20
0.0
 30
0.0
  9
$PUCSORGFRONT
 10
0.0
 20
0.0
 30
0.0
  9
$PUCSORGBACK
 10
0.0
 20
0.0
 30
0.0
  9
$USERI1
 70
     0
  9
$USERI2
 70
     0
  9
$USERI3
 70
     0
  9
$USERI4
 70
     0
  9
$USERI5
 70
     0
  9
$USERR1
 40
0.0
  9
$USERR2
 40
0.0
  9
$USERR3
 40
0.0
  9
$USERR4
 40
0.0
  9
$USERR5
 40
0.0
  9
$WORLDVIEW
 70
     1
  9
$SHADEDGE
 70
     3
  9
$SHADEDIF
 70
    70
  9
$TILEMODE
 70
     1
  9
$MAXACTVP
 70
    16
  9
$PINSBASE
 10
0.0
 20
0.0
 30
0.0
  9
$PLIMCHECK
 70
     0
  9
$PEXTMIN
 10
1.049999952316284
 20
0.7999999523162842
 30
0.0
  9
$PEXTMAX
 10
9.449999570846555
 20
7.199999570846556
 30
0.0
  9
$PLIMMIN
 10
0.0
 20
0.0
  9
$PLIMMAX
 10
12.0
 20
9.0
  9
$UNITMODE
 70
     0
  9
$VISRETAIN
 70
     0
  9
$PLINEGEN
 70
     0
  9
$PSLTSCALE
 70
     0
  9
$TREEDEPTH
 70
  3020
  9
$CMLSTYLE
  2
STANDARD
  9
$CMLJUST
 70
     0
  9
$CMLSCALE
 40
1.0
  9
$PROXYGRAPHICS
 70
     1
  9
$MEASUREMENT
 70
     0
  9
$CELWEIGHT
370
    -1
  9
$ENDCAPS
280
     0
  9
$JOINSTYLE
280
     0
  9
$LWDISPLAY
290
     0
  9
$INSUNITS
 70
     0
  9
$HYPERLINKBASE
  1

  9
$STYLESHEET
  1
USP.ctb
  9
$XEDIT
290
     1
  9
$CEPSNTYPE
380
     0
  9
$PSTYLEMODE
290
     1
  9
$FINGERPRINTGUID
  2
{5713598F-78F9-49D6-B195-77B05795DCFD}
  9
$VERSIONGUID
  2
{3638F00F-26BF-499A-8CAE-4D4BC2EA6CBE}
  9
$EXTNAMES
290
     1
  9
$PSVPSCALE
 40
0.0
  9
$OLESTARTUP
290
     0
  9
$SORTENTS
280
   127
  9
$INDEXCTL
280
     0
  9
$HIDETEXT
280
     0
  9
$XCLIPFRAME
290
     0
  9
$HALOGAP
280
     0
  9
$OBSCOLOR
 70
   257
  9
$OBSLTYPE
280
     0
  9
$INTERSECTIONDISPLAY
280
     0
  9
$INTERSECTIONCOLOR
 70
   257
  9
$DIMASSOC
280
     1
  9
$PROJECTNAME
  1

  0
ENDSEC
  0
SECTION
  2
CLASSES
  0
CLASS
  1
ACDBDICTIONARYWDFLT
  2
AcDbDictionaryWithDefault
  3
ObjectDBX Classes
 90
        0
 91
        1
280
     0
281
     0
  0
CLASS
  1
DICTIONARYVAR
  2
AcDbDictionaryVar
  3
ObjectDBX Classes
 90
        0
 91
        2
280
     0
281
     0
  0
CLASS
  1
SORTENTSTABLE
  2
AcDbSortentsTable
  3
ObjectDBX Classes
 90
        0
 91
        1
280
     0
281
     0
  0
ENDSEC
  0
SECTION
  2
TABLES
  0
TABLE
  2
VPORT
  5
DF
330
0
100
AcDbSymbolTable
 70
     3
  0
VPORT
  5
2F7
330
DF
100
AcDbSymbolTableRecord
100
AcDbViewportTableRecord
  2
*Active
 70
     0
 10
0.0
 20
0.0
 11
1.0
 21
1.0
 12
-20.53915066062925
 22
11.36546910077649
 13
0.0
 23
0.0
 14
1.0
 24
1.0
 15
0.0
 25
0.0
 16
0.0
 26
0.0
 36
1.0
 17
23.09603071721725
 27
-10.27010416511326
 37
-10.44050274849355
 40
3.022403965120881
 41
2.144329896907216
 42
50.0
 43
10.55307667737539
 44
10.55307667737539
 50
0.0
 51
0.0
 71
     0
 72
   100
 73
     1
 74
     1
 75
     0
 76
     0
 77
     0
 78
     0
281
     0
 65
     1
110
0.0
120
0.0
130
0.0
111
1.0
121
0.0
131
0.0
112
0.0
122
1.0
132
0.0
 79
     1
146
0.0
  0
ENDTAB
  0
TABLE
  2
LTYPE
  5
DA
330
0
100
AcDbSymbolTable
 70
     1
  0
LTYPE
  5
DB
330
DA
100
AcDbSymbolTableRecord
100
AcDbLinetypeTableRecord
  2
BYBLOCK
 70
     0
  3

 72
    65
 73
     0
 40
0.0
  0
LTYPE
  5
DC
330
DA
100
AcDbSymbolTableRecord
100
AcDbLinetypeTableRecord
  2
BYLAYER
 70
     0
  3

 72
    65
 73
     0
 40
0.0
  0
LTYPE
  5
6
330
DA
100
AcDbSymbolTableRecord
100
AcDbLinetypeTableRecord
  2
CONTINUOUS
 70
     0
  3
Solid line
 72
    65
 73
     0
 40
0.0
  0
ENDTAB
  0
TABLE
  2
LAYER
  5
D8
330
0
100
AcDbSymbolTable
 70
     9
  0
LAYER
  5
22
330
D8
100
AcDbSymbolTableRecord
100
AcDbLayerTableRecord
  2
0
 70
     0
 62
     7
  6
CONTINUOUS
370
    -3
390
EE
  0
LAYER
  5
19
330
D8
100
AcDbSymbolTableRecord
100
AcDbLayerTableRecord
  2
USP
 70
     0
 62
     7
  6
CONTINUOUS
370
    -3
390
EE
  0
LAYER
  5
1C
330
D8
100
AcDbSymbolTableRecord
100
AcDbLayerTableRecord
  2
USP-GEO
 70
     0
 62
     7
  6
CONTINUOUS
370
    -3
390
EE
  0
LAYER
  5
5
330
D8
100
AcDbSymbolTableRecord
100
AcDbLayerTableRecord
  2
USP-TXT
 70
     0
 62
     7
  6
CONTINUOUS
370
    -3
390
EE
  0
LAYER
  5
148
330
D8
100
AcDbSymbolTableRecord
100
AcDbLayerTableRecord
  2
OBJ
 70
     0
 62
     7
  6
CONTINUOUS
370
    -3
390
EE
  0
LAYER
  5
149
330
D8
100
AcDbSymbolTableRecord
100
AcDbLayerTableRecord
  2
DIM
 70
     0
 62
     3
  6
CONTINUOUS
370
    -3
390
EE
  0
LAYER
  5
225
330
D8
100
AcDbSymbolTableRecord
100
AcDbLayerTableRecord
  2
PV-1983
 70
     2
 62
     7
  6
CONTINUOUS
370
    -3
390
EE
  0
LAYER
  5
2E2
330
D8
100
AcDbSymbolTableRecord
100
AcDbLayerTableRecord
  2
LUMBER
 70
     0
 62
    42
  6
CONTINUOUS
370
    -3
390
EE
  0
LAYER
  5
2E3
330
D8
100
AcDbSymbolTableRecord
100
AcDbLayerTableRecord
  2
PV-19A8
 70
     2
 62
     7
  6
CONTINUOUS
370
    -3
390
EE
  0
ENDTAB
  0
TABLE
  2
STYLE
  5
D9
330
0
100
AcDbSymbolTable
 70
     1
  0
STYLE
  5
7
330
D9
100
AcDbSymbolTableRecord
100
AcDbTextStyleTableRecord
  2
STANDARD
 70
     0
 40
0.0
 41
1.0
 50
0.0
 71
     0
 42
0.125
  3
txt
  4

  0
ENDTAB
  0
TABLE
  2
VIEW
  5
DD
330
0
100
AcDbSymbolTable
 70
     0
  0
ENDTAB
  0
TABLE
  2
UCS
  5
DE
330
0
100
AcDbSymbolTable
 70
     0
  0
ENDTAB
  0
TABLE
  2
APPID
  5
E1
330
0
100
AcDbSymbolTable
 70
     1
  0
APPID
  5
E2
330
E1
100
AcDbSymbolTableRecord
100
AcDbRegAppTableRecord
  2
ACAD
 70
     0
  0
ENDTAB
  0
TABLE
  2
DIMSTYLE
  5
E3
330
0
100
AcDbSymbolTable
 70
     1
100
AcDbDimStyleTable
 71
     0
  0
DIMSTYLE
105
EB
330
E3
100
AcDbSymbolTableRecord
100
AcDbDimStyleTableRecord
  2
STANDARD
 70
     0
340
7
  0
ENDTAB
  0
TABLE
  2
BLOCK_RECORD
  5
1
330
0
100
AcDbSymbolTable
 70
     4
  0
BLOCK_RECORD
  5
2
102
{ACAD_XDICTIONARY
360
CF
102
}
330
1
100
AcDbSymbolTableRecord
100
AcDbBlockTableRecord
  2
*MODEL_SPACE
340
F3
  0
BLOCK_RECORD
  5
D3
102
{ACAD_XDICTIONARY
360
D4
102
}
330
1
100
AcDbSymbolTableRecord
100
AcDbBlockTableRecord
  2
*PAPER_SPACE
340
F4
  0
BLOCK_RECORD
  5
1A
102
{ACAD_XDICTIONARY
360
12A
102
}
330
1
100
AcDbSymbolTableRecord
100
AcDbBlockTableRecord
  2
base blockA
340
0
  0
BLOCK_RECORD
  5
12C
330
1
100
AcDbSymbolTableRecord
100
AcDbBlockTableRecord
  2
BLOCK A
340
0
  0
BLOCK_RECORD
  5
231
330
1
100
AcDbSymbolTableRecord
100
AcDbBlockTableRecord
  2
*U2
340
0
102
{BLKREFS
331
2E5
102
}
  0
BLOCK_RECORD
  5
2E4
330
1
100
AcDbSymbolTableRecord
100
AcDbBlockTableRecord
  2
A$C29972C7C
340
0
102
{BLKREFS
331
2E8
102
}
  0
ENDTAB
  0
ENDSEC
  0
SECTION
  2
BLOCKS
  0
BLOCK
  5
D1
330
2
100
AcDbEntity
  8
0
100
AcDbBlockBegin
  2
*MODEL_SPACE
 70
     0
 10
0.0
 20
0.0
 30
0.0
  3
*MODEL_SPACE
  1

  0
ENDBLK
  5
D2
330
2
100
AcDbEntity
  8
0
100
AcDbBlockEnd
  0
BLOCK
  5
D6
330
D3
100
AcDbEntity
 67
     1
  8
0
100
AcDbBlockBegin
  2
*PAPER_SPACE
 70
     0
 10
0.0
 20
0.0
 30
0.0
  3
*PAPER_SPACE
  1

  0
ENDBLK
  5
D7
330
D3
100
AcDbEntity
 67
     1
  8
0
100
AcDbBlockEnd
  0
BLOCK
  5
37
330
1A
100
AcDbEntity
  8
0
100
AcDbBlockBegin
  2
base blockA
 70
     2
 10
0.0
 20
0.0
 30
0.0
  3
base blockA
  1

  0
LWPOLYLINE
  5
1B
330
1A
100
AcDbEntity
  8
USP-GEO
100
AcDbPolyline
 90
        4
 70
     1
 43
0.0
 10
0.0
 20
0.0
 10
0.0
 20
3.0
 10
3.0
 20
3.0
 10
3.0
 20
0.0
  0
TEXT
  5
1D
330
1A
100
AcDbEntity
  8
USP-TXT
100
AcDbText
 10
0.5126323550828254
 20
0.0577537530311503
 30
0.0
 40
0.046875
  1
 Copyright 2004 United Steel Products Company
100
AcDbText
  0
TEXT
  5
1E
330
1A
100
AcDbEntity
  8
USP-TXT
100
AcDbText
 10
0.5204091789382091
 20
0.1551392140505712
 30
0.0
 40
0.078125
  1
USP Structural Connectors
100
AcDbText
  0
CIRCLE
  5
1F
330
1A
100
AcDbEntity
  8
USP-TXT
100
AcDbCircle
 10
0.5128464045112509
 20
0.0830320346476796
 30
0.0
 40
0.0214703793180158
  0
TEXT
  5
20
330
1A
100
AcDbEntity
  8
USP-TXT
100
AcDbText
 10
0.5042237483422803
 20
0.0697781247899698
 30
0.0
 40
0.0254123629763196
  1
C
100
AcDbText
  0
TEXT
  5
21
330
1A
100
AcDbEntity
  8
0
100
AcDbText
 10
2.434466095748831
 20
0.1975394907214323
 30
0.0
 40
0.0398157395393663
  1
TM
100
AcDbText
  0
ATTDEF
  5
23
330
1A
100
AcDbEntity
  8
USP-TXT
100
AcDbText
 10
0.2285944087798271
 20
2.131422307042676
 30
0.0
 40
0.09375
  1
REF#
100
AcDbAttributeDefinition
  3
REF#
  2
REF#
 70
     0
  0
ATTDEF
  5
24
330
1A
100
AcDbEntity
  8
USP-TXT
100
AcDbText
 10
0.228804698318946
 20
2.663353083391648
 30
0.0
 40
0.156
  1
PART#
100
AcDbAttributeDefinition
  3
ENTER PART#
  2
PART#
 70
     0
  0
ATTDEF
  5
25
330
1A
100
AcDbEntity
  8
USP-TXT
100
AcDbText
 10
0.2287687103892821
 20
2.455939297974389
 30
0.0
 40
0.094
  1
DESC
100
AcDbAttributeDefinition
  3
DESC OF PART
  2
DESC
 70
     0
  0
ATTDEF
  5
26
330
1A
100
AcDbEntity
  8
USP-TXT
100
AcDbText
 10
0.2287687103892821
 20
2.296477206945141
 30
0.0
 40
0.094
  1
DESC
100
AcDbAttributeDefinition
  3
DESC OF PART
  2
DESC
 70
     0
  0
ATTDEF
  5
27
330
1A
100
AcDbEntity
  8
USP-TXT
100
AcDbText
 10
0.228804698318946
 20
0.9922084511082687
 30
0.0
 40
0.063
  1
EXTDESC
100
AcDbAttributeDefinition
  3
ADDITION DESC
  2
EXTDESC
 70
     0
  0
ATTDEF
  5
28
330
1A
100
AcDbEntity
  8
USP-TXT
100
AcDbText
 10
0.228804698318946
 20
0.7280192225426916
 30
0.0
 40
0.094
  1
Fast
100
AcDbAttributeDefinition
  3
Fasteners
  2
FAST
 70
     0
  0
ATTDEF
  5
29
330
1A
100
AcDbEntity
  8
USP-TXT
100
AcDbText
 10
0.228804698318946
 20
0.5901712537022519
 30
0.0
 40
0.063
  1
Supporting Member:
100
AcDbAttributeDefinition
  3
Supporting
  2
SUPPORTING
 70
     0
  0
ATTDEF
  5
2A
330
1A
100
AcDbEntity
  8
USP-TXT
100
AcDbText
 10
0.2325701781462328
 20
0.4923097209131698
 30
0.0
 40
0.063
  1
SUPPORTED
100
AcDbAttributeDefinition
  3
Supported
  2
SUPPORTED
 70
     0
  0
ATTDEF
  5
2B
330
1A
100
AcDbEntity
  8
USP-TXT
100
AcDbText
 10
0.3467694348797607
 20
1.814279556124766
 30
0.0
 40
0.063
  1
NER#
100
AcDbAttributeDefinition
  3
NER#
  2
NER#
 70
     0
  0
ATTDEF
  5
2C
330
1A
100
AcDbEntity
  8
USP-TXT
100
AcDbText
 10
0.3467694348797607
 20
1.722117780662095
 30
0.0
 40
0.063
  1
NER#
100
AcDbAttributeDefinition
  3
NER#
  2
NER#
 70
     0
  0
ATTDEF
  5
2D
330
1A
100
AcDbEntity
  8
USP-TXT
100
AcDbText
 10
0.3467694348797607
 20
1.631015334721752
 30
0.0
 40
0.063
  1
NER#
100
AcDbAttributeDefinition
  3
NER#
  2
NER#
 70
     0
  0
ATTDEF
  5
2E
330
1A
100
AcDbEntity
  8
USP-TXT
100
AcDbText
 10
0.3467694348797607
 20
1.537794229736753
 30
0.0
 40
0.063
  1
NER#
100
AcDbAttributeDefinition
  3
NER#
  2
NER#
 70
     0
  0
ATTDEF
  5
2F
330
1A
100
AcDbEntity
  8
USP-TXT
100
AcDbText
 10
0.3467694348797607
 20
1.448810442841057
 30
0.0
 40
0.063
  1
NER#
100
AcDbAttributeDefinition
  3
NER#
  2
NER#
 70
     0
  0
ATTDEF
  5
30
330
1A
100
AcDbEntity
  8
USP-TXT
100
AcDbText
 10
0.2283634841335704
 20
1.934648364679425
 30
0.0
 40
0.063
  1

100
AcDbAttributeDefinition
  3
Code Listings:
  2
CODE
 70
     0
  0
ATTDEF
  5
31
330
1A
100
AcDbEntity
  8
USP-TXT
100
AcDbText
 10
0.2300163426662962
 20
1.266739663439999
 30
0.0
 40
0.063
  1
pat
100
AcDbAttributeDefinition
  3
pat
  2
PAT
 70
     0
  0
ATTDEF
  5
32
330
1A
100
AcDbEntity
  8
USP-TXT
100
AcDbText
 10
0.2300163426662962
 20
1.168627150031042
 30
0.0
 40
0.063
  1
pat
100
AcDbAttributeDefinition
  3
pat
  2
PAT
 70
     0
  0
ATTDEF
  5
33
330
1A
100
AcDbEntity
  8
USP-TXT
100
AcDbText
 10
1.328369046230498
 20
0.5884879628236562
 30
0.0
 40
0.063
  1
SUPT'G
100
AcDbAttributeDefinition
  3
SUPT'G
  2
SUPT'G
 70
     0
  0
ATTDEF
  5
34
330
1A
100
AcDbEntity
  8
USP-TXT
100
AcDbText
 10
1.324378030103837
 20
0.4936287084484193
 30
0.0
 40
0.063
  1
SUPT'D
100
AcDbAttributeDefinition
  3
SUPT'D
  2
SUPT'D
 70
     0
  0
ENDBLK
  5
38
330
1A
100
AcDbEntity
  8
0
100
AcDbBlockEnd
  0
BLOCK
  5
12D
330
12C
100
AcDbEntity
  8
0
100
AcDbBlockBegin
  2
BLOCK A
 70
     2
 10
0.0
 20
0.0
 30
0.0
  3
BLOCK A
  1

  0
ATTDEF
  5
12E
330
12C
100
AcDbEntity
  8
0
100
AcDbText
 10
-29.86489534281622
 20
58.5397480204784
 30
-1.698343055800367
 40
0.063
  1
NER#
100
AcDbAttributeDefinition
  3
NER#
  2
NER#
 70
     0
  0
ATTDEF
  5
12F
330
12C
100
AcDbEntity
  8
0
100
AcDbText
 10
-28.88728674759214
 20
57.61200418933724
 30
0.0
 40
0.063
  1
SUPT'D
100
AcDbAttributeDefinition
  3
SUPT'D
  2
SUPT'D
 70
     0
  0
ATTDEF
  5
130
330
12C
100
AcDbEntity
  8
0
100
AcDbText
 10
-28.88329573146548
 20
57.70686344371248
 30
0.0
 40
0.063
  1
SUPT'G
100
AcDbAttributeDefinition
  3
SUPT'G
  2
SUPT'G
 70
     0
  0
ATTDEF
  5
131
330
12C
100
AcDbEntity
  8
0
100
AcDbText
 10
-29.98164843502968
 20
58.28700263091986
 30
0.0
 40
0.063
  1
pat
100
AcDbAttributeDefinition
  3
pat
  2
PAT
 70
     0
  0
ATTDEF
  5
132
330
12C
100
AcDbEntity
  8
0
100
AcDbText
 10
-29.98164843502968
 20
58.38511514432882
 30
0.0
 40
0.063
  1
pat
100
AcDbAttributeDefinition
  3
pat
  2
PAT
 70
     0
  0
ATTDEF
  5
133
330
12C
100
AcDbEntity
  8
0
100
AcDbText
 10
-29.98330129356241
 20
59.11454017864643
 30
0.0
 40
0.063
  1

100
AcDbAttributeDefinition
  3
Code Listings:
  2
CODE
 70
     0
  0
ATTDEF
  5
134
330
12C
100
AcDbEntity
  8
0
100
AcDbText
 10
-29.86489534281622
 20
58.62870225680807
 30
-1.698343055800367
 40
0.063
  1
NER#
100
AcDbAttributeDefinition
  3
NER#
  2
NER#
 70
     0
  0
ATTDEF
  5
135
330
12C
100
AcDbEntity
  8
0
100
AcDbText
 10
-29.86489534281622
 20
58.71768604370377
 30
-1.698343055800367
 40
0.063
  1
NER#
100
AcDbAttributeDefinition
  3
NER#
  2
NER#
 70
     0
  0
ATTDEF
  5
136
330
12C
100
AcDbEntity
  8
0
100
AcDbText
 10
-29.86489534281622
 20
58.81090714868876
 30
-1.698343055800367
 40
0.063
  1
NER#
100
AcDbAttributeDefinition
  3
NER#
  2
NER#
 70
     0
  0
ATTDEF
  5
137
330
12C
100
AcDbEntity
  8
0
100
AcDbText
 10
-29.86489534281622
 20
58.90200959462911
 30
-1.698343055800367
 40
0.063
  1
NER#
100
AcDbAttributeDefinition
  3
NER#
  2
NER#
 70
     0
  0
ATTDEF
  5
138
330
12C
100
AcDbEntity
  8
0
100
AcDbText
 10
-29.86489534281622
 20
58.99417137009177
 30
-1.698343055800367
 40
0.063
  1
NER#
100
AcDbAttributeDefinition
  3
NER#
  2
NER#
 70
     0
  0
ATTDEF
  5
139
330
12C
100
AcDbEntity
  8
0
100
AcDbText
 10
-29.97909459954975
 20
57.61068520180199
 30
-0.8491715279001837
 40
0.063
  1
SUPPORTED
100
AcDbAttributeDefinition
  3
Supported
  2
SUPPORTED
 70
     0
  0
ATTDEF
  5
13A
330
12C
100
AcDbEntity
  8
0
100
AcDbText
 10
-29.98286007937704
 20
57.70854673459107
 30
-0.8491715279001837
 40
0.063
  1
Supporting Member:
100
AcDbAttributeDefinition
  3
Supporting
  2
SUPPORTING
 70
     0
  0
ATTDEF
  5
13B
330
12C
100
AcDbEntity
  8
0
100
AcDbText
 10
-29.98286007937704
 20
57.84639470343151
 30
-0.8491715279001837
 40
0.094
  1
Fast
100
AcDbAttributeDefinition
  3
Fasteners
  2
FAST
 70
     0
  0
ATTDEF
  5
13C
330
12C
100
AcDbEntity
  8
0
100
AcDbText
 10
-29.98286007937704
 20
58.11058393199709
 30
-0.8491715279001837
 40
0.063
  1
EXTDESC
100
AcDbAttributeDefinition
  3
ADDITION DESC
  2
EXTDESC
 70
     0
  0
ATTDEF
  5
13D
330
12C
100
AcDbEntity
  8
0
100
AcDbText
 10
-29.9828960673067
 20
59.41485268783396
 30
-1.698343055800367
 40
0.094
  1
DESC
100
AcDbAttributeDefinition
  3
DESC OF PART
  2
DESC
 70
     0
  0
ATTDEF
  5
13E
330
12C
100
AcDbEntity
  8
0
100
AcDbText
 10
-29.9828960673067
 20
59.57431477886321
 30
-1.698343055800367
 40
0.094
  1
DESC
100
AcDbAttributeDefinition
  3
DESC OF PART
  2
DESC
 70
     0
  0
ATTDEF
  5
13F
330
12C
100
AcDbEntity
  8
0
100
AcDbText
 10
-29.98286007937704
 20
59.78172856428047
 30
-0.8491715279001837
 40
0.156
  1
PART#
100
AcDbAttributeDefinition
  3
ENTER PART#
  2
PART#
 70
     0
  0
ATTDEF
  5
140
330
12C
100
AcDbEntity
  8
0
100
AcDbText
 10
-29.98307036891615
 20
59.2497977879315
 30
0.0
 40
0.09375
  1
REF#
100
AcDbAttributeDefinition
  3
REF#
  2
REF#
 70
     0
  0
TEXT
  5
141
330
12C
100
AcDbEntity
  8
0
100
AcDbText
 10
-27.77719868194715
 20
57.31591497161026
 30
0.0
 40
0.0398157395393663
  1
TM
100
AcDbText
  0
TEXT
  5
142
330
12C
100
AcDbEntity
  8
0
100
AcDbText
 10
-29.7074410293537
 20
57.18815360567879
 30
0.0
 40
0.0254123629763196
  1
C
100
AcDbText
  0
CIRCLE
  5
143
330
12C
100
AcDbEntity
  8
0
100
AcDbCircle
 10
-29.69881837318473
 20
57.2014075155365
 30
0.0
 40
0.0214703793180158
  0
TEXT
  5
144
330
12C
100
AcDbEntity
  8
0
100
AcDbText
 10
-29.69125559875777
 20
57.27351469493939
 30
0.0
 40
0.078125
  1
USP Structural Connectors
100
AcDbText
  0
TEXT
  5
145
330
12C
100
AcDbEntity
  8
0
100
AcDbText
 10
-29.69903242261315
 20
57.17612923391997
 30
0.0
 40
0.046875
  1
 Copyright 2004 United Steel Products Company
100
AcDbText
  0
LWPOLYLINE
  5
146
330
12C
100
AcDbEntity
  8
0
100
AcDbPolyline
 90
        4
 70
     1
 43
0.0
 10
-30.21166477769598
 20
57.11837548088882
 10
-30.21166477769598
 20
60.11837548088882
 10
-27.21166477769598
 20
60.11837548088882
 10
-27.21166477769598
 20
57.11837548088882
  0
ENDBLK
  5
147
330
12C
100
AcDbEntity
  8
0
100
AcDbBlockEnd
  0
BLOCK
  5
232
330
231
100
AcDbEntity
  8
0
100
AcDbBlockBegin
  2
*U2
 70
     1
 10
0.0
 20
0.0
 30
0.0
  3
*U2
  1

  0
LINE
  5
233
330
231
100
AcDbEntity
  8
PV-19A8
100
AcDbLine
 10
32.91576110833111
 20
-18.19380299291548
 30
14.72195811541562
 11
29.98497880848829
 21
-16.72841184299407
 31
13.2565669654942
  0
LINE
  5
234
330
231
100
AcDbEntity
  8
PV-19A8
100
AcDbLine
 10
26.38274256726699
 20
-14.92729372238342
 30
11.45544884488356
 11
23.49086818958636
 21
-13.48135653354311
 31
10.00951165604324
  0
LINE
  5
235
330
231
100
AcDbEntity
  8
PV-19A8
100
AcDbLine
 10
33.4157611083311
 20
-17.69380299291548
 30
15.72195811541562
 11
29.82251896037183
 21
-15.89718191893584
 31
13.92533704143598
  0
LINE
  5
236
330
231
100
AcDbEntity
  8
PV-19A8
100
AcDbLine
 10
26.8242015229197
 20
-14.39802320020977
 30
12.42617832270991
 11
26.74473036984428
 21
-14.35828762367206
 31
12.38644274617221
  0
LINE
  5
237
330
231
100
AcDbEntity
  8
PV-19A8
100
AcDbLine
 10
25.88671919879348
 20
-13.92928203814667
 30
11.95743716064681
 11
23.99086818958636
 21
-12.98135653354311
 31
11.00951165604325
  0
LINE
  5
238
330
231
100
AcDbEntity
  8
PV-19A8
100
AcDbLine
 10
32.91576110833111
 20
-18.19380299291548
 30
14.72195811541562
 11
33.4157611083311
 21
-17.69380299291548
 31
15.72195811541562
  0
LINE
  5
239
330
231
100
AcDbEntity
  8
PV-19A8
100
AcDbLine
 10
32.81009867562851
 20
-16.48247812751029
 30
16.32762054811821
 11
33.4157611083311
 21
-17.69380299291548
 31
15.72195811541562
  0
LINE
  5
23A
330
231
100
AcDbEntity
  8
PV-19A8
100
AcDbLine
 10
32.4879298919798
 20
-16.21314056021289
 30
16.27478933176691
 11
32.8100986756285
 21
-16.48247812751029
 31
16.32762054811821
  0
LINE
  5
23B
330
231
100
AcDbEntity
  8
PV-19A8
100
AcDbLine
 10
32.84359232468239
 20
-16.17446542561808
 30
16.66912689906432
 11
32.4879298919798
 21
-16.21314056021289
 31
16.27478933176691
  0
LINE
  5
23C
330
231
100
AcDbEntity
  8
PV-19A8
100
AcDbLine
 10
32.66057962279017
 20
-16.35747812751029
 30
16.30310149527988
 11
32.84359232468239
 21
-16.17446542561807
 31
16.66912689906432
  0
LINE
  5
23D
330
231
100
AcDbEntity
  8
PV-19A8
100
AcDbLine
 10
32.52142354103369
 20
-15.90512785832066
 30
16.61629568271302
 11
32.8435923246824
 21
-16.17446542561807
 31
16.66912689906432
  0
LINE
  5
23E
330
231
100
AcDbEntity
  8
PV-19A8
100
AcDbLine
 10
31.9157611083311
 20
-14.69380299291548
 30
17.22195811541562
 11
32.52142354103369
 21
-15.90512785832067
 31
16.61629568271302
  0
LINE
  5
23F
330
231
100
AcDbEntity
  8
PV-19A8
100
AcDbLine
 10
22.49086818958636
 20
-9.98135653354311
 30
12.50951165604325
 11
25.73290317480118
 21
-11.60237402615052
 31
14.13052914865066
  0
LINE
  5
240
330
231
100
AcDbEntity
  8
PV-19A8
100
AcDbLine
 10
29.33513941602247
 20
-13.40349214676116
 30
15.9316472692613
 11
31.9157611083311
 21
-14.69380299291548
 31
17.22195811541562
  0
LINE
  5
241
330
231
100
AcDbEntity
  8
PV-19A8
100
AcDbLine
 10
21.99086818958636
 20
-10.48135653354311
 30
11.50951165604324
 11
22.54369940593766
 21
-11.5870189662457
 31
10.95668043969195
  0
LINE
  5
242
330
231
100
AcDbEntity
  8
PV-19A8
100
AcDbLine
 10
21.99086818958636
 20
-10.48135653354311
 30
11.50951165604324
 11
22.49086818958636
 21
-9.98135653354311
 31
12.50951165604324
  0
LINE
  5
243
330
231
100
AcDbEntity
  8
PV-19A8
100
AcDbLine
 10
23.09653062228895
 20
-11.19268139894829
 30
11.90384922334065
 11
22.49086818958636
 21
-9.98135653354311
 31
12.50951165604325
  0
LINE
  5
244
330
231
100
AcDbEntity
  8
PV-19A8
100
AcDbLine
 10
22.91869940593766
 20
-11.2120189662457
 30
11.70668043969195
 11
23.09653062228895
 21
-11.19268139894829
 31
11.90384922334065
  0
LINE
  5
245
330
231
100
AcDbEntity
  8
PV-19A8
100
AcDbLine
 10
22.41869940593765
 20
-11.7120189662457
 30
10.70668043969194
 11
22.97671210782987
 21
-12.17852531719181
 31
10.79818679063806
  0
LINE
  5
246
330
231
100
AcDbEntity
  8
PV-19A8
100
AcDbLine
 10
22.41869940593765
 20
-11.7120189662457
 30
10.70668043969194
 11
22.91869940593766
 21
-11.2120189662457
 31
11.70668043969195
  0
LINE
  5
247
330
231
100
AcDbEntity
  8
PV-19A8
100
AcDbLine
 10
23.56303697323506
 20
-11.75069410084051
 30
11.81234287239454
 11
22.91869940593765
 21
-11.2120189662457
 31
11.70668043969195
  0
LINE
  5
248
330
231
100
AcDbEntity
  8
PV-19A8
100
AcDbLine
 10
23.38520575688376
 20
-11.77003166813792
 30
11.61517408874584
 11
23.56303697323506
 21
-11.75069410084051
 31
11.81234287239454
  0
LINE
  5
249
330
231
100
AcDbEntity
  8
PV-19A8
100
AcDbLine
 10
23.49086818958636
 20
-13.48135653354311
 30
10.00951165604324
 11
23.99086818958636
 21
-12.98135653354311
 31
11.00951165604325
  0
LINE
  5
24A
330
231
100
AcDbEntity
  8
PV-19A8
100
AcDbLine
 10
22.88520575688377
 20
-12.27003166813792
 30
10.61517408874584
 11
23.49086818958636
 21
-13.48135653354311
 31
10.00951165604324
  0
LINE
  5
24B
330
231
100
AcDbEntity
  8
PV-19A8
100
AcDbLine
 10
22.88520575688377
 20
-12.27003166813792
 30
10.61517408874584
 11
23.38520575688376
 21
-11.77003166813792
 31
11.61517408874584
  0
LINE
  5
24C
330
231
100
AcDbEntity
  8
PV-19A8
100
AcDbLine
 10
23.99086818958636
 20
-12.98135653354311
 30
11.00951165604325
 11
23.38520575688377
 21
-11.77003166813792
 31
11.61517408874584
  0
LINE
  5
24D
330
231
100
AcDbEntity
  8
PV-19A8
100
AcDbLine
 10
25.22039951346501
 20
-4.29461056368135
 30
20.92578894978366
 11
24.30237191546943
 21
-4.283024637094784
 31
20.01934727837465
  0
LINE
  5
24E
330
231
100
AcDbEntity
  8
PV-19A8
100
AcDbLine
 10
25.42265791651049
 20
-4.668911191347141
 30
20.75374672516335
 11
25.22039951346501
 21
-4.294610563681352
 31
20.92578894978366
  0
LINE
  5
24F
330
231
100
AcDbEntity
  8
PV-19A8
100
AcDbLine
 10
25.22039951346501
 20
-4.29461056368135
 30
20.92578894978366
 11
25.46136750256879
 21
-4.415094558233242
 31
21.04627294433556
  0
LINE
  5
250
330
231
100
AcDbEntity
  8
PV-19A8
100
AcDbLine
 10
25.42265791651049
 20
-4.668911191347141
 30
20.75374672516335
 11
25.53583070630222
 21
-3.926843414601196
 31
21.60898729170102
  0
LINE
  5
251
330
231
100
AcDbEntity
  8
PV-19A8
100
AcDbLine
 10
25.73808910934769
 20
-4.301144042266987
 30
21.4369450670807
 11
25.53583070630222
 21
-3.926843414601199
 31
21.60898729170102
  0
LINE
  5
252
330
231
100
AcDbEntity
  8
PV-19A8
100
AcDbLine
 10
25.53583070630222
 20
-3.926843414601197
 30
21.60898729170102
 11
26.29857924339247
 21
-4.308217683146322
 31
21.99036156024614
  0
LINE
  5
253
330
231
100
AcDbEntity
  8
PV-19A8
100
AcDbLine
 10
26.65611670734328
 20
-4.312729968853556
 30
22.34338673848972
 11
25.73808910934769
 21
-4.301144042266987
 31
21.4369450670807
  0
LINE
  5
254
330
231
100
AcDbEntity
  8
PV-19A8
100
AcDbLine
 10
29.92676690427293
 20
-21.04709446774249
 30
8.879672436530439
 11
26.65611670734328
 21
-4.31272996885356
 31
22.34338673848972
  0
LINE
  5
255
330
231
100
AcDbEntity
  8
PV-19A8
100
AcDbLine
 10
26.65611670734328
 20
-4.312729968853556
 30
22.34338673848972
 11
27.65611670734328
 21
-4.812729968853556
 31
22.84338673848972
  0
LINE
  5
256
330
231
100
AcDbEntity
  8
PV-19A8
100
AcDbLine
 10
27.57302211239909
 20
-21.01738913598372
 30
6.555632976415364
 11
29.92676690427293
 21
-21.04709446774249
 31
8.879672436530441
  0
LINE
  5
257
330
231
100
AcDbEntity
  8
PV-19A8
100
AcDbLine
 10
29.92676690427293
 20
-21.04709446774249
 30
8.879672436530439
 11
30.92676690427293
 21
-21.5470944677425
 31
9.379672436530439
  0
LINE
  5
258
330
231
100
AcDbEntity
  8
PV-19A8
100
AcDbLine
 10
27.57302211239909
 20
-21.01738913598372
 30
6.555632976415364
 11
26.36838612106081
 21
-14.85383860206866
 31
11.51454751899214
  0
LINE
  5
259
330
231
100
AcDbEntity
  8
PV-19A8
100
AcDbLine
 10
27.57302211239909
 20
-21.01738913598372
 30
6.555632976415364
 11
28.57302211239909
 21
-21.51738913598372
 31
7.055632976415365
  0
LINE
  5
25A
330
231
100
AcDbEntity
  8
PV-19A8
100
AcDbLine
 10
25.9296134266604
 20
-12.60884700769119
 30
13.3207664189692
 11
24.30237191546943
 21
-4.283024637094781
 31
20.01934727837465
  0
LINE
  5
25B
330
231
100
AcDbEntity
  8
PV-19A8
100
AcDbLine
 10
28.57302211239909
 20
-21.51738913598372
 30
7.055632976415365
 11
30.92676690427293
 21
-21.5470944677425
 31
9.379672436530441
  0
LINE
  5
25C
330
231
100
AcDbEntity
  8
PV-19A8
100
AcDbLine
 10
30.92676690427293
 20
-21.5470944677425
 30
9.379672436530439
 11
27.65611670734328
 21
-4.81272996885356
 31
22.84338673848972
  0
LINE
  5
25D
330
231
100
AcDbEntity
  8
PV-19A8
100
AcDbLine
 10
25.9296134266604
 20
-12.60884700769119
 30
13.3207664189692
 11
26.55337323983601
 21
-13.8563666340424
 31
12.6970066057936
  0
LINE
  5
25E
330
231
100
AcDbEntity
  8
PV-19A8
100
AcDbLine
 10
26.81345548383135
 20
-14.37653112203309
 30
12.43692436179826
 11
26.8242015229197
 21
-14.39802320020977
 31
12.42617832270991
  0
LINE
  5
25F
330
231
100
AcDbEntity
  8
PV-19A8
100
AcDbLine
 10
26.8242015229197
 20
-14.39802320020977
 30
12.42617832270991
 11
26.36838612106081
 21
-14.85383860206866
 31
11.51454751899214
  0
LINE
  5
260
330
231
100
AcDbEntity
  8
PV-19A8
100
AcDbLine
 10
22.31908349671886
 20
-16.43663487546449
 30
5.882448621254366
 11
22.6851089005033
 21
-16.61964757735671
 31
6.065461323146584
  0
LINE
  5
261
330
231
100
AcDbEntity
  8
PV-19A8
100
AcDbLine
 10
23.26625228036757
 20
-17.9559724427619
 30
5.310279837605662
 11
24.26625228036757
 21
-18.4559724427619
 31
5.810279837605665
  0
LINE
  5
262
330
231
100
AcDbEntity
  8
PV-19A8
100
AcDbLine
 10
24.26625228036757
 20
-18.4559724427619
 30
5.810279837605665
 11
26.61362339631359
 21
-16.10860132681587
 31
10.50502206949771
  0
LINE
  5
263
330
231
100
AcDbEntity
  8
PV-19A8
100
AcDbLine
 10
23.26625228036757
 20
-17.9559724427619
 30
5.310279837605662
 11
25.8242015229197
 21
-15.39802320020978
 31
10.42617832270991
  0
LINE
  5
264
330
231
100
AcDbEntity
  8
PV-19A8
100
AcDbLine
 10
22.66058984766497
 20
-16.74464757735671
 30
5.915942270308256
 11
23.26625228036757
 21
-17.9559724427619
 31
5.310279837605662
  0
LINE
  5
265
330
231
100
AcDbEntity
  8
PV-19A8
100
AcDbLine
 10
22.71342106401626
 20
-16.47531001005931
 30
6.238111053956957
 11
22.66058984766496
 21
-16.74464757735671
 31
5.915942270308255
  0
LINE
  5
266
330
231
100
AcDbEntity
  8
PV-19A8
100
AcDbLine
 10
22.31908349671886
 20
-16.43663487546449
 30
5.882448621254365
 11
22.71342106401626
 21
-16.47531001005931
 31
6.238111053956957
  0
LINE
  5
267
330
231
100
AcDbEntity
  8
PV-19A8
100
AcDbLine
 10
22.37191471307016
 20
-16.16729730816709
 30
6.204617404903069
 11
22.31908349671886
 21
-16.43663487546449
 31
5.882448621254366
  0
LINE
  5
268
330
231
100
AcDbEntity
  8
PV-19A8
100
AcDbLine
 10
21.76625228036756
 20
-14.9559724427619
 30
6.810279837605661
 11
22.37191471307015
 21
-16.16729730816709
 31
6.204617404903068
  0
LINE
  5
269
330
231
100
AcDbEntity
  8
PV-19A8
100
AcDbLine
 10
22.90753485625302
 20
-13.81468986687643
 30
9.092844989376589
 11
21.76625228036756
 21
-14.9559724427619
 31
6.810279837605661
  0
LINE
  5
26A
330
231
100
AcDbEntity
  8
PV-19A8
100
AcDbLine
 10
25.8242015229197
 20
-15.39802320020978
 30
10.42617832270991
 11
26.54520241538345
 21
-15.75852364644165
 31
10.78667876894179
  0
LINE
  5
26B
330
231
100
AcDbEntity
  8
PV-19A8
100
AcDbLine
 10
32.4157611083311
 20
-18.69380299291548
 30
13.72195811541562
 11
30.14743865660473
 21
-17.5596417670523
 31
12.58779688955243
  0
LINE
  5
26C
330
231
100
AcDbEntity
  8
PV-19A8
100
AcDbLine
 10
26.54520241538345
 20
-15.75852364644165
 30
10.78667876894179
 11
22.99086818958636
 21
-13.98135653354311
 31
9.009511656043247
  0
LINE
  5
26D
330
231
100
AcDbEntity
  8
PV-19A8
100
AcDbLine
 10
32.91576110833111
 20
-18.19380299291548
 30
14.72195811541562
 11
29.98497880848828
 21
-16.72841184299407
 31
13.25656696549421
  0
LINE
  5
26E
330
231
100
AcDbEntity
  8
PV-19A8
100
AcDbLine
 10
26.38274256726699
 20
-14.92729372238342
 30
11.45544884488356
 11
23.49086818958636
 21
-13.48135653354311
 31
10.00951165604325
  0
LINE
  5
26F
330
231
100
AcDbEntity
  8
PV-19A8
100
AcDbLine
 10
32.4157611083311
 20
-18.69380299291548
 30
13.72195811541562
 11
32.91576110833111
 21
-18.19380299291548
 31
14.72195811541562
  0
LINE
  5
270
330
231
100
AcDbEntity
  8
PV-19A8
100
AcDbLine
 10
21.49086818958636
 20
-10.98135653354311
 30
10.50951165604324
 11
22.04369940593766
 21
-12.0870189662457
 31
9.95668043969195
  0
LINE
  5
271
330
231
100
AcDbEntity
  8
PV-19A8
100
AcDbLine
 10
21.49086818958636
 20
-10.98135653354311
 30
10.50951165604324
 11
21.99086818958636
 21
-10.48135653354311
 31
11.50951165604324
  0
LINE
  5
272
330
231
100
AcDbEntity
  8
PV-19A8
100
AcDbLine
 10
22.54369940593766
 20
-11.5870189662457
 30
10.95668043969195
 11
21.99086818958636
 21
-10.48135653354311
 31
11.50951165604324
  0
LINE
  5
273
330
231
100
AcDbEntity
  8
PV-19A8
100
AcDbLine
 10
21.91869940593766
 20
-12.21201896624571
 30
9.706680439691949
 11
22.47671210782987
 21
-12.67852531719181
 31
9.798186790638059
  0
LINE
  5
274
330
231
100
AcDbEntity
  8
PV-19A8
100
AcDbLine
 10
21.91869940593766
 20
-12.21201896624571
 30
9.706680439691949
 11
22.41869940593765
 21
-11.7120189662457
 31
10.70668043969195
  0
LINE
  5
275
330
231
100
AcDbEntity
  8
PV-19A8
100
AcDbLine
 10
22.97671210782988
 20
-12.17852531719181
 30
10.79818679063806
 11
22.41869940593765
 21
-11.7120189662457
 31
10.70668043969195
  0
LINE
  5
276
330
231
100
AcDbEntity
  8
PV-19A8
100
AcDbLine
 10
22.99086818958636
 20
-13.98135653354311
 30
9.009511656043247
 11
23.49086818958636
 21
-13.48135653354311
 31
10.00951165604325
  0
LINE
  5
277
330
231
100
AcDbEntity
  8
PV-19A8
100
AcDbLine
 10
22.38520575688377
 20
-12.77003166813792
 30
9.615174088745842
 11
22.99086818958636
 21
-13.98135653354311
 31
9.009511656043247
  0
LINE
  5
278
330
231
100
AcDbEntity
  8
PV-19A8
100
AcDbLine
 10
22.38520575688377
 20
-12.77003166813792
 30
9.615174088745842
 11
22.88520575688377
 21
-12.27003166813792
 31
10.61517408874584
  0
LINE
  5
279
330
231
100
AcDbEntity
  8
PV-19A8
100
AcDbLine
 10
23.49086818958636
 20
-13.48135653354311
 30
10.00951165604325
 11
22.88520575688377
 21
-12.27003166813792
 31
10.61517408874584
  0
LINE
  5
27A
330
231
100
AcDbEntity
  8
PV-19A8
100
AcDbLine
 10
26.88004262984773
 20
-12.98788719504119
 30
13.89215543480654
 11
26.90941762984774
 21
-12.69413719504125
 31
14.21528043480647
  0
LINE
  5
27B
330
231
100
AcDbEntity
  8
PV-19A8
100
AcDbLine
 10
26.90233429651439
 20
-12.67997052837458
 30
14.22236376813981
 11
26.90941762984774
 21
-12.69413719504125
 31
14.21528043480647
  0
LINE
  5
27C
330
231
100
AcDbEntity
  8
PV-19A8
100
AcDbLine
 10
27.23816762984773
 20
-12.34413719504125
 30
14.89403043480647
 11
26.90233429651439
 21
-12.67997052837458
 31
14.22236376813981
  0
LINE
  5
27D
330
231
100
AcDbEntity
  8
PV-19A8
100
AcDbLine
 10
27.23816762984773
 20
-12.34413719504125
 30
14.89403043480647
 11
27.24316762984773
 21
-12.35413719504125
 31
14.88903043480647
  0
LINE
  5
27E
330
231
100
AcDbEntity
  8
PV-19A8
100
AcDbLine
 10
27.23816762984773
 20
-12.34413719504125
 30
14.89403043480647
 11
27.2728342965144
 21
-12.36147052837458
 31
14.9113637681398
  0
LINE
  5
27F
330
231
100
AcDbEntity
  8
PV-19A8
100
AcDbLine
 10
27.32650096318107
 20
-12.39580386170792
 30
14.93069710147314
 11
27.24316762984773
 21
-12.35413719504125
 31
14.88903043480647
  0
LINE
  5
280
330
231
100
AcDbEntity
  8
PV-19A8
100
AcDbLine
 10
27.32650096318107
 20
-12.39580386170792
 30
14.93069710147314
 11
27.7123342965144
 21
-13.16747052837459
 31
14.54486376813981
  0
LINE
  5
281
330
231
100
AcDbEntity
  8
PV-19A8
100
AcDbLine
 10
27.32650096318107
 20
-12.39580386170792
 30
14.93069710147314
 11
27.36116762984773
 21
-12.41313719504125
 31
14.94803043480647
  0
LINE
  5
282
330
231
100
AcDbEntity
  8
PV-19A8
100
AcDbLine
 10
27.7123342965144
 20
-13.29247052837459
 30
14.41986376813981
 11
27.7123342965144
 21
-13.16747052837459
 31
14.54486376813981
  0
LINE
  5
283
330
231
100
AcDbEntity
  8
PV-19A8
100
AcDbLine
 10
27.7123342965144
 20
-13.16747052837459
 30
14.54486376813981
 11
27.74700096318106
 21
-13.18480386170792
 31
14.56219710147314
  0
LINE
  5
284
330
231
100
AcDbEntity
  8
PV-19A8
100
AcDbLine
 10
27.7123342965144
 20
-13.29247052837459
 30
14.41986376813981
 11
27.7173342965144
 21
-13.30247052837459
 31
14.41486376813981
  0
LINE
  5
285
330
231
100
AcDbEntity
  8
PV-19A8
100
AcDbLine
 10
27.7123342965144
 20
-13.29247052837459
 30
14.41986376813981
 11
27.74700096318106
 21
-13.30980386170792
 31
14.43719710147314
  0
LINE
  5
286
330
231
100
AcDbEntity
  8
PV-19A8
100
AcDbLine
 10
27.7173342965144
 20
-13.30247052837459
 30
14.4148637681398
 11
27.38150096318106
 21
-13.63830386170791
 31
13.74319710147314
  0
LINE
  5
287
330
231
100
AcDbEntity
  8
PV-19A8
100
AcDbLine
 10
27.7173342965144
 20
-13.30247052837459
 30
14.41486376813981
 11
27.75200096318106
 21
-13.31980386170792
 31
14.43219710147314
  0
LINE
  5
288
330
231
100
AcDbEntity
  8
PV-19A8
100
AcDbLine
 10
27.37816762984773
 20
-13.63163719504124
 30
13.74653043480648
 11
27.38150096318106
 21
-13.63830386170791
 31
13.74319710147314
  0
LINE
  5
289
330
231
100
AcDbEntity
  8
PV-19A8
100
AcDbLine
 10
27.38150096318106
 20
-13.63830386170791
 30
13.74319710147314
 11
27.41616762984773
 21
-13.65563719504125
 31
13.76053043480648
  0
LINE
  5
28A
330
231
100
AcDbEntity
  8
PV-19A8
100
AcDbLine
 10
27.37816762984773
 20
-13.63163719504124
 30
13.74653043480648
 11
27.29733429651441
 21
-13.71247052837455
 31
13.58486376813985
  0
ELLIPSE
  5
28B
330
231
100
AcDbEntity
  8
PV-19A8
100
AcDbEllipse
 10
27.33900096318108
 20
-13.79580386170788
 30
13.54319710147319
 11
0.0
 21
0.0883883476483185
 31
0.0883883476483184
210
-0.5773502691896261
220
-0.5773502691896259
230
0.5773502691896258
 40
0.5773502691896259
 41
0.785398163397448
 42
2.356194490192102
  0
LINE
  5
28C
330
231
100
AcDbEntity
  8
PV-19A8
100
AcDbLine
 10
27.29733429651441
 20
-13.71247052837455
 30
13.58486376813985
 11
27.33200096318108
 21
-13.72980386170789
 31
13.60219710147319
  0
LINE
  5
28D
330
231
100
AcDbEntity
  8
PV-19A8
100
AcDbLine
 10
26.81133429651435
 20
-14.37547052837458
 30
12.43586376813977
 11
26.85266762984769
 21
-14.39613719504125
 31
12.45653043480644
  0
LINE
  5
28E
330
231
100
AcDbEntity
  8
PV-19A8
100
AcDbLine
 10
26.8742092965144
 20
-12.98372052837452
 30
13.89048876813987
 11
26.78930399348408
 21
-13.8327735586776
 31
12.95653043480648
  0
LINE
  5
28F
330
231
100
AcDbEntity
  8
PV-19A8
100
AcDbLine
 10
26.8742092965144
 20
-12.98372052837452
 30
13.89048876813987
 11
26.88004262984773
 21
-12.98788719504119
 31
13.89215543480654
  0
LINE
  5
290
330
231
100
AcDbEntity
  8
PV-19A8
100
AcDbLine
 10
26.8742092965144
 20
-12.98372052837452
 30
13.89048876813987
 11
26.88016167746678
 21
-12.98669671885071
 31
13.89346495861606
  0
LINE
  5
291
330
231
100
AcDbEntity
  8
PV-19A8
100
AcDbLine
 10
26.85266762984769
 20
-14.39613719504125
 30
12.45653043480644
 11
27.35266762984773
 21
-13.89613719504122
 31
13.45653043480651
  0
ELLIPSE
  5
292
330
231
100
AcDbEntity
  8
PV-19A8
100
AcDbEllipse
 10
27.37366762984775
 20
-13.81313719504122
 30
13.56053043480652
 11
0.0
 21
0.0883883476483185
 31
0.0883883476483184
210
-0.5773502691896261
220
-0.5773502691896259
230
0.5773502691896258
 40
0.5773502691896259
 41
0.785398163397448
 42
2.356194490192089
  0
LINE
  5
293
330
231
100
AcDbEntity
  8
PV-19A8
100
AcDbLine
 10
27.33200096318108
 20
-13.72980386170789
 30
13.60219710147319
 11
27.40950096318106
 21
-13.65230386170791
 31
13.75719710147314
  0
LINE
  5
294
330
231
100
AcDbEntity
  8
PV-19A8
100
AcDbLine
 10
27.41616762984773
 20
-13.65563719504125
 30
13.76053043480648
 11
27.75200096318107
 21
-13.31980386170792
 31
14.43219710147314
  0
LINE
  5
295
330
231
100
AcDbEntity
  8
PV-19A8
100
AcDbLine
 10
27.75200096318106
 20
-13.31980386170792
 30
14.43219710147314
 11
27.74700096318106
 21
-13.30980386170792
 31
14.43719710147314
  0
LINE
  5
296
330
231
100
AcDbEntity
  8
PV-19A8
100
AcDbLine
 10
27.74700096318106
 20
-13.30980386170792
 30
14.43719710147314
 11
27.74700096318106
 21
-13.18480386170792
 31
14.56219710147314
  0
LINE
  5
297
330
231
100
AcDbEntity
  8
PV-19A8
100
AcDbLine
 10
27.74700096318106
 20
-13.18480386170792
 30
14.56219710147314
 11
27.36116762984773
 21
-12.41313719504125
 31
14.94803043480647
  0
LINE
  5
298
330
231
100
AcDbEntity
  8
PV-19A8
100
AcDbLine
 10
27.2778342965144
 20
-12.37147052837459
 30
14.90636376813981
 11
27.2728342965144
 21
-12.36147052837458
 31
14.9113637681398
  0
LINE
  5
299
330
231
100
AcDbEntity
  8
PV-19A8
100
AcDbLine
 10
27.22425096318108
 20
-13.83192886170789
 30
13.39232210147319
 11
27.35266762984773
 21
-13.89613719504122
 31
13.45653043480651
  0
LINE
  5
29A
330
231
100
AcDbEntity
  8
PV-19A8
100
AcDbLine
 10
27.29733429651441
 20
-13.83747052837453
 30
13.45986376813986
 11
27.30066762984774
 21
-13.8441371950412
 31
13.45653043480652
  0
LINE
  5
29B
330
231
100
AcDbEntity
  8
PV-19A8
100
AcDbLine
 10
27.29733429651441
 20
-13.83747052837453
 30
13.45986376813986
 11
27.33200096318107
 21
-13.85480386170786
 31
13.4771971014732
  0
LINE
  5
29C
330
231
100
AcDbEntity
  8
PV-19A8
100
AcDbLine
 10
27.35266762984773
 20
-13.89613719504122
 30
13.45653043480651
 11
27.33200096318107
 21
-13.85480386170786
 31
13.4771971014732
  0
LINE
  5
29D
330
231
100
AcDbEntity
  8
PV-19A8
100
AcDbLine
 10
26.68633429651438
 20
-14.37547052837459
 30
12.31086376813977
 11
26.60550096318106
 21
-14.45630386170791
 31
12.14919710147315
  0
ELLIPSE
  5
29E
330
231
100
AcDbEntity
  8
PV-19A8
100
AcDbEllipse
 10
26.76966762984771
 20
-14.41713719504126
 30
12.35253043480644
 11
-0.0883883476483185
 21
0.0000000000000001
 31
-0.0883883476483184
210
-0.577350269189626
220
-0.5773502691896259
230
0.5773502691896258
 40
0.5773502691896259
 41
3.926990816987497
 42
5.497787143782124
  0
LINE
  5
29F
330
231
100
AcDbEntity
  8
PV-19A8
100
AcDbLine
 10
27.20691762984775
 20
-13.79726219504122
 30
13.40965543480652
 11
27.22425096318108
 21
-13.83192886170789
 31
13.39232210147319
  0
LINE
  5
2A0
330
231
100
AcDbEntity
  8
PV-19A8
100
AcDbLine
 10
27.22008429651443
 20
-13.82609552837456
 30
13.39398876813986
 11
27.22425096318108
 21
-13.83192886170789
 31
13.39232210147319
  0
LINE
  5
2A1
330
231
100
AcDbEntity
  8
PV-19A8
100
AcDbLine
 10
27.20275096318109
 20
-13.79142886170789
 30
13.41132210147319
 11
27.22008429651443
 21
-13.82609552837456
 31
13.39398876813986
  0
LINE
  5
2A2
330
231
100
AcDbEntity
  8
PV-19A8
100
AcDbLine
 10
25.95758429651434
 20
-13.95234552837458
 30
12.00523876813976
 11
27.22008429651442
 21
-13.82609552837456
 31
13.39398876813986
  0
LINE
  5
2A3
330
231
100
AcDbEntity
  8
PV-19A8
100
AcDbLine
 10
25.940250963181
 20
-13.91767886170791
 30
12.02257210147309
 11
25.95758429651434
 21
-13.95234552837458
 31
12.00523876813975
  0
LINE
  5
2A4
330
231
100
AcDbEntity
  8
PV-19A8
100
AcDbLine
 10
25.96175096318101
 20
-13.95817886170791
 30
12.00357210147309
 11
25.95758429651434
 21
-13.95234552837458
 31
12.00523876813976
  0
LINE
  5
2A5
330
231
100
AcDbEntity
  8
PV-19A8
100
AcDbLine
 10
25.66800096318108
 20
-13.98755386170791
 30
11.68044710147315
 11
25.96175096318101
 21
-13.95817886170791
 31
12.00357210147309
  0
LINE
  5
2A6
330
231
100
AcDbEntity
  8
PV-19A8
100
AcDbLine
 10
25.65066762984774
 20
-13.95288719504125
 30
11.69778043480649
 11
25.66800096318108
 21
-13.98755386170791
 31
11.68044710147315
  0
LINE
  5
2A7
330
231
100
AcDbEntity
  8
PV-19A8
100
AcDbLine
 10
25.6538342965144
 20
-13.98047052837458
 30
11.67336376813981
 11
25.66800096318108
 21
-13.98755386170791
 31
11.68044710147315
  0
LINE
  5
2A8
330
231
100
AcDbEntity
  8
PV-19A8
100
AcDbLine
 10
25.63650096318106
 20
-13.94580386170791
 30
11.69069710147315
 11
25.6538342965144
 21
-13.98047052837458
 31
11.67336376813981
  0
LINE
  5
2A9
330
231
100
AcDbEntity
  8
PV-19A8
100
AcDbLine
 10
25.31800096318107
 20
-14.31630386170791
 30
11.00169710147315
 11
25.6538342965144
 21
-13.98047052837458
 31
11.67336376813981
  0
LINE
  5
2AA
330
231
100
AcDbEntity
  8
PV-19A8
100
AcDbLine
 10
25.30066762984774
 20
-14.28163719504125
 30
11.01903043480649
 11
25.31800096318107
 21
-14.31630386170791
 31
11.00169710147315
  0
LINE
  5
2AB
330
231
100
AcDbEntity
  8
PV-19A8
100
AcDbLine
 10
25.32800096318107
 20
-14.32130386170792
 30
11.00669710147315
 11
25.31800096318108
 21
-14.31630386170791
 31
11.00169710147315
  0
LINE
  5
2AC
330
231
100
AcDbEntity
  8
PV-19A8
100
AcDbLine
 10
25.36966762984774
 20
-14.40463719504125
 30
10.96503043480648
 11
25.32800096318107
 21
-14.32130386170792
 31
11.00669710147315
  0
LINE
  5
2AD
330
231
100
AcDbEntity
  8
PV-19A8
100
AcDbLine
 10
26.14133429651441
 20
-14.79047052837458
 30
11.35086376813982
 11
25.36966762984774
 21
-14.40463719504125
 31
10.96503043480648
  0
LINE
  5
2AE
330
231
100
AcDbEntity
  8
PV-19A8
100
AcDbLine
 10
26.26633429651441
 20
-14.79047052837458
 30
11.47586376813982
 11
26.14133429651441
 21
-14.79047052837458
 31
11.35086376813982
  0
LINE
  5
2AF
330
231
100
AcDbEntity
  8
PV-19A8
100
AcDbLine
 10
26.27633429651441
 20
-14.79547052837458
 30
11.48086376813982
 11
26.26633429651441
 21
-14.79047052837458
 31
11.47586376813982
  0
LINE
  5
2B0
330
231
100
AcDbEntity
  8
PV-19A8
100
AcDbLine
 10
26.61216762984774
 20
-14.45963719504124
 30
12.15253043480648
 11
26.27633429651441
 21
-14.79547052837458
 31
11.48086376813982
  0
LINE
  5
2B1
330
231
100
AcDbEntity
  8
PV-19A8
100
AcDbLine
 10
26.6088342965144
 20
-14.45297052837457
 30
12.15586376813982
 11
26.61216762984774
 21
-14.45963719504124
 31
12.15253043480648
  0
LINE
  5
2B2
330
231
100
AcDbEntity
  8
PV-19A8
100
AcDbLine
 10
26.60550096318106
 20
-14.45630386170791
 30
12.14919710147315
 11
26.61216762984774
 21
-14.45963719504124
 31
12.15253043480648
  0
LINE
  5
2B3
330
231
100
AcDbEntity
  8
PV-19A8
100
AcDbLine
 10
27.30066762984773
 20
-13.84413719504121
 30
13.45653043480651
 11
27.20691762984775
 21
-13.79726219504122
 31
13.40965543480652
  0
LINE
  5
2B4
330
231
100
AcDbEntity
  8
PV-19A8
100
AcDbLine
 10
27.20691762984775
 20
-13.79726219504122
 30
13.40965543480652
 11
27.20275096318109
 21
-13.79142886170789
 31
13.41132210147319
  0
LINE
  5
2B5
330
231
100
AcDbEntity
  8
PV-19A8
100
AcDbLine
 10
27.20275096318109
 20
-13.79142886170789
 30
13.41132210147319
 11
25.940250963181
 21
-13.91767886170791
 31
12.02257210147309
  0
LINE
  5
2B6
330
231
100
AcDbEntity
  8
PV-19A8
100
AcDbLine
 10
25.9432271536572
 20
-13.92363124266029
 30
12.0195959109969
 11
25.65066762984774
 21
-13.95288719504125
 31
11.69778043480649
  0
LINE
  5
2B7
330
231
100
AcDbEntity
  8
PV-19A8
100
AcDbLine
 10
25.63650096318106
 20
-13.94580386170791
 30
11.69069710147315
 11
25.65066762984774
 21
-13.95288719504125
 31
11.69778043480649
  0
LINE
  5
2B8
330
231
100
AcDbEntity
  8
PV-19A8
100
AcDbLine
 10
25.30066762984774
 20
-14.28163719504125
 30
11.01903043480649
 11
25.63650096318106
 21
-13.94580386170791
 31
11.69069710147315
  0
ELLIPSE
  5
2B9
330
231
100
AcDbEntity
  8
PV-19A8
100
AcDbEllipse
 10
26.19084499610687
 20
-14.43699192755951
 30
11.75385306854735
 11
-0.0714745280577597
 21
0.0
 31
-0.0714745280577597
210
-0.5773502691896259
220
-0.5773502691896259
230
0.5773502691896259
 40
0.5773502691896261
 41
0.0
 42
6.283185307179586
  0
ELLIPSE
  5
2BA
330
231
100
AcDbEntity
  8
PV-19A8
100
AcDbEllipse
 10
26.17736762984774
 20
-14.41003719504125
 30
11.76733043480649
 11
-0.0714745280577597
 21
0.0
 31
-0.0714745280577597
210
-0.5773502691896259
220
-0.5773502691896259
230
0.5773502691896259
 40
0.5773502691896261
 41
5.497787143782137
 42
6.283185307179586
  0
ELLIPSE
  5
2BB
330
231
100
AcDbEntity
  8
PV-19A8
100
AcDbEllipse
 10
26.17736762984774
 20
-14.41003719504125
 30
11.76733043480649
 11
-0.0714745280577597
 21
0.0
 31
-0.0714745280577597
210
-0.5773502691896259
220
-0.5773502691896259
230
0.5773502691896259
 40
0.5773502691896261
 41
3.141592653589805
 42
5.497787143782137
  0
ELLIPSE
  5
2BC
330
231
100
AcDbEntity
  8
PV-19A8
100
AcDbEllipse
 10
25.93043666277353
 20
-14.21305026089284
 30
11.71738640188069
 11
-0.0714745280577597
 21
0.0
 31
-0.0714745280577597
210
-0.5773502691896259
220
-0.5773502691896259
230
0.5773502691896259
 40
0.5773502691896261
 41
0.0
 42
6.283185307179586
  0
ELLIPSE
  5
2BD
330
231
100
AcDbEntity
  8
PV-19A8
100
AcDbEllipse
 10
25.9169592965144
 20
-14.18609552837458
 30
11.73086376813982
 11
-0.0714745280577597
 21
0.0
 31
-0.0714745280577597
210
-0.5773502691896259
220
-0.5773502691896259
230
0.5773502691896259
 40
0.5773502691896261
 41
5.497787143782137
 42
6.283185307179598
  0
ELLIPSE
  5
2BE
330
231
100
AcDbEntity
  8
PV-19A8
100
AcDbEllipse
 10
25.9169592965144
 20
-14.18609552837458
 30
11.73086376813982
 11
-0.0714745280577597
 21
0.0
 31
-0.0714745280577597
210
-0.5773502691896259
220
-0.5773502691896259
230
0.5773502691896259
 40
0.5773502691896261
 41
3.141592653589781
 42
5.497787143782137
  0
ELLIPSE
  5
2BF
330
231
100
AcDbEntity
  8
PV-19A8
100
AcDbEllipse
 10
26.13324499610687
 20
-14.66599192755952
 30
11.46725306854736
 11
-0.0714745280577597
 21
0.0
 31
-0.0714745280577597
210
-0.5773502691896259
220
-0.5773502691896259
230
0.5773502691896259
 40
0.5773502691896261
 41
0.0
 42
6.283185307179586
  0
ELLIPSE
  5
2C0
330
231
100
AcDbEntity
  8
PV-19A8
100
AcDbEllipse
 10
26.11976762984774
 20
-14.63903719504125
 30
11.48073043480649
 11
-0.0714745280577597
 21
0.0
 31
-0.0714745280577597
210
-0.5773502691896259
220
-0.5773502691896259
230
0.5773502691896259
 40
0.5773502691896261
 41
5.497787143782137
 42
6.283185307179573
  0
ELLIPSE
  5
2C1
330
231
100
AcDbEntity
  8
PV-19A8
100
AcDbEllipse
 10
26.11976762984774
 20
-14.63903719504125
 30
11.48073043480649
 11
-0.0714745280577597
 21
0.0
 31
-0.0714745280577597
210
-0.5773502691896259
220
-0.5773502691896259
230
0.5773502691896259
 40
0.5773502691896261
 41
3.141592653589793
 42
5.497787143782137
  0
ELLIPSE
  5
2C2
330
231
100
AcDbEntity
  8
PV-19A8
100
AcDbEllipse
 10
25.64691166277353
 20
-14.34082526089285
 30
11.30608640188069
 11
-0.0714745280577597
 21
0.0
 31
-0.0714745280577597
210
-0.5773502691896259
220
-0.5773502691896259
230
0.5773502691896259
 40
0.5773502691896261
 41
0.0
 42
6.283185307179586
  0
ELLIPSE
  5
2C3
330
231
100
AcDbEntity
  8
PV-19A8
100
AcDbEllipse
 10
25.6334342965144
 20
-14.31387052837458
 30
11.31956376813982
 11
-0.0714745280577597
 21
0.0
 31
-0.0714745280577597
210
-0.5773502691896259
220
-0.5773502691896259
230
0.5773502691896259
 40
0.5773502691896261
 41
5.497787143782137
 42
6.283185307179586
  0
ELLIPSE
  5
2C4
330
231
100
AcDbEntity
  8
PV-19A8
100
AcDbEllipse
 10
25.6334342965144
 20
-14.31387052837458
 30
11.31956376813982
 11
-0.0714745280577597
 21
0.0
 31
-0.0714745280577597
210
-0.5773502691896259
220
-0.5773502691896259
230
0.5773502691896259
 40
0.5773502691896261
 41
3.141592653589793
 42
5.497787143782137
  0
ELLIPSE
  5
2C5
330
231
100
AcDbEntity
  8
PV-19A8
100
AcDbEllipse
 10
27.20877956399613
 20
-12.64609316211545
 30
14.56268640188067
 11
0.0
 21
-0.0714745280577597
 31
-0.0714745280577597
210
-0.5773502691896258
220
-0.5773502691896258
230
0.5773502691896259
 40
0.5773502691896258
 41
0.0
 42
6.283185307179586
  0
ELLIPSE
  5
2C6
330
231
100
AcDbEntity
  8
PV-19A8
100
AcDbEllipse
 10
27.2357342965144
 20
-12.65957052837459
 30
14.5761637681398
 11
0.0
 21
-0.0714745280577597
 31
-0.0714745280577597
210
-0.5773502691896258
220
-0.5773502691896258
230
0.5773502691896259
 40
0.5773502691896258
 41
-0.0000000000000252
 42
0.7853981633974306
  0
ELLIPSE
  5
2C7
330
231
100
AcDbEntity
  8
PV-19A8
100
AcDbEllipse
 10
27.2357342965144
 20
-12.65957052837459
 30
14.5761637681398
 11
0.0
 21
-0.0714745280577597
 31
-0.0714745280577597
210
-0.5773502691896258
220
-0.5773502691896258
230
0.5773502691896259
 40
0.5773502691896258
 41
0.7853981633974306
 42
3.141592653589817
  0
ELLIPSE
  5
2C8
330
231
100
AcDbEntity
  8
PV-19A8
100
AcDbEllipse
 10
27.08100456399613
 20
-12.92961816211545
 30
14.15138640188068
 11
0.0
 21
-0.0714745280577597
 31
-0.0714745280577597
210
-0.5773502691896258
220
-0.5773502691896258
230
0.5773502691896259
 40
0.5773502691896258
 41
0.0
 42
6.283185307179586
  0
ELLIPSE
  5
2C9
330
231
100
AcDbEntity
  8
PV-19A8
100
AcDbEllipse
 10
27.10795929651439
 20
-12.94309552837458
 30
14.16486376813981
 11
0.0
 21
-0.0714745280577597
 31
-0.0714745280577597
210
-0.5773502691896258
220
-0.5773502691896258
230
0.5773502691896259
 40
0.5773502691896258
 41
-0.0000000000000002
 42
0.7853981633974483
  0
ELLIPSE
  5
2CA
330
231
100
AcDbEntity
  8
PV-19A8
100
AcDbEllipse
 10
27.10795929651439
 20
-12.94309552837458
 30
14.16486376813981
 11
0.0
 21
-0.0714745280577597
 31
-0.0714745280577597
210
-0.5773502691896258
220
-0.5773502691896258
230
0.5773502691896259
 40
0.5773502691896258
 41
0.7853981633974483
 42
3.141592653589793
  0
ELLIPSE
  5
2CB
330
231
100
AcDbEntity
  8
PV-19A8
100
AcDbEllipse
 10
27.5339462306628
 20
-13.13242649544879
 30
14.401519735214
 11
0.0
 21
-0.0714745280577597
 31
-0.0714745280577597
210
-0.5773502691896258
220
-0.5773502691896258
230
0.5773502691896259
 40
0.5773502691896258
 41
0.0
 42
6.283185307179586
  0
ELLIPSE
  5
2CC
330
231
100
AcDbEntity
  8
PV-19A8
100
AcDbEllipse
 10
27.56090096318107
 20
-13.14590386170792
 30
14.41499710147313
 11
0.0
 21
-0.0714745280577597
 31
-0.0714745280577597
210
-0.5773502691896258
220
-0.5773502691896258
230
0.5773502691896259
 40
0.5773502691896258
 41
-0.0000000000000002
 42
0.7853981633974483
  0
ELLIPSE
  5
2CD
330
231
100
AcDbEntity
  8
PV-19A8
100
AcDbEllipse
 10
27.56090096318107
 20
-13.14590386170792
 30
14.41499710147313
 11
0.0
 21
-0.0714745280577597
 31
-0.0714745280577597
210
-0.5773502691896258
220
-0.5773502691896258
230
0.5773502691896259
 40
0.5773502691896258
 41
0.7853981633974483
 42
3.141592653589793
  0
ELLIPSE
  5
2CE
330
231
100
AcDbEntity
  8
PV-19A8
100
AcDbEllipse
 10
27.3049462306628
 20
-13.19002649544878
 30
14.11491973521401
 11
0.0
 21
-0.0714745280577597
 31
-0.0714745280577597
210
-0.5773502691896258
220
-0.5773502691896258
230
0.5773502691896259
 40
0.5773502691896258
 41
0.0
 42
6.283185307179586
  0
ELLIPSE
  5
2CF
330
231
100
AcDbEntity
  8
PV-19A8
100
AcDbEllipse
 10
27.33190096318106
 20
-13.20350386170791
 30
14.12839710147314
 11
0.0
 21
-0.0714745280577597
 31
-0.0714745280577597
210
-0.5773502691896258
220
-0.5773502691896258
230
0.5773502691896259
 40
0.5773502691896258
 41
-0.0000000000000252
 42
0.7853981633974306
  0
ELLIPSE
  5
2D0
330
231
100
AcDbEntity
  8
PV-19A8
100
AcDbEllipse
 10
27.33190096318106
 20
-13.20350386170791
 30
14.12839710147314
 11
0.0
 21
-0.0714745280577597
 31
-0.0714745280577597
210
-0.5773502691896258
220
-0.5773502691896258
230
0.5773502691896259
 40
0.5773502691896258
 41
0.7853981633974306
 42
3.141592653589817
  0
LINE
  5
2D1
330
231
100
AcDbEntity
  8
PV-19A8
100
AcDbLine
 10
26.10589310178998
 20
-14.41003719504125
 30
11.69585590674873
 11
26.11937046804911
 21
-14.43699192755951
 31
11.68237854048959
  0
LINE
  5
2D2
330
231
100
AcDbEntity
  8
PV-19A8
100
AcDbLine
 10
26.2488421579055
 20
-14.41003719504125
 30
11.83880496286425
 11
26.26231952416463
 21
-14.43699192755951
 31
11.82532759660511
  0
LINE
  5
2D3
330
231
100
AcDbEntity
  8
PV-19A8
100
AcDbLine
 10
25.84548476845665
 20
-14.18609552837458
 30
11.65938924008206
 11
25.85896213471578
 21
-14.21305026089284
 31
11.64591187382293
  0
LINE
  5
2D4
330
231
100
AcDbEntity
  8
PV-19A8
100
AcDbLine
 10
25.98843382457217
 20
-14.18609552837458
 30
11.80233829619758
 11
26.0019111908313
 21
-14.21305026089284
 31
11.78886092993844
  0
LINE
  5
2D5
330
231
100
AcDbEntity
  8
PV-19A8
100
AcDbLine
 10
26.04829310178998
 20
-14.63903719504125
 30
11.40925590674873
 11
26.06177046804912
 21
-14.66599192755952
 31
11.3957785404896
  0
LINE
  5
2D6
330
231
100
AcDbEntity
  8
PV-19A8
100
AcDbLine
 10
26.1912421579055
 20
-14.63903719504125
 30
11.55220496286425
 11
26.20471952416464
 21
-14.66599192755952
 31
11.53872759660512
  0
LINE
  5
2D7
330
231
100
AcDbEntity
  8
PV-19A8
100
AcDbLine
 10
25.56195976845665
 20
-14.31387052837458
 30
11.24808924008205
 11
25.57543713471578
 21
-14.34082526089284
 31
11.23461187382292
  0
LINE
  5
2D8
330
231
100
AcDbEntity
  8
PV-19A8
100
AcDbLine
 10
25.70490882457216
 20
-14.31387052837458
 30
11.39103829619758
 11
25.7183861908313
 21
-14.34082526089284
 31
11.37756092993845
  0
LINE
  5
2D9
330
231
100
AcDbEntity
  8
PV-19A8
100
AcDbLine
 10
27.20877956399613
 20
-12.71756769017321
 30
14.49121187382291
 11
27.2357342965144
 21
-12.73104505643235
 31
14.50468924008204
  0
LINE
  5
2DA
330
231
100
AcDbEntity
  8
PV-19A8
100
AcDbLine
 10
27.20877956399613
 20
-12.57461863405769
 30
14.63416092993843
 11
27.2357342965144
 21
-12.58809600031683
 31
14.64763829619756
  0
LINE
  5
2DB
330
231
100
AcDbEntity
  8
PV-19A8
100
AcDbLine
 10
27.08100456399613
 20
-13.0010926901732
 30
14.07991187382291
 11
27.10795929651439
 21
-13.01457005643234
 31
14.09338924008205
  0
LINE
  5
2DC
330
231
100
AcDbEntity
  8
PV-19A8
100
AcDbLine
 10
27.08100456399613
 20
-12.85814363405769
 30
14.22286092993843
 11
27.10795929651439
 21
-12.87162100031682
 31
14.23633829619757
  0
LINE
  5
2DD
330
231
100
AcDbEntity
  8
PV-19A8
100
AcDbLine
 10
27.5339462306628
 20
-13.20390102350655
 30
14.33004520715624
 11
27.56090096318107
 21
-13.21737838976568
 31
14.34352257341538
  0
LINE
  5
2DE
330
231
100
AcDbEntity
  8
PV-19A8
100
AcDbLine
 10
27.5339462306628
 20
-13.06095196739103
 30
14.47299426327176
 11
27.56090096318107
 21
-13.07442933365016
 31
14.48647162953089
  0
LINE
  5
2DF
330
231
100
AcDbEntity
  8
PV-19A8
100
AcDbLine
 10
27.3049462306628
 20
-13.26150102350654
 30
14.04344520715625
 11
27.33190096318106
 21
-13.27497838976567
 31
14.05692257341538
  0
LINE
  5
2E0
330
231
100
AcDbEntity
  8
PV-19A8
100
AcDbLine
 10
27.3049462306628
 20
-13.11855196739102
 30
14.18639426327177
 11
27.33190096318106
 21
-13.13202933365015
 31
14.1998716295309
  0
ENDBLK
  5
2E1
330
231
100
AcDbEntity
  8
0
100
AcDbBlockEnd
  0
BLOCK
  5
2E6
330
2E4
100
AcDbEntity
  8
0
100
AcDbBlockBegin
  2
A$C29972C7C
 70
     0
 10
0.0
 20
0.0
 30
0.0
  3
A$C29972C7C
  1

  0
INSERT
  5
2E5
330
2E4
100
AcDbEntity
  8
PV-19A8
100
AcDbBlockReference
  2
*U2
 10
29.14851463732063
 20
3.754934883169167
 30
-5.310279837605668
 50
225.0000000000001
210
0.0
220
0.816496580927726
230
0.5773502691896259
  0
ENDBLK
  5
2E7
330
2E4
100
AcDbEntity
  8
0
100
AcDbBlockEnd
  0
ENDSEC
  0
SECTION
  2
ENTITIES
  0
INSERT
  5
2E8
330
2
100
AcDbEntity
  8
0
100
AcDbBlockReference
  2
A$C29972C7C
 10
2.315863320205928
 20
0.4843726548280021
 30
0.0
 41
0.0882
 42
0.0882
 43
0.0882
  0
TEXT
  5
2EF
330
2
100
AcDbEntity
  8
0
100
AcDbText
 10
1.812630675324086
 20
0.0946567322935952
 30
0.0
 40
0.125
  1
USP  RT3A
100
AcDbText
  0
TEXT
  5
2F5
330
2
100
AcDbEntity
  8
0
100
AcDbText
 10
1.36030766675876
 20
-0.1240728397392132
 30
0.0
 40
0.125
  1
SIMPSON  H3
100
AcDbText
  0
ENDSEC
  0
SECTION
  2
OBJECTS
  0
DICTIONARY
  5
E7
330
0
100
AcDbDictionary
281
     1
  3
ACAD_COLOR
350
F0
  3
ACAD_GROUP
350
E5
  3
ACAD_LAYOUT
350
F1
  3
ACAD_MATERIAL
350
EF
  3
ACAD_MLINESTYLE
350
E6
  3
ACAD_PLOTSETTINGS
350
F2
  3
ACAD_PLOTSTYLENAME
350
ED
  3
AcDbVariableDictionary
350
180
  0
DICTIONARY
  5
CF
330
2
100
AcDbDictionary
280
     1
281
     1
  3
ACAD_LAYOUTSELFREF
360
D0
  0
DICTIONARY
  5
D4
330
D3
100
AcDbDictionary
280
     1
281
     1
  3
ACAD_LAYOUTSELFREF
360
D5
  0
DICTIONARY
  5
12A
330
1A
100
AcDbDictionary
280
     1
281
     1
  3
ACAD_SORTENTS
360
12B
  0
DICTIONARY
  5
F0
102
{ACAD_REACTORS
330
E7
102
}
330
E7
100
AcDbDictionary
281
     1
  0
DICTIONARY
  5
E5
102
{ACAD_REACTORS
330
E7
102
}
330
E7
100
AcDbDictionary
281
     1
  0
DICTIONARY
  5
F1
102
{ACAD_REACTORS
330
E7
102
}
330
E7
100
AcDbDictionary
281
     1
  3
Layout1
350
F4
  3
Model
350
F3
  0
DICTIONARY
  5
EF
102
{ACAD_REACTORS
330
E7
102
}
330
E7
100
AcDbDictionary
281
     1
  0
DICTIONARY
  5
E6
102
{ACAD_REACTORS
330
E7
102
}
330
E7
100
AcDbDictionary
281
     1
  3
STANDARD
350
EA
  0
DICTIONARY
  5
F2
102
{ACAD_REACTORS
330
E7
102
}
330
E7
100
AcDbDictionary
281
     1
  0
ACDBDICTIONARYWDFLT
  5
ED
102
{ACAD_REACTORS
330
E7
102
}
330
E7
100
AcDbDictionary
281
     1
  3
Normal
350
EE
100
AcDbDictionaryWithDefault
340
EE
  0
DICTIONARY
  5
180
102
{ACAD_REACTORS
330
E7
102
}
330
E7
100
AcDbDictionary
281
     1
  3
DIMASSOC
350
181
  3
PROJECTNAME
350
182
  0
XRECORD
  5
D0
102
{ACAD_REACTORS
330
CF
102
}
330
CF
100
AcDbXrecord
280
     1
340
0
  0
XRECORD
  5
D5
102
{ACAD_REACTORS
330
D4
102
}
330
D4
100
AcDbXrecord
280
     1
340
0
  0
SORTENTSTABLE
  5
12B
102
{ACAD_REACTORS
330
12A
102
}
330
12A
100
AcDbSortentsTable
330
1A
  0
LAYOUT
  5
F4
102
{ACAD_REACTORS
330
F1
102
}
330
F1
100
AcDbPlotSettings
  1

  2
\\MNPS6\laser4050
  4

  6

 40
0.0
 41
0.0
 42
0.0
 43
0.0
 44
0.0
 45
0.0
 46
0.0
 47
0.0
 48
0.0
 49
0.0
140
0.0
141
0.0
142
1.0
143
1.0
 70
   688
 72
     0
 73
     0
 74
     5
  7
USP.ctb
 75
    16
147
1.0
 76
     0
 77
     2
 78
   300
148
0.0
149
0.0
100
AcDbLayout
  1
Layout1
 70
     0
 71
     1
 10
0.0
 20
0.0
 11
12.0
 21
9.0
 12
0.0
 22
0.0
 32
0.0
 14
1.049999952316284
 24
0.7999999523162842
 34
0.0
 15
9.449999570846555
 25
7.199999570846556
 35
0.0
146
0.0
 13
0.0
 23
0.0
 33
0.0
 16
1.0
 26
0.0
 36
0.0
 17
0.0
 27
1.0
 37
0.0
 76
     0
330
D3
  0
LAYOUT
  5
F3
102
{ACAD_REACTORS
330
F1
102
}
330
F1
100
AcDbPlotSettings
  1

  2
\\MNPS6\laser4050
  4
Letter
  6

 40
5.365749835968017
 41
5.450419902801513
 42
5.154083251953125
 43
5.069427490234375
 44
215.8999938964844
 45
279.3999938964844
 46
0.0
 47
0.0
 48
-23.01235308610666
 49
10.23245056802323
140
-20.01235308610666
141
13.23245056802323
142
1.0
143
0.3710192829726467
 70
 11952
 72
     0
 73
     1
 74
     4
  7
USP.ctb
 75
     0
147
2.695277700899779
 76
     0
 77
     2
 78
   300
148
584.513768387109
149
-259.90424442779
100
AcDbLayout
  1
Model
 70
     1
 71
     0
 10
0.0
 20
0.0
 11
12.0
 21
9.0
 12
0.0
 22
0.0
 32
0.0
 14
0.0
 24
0.0
 34
0.0
 15
0.0
 25
0.0
 35
0.0
146
0.0
 13
0.0
 23
0.0
 33
0.0
 16
1.0
 26
0.0
 36
0.0
 17
0.0
 27
1.0
 37
0.0
 76
     0
330
2
  0
MLINESTYLE
  5
EA
102
{ACAD_REACTORS
330
E6
102
}
330
E6
100
AcDbMlineStyle
  2
STANDARD
 70
     0
  3

 62
     0
 51
90.0
 52
90.0
 71
     2
 49
0.5
 62
   256
  6
BYLAYER
 49
-0.5
 62
   256
  6
BYLAYER
  0
ACDBPLACEHOLDER
  5
EE
102
{ACAD_REACTORS
330
ED
102
}
330
ED
  0
DICTIONARYVAR
  5
181
102
{ACAD_REACTORS
330
180
102
}
330
180
100
DictionaryVariables
280
     0
  1
1
  0
DICTIONARYVAR
  5
182
102
{ACAD_REACTORS
330
180
102
}
330
180
100
DictionaryVariables
280
     0
  1

  0
ENDSEC
  0
EOF
