  0
SECTION
  2
HEADER
  9
$ACADVER
  1
AC1018
  9
$ACADMAINTVER
 70
     0
  9
$DWGCODEPAGE
  3
ANSI_1252
  9
$INSBASE
 10
0.0
 20
0.0
 30
0.0
  9
$EXTMIN
 10
1.274153089773406
 20
0.1982254464675748
 30
-0.0000000000000004
  9
$EXTMAX
 10
3.229333464228134
 20
2.443223995764927
 30
0.000000000000002
  9
$LIMMIN
 10
0.0
 20
0.0
  9
$LIMMAX
 10
12.0
 20
9.0
  9
$ORTHOMODE
 70
     0
  9
$REGENMODE
 70
     1
  9
$FILLMODE
 70
     1
  9
$QTEXTMODE
 70
     0
  9
$MIRRTEXT
 70
     0
  9
$LTSCALE
 40
1.5
  9
$ATTMODE
 70
     1
  9
$TEXTSIZE
 40
0.125
  9
$TRACEWID
 40
0.05
  9
$TEXTSTYLE
  7
STANDARD
  9
$CLAYER
  8
0
  9
$CELTYPE
  6
BYLAYER
  9
$CECOLOR
 62
   256
  9
$CELTSCALE
 40
1.0
  9
$DISPSILH
 70
     1
  9
$DIMSCALE
 40
1.0
  9
$DIMASZ
 40
0.18
  9
$DIMEXO
 40
0.0625
  9
$DIMDLI
 40
0.38
  9
$DIMRND
 40
0.0
  9
$DIMDLE
 40
0.0
  9
$DIMEXE
 40
0.18
  9
$DIMTP
 40
0.0
  9
$DIMTM
 40
0.0
  9
$DIMTXT
 40
0.18
  9
$DIMCEN
 40
0.09
  9
$DIMTSZ
 40
0.0
  9
$DIMTOL
 70
     0
  9
$DIMLIM
 70
     0
  9
$DIMTIH
 70
     1
  9
$DIMTOH
 70
     1
  9
$DIMSE1
 70
     0
  9
$DIMSE2
 70
     0
  9
$DIMTAD
 70
     0
  9
$DIMZIN
 70
     0
  9
$DIMBLK
  1

  9
$DIMASO
 70
     1
  9
$DIMSHO
 70
     1
  9
$DIMPOST
  1

  9
$DIMAPOST
  1

  9
$DIMALT
 70
     0
  9
$DIMALTD
 70
     2
  9
$DIMALTF
 40
25.4
  9
$DIMLFAC
 40
1.0
  9
$DIMTOFL
 70
     0
  9
$DIMTVP
 40
0.0
  9
$DIMTIX
 70
     0
  9
$DIMSOXD
 70
     0
  9
$DIMSAH
 70
     0
  9
$DIMBLK1
  1

  9
$DIMBLK2
  1

  9
$DIMSTYLE
  2
STANDARD
  9
$DIMCLRD
 70
     0
  9
$DIMCLRE
 70
     0
  9
$DIMCLRT
 70
     0
  9
$DIMTFAC
 40
1.0
  9
$DIMGAP
 40
0.09
  9
$DIMJUST
 70
     0
  9
$DIMSD1
 70
     0
  9
$DIMSD2
 70
     0
  9
$DIMTOLJ
 70
     1
  9
$DIMTZIN
 70
     0
  9
$DIMALTZ
 70
     0
  9
$DIMALTTZ
 70
     0
  9
$DIMUPT
 70
     0
  9
$DIMDEC
 70
     4
  9
$DIMTDEC
 70
     4
  9
$DIMALTU
 70
     2
  9
$DIMALTTD
 70
     2
  9
$DIMTXSTY
  7
STANDARD
  9
$DIMAUNIT
 70
     0
  9
$DIMADEC
 70
     0
  9
$DIMALTRND
 40
0.0
  9
$DIMAZIN
 70
     0
  9
$DIMDSEP
 70
    46
  9
$DIMATFIT
 70
     3
  9
$DIMFRAC
 70
     0
  9
$DIMLDRBLK
  1

  9
$DIMLUNIT
 70
     2
  9
$DIMLWD
 70
    -2
  9
$DIMLWE
 70
    -2
  9
$DIMTMOVE
 70
     0
  9
$LUNITS
 70
     5
  9
$LUPREC
 70
     6
  9
$SKETCHINC
 40
0.1
  9
$FILLETRAD
 40
0.0
  9
$AUNITS
 70
     0
  9
$AUPREC
 70
     1
  9
$MENU
  1
CUSTOM
  9
$ELEVATION
 40
0.0
  9
$PELEVATION
 40
0.0
  9
$THICKNESS
 40
0.0
  9
$LIMCHECK
 70
     0
  9
$CHAMFERA
 40
0.0
  9
$CHAMFERB
 40
0.0
  9
$CHAMFERC
 40
0.0
  9
$CHAMFERD
 40
0.0
  9
$SKPOLY
 70
     0
  9
$TDCREATE
 40
2451263.704898032
  9
$TDUCREATE
 40
2451263.913231366
  9
$TDUPDATE
 40
2456573.369191679
  9
$TDUUPDATE
 40
2456573.577525012
  9
$TDINDWG
 40
0.6272671991
  9
$TDUSRTIMER
 40
0.6272671991
  9
$USRTIMER
 70
     1
  9
$ANGBASE
 50
0.0
  9
$ANGDIR
 70
     0
  9
$PDMODE
 70
     0
  9
$PDSIZE
 40
0.0
  9
$PLINEWID
 40
0.0
  9
$SPLFRAME
 70
     0
  9
$SPLINETYPE
 70
     6
  9
$SPLINESEGS
 70
     8
  9
$HANDSEED
  5
58A
  9
$SURFTAB1
 70
     6
  9
$SURFTAB2
 70
     6
  9
$SURFTYPE
 70
     6
  9
$SURFU
 70
     6
  9
$SURFV
 70
     6
  9
$UCSBASE
  2

  9
$UCSNAME
  2

  9
$UCSORG
 10
0.0
 20
0.0
 30
0.0
  9
$UCSXDIR
 10
1.0
 20
0.0
 30
0.0
  9
$UCSYDIR
 10
0.0
 20
1.0
 30
0.0
  9
$UCSORTHOREF
  2

  9
$UCSORTHOVIEW
 70
     1
  9
$UCSORGTOP
 10
0.0
 20
0.0
 30
0.0
  9
$UCSORGBOTTOM
 10
0.0
 20
0.0
 30
0.0
  9
$UCSORGLEFT
 10
0.0
 20
0.0
 30
0.0
  9
$UCSORGRIGHT
 10
0.0
 20
0.0
 30
0.0
  9
$UCSORGFRONT
 10
0.0
 20
0.0
 30
0.0
  9
$UCSORGBACK
 10
0.0
 20
0.0
 30
0.0
  9
$PUCSBASE
  2

  9
$PUCSNAME
  2

  9
$PUCSORG
 10
0.0
 20
0.0
 30
0.0
  9
$PUCSXDIR
 10
1.0
 20
0.0
 30
0.0
  9
$PUCSYDIR
 10
0.0
 20
1.0
 30
0.0
  9
$PUCSORTHOREF
  2

  9
$PUCSORTHOVIEW
 70
     0
  9
$PUCSORGTOP
 10
0.0
 20
0.0
 30
0.0
  9
$PUCSORGBOTTOM
 10
0.0
 20
0.0
 30
0.0
  9
$PUCSORGLEFT
 10
0.0
 20
0.0
 30
0.0
  9
$PUCSORGRIGHT
 10
0.0
 20
0.0
 30
0.0
  9
$PUCSORGFRONT
 10
0.0
 20
0.0
 30
0.0
  9
$PUCSORGBACK
 10
0.0
 20
0.0
 30
0.0
  9
$USERI1
 70
     0
  9
$USERI2
 70
     0
  9
$USERI3
 70
     0
  9
$USERI4
 70
     0
  9
$USERI5
 70
     0
  9
$USERR1
 40
0.0
  9
$USERR2
 40
0.0
  9
$USERR3
 40
0.0
  9
$USERR4
 40
0.0
  9
$USERR5
 40
0.0
  9
$WORLDVIEW
 70
     1
  9
$SHADEDGE
 70
     3
  9
$SHADEDIF
 70
    70
  9
$TILEMODE
 70
     1
  9
$MAXACTVP
 70
    16
  9
$PINSBASE
 10
0.0
 20
0.0
 30
0.0
  9
$PLIMCHECK
 70
     0
  9
$PEXTMIN
 10
1.049999952316284
 20
0.7999999523162842
 30
0.0
  9
$PEXTMAX
 10
9.449999570846555
 20
7.199999570846556
 30
0.0
  9
$PLIMMIN
 10
0.0
 20
0.0
  9
$PLIMMAX
 10
12.0
 20
9.0
  9
$UNITMODE
 70
     0
  9
$VISRETAIN
 70
     0
  9
$PLINEGEN
 70
     0
  9
$PSLTSCALE
 70
     0
  9
$TREEDEPTH
 70
  3020
  9
$CMLSTYLE
  2
STANDARD
  9
$CMLJUST
 70
     0
  9
$CMLSCALE
 40
1.0
  9
$PROXYGRAPHICS
 70
     1
  9
$MEASUREMENT
 70
     0
  9
$CELWEIGHT
370
    -1
  9
$ENDCAPS
280
     0
  9
$JOINSTYLE
280
     0
  9
$LWDISPLAY
290
     0
  9
$INSUNITS
 70
     0
  9
$HYPERLINKBASE
  1

  9
$STYLESHEET
  1
USP.ctb
  9
$XEDIT
290
     1
  9
$CEPSNTYPE
380
     0
  9
$PSTYLEMODE
290
     1
  9
$FINGERPRINTGUID
  2
{35BEEC12-9373-4BB4-AE95-433DFCE1E59E}
  9
$VERSIONGUID
  2
{A8F51E05-9FA1-450E-9B0E-80E0D5115EEA}
  9
$EXTNAMES
290
     1
  9
$PSVPSCALE
 40
0.0
  9
$OLESTARTUP
290
     0
  9
$SORTENTS
280
   127
  9
$INDEXCTL
280
     0
  9
$HIDETEXT
280
     0
  9
$XCLIPFRAME
290
     0
  9
$HALOGAP
280
     0
  9
$OBSCOLOR
 70
   257
  9
$OBSLTYPE
280
     0
  9
$INTERSECTIONDISPLAY
280
     0
  9
$INTERSECTIONCOLOR
 70
   257
  9
$DIMASSOC
280
     1
  9
$PROJECTNAME
  1

  0
ENDSEC
  0
SECTION
  2
CLASSES
  0
CLASS
  1
ACDBDICTIONARYWDFLT
  2
AcDbDictionaryWithDefault
  3
ObjectDBX Classes
 90
        0
 91
        1
280
     0
281
     0
  0
CLASS
  1
DICTIONARYVAR
  2
AcDbDictionaryVar
  3
ObjectDBX Classes
 90
        0
 91
        2
280
     0
281
     0
  0
CLASS
  1
SORTENTSTABLE
  2
AcDbSortentsTable
  3
ObjectDBX Classes
 90
        0
 91
        1
280
     0
281
     0
  0
ENDSEC
  0
SECTION
  2
TABLES
  0
TABLE
  2
VPORT
  5
194
330
0
100
AcDbSymbolTable
 70
     3
  0
VPORT
  5
589
330
194
100
AcDbSymbolTableRecord
100
AcDbViewportTableRecord
  2
*Active
 70
     0
 10
0.0
 20
0.0
 11
1.0
 21
1.0
 12
-20.44476194141648
 22
11.54254672994323
 13
0.0
 23
0.0
 14
1.0
 24
1.0
 15
0.0
 25
0.0
 16
0.0
 26
0.0
 36
1.0
 17
23.09603071721725
 27
-10.27010416511326
 37
-10.44050274849355
 40
3.022194819801077
 41
2.144329896907216
 42
50.0
 43
10.55307667737539
 44
10.55307667737539
 50
0.0
 51
0.0
 71
     0
 72
   100
 73
     1
 74
     1
 75
     0
 76
     0
 77
     0
 78
     0
281
     0
 65
     1
110
0.0
120
0.0
130
0.0
111
1.0
121
0.0
131
0.0
112
0.0
122
1.0
132
0.0
 79
     1
146
0.0
  0
ENDTAB
  0
TABLE
  2
LTYPE
  5
18F
330
0
100
AcDbSymbolTable
 70
     1
  0
LTYPE
  5
190
330
18F
100
AcDbSymbolTableRecord
100
AcDbLinetypeTableRecord
  2
BYBLOCK
 70
     0
  3

 72
    65
 73
     0
 40
0.0
  0
LTYPE
  5
191
330
18F
100
AcDbSymbolTableRecord
100
AcDbLinetypeTableRecord
  2
BYLAYER
 70
     0
  3

 72
    65
 73
     0
 40
0.0
  0
LTYPE
  5
6
330
18F
100
AcDbSymbolTableRecord
100
AcDbLinetypeTableRecord
  2
CONTINUOUS
 70
     0
  3
Solid line
 72
    65
 73
     0
 40
0.0
  0
ENDTAB
  0
TABLE
  2
LAYER
  5
18D
330
0
100
AcDbSymbolTable
 70
     8
  0
LAYER
  5
39
330
18D
100
AcDbSymbolTableRecord
100
AcDbLayerTableRecord
  2
0
 70
     0
 62
     7
  6
CONTINUOUS
370
    -3
390
1A3
  0
LAYER
  5
1A
330
18D
100
AcDbSymbolTableRecord
100
AcDbLayerTableRecord
  2
USP
 70
     0
 62
     7
  6
CONTINUOUS
370
    -3
390
1A3
  0
LAYER
  5
1D
330
18D
100
AcDbSymbolTableRecord
100
AcDbLayerTableRecord
  2
USP-GEO
 70
     0
 62
     7
  6
CONTINUOUS
370
    -3
390
1A3
  0
LAYER
  5
5
330
18D
100
AcDbSymbolTableRecord
100
AcDbLayerTableRecord
  2
USP-TXT
 70
     0
 62
     7
  6
CONTINUOUS
370
    -3
390
1A3
  0
LAYER
  5
345
330
18D
100
AcDbSymbolTableRecord
100
AcDbLayerTableRecord
  2
DIM
 70
     0
 62
     3
  6
CONTINUOUS
370
    -3
390
1A3
  0
LAYER
  5
346
330
18D
100
AcDbSymbolTableRecord
100
AcDbLayerTableRecord
  2
PV-7333
 70
     2
 62
     7
  6
CONTINUOUS
370
    -3
390
1A3
  0
LAYER
  5
3A0
330
18D
100
AcDbSymbolTableRecord
100
AcDbLayerTableRecord
  2
OBJ
 70
     0
 62
     7
  6
CONTINUOUS
370
    -3
390
1A3
  0
LAYER
  5
564
330
18D
100
AcDbSymbolTableRecord
100
AcDbLayerTableRecord
  2
PV-735A
 70
     2
 62
     7
  6
CONTINUOUS
370
    -3
390
1A3
  0
ENDTAB
  0
TABLE
  2
STYLE
  5
18E
330
0
100
AcDbSymbolTable
 70
     1
  0
STYLE
  5
7
330
18E
100
AcDbSymbolTableRecord
100
AcDbTextStyleTableRecord
  2
STANDARD
 70
     0
 40
0.0
 41
1.0
 50
0.0
 71
     0
 42
0.125
  3
txt
  4

  0
ENDTAB
  0
TABLE
  2
VIEW
  5
192
330
0
100
AcDbSymbolTable
 70
     0
  0
ENDTAB
  0
TABLE
  2
UCS
  5
193
330
0
100
AcDbSymbolTable
 70
     0
  0
ENDTAB
  0
TABLE
  2
APPID
  5
196
330
0
100
AcDbSymbolTable
 70
     1
  0
APPID
  5
197
330
196
100
AcDbSymbolTableRecord
100
AcDbRegAppTableRecord
  2
ACAD
 70
     0
  0
ENDTAB
  0
TABLE
  2
DIMSTYLE
  5
198
330
0
100
AcDbSymbolTable
 70
     1
100
AcDbDimStyleTable
 71
     0
  0
DIMSTYLE
105
1A0
330
198
100
AcDbSymbolTableRecord
100
AcDbDimStyleTableRecord
  2
STANDARD
 70
     0
340
7
  0
ENDTAB
  0
TABLE
  2
BLOCK_RECORD
  5
1
330
0
100
AcDbSymbolTable
 70
     6
  0
BLOCK_RECORD
  5
2
102
{ACAD_XDICTIONARY
360
184
102
}
330
1
100
AcDbSymbolTableRecord
100
AcDbBlockTableRecord
  2
*MODEL_SPACE
340
1A8
  0
BLOCK_RECORD
  5
188
102
{ACAD_XDICTIONARY
360
189
102
}
330
1
100
AcDbSymbolTableRecord
100
AcDbBlockTableRecord
  2
*PAPER_SPACE
340
1A9
  0
BLOCK_RECORD
  5
1B
102
{ACAD_XDICTIONARY
360
381
102
}
330
1
100
AcDbSymbolTableRecord
100
AcDbBlockTableRecord
  2
base blockB
340
0
  0
BLOCK_RECORD
  5
1AC
330
1
100
AcDbSymbolTableRecord
100
AcDbBlockTableRecord
  2
*U1
340
0
102
{BLKREFS
331
348
102
}
  0
BLOCK_RECORD
  5
347
330
1
100
AcDbSymbolTableRecord
100
AcDbBlockTableRecord
  2
A$C742A73EE
340
0
  0
BLOCK_RECORD
  5
383
330
1
100
AcDbSymbolTableRecord
100
AcDbBlockTableRecord
  2
BLOCK B
340
0
  0
BLOCK_RECORD
  5
3DF
330
1
100
AcDbSymbolTableRecord
100
AcDbBlockTableRecord
  2
*U4
340
0
102
{BLKREFS
331
566
102
}
  0
BLOCK_RECORD
  5
565
330
1
100
AcDbSymbolTableRecord
100
AcDbBlockTableRecord
  2
A$C40E6250D
340
0
102
{BLKREFS
331
575
102
}
  0
ENDTAB
  0
ENDSEC
  0
SECTION
  2
BLOCKS
  0
BLOCK
  5
186
330
2
100
AcDbEntity
  8
0
100
AcDbBlockBegin
  2
*MODEL_SPACE
 70
     0
 10
0.0
 20
0.0
 30
0.0
  3
*MODEL_SPACE
  1

  0
ENDBLK
  5
187
330
2
100
AcDbEntity
  8
0
100
AcDbBlockEnd
  0
BLOCK
  5
18B
330
188
100
AcDbEntity
 67
     1
  8
0
100
AcDbBlockBegin
  2
*PAPER_SPACE
 70
     0
 10
0.0
 20
0.0
 30
0.0
  3
*PAPER_SPACE
  1

  0
ENDBLK
  5
18C
330
188
100
AcDbEntity
 67
     1
  8
0
100
AcDbBlockEnd
  0
BLOCK
  5
38
330
1B
100
AcDbEntity
  8
0
100
AcDbBlockBegin
  2
base blockB
 70
     2
 10
0.0
 20
0.0
 30
0.0
  3
base blockB
  1

  0
LWPOLYLINE
  5
1C
330
1B
100
AcDbEntity
  8
USP-GEO
100
AcDbPolyline
 90
        4
 70
     1
 43
0.0
 10
0.0
 20
0.0
 10
0.0
 20
3.0
 10
3.0
 20
3.0
 10
3.0
 20
0.0
  0
TEXT
  5
1E
330
1B
100
AcDbEntity
  8
USP-TXT
100
AcDbText
 10
0.5126323550828218
 20
0.0577537530311503
 30
0.0
 40
0.046875
  1
 Copyright 2004 United Steel Products Company
100
AcDbText
  0
TEXT
  5
1F
330
1B
100
AcDbEntity
  8
USP-TXT
100
AcDbText
 10
0.5204091789382091
 20
0.1551392140505783
 30
0.0
 40
0.078125
  1
USP Structural Connectors
100
AcDbText
  0
CIRCLE
  5
20
330
1B
100
AcDbEntity
  8
USP-TXT
100
AcDbCircle
 10
0.5128464045112509
 20
0.0830320346476725
 30
0.0
 40
0.0214703793180158
  0
TEXT
  5
21
330
1B
100
AcDbEntity
  8
USP-TXT
100
AcDbText
 10
0.5042237483422767
 20
0.0697781247899698
 30
0.0
 40
0.0254123629763196
  1
C
100
AcDbText
  0
TEXT
  5
22
330
1B
100
AcDbEntity
  8
USP-TXT
100
AcDbText
 10
2.434466095748831
 20
0.1975394907214323
 30
0.0
 40
0.0398157395393663
  1
TM
100
AcDbText
  0
ATTDEF
  5
23
330
1B
100
AcDbEntity
  8
USP-TXT
100
AcDbText
 10
0.2285944087798271
 20
2.131422307042676
 30
0.0
 40
0.09375
  1
REF#
100
AcDbAttributeDefinition
  3
REF#
  2
REF#
 70
     0
  0
ATTDEF
  5
24
330
1B
100
AcDbEntity
  8
USP-TXT
100
AcDbText
 10
0.228804698318946
 20
2.663353083391655
 30
0.0
 40
0.156
  1
PART#
100
AcDbAttributeDefinition
  3
ENTER PART#
  2
PART#
 70
     0
  0
ATTDEF
  5
25
330
1B
100
AcDbEntity
  8
USP-TXT
100
AcDbText
 10
0.2287687103892821
 20
2.455939297974381
 30
0.0
 40
0.094
  1
DESC
100
AcDbAttributeDefinition
  3
DESC OF PART
  2
DESC
 70
     0
  0
ATTDEF
  5
26
330
1B
100
AcDbEntity
  8
USP-TXT
100
AcDbText
 10
0.2287687103892821
 20
2.296477206945141
 30
0.0
 40
0.094
  1
DESC
100
AcDbAttributeDefinition
  3
DESC OF PART
  2
DESC
 70
     0
  0
ATTDEF
  5
27
330
1B
100
AcDbEntity
  8
USP-TXT
100
AcDbText
 10
0.228804698318946
 20
0.9204746951234454
 30
0.0
 40
0.063
  1
EXTDESC
100
AcDbAttributeDefinition
  3
ADDITION DESC
  2
EXTDESC
 70
     0
  0
ATTDEF
  5
28
330
1B
100
AcDbEntity
  8
USP-TXT
100
AcDbText
 10
0.228804698318946
 20
0.7280578783484089
 30
0.0
 40
0.094
  1
Fast
100
AcDbAttributeDefinition
  3
Fasteners
  2
FAST
 70
     0
  0
ATTDEF
  5
29
330
1B
100
AcDbEntity
  8
USP-TXT
100
AcDbText
 10
0.228804698318946
 20
0.5902099095079692
 30
0.0
 40
0.063
  1
SUPPORTING
100
AcDbAttributeDefinition
  3
SUPPORTING
  2
SUPPORTING
 70
     0
  0
ATTDEF
  5
2A
330
1B
100
AcDbEntity
  8
USP-TXT
100
AcDbText
 10
0.2325701781462328
 20
0.3869590266097589
 30
0.0
 40
0.063
  1
SUPPORTED
100
AcDbAttributeDefinition
  3
SUPPORTED
  2
SUPPORTED
 70
     0
  0
ATTDEF
  5
2B
330
1B
100
AcDbEntity
  8
USP-TXT
100
AcDbText
 10
0.3467694348797607
 20
1.810255039670316
 30
0.0
 40
0.063
  1
NER#
100
AcDbAttributeDefinition
  3
NER#
  2
NER#
 70
     0
  0
ATTDEF
  5
2C
330
1B
100
AcDbEntity
  8
USP-TXT
100
AcDbText
 10
0.3467694348797607
 20
1.718093264207645
 30
0.0
 40
0.063
  1
NER#
100
AcDbAttributeDefinition
  3
NER#
  2
NER#
 70
     0
  0
ATTDEF
  5
2D
330
1B
100
AcDbEntity
  8
USP-TXT
100
AcDbText
 10
0.3467694348797607
 20
1.626990818267302
 30
0.0
 40
0.063
  1
NER#
100
AcDbAttributeDefinition
  3
NER#
  2
NER#
 70
     0
  0
ATTDEF
  5
2E
330
1B
100
AcDbEntity
  8
USP-TXT
100
AcDbText
 10
0.3467694348797607
 20
1.533769713282296
 30
0.0
 40
0.063
  1
NER#
100
AcDbAttributeDefinition
  3
NER#
  2
NER#
 70
     0
  0
ATTDEF
  5
2F
330
1B
100
AcDbEntity
  8
USP-TXT
100
AcDbText
 10
0.3467694348797607
 20
1.444785926386607
 30
0.0
 40
0.063
  1
NER#
100
AcDbAttributeDefinition
  3
NER#
  2
NER#
 70
     0
  0
ATTDEF
  5
30
330
1B
100
AcDbEntity
  8
USP-TXT
100
AcDbText
 10
1.364479797147083
 20
0.4887001487405343
 30
0.0
 40
0.063
  1

100
AcDbAttributeDefinition
  3
ADD'T FAST
  2
ADD'TFAST
 70
     0
  0
ATTDEF
  5
31
330
1B
100
AcDbEntity
  8
USP-TXT
100
AcDbText
 10
0.2283634841335669
 20
1.914525761295834
 30
0.0
 40
0.063
  1

100
AcDbAttributeDefinition
  3
Code
  2
CODE
 70
     0
  0
ATTDEF
  5
32
330
1B
100
AcDbEntity
  8
USP-TXT
100
AcDbText
 10
0.2300836048111066
 20
1.202941981703204
 30
0.0
 40
0.063
  1
PAT
100
AcDbAttributeDefinition
  3
PAT
  2
PAT
 70
     0
  0
ATTDEF
  5
33
330
1B
100
AcDbEntity
  8
USP-TXT
100
AcDbText
 10
0.2300836048111066
 20
1.094452232058905
 30
0.0
 40
0.063
  1
PAT
100
AcDbAttributeDefinition
  3
PAT
  2
PAT
 70
     0
  0
ATTDEF
  5
34
330
1B
100
AcDbEntity
  8
USP-TXT
100
AcDbText
 10
1.364305633381093
 20
0.5924770789588152
 30
0.0
 40
0.063
  1
SUPT'G
100
AcDbAttributeDefinition
  3
SUPT'G
  2
SUPT'G
 70
     0
  0
ATTDEF
  5
35
330
1B
100
AcDbEntity
  8
USP-TXT
100
AcDbText
 10
1.364305633381093
 20
0.3890323743116966
 30
0.0
 40
0.063
  1
SUPT'D
100
AcDbAttributeDefinition
  3
SUPT'D
  2
SUPT'D
 70
     0
  0
ENDBLK
  5
3A
330
1B
100
AcDbEntity
  8
0
100
AcDbBlockEnd
  0
BLOCK
  5
1AD
330
1AC
100
AcDbEntity
  8
0
100
AcDbBlockBegin
  2
*U1
 70
     1
 10
0.0
 20
0.0
 30
0.0
  3
*U1
  1

  0
LINE
  5
1AE
330
1AC
100
AcDbEntity
  8
PV-7333
100
AcDbLine
 10
1.49230322951525
 20
30.87304456141024
 30
-12.12360250107402
 11
1.904259060640615
 21
31.69695622366098
 31
-11.71164666994865
  0
LINE
  5
1AF
330
1AC
100
AcDbEntity
  8
PV-7333
100
AcDbLine
 10
1.404259060640615
 20
32.19695622366098
 30
-10.71164666994865
 11
0.9923032295152509
 21
31.37304456141024
 31
-11.12360250107402
  0
LINE
  5
1B0
330
1AC
100
AcDbEntity
  8
PV-7333
100
AcDbLine
 10
1.904259060640615
 20
31.69695622366098
 30
-11.71164666994865
 11
1.404259060640615
 21
32.19695622366098
 31
-10.71164666994865
  0
LINE
  5
1B1
330
1AC
100
AcDbEntity
  8
PV-7333
100
AcDbLine
 10
1.051399533083039
 20
32.29413172407443
 30
-10.2616116419776
 11
1.404259060640615
 21
32.19695622366098
 31
-10.71164666994865
  0
LINE
  5
1B2
330
1AC
100
AcDbEntity
  8
PV-7333
100
AcDbLine
 10
3.444142359750944
 20
33.43276190382501
 30
-11.51572428889494
 11
1.688440878585478
 21
31.91277440571612
 31
-11.28001030583837
  0
LINE
  5
1B3
330
1AC
100
AcDbEntity
  8
PV-7333
100
AcDbLine
 10
2.944142359750944
 20
33.93276190382501
 30
-10.51572428889494
 11
1.051399533083039
 21
32.29413172407443
 31
-10.2616116419776
  0
LINE
  5
1B4
330
1AC
100
AcDbEntity
  8
PV-7333
100
AcDbLine
 10
3.444142359750944
 20
33.43276190382501
 30
-11.51572428889494
 11
2.944142359750944
 21
33.93276190382501
 31
-10.51572428889494
  0
LINE
  5
1B5
330
1AC
100
AcDbEntity
  8
PV-7333
100
AcDbLine
 10
2.325071924096661
 20
34.03858195057306
 30
-9.790833806492612
 11
2.944142359750944
 21
33.93276190382501
 31
-10.51572428889494
  0
LINE
  5
1B6
330
1AC
100
AcDbEntity
  8
PV-7333
100
AcDbLine
 10
3.325636562848586
 20
34.5397112280769
 30
-10.29026916774069
 11
2.996155387065407
 21
33.88074887651055
 31
-10.61975034352387
  0
LINE
  5
1B7
330
1AC
100
AcDbEntity
  8
PV-7333
100
AcDbLine
 10
2.825636562848583
 20
35.03971122807691
 30
-9.290269167740691
 11
2.325071924096661
 21
34.03858195057306
 31
-9.790833806492612
  0
LINE
  5
1B8
330
1AC
100
AcDbEntity
  8
PV-7333
100
AcDbLine
 10
3.325636562848586
 20
34.5397112280769
 30
-10.29026916774069
 11
2.825636562848583
 21
35.03971122807691
 31
-9.290269167740691
  0
LINE
  5
1B9
330
1AC
100
AcDbEntity
  8
PV-7333
100
AcDbLine
 10
-17.17436343715141
 20
25.03971122807691
 30
0.7097308322593108
 11
-12.13412664557381
 21
27.5598296238657
 31
-1.810387563529488
  0
LINE
  5
1BA
330
1AC
100
AcDbEntity
  8
PV-7333
100
AcDbLine
 10
-8.337782801167497
 20
29.45800154606887
 30
-3.708559485732649
 11
2.825636562848583
 21
35.03971122807691
 31
-9.290269167740691
  0
LINE
  5
1BB
330
1AC
100
AcDbEntity
  8
PV-7333
100
AcDbLine
 10
-17.67492807590334
 20
24.03858195057306
 30
0.2091661935073876
 11
-17.17436343715141
 21
25.03971122807691
 31
0.7097308322593108
  0
LINE
  5
1BC
330
1AC
100
AcDbEntity
  8
PV-7333
100
AcDbLine
 10
-18.8478055309912
 20
23.03678795845394
 30
0.3802496564761357
 11
-17.67492807590334
 21
24.03858195057306
 31
0.2091661935073876
  0
LINE
  5
1BD
330
1AC
100
AcDbEntity
  8
PV-7333
100
AcDbLine
 10
-18.3478055309912
 20
22.53678795845394
 30
-0.6197503435238652
 11
-18.23700345032534
 21
22.51309108322705
 31
-0.7542492994166148
  0
LINE
  5
1BE
330
1AC
100
AcDbEntity
  8
PV-7333
100
AcDbLine
 10
-18.3478055309912
 20
22.53678795845394
 30
-0.6197503435238652
 11
-18.8478055309912
 21
23.03678795845394
 31
0.3802496564761357
  0
LINE
  5
1BF
330
1AC
100
AcDbEntity
  8
PV-7333
100
AcDbLine
 10
-17.87807439287879
 20
22.82939476109353
 30
-0.7968746789966925
 11
-18.8478055309912
 21
23.03678795845394
 31
0.3802496564761357
  0
LINE
  5
1C0
330
1AC
100
AcDbEntity
  8
PV-7333
100
AcDbLine
 10
-18.59574093935938
 20
22.19695622366097
 30
-0.7116466699486548
 11
-17.87807439287879
 21
22.82939476109353
 31
-0.7968746789966925
  0
LINE
  5
1C1
330
1AC
100
AcDbEntity
  8
PV-7333
100
AcDbLine
 10
-19.00769677048475
 20
21.37304456141024
 30
-1.123602501074021
 11
-18.59574093935938
 21
22.19695622366097
 31
-0.7116466699486548
  0
LINE
  5
1C2
330
1AC
100
AcDbEntity
  8
PV-7333
100
AcDbLine
 10
1.49230322951525
 20
30.87304456141024
 30
-12.12360250107402
 11
0.9923032295152509
 21
31.37304456141024
 31
-11.12360250107402
  0
LINE
  5
1C3
330
1AC
100
AcDbEntity
  8
PV-7333
100
AcDbLine
 10
-18.50769677048475
 20
20.87304456141024
 30
-2.123602501074021
 11
-13.07685450585586
 21
23.58846569372468
 31
-4.839023633388466
  0
LINE
  5
1C4
330
1AC
100
AcDbEntity
  8
PV-7333
100
AcDbLine
 10
-9.472458209779153
 20
25.39066384176304
 30
-6.641221781426819
 11
-9.178717703434978
 21
25.53753409493512
 31
-6.788092034598905
  0
LINE
  5
1C5
330
1AC
100
AcDbEntity
  8
PV-7333
100
AcDbLine
 10
-7.644051036768303
 20
26.30486742826847
 30
-7.555425367932246
 11
1.49230322951525
 21
30.87304456141024
 31
-12.12360250107402
  0
LINE
  5
1C6
330
1AC
100
AcDbEntity
  8
PV-7333
100
AcDbLine
 10
-18.50769677048475
 20
20.87304456141024
 30
-2.123602501074021
 11
-19.00769677048475
 21
21.37304456141024
 31
-1.123602501074021
  0
LINE
  5
1C7
330
1AC
100
AcDbEntity
  8
PV-7333
100
AcDbLine
 10
0.9923032295152509
 20
31.37304456141024
 30
-11.12360250107402
 11
-8.1467408690081
 21
26.80352251214856
 31
-6.554080451812344
  0
LINE
  5
1C8
330
1AC
100
AcDbEntity
  8
PV-7333
100
AcDbLine
 10
-9.691246033992783
 20
26.03126992965622
 30
-5.781827869320002
 11
-9.972458209779201
 21
25.89066384176301
 31
-5.641221781426795
  0
LINE
  5
1C9
330
1AC
100
AcDbEntity
  8
PV-7333
100
AcDbLine
 10
-12.87484139293828
 20
24.43947225018347
 30
-4.190030189847256
 11
-19.00769677048475
 21
21.37304456141024
 31
-1.123602501074021
  0
LINE
  5
1CA
330
1AC
100
AcDbEntity
  8
PV-7333
100
AcDbLine
 10
1.99230322951525
 20
30.37304456141024
 30
-13.12360250107402
 11
2.404259060640615
 21
31.19695622366098
 31
-12.71164666994865
  0
LINE
  5
1CB
330
1AC
100
AcDbEntity
  8
PV-7333
100
AcDbLine
 10
1.904259060640615
 20
31.69695622366098
 30
-11.71164666994865
 11
1.49230322951525
 21
30.87304456141024
 31
-12.12360250107402
  0
LINE
  5
1CC
330
1AC
100
AcDbEntity
  8
PV-7333
100
AcDbLine
 10
2.404259060640615
 20
31.19695622366098
 30
-12.71164666994865
 11
1.904259060640615
 21
31.69695622366098
 31
-11.71164666994865
  0
LINE
  5
1CD
330
1AC
100
AcDbEntity
  8
PV-7333
100
AcDbLine
 10
3.944142359750941
 20
32.93276190382502
 30
-12.51572428889494
 11
2.188440878585478
 21
31.41277440571612
 31
-12.28001030583837
  0
LINE
  5
1CE
330
1AC
100
AcDbEntity
  8
PV-7333
100
AcDbLine
 10
3.444142359750944
 20
33.43276190382501
 30
-11.51572428889494
 11
1.688440878585478
 21
31.91277440571612
 31
-11.28001030583837
  0
LINE
  5
1CF
330
1AC
100
AcDbEntity
  8
PV-7333
100
AcDbLine
 10
3.944142359750941
 20
32.93276190382502
 30
-12.51572428889494
 11
3.444142359750944
 21
33.43276190382501
 31
-11.51572428889494
  0
LINE
  5
1D0
330
1AC
100
AcDbEntity
  8
PV-7333
100
AcDbLine
 10
3.825636562848583
 20
34.03971122807691
 30
-11.29026916774069
 11
3.496155387065407
 21
33.38074887651055
 31
-11.61975034352386
  0
LINE
  5
1D1
330
1AC
100
AcDbEntity
  8
PV-7333
100
AcDbLine
 10
3.325636562848586
 20
34.5397112280769
 30
-10.29026916774069
 11
2.996155387065407
 21
33.88074887651055
 31
-10.61975034352387
  0
LINE
  5
1D2
330
1AC
100
AcDbEntity
  8
PV-7333
100
AcDbLine
 10
3.825636562848583
 20
34.03971122807691
 30
-11.29026916774069
 11
3.325636562848586
 21
34.5397112280769
 31
-10.29026916774069
  0
LINE
  5
1D3
330
1AC
100
AcDbEntity
  8
PV-7333
100
AcDbLine
 10
-18.28330539579071
 20
22.47228782325345
 30
-0.7487506139248401
 11
-18.3478055309912
 21
22.53678795845394
 31
-0.6197503435238652
  0
LINE
  5
1D4
330
1AC
100
AcDbEntity
  8
PV-7333
100
AcDbLine
 10
-18.23700345032534
 20
22.51309108322705
 30
-0.7542492994166148
 11
-18.3478055309912
 21
22.53678795845394
 31
-0.6197503435238652
  0
LINE
  5
1D5
330
1AC
100
AcDbEntity
  8
PV-7333
100
AcDbLine
 10
1.99230322951525
 20
30.37304456141024
 30
-13.12360250107402
 11
1.49230322951525
 21
30.87304456141024
 31
-12.12360250107402
  0
LINE
  5
1D6
330
1AC
100
AcDbEntity
  8
PV-7333
100
AcDbLine
 10
-18.00769677048475
 20
20.37304456141024
 30
-3.123602501074021
 11
-13.27886761877344
 21
22.73745913726589
 31
-5.488017076929674
  0
LINE
  5
1D7
330
1AC
100
AcDbEntity
  8
PV-7333
100
AcDbLine
 10
-9.482523774367072
 20
24.63563105946908
 30
-7.386188999132862
 11
-8.678717703434958
 21
25.03753409493513
 31
-7.788092034598916
  0
LINE
  5
1D8
330
1AC
100
AcDbEntity
  8
PV-7333
100
AcDbLine
 10
-7.14405103676829
 20
25.80486742826847
 30
-8.555425367932251
 11
1.99230322951525
 21
30.37304456141024
 31
-13.12360250107402
  0
LINE
  5
1D9
330
1AC
100
AcDbEntity
  8
PV-7333
100
AcDbLine
 10
-18.00769677048475
 20
20.37304456141024
 30
-3.123602501074021
 11
-18.50769677048475
 21
20.87304456141024
 31
-2.123602501074021
  0
LINE
  5
1DA
330
1AC
100
AcDbEntity
  8
PV-7333
100
AcDbLine
 10
1.49230322951525
 20
30.87304456141024
 30
-12.12360250107402
 11
-7.644051036768303
 21
26.30486742826847
 31
-7.555425367932246
  0
LINE
  5
1DB
330
1AC
100
AcDbEntity
  8
PV-7333
100
AcDbLine
 10
-9.17871770343498
 20
25.53753409493512
 30
-6.788092034598905
 11
-9.472458209779155
 21
25.39066384176304
 31
-6.641221781426819
  0
LINE
  5
1DC
330
1AC
100
AcDbEntity
  8
PV-7333
100
AcDbLine
 10
-13.07685450585586
 20
23.58846569372468
 30
-4.839023633388466
 11
-18.50769677048475
 21
20.87304456141024
 31
-2.123602501074021
  0
LINE
  5
1DD
330
1AC
100
AcDbEntity
  8
PV-7333
100
AcDbLine
 10
-9.624618872958174
 20
24.03703694448693
 30
-7.842688015523906
 11
-5.976316583415904
 21
20.38873465494466
 31
-15.13929259460844
  0
LINE
  5
1DE
330
1AC
100
AcDbEntity
  8
PV-7333
100
AcDbLine
 10
-4.976316583415904
 20
20.88873465494466
 30
-15.63929259460844
 11
-8.976316583415904
 21
24.88873465494466
 31
-7.639292594608443
  0
LINE
  5
1DF
330
1AC
100
AcDbEntity
  8
PV-7333
100
AcDbLine
 10
-5.976316583415904
 20
20.38873465494466
 30
-15.13929259460844
 11
-4.976316583415904
 21
20.88873465494466
 31
-15.63929259460844
  0
LINE
  5
1E0
330
1AC
100
AcDbEntity
  8
PV-7333
100
AcDbLine
 10
-4.397904282307925
 20
22.04555925716061
 30
-15.06088029350046
 11
-4.976316583415904
 21
20.88873465494466
 31
-15.63929259460844
  0
LINE
  5
1E1
330
1AC
100
AcDbEntity
  8
PV-7333
100
AcDbLine
 10
-3.795348888353648
 20
21.90467233407836
 30
-15.80432261053699
 11
-4.397904282307925
 21
22.04555925716061
 31
-15.06088029350046
  0
LINE
  5
1E2
330
1AC
100
AcDbEntity
  8
PV-7333
100
AcDbLine
 10
-4.692680695680853
 20
21.45600643041476
 30
-15.35565670687339
 11
-3.795348888353648
 21
21.90467233407836
 31
-15.80432261053699
  0
LINE
  5
1E3
330
1AC
100
AcDbEntity
  8
PV-7333
100
AcDbLine
 10
-4.269105547792504
 20
23.40560478938025
 30
-13.82963349579625
 11
-3.795348888353648
 21
21.90467233407836
 31
-15.80432261053699
  0
LINE
  5
1E4
330
1AC
100
AcDbEntity
  8
PV-7333
100
AcDbLine
 10
-3.625075514161756
 20
23.59121679345295
 30
-14.28805152535429
 11
-4.269105547792504
 21
23.40560478938025
 31
-13.82963349579625
  0
LINE
  5
1E5
330
1AC
100
AcDbEntity
  8
PV-7333
100
AcDbLine
 10
-4.231919775779027
 20
23.28779466264432
 30
-13.98462939454566
 11
-3.625075514161756
 21
23.59121679345295
 31
-14.28805152535429
  0
LINE
  5
1E6
330
1AC
100
AcDbEntity
  8
PV-7333
100
AcDbLine
 10
-3.142983250082569
 20
24.55540132161133
 30
-13.80595926127511
 11
-3.625075514161756
 21
23.59121679345295
 31
-14.28805152535429
  0
LINE
  5
1E7
330
1AC
100
AcDbEntity
  8
PV-7333
100
AcDbLine
 10
-5.309649916749236
 20
26.72206798827799
 30
-9.472625927941773
 11
-3.142983250082569
 21
24.55540132161133
 31
-13.80595926127511
  0
LINE
  5
1E8
330
1AC
100
AcDbEntity
  8
PV-7333
100
AcDbLine
 10
-9.482523774367074
 20
24.63563105946908
 30
-7.386188999132862
 11
-8.976316583415904
 21
24.88873465494466
 31
-7.639292594608443
  0
LINE
  5
1E9
330
1AC
100
AcDbEntity
  8
PV-7333
100
AcDbLine
 10
-13.44302757610448
 20
18.33328365010472
 30
-9.728032606759803
 11
-11.45136688419464
 21
16.34162295819507
 31
-13.7113539905793
  0
LINE
  5
1EA
330
1AC
100
AcDbEntity
  8
PV-7333
100
AcDbLine
 10
-14.44302757610445
 20
17.83328365010472
 30
-9.228032606759839
 11
-12.45136688419461
 21
15.84162295819507
 31
-13.21135399057933
  0
LINE
  5
1EB
330
1AC
100
AcDbEntity
  8
PV-7333
100
AcDbLine
 10
-9.31227156595356
 20
35.73463149827245
 30
3.542559231256996
 11
-11.24849511025596
 21
27.5780375664543
 31
-2.677811156258744
  0
LINE
  5
1EC
330
1AC
100
AcDbEntity
  8
PV-7333
100
AcDbLine
 10
-11.2611249170689
 20
27.52483285984203
 30
-2.718386056058088
 11
-13.44302757610448
 21
18.33328365010472
 31
-9.728032606759807
  0
LINE
  5
1ED
330
1AC
100
AcDbEntity
  8
PV-7333
100
AcDbLine
 10
-13.44302757610448
 20
18.33328365010472
 30
-9.728032606759803
 11
-14.44302757610452
 21
17.83328365010469
 31
-9.228032606759803
  0
LINE
  5
1EE
330
1AC
100
AcDbEntity
  8
PV-7333
100
AcDbLine
 10
-10.31227156595352
 20
35.23463149827245
 30
4.042559231256962
 11
-11.75422890739159
 21
29.16019833908272
 31
-0.5899165864946987
  0
LINE
  5
1EF
330
1AC
100
AcDbEntity
  8
PV-7333
100
AcDbLine
 10
-11.76663372989576
 20
29.10794140818209
 30
-0.6297686948911565
 11
-14.44302757610445
 21
17.83328365010472
 31
-9.228032606759846
  0
LINE
  5
1F0
330
1AC
100
AcDbEntity
  8
PV-7333
100
AcDbLine
 10
-8.004115116535254
 20
35.59591545339105
 30
2.095686736957295
 11
-9.31227156595356
 21
35.73463149827245
 31
3.542559231256996
  0
LINE
  5
1F1
330
1AC
100
AcDbEntity
  8
PV-7333
100
AcDbLine
 10
-9.31227156595356
 20
35.73463149827245
 30
3.542559231256996
 11
-10.31227156595356
 21
35.23463149827243
 31
4.04255923125698
  0
LINE
  5
1F2
330
1AC
100
AcDbEntity
  8
PV-7333
100
AcDbLine
 10
-7.740057585231138
 20
36.0003862699711
 30
2.23610002223323
 11
-8.004115116535254
 21
35.59591545339105
 31
2.095686736957295
  0
LINE
  5
1F3
330
1AC
100
AcDbEntity
  8
PV-7333
100
AcDbLine
 10
-7.658412152599469
 20
34.93704485368061
 30
1.091113173311077
 11
-7.740057585231138
 21
36.0003862699711
 31
2.23610002223323
  0
LINE
  5
1F4
330
1AC
100
AcDbEntity
  8
PV-7333
100
AcDbLine
 10
-7.740057585231138
 20
36.0003862699711
 30
2.23610002223323
 11
-8.453660275581686
 21
35.64358492479581
 31
2.592901367408492
  0
LINE
  5
1F5
330
1AC
100
AcDbEntity
  8
PV-7333
100
AcDbLine
 10
-7.307134273918389
 20
35.52415284840375
 30
1.326943289353124
 11
-7.658412152599469
 21
34.93704485368061
 31
1.091113173311077
  0
LINE
  5
1F6
330
1AC
100
AcDbEntity
  8
PV-7333
100
AcDbLine
 10
-6.907842301978144
 20
35.48181219172997
 30
0.8853106607391065
 11
-7.307134273918389
 21
35.52415284840375
 31
1.326943289353124
  0
LINE
  5
1F7
330
1AC
100
AcDbEntity
  8
PV-7333
100
AcDbLine
 10
-7.307134273918389
 20
35.52415284840375
 30
1.326943289353124
 11
-7.688837492500663
 21
35.3333012391126
 31
1.517794898644257
  0
LINE
  5
1F8
330
1AC
100
AcDbEntity
  8
PV-7333
100
AcDbLine
 10
-8.472458209779214
 20
28.89066384176302
 30
-4.14122178142677
 11
-6.907842301978144
 21
35.48181219172997
 31
0.8853106607391065
  0
LINE
  5
1F9
330
1AC
100
AcDbEntity
  8
PV-7333
100
AcDbLine
 10
-8.472458209779214
 20
28.89066384176302
 30
-4.14122178142677
 11
-9.504712538835111
 21
26.82615518365123
 31
-5.173476110482669
  0
LINE
  5
1FA
330
1AC
100
AcDbEntity
  8
PV-7333
100
AcDbLine
 10
-9.897045872168447
 20
26.04148851698455
 30
-5.565809443816005
 11
-9.972458209779217
 21
25.89066384176302
 31
-5.641221781426775
  0
LINE
  5
1FB
330
1AC
100
AcDbEntity
  8
PV-7333
100
AcDbLine
 10
-9.335745985464768
 20
25.25395161744864
 30
-6.914646230055604
 11
-9.972458209779217
 21
25.89066384176302
 31
-5.641221781426771
  0
LINE
  5
1FC
330
1AC
100
AcDbEntity
  8
PV-7333
100
AcDbLine
 10
-11.45136688419464
 20
16.34162295819507
 30
-13.7113539905793
 11
-12.45136688419462
 21
15.84162295819506
 31
-13.21135399057932
  0
LINE
  5
1FD
330
1AC
100
AcDbEntity
  8
PV-7333
100
AcDbLine
 10
-11.45136688419464
 20
16.34162295819507
 30
-13.7113539905793
 11
-9.335745985464759
 21
25.25395161744865
 31
-6.914646230055607
  0
LINE
  5
1FE
330
1AC
100
AcDbEntity
  8
PV-7333
100
AcDbLine
 10
-11.24212981059806
 20
27.44622687628668
 30
-2.815987146084262
 11
-11.19832106912491
 21
27.47113060069258
 31
-2.83489216315152
  0
ELLIPSE
  5
1FF
330
1AC
100
AcDbEntity
  8
PV-7333
100
AcDbEllipse
 10
-11.35508615047341
 20
27.39017519896866
 30
-2.759082483526926
 11
0.017084498789752
 21
-0.1786106691659288
 31
-0.1956951679556808
210
0.5773502691896257
220
-0.5773502691896255
230
0.5773502691896258
 40
0.5197531758484059
 41
1.527452759250099
 42
2.312850922647515
  0
LINE
  5
200
330
1AC
100
AcDbEntity
  8
PV-7333
100
AcDbLine
 10
-11.28384176266567
 20
27.55794424122556
 30
-2.662557829077787
 11
-11.24003302119252
 21
27.58284796563145
 31
-2.681462846145045
  0
ELLIPSE
  5
201
330
1AC
100
AcDbEntity
  8
PV-7333
100
AcDbEllipse
 10
-11.31127740900026
 20
27.41507892337456
 30
-2.777987500594177
 11
0.017084498789752
 21
-0.1786106691659288
 31
-0.1956951679556808
210
0.5773502691896257
220
-0.5773502691896255
230
0.5773502691896258
 40
0.5197531758484059
 41
1.527452759250047
 42
2.312850922647509
  0
LINE
  5
202
330
1AC
100
AcDbEntity
  8
PV-7333
100
AcDbLine
 10
-10.14963966375115
 20
27.27910081005032
 30
-4.075603359167534
 11
-10.12140283361717
 21
27.29321922511732
 31
-4.089721774234524
  0
ELLIPSE
  5
203
330
1AC
100
AcDbEntity
  8
PV-7333
100
AcDbEllipse
 10
-10.20990283361715
 20
27.11621922511733
 30
-4.178221774234515
 11
0.0
 21
0.1877368504050283
 31
0.1877368504050285
210
0.5773502691896259
220
-0.5773502691896259
230
0.5773502691896257
 40
0.577350269189626
 41
5.185949645292641
 42
5.497787143782164
  0
LINE
  5
204
330
1AC
100
AcDbEntity
  8
PV-7333
100
AcDbLine
 10
-10.58507826668046
 20
27.7716578077756
 30
-3.147607758512936
 11
-10.54307826668046
 21
27.7926578077756
 31
-3.168607758512935
  0
ELLIPSE
  5
205
330
1AC
100
AcDbEntity
  8
PV-7333
100
AcDbEllipse
 10
-10.45992036641045
 20
27.83423675791063
 30
-3.210186708647924
 11
0.0
 21
0.1877368504050283
 31
0.1877368504050285
210
0.5773502691896259
220
-0.5773502691896259
230
0.5773502691896257
 40
0.577350269189626
 41
1.570796326794986
 42
2.356194490192317
  0
LINE
  5
206
330
1AC
100
AcDbEntity
  8
PV-7333
100
AcDbLine
 10
-10.54842036641045
 20
27.65723675791063
 30
-3.298686708647926
 11
-10.50642036641046
 21
27.67823675791063
 31
-3.319686708647925
  0
ELLIPSE
  5
207
330
1AC
100
AcDbEntity
  8
PV-7333
100
AcDbEllipse
 10
-10.41792036641045
 20
27.85523675791062
 30
-3.231186708647925
 11
0.0
 21
-0.1877368504050283
 31
-0.1877368504050285
210
0.5773502691896259
220
-0.5773502691896259
230
0.5773502691896257
 40
0.577350269189626
 41
4.712388980384765
 42
5.49778714378211
  0
LINE
  5
208
330
1AC
100
AcDbEntity
  8
PV-7333
100
AcDbLine
 10
-11.69182603466053
 20
29.42307857031654
 30
-0.3894392279919394
 11
-11.81562325956334
 21
29.35645821697241
 31
-0.3322623564332652
  0
LINE
  5
209
330
1AC
100
AcDbEntity
  8
PV-7333
100
AcDbLine
 10
-11.78223150120305
 20
29.37290057751777
 30
-0.3492117542481914
 11
-11.69224163288363
 21
29.42132780865755
 31
-0.3907743914278345
  0
LINE
  5
20A
330
1AC
100
AcDbEntity
  8
PV-7333
100
AcDbLine
 10
-11.81562325956334
 20
29.35645821697241
 30
-0.3322623564332652
 11
-12.26831662065578
 21
27.52168432096863
 31
-1.714342891344605
  0
LINE
  5
20B
330
1AC
100
AcDbEntity
  8
PV-7333
100
AcDbLine
 10
-11.81562325956334
 20
29.35645821697241
 30
-0.3322623564332652
 11
-11.78223150120306
 21
29.37290057751776
 31
-0.3492117542481914
  0
LINE
  5
20C
330
1AC
100
AcDbEntity
  8
PV-7333
100
AcDbLine
 10
-12.23492486229549
 20
27.53812668151398
 30
-1.731292289159531
 11
-11.86551937934243
 21
29.03533339010662
 31
-0.6034910635199644
  0
LINE
  5
20D
330
1AC
100
AcDbEntity
  8
PV-7333
100
AcDbLine
 10
-11.8652679791847
 20
29.03635231922397
 30
-0.6027235345603313
 11
-11.83313923581547
 21
29.16657066283525
 31
-0.504633934318294
  0
LINE
  5
20E
330
1AC
100
AcDbEntity
  8
PV-7333
100
AcDbLine
 10
-11.83240772218099
 20
29.16953550004396
 30
-0.5024006107440578
 11
-11.78223150120305
 21
29.37290057751777
 31
-0.3492117542481914
  0
LINE
  5
20F
330
1AC
100
AcDbEntity
  8
PV-7333
100
AcDbLine
 10
-12.26831662065578
 20
27.52168432096862
 30
-1.714342891344601
 11
-12.23492486229555
 21
27.53812668151395
 31
-1.731292289159503
  0
LINE
  5
210
330
1AC
100
AcDbEntity
  8
PV-7333
100
AcDbLine
 10
-12.12527080186728
 20
27.59713601921991
 30
-1.781937011881819
 11
-12.2349248622955
 21
27.53812668151398
 31
-1.73129228915954
  0
ELLIPSE
  5
211
330
1AC
100
AcDbEntity
  8
PV-7333
100
AcDbEllipse
 10
-12.08607208454427
 20
27.83191237401684
 30
-1.586359374407884
 11
0.0006441991660032
 21
0.063959264475664
 31
0.0633150653096608
210
0.5773502691896258
220
-0.5773502691896259
230
0.5773502691896259
 40
0.6175913459902553
 41
5.536945409081809
 42
5.906437409513773
  0
ELLIPSE
  5
212
330
1AC
100
AcDbEntity
  8
PV-7333
100
AcDbEllipse
 10
-12.05268032618398
 20
27.8483547345622
 30
-1.603308772222812
 11
0.0006441991660033
 21
0.063959264475664
 31
0.0633150653096608
210
0.577350269189626
220
-0.5773502691896259
230
0.5773502691896259
 40
0.6175913459902526
 41
6.243962693888613
 42
8.768000507119277
  0
ELLIPSE
  5
213
330
1AC
100
AcDbEntity
  8
PV-7333
100
AcDbEllipse
 10
-11.21705690298644
 20
29.11385278012702
 30
-1.173434149855534
 11
0.0390661951779896
 21
0.0734346216466356
 31
0.0343684264686459
210
0.577350269189626
220
-0.5773502691896258
230
0.5773502691896258
 40
0.7361005317151218
 41
0.0
 42
6.283185307179586
  0
ELLIPSE
  5
214
330
1AC
100
AcDbEntity
  8
PV-7333
100
AcDbEllipse
 10
-11.5280238605576
 20
27.97235931722175
 30
-2.003960655189649
 11
0.0390661951779897
 21
0.0734346216466355
 31
0.0343684264686458
210
0.5773502691896258
220
-0.5773502691896259
230
0.5773502691896258
 40
0.7361005317151229
 41
5.843096924641148
 42
6.283185307179591
  0
ELLIPSE
  5
215
330
1AC
100
AcDbEntity
  8
PV-7333
100
AcDbEllipse
 10
-11.5280238605576
 20
27.97235931722175
 30
-2.003960655189649
 11
0.0390661951779897
 21
0.0734346216466355
 31
0.0343684264686458
210
0.5773502691896258
220
-0.5773502691896259
230
0.5773502691896258
 40
0.7361005317151229
 41
0.2688721079282588
 42
0.7074669498098518
  0
ELLIPSE
  5
216
330
1AC
100
AcDbEntity
  8
PV-7333
100
AcDbEllipse
 10
-11.55236483386544
 20
27.97342003178187
 30
-1.978558967321694
 11
0.0390661951779897
 21
0.0734346216466356
 31
0.0343684264686459
210
0.5773502691896259
220
-0.5773502691896258
230
0.577350269189626
 40
0.7361005317151216
 41
0.0
 42
6.283185307179586
  0
LINE
  5
217
330
1AC
100
AcDbEntity
  8
PV-7333
100
AcDbLine
 10
-11.86995392770388
 20
29.13248959475885
 30
-0.5019003105062918
 11
-11.86665807088376
 21
29.13234597012753
 31
-0.5053397919577077
  0
ELLIPSE
  5
218
330
1AC
100
AcDbEntity
  8
PV-7333
100
AcDbEllipse
 10
-11.83827584145907
 20
29.10813822069304
 30
-0.5579297708168891
 11
0.03906619517799
 21
0.0734346216466355
 31
0.0343684264686456
210
0.5773502691896258
220
-0.5773502691896258
230
0.5773502691896257
 40
0.736100531715117
 41
2.738576753195196
 42
7.54328656811309
  0
LINE
  5
219
330
1AC
100
AcDbEntity
  8
PV-7333
100
AcDbLine
 10
-11.8921805254495
 20
29.04137002160847
 30
-0.570793285911039
 11
-11.8888933982653
 21
29.04122677739136
 31
-0.5742236573123574
  0
ELLIPSE
  5
21A
330
1AC
100
AcDbEntity
  8
PV-7333
100
AcDbEllipse
 10
-11.81393486815122
 20
29.10707750613293
 30
-0.5833314586848442
 11
-0.03906619517799
 21
-0.0734346216466355
 31
-0.0343684264686456
210
0.5773502691896258
220
-0.5773502691896258
230
0.5773502691896258
 40
0.7361005317151168
 41
3.410464761518122
 42
3.816027899512891
  0
ELLIPSE
  5
21B
330
1AC
100
AcDbEntity
  8
PV-7333
100
AcDbEllipse
 10
-11.81393486815122
 20
29.10707750613293
 30
-0.5833314586848442
 11
-0.03906619517799
 21
-0.0734346216466355
 31
-0.0343684264686456
210
0.5773502691896258
220
-0.5773502691896258
230
0.5773502691896258
 40
0.7361005317151168
 41
0.1754444765331853
 42
3.141592653589784
  0
ELLIPSE
  5
21C
330
1AC
100
AcDbEntity
  8
PV-7333
100
AcDbEllipse
 10
-10.72649962291778
 20
28.53605194570599
 30
-2.24179226434523
 11
0.0
 21
-0.0636396103067893
 31
-0.0636396103067893
210
0.5773502691896258
220
-0.5773502691896255
230
0.5773502691896258
 40
0.5773502691896258
 41
3.14159265358975
 42
3.926990816987221
  0
ELLIPSE
  5
21D
330
1AC
100
AcDbEntity
  8
PV-7333
100
AcDbEllipse
 10
-10.72649962291778
 20
28.53605194570599
 30
-2.24179226434523
 11
0.0
 21
-0.0636396103067893
 31
-0.0636396103067893
210
0.5773502691896258
220
-0.5773502691896255
230
0.5773502691896258
 40
0.5773502691896258
 41
0.8670936394004485
 42
2.274499014189343
  0
ELLIPSE
  5
21E
330
1AC
100
AcDbEntity
  8
PV-7333
100
AcDbEllipse
 10
-10.72649962291778
 20
28.53605194570599
 30
-2.24179226434523
 11
0.0
 21
-0.0636396103067893
 31
-0.0636396103067893
210
0.5773502691896258
220
-0.5773502691896255
230
0.5773502691896258
 40
0.5773502691896258
 41
3.926990816987221
 42
6.283185307179572
  0
ELLIPSE
  5
21F
330
1AC
100
AcDbEntity
  8
PV-7333
100
AcDbEllipse
 10
-10.93407826668048
 20
27.37089465818059
 30
-3.199370908107932
 11
0.0
 21
-0.0636396103067893
 31
-0.0636396103067893
210
0.5773502691896258
220
-0.5773502691896255
230
0.5773502691896258
 40
0.5773502691896258
 41
3.141592653589778
 42
3.92699081698726
  0
ELLIPSE
  5
220
330
1AC
100
AcDbEntity
  8
PV-7333
100
AcDbEllipse
 10
-10.93407826668048
 20
27.37089465818059
 30
-3.199370908107932
 11
0.0
 21
-0.0636396103067893
 31
-0.0636396103067893
210
0.5773502691896258
220
-0.5773502691896255
230
0.5773502691896258
 40
0.5773502691896258
 41
0.8670936394004485
 42
2.274499014189343
  0
ELLIPSE
  5
221
330
1AC
100
AcDbEntity
  8
PV-7333
100
AcDbEllipse
 10
-10.93407826668048
 20
27.37089465818059
 30
-3.199370908107932
 11
0.0
 21
-0.0636396103067893
 31
-0.0636396103067893
210
0.5773502691896258
220
-0.5773502691896255
230
0.5773502691896258
 40
0.5773502691896258
 41
3.92699081698726
 42
6.283185307179557
  0
LINE
  5
222
330
1AC
100
AcDbEntity
  8
PV-7333
100
AcDbLine
 10
-11.33706950028383
 20
27.57568589178396
 30
-2.591588440901228
 11
-11.3717361669505
 21
27.55835255845062
 31
-2.574255107567894
  0
ELLIPSE
  5
223
330
1AC
100
AcDbEntity
  8
PV-7333
100
AcDbEllipse
 10
-11.42556950028382
 20
27.39868589178395
 30
-2.68008844090122
 11
0.0
 21
-0.1877368504050283
 31
-0.1877368504050285
210
0.5773502691896259
220
-0.5773502691896259
230
0.5773502691896257
 40
0.577350269189626
 41
1.570796326794886
 42
2.356194490192344
  0
LINE
  5
224
330
1AC
100
AcDbEntity
  8
PV-7333
100
AcDbLine
 10
-11.3004116000138
 20
27.46126484191896
 30
-2.74266739103624
 11
-11.33507826668047
 21
27.44393150858563
 31
-2.725334057702907
  0
ELLIPSE
  5
225
330
1AC
100
AcDbEntity
  8
PV-7333
100
AcDbEllipse
 10
-11.46023616695049
 20
27.38135255845062
 30
-2.662755107567887
 11
0.0
 21
-0.1877368504050283
 31
-0.1877368504050285
210
0.5773502691896259
220
-0.5773502691896259
230
0.5773502691896257
 40
0.577350269189626
 41
1.570796326794886
 42
2.356194490192344
  0
ELLIPSE
  5
226
330
1AC
100
AcDbEntity
  8
PV-7333
100
AcDbEllipse
 10
-10.21723616695048
 20
27.11255255845066
 30
-4.174555107567853
 11
0.0
 21
0.1877368504050283
 31
0.1877368504050285
210
0.5773502691896259
220
-0.5773502691896259
230
0.5773502691896257
 40
0.577350269189626
 41
5.272779893480473
 42
5.497787143782164
  0
LINE
  5
227
330
1AC
100
AcDbEntity
  8
PV-7333
100
AcDbLine
 10
-10.1287361669505
 20
27.28955255845065
 30
-4.086055107567858
 11
-10.14963966375115
 21
27.27910081005032
 31
-4.075603359167534
  0
LINE
  5
228
330
1AC
100
AcDbEntity
  8
PV-7333
100
AcDbLine
 10
-10.51375369974379
 20
27.67457009124397
 30
-3.316020041981261
 11
-10.54842036641045
 21
27.65723675791063
 31
-3.298686708647927
  0
ELLIPSE
  5
229
330
1AC
100
AcDbEntity
  8
PV-7333
100
AcDbEllipse
 10
-10.42525369974378
 20
27.85157009124395
 30
-3.227520041981263
 11
0.0
 21
-0.1877368504050283
 31
-0.1877368504050285
210
0.5773502691896259
220
-0.5773502691896259
230
0.5773502691896257
 40
0.577350269189626
 41
4.712388980384769
 42
5.49778714378211
  0
LINE
  5
22A
330
1AC
100
AcDbEntity
  8
PV-7333
100
AcDbLine
 10
-10.5504116000138
 20
27.78899114110894
 30
-3.164941091846275
 11
-10.58507826668046
 21
27.7716578077756
 31
-3.147607758512942
  0
ELLIPSE
  5
22B
330
1AC
100
AcDbEntity
  8
PV-7333
100
AcDbEllipse
 10
-10.45992036641045
 20
27.83423675791062
 30
-3.210186708647929
 11
0.0
 21
-0.1877368504050283
 31
-0.1877368504050285
210
0.5773502691896259
220
-0.5773502691896259
230
0.5773502691896257
 40
0.577350269189626
 41
4.712388980384769
 42
5.49778714378211
  0
ELLIPSE
  5
22C
330
1AC
100
AcDbEntity
  8
PV-7333
100
AcDbEllipse
 10
-9.823014225214416
 20
25.91633061671454
 30
-5.764998991040041
 11
-0.1877368504050289
 21
-0.0000000000000011
 31
0.1877368504050278
210
0.5773502691896257
220
-0.577350269189626
230
0.5773502691896258
 40
0.5773502691896223
 41
3.926990816987238
 42
4.712388980384705
  0
LINE
  5
22D
330
1AC
100
AcDbEntity
  8
PV-7333
100
AcDbLine
 10
-9.994672125484392
 20
26.04148851698455
 30
-5.468183190500067
 11
-9.760435275079416
 21
26.04148851698456
 31
-5.702420040905034
  0
LINE
  5
22E
330
1AC
100
AcDbEntity
  8
PV-7333
100
AcDbLine
 10
-10.0366721254844
 20
26.02048851698455
 30
-5.447183190500068
 11
-9.994672125484395
 21
26.04148851698455
 31
-5.468183190500067
  0
LINE
  5
22F
330
1AC
100
AcDbEntity
  8
PV-7333
100
AcDbLine
 10
-11.24500545881774
 20
27.22882185031788
 30
-3.030516523833389
 11
-10.03667212548439
 21
26.02048851698455
 31
-5.447183190500068
  0
LINE
  5
230
330
1AC
100
AcDbEntity
  8
PV-7333
100
AcDbLine
 10
-11.20300545881774
 20
27.24982185031788
 30
-3.05151652383339
 11
-11.24500545881774
 21
27.22882185031788
 31
-3.030516523833389
  0
LINE
  5
231
330
1AC
100
AcDbEntity
  8
PV-7333
100
AcDbLine
 10
-11.24500545881774
 20
27.22882185031788
 30
-3.030516523833389
 11
-11.2276721254844
 21
27.26348851698456
 31
-3.013183190500047
  0
LINE
  5
232
330
1AC
100
AcDbEntity
  8
PV-7333
100
AcDbLine
 10
-11.18567212548441
 20
27.28448851698455
 30
-3.034183190500057
 11
-11.22767212548441
 21
27.26348851698455
 31
-3.013183190500056
  0
LINE
  5
233
330
1AC
100
AcDbEntity
  8
PV-7333
100
AcDbLine
 10
-10.21876860841274
 20
27.24982185031788
 30
-4.035753374238389
 11
-11.20300545881774
 21
27.24982185031788
 31
-3.05151652383339
  0
LINE
  5
234
330
1AC
100
AcDbEntity
  8
PV-7333
100
AcDbLine
 10
-11.20300545881774
 20
27.24982185031788
 30
-3.05151652383339
 11
-11.1856721254844
 21
27.28448851698456
 31
-3.034183190500048
  0
LINE
  5
235
330
1AC
100
AcDbEntity
  8
PV-7333
100
AcDbLine
 10
-10.20143527507941
 20
27.28448851698455
 30
-4.018420040905056
 11
-11.18567212548441
 21
27.28448851698455
 31
-3.034183190500057
  0
ELLIPSE
  5
236
330
1AC
100
AcDbEntity
  8
PV-7333
100
AcDbEllipse
 10
-10.28134755854774
 20
27.12466395004785
 30
-4.098332324373407
 11
0.1877368504050289
 21
0.0000000000000011
 31
-0.1877368504050278
210
0.5773502691896257
220
-0.577350269189626
230
0.5773502691896258
 40
0.5773502691896223
 41
0.7853981633974656
 42
1.570796326794931
  0
LINE
  5
237
330
1AC
100
AcDbEntity
  8
PV-7333
100
AcDbLine
 10
-10.21876860841274
 20
27.24982185031789
 30
-4.035753374238391
 11
-10.2014352750794
 21
27.28448851698456
 31
-4.01842004090505
  0
ELLIPSE
  5
238
330
1AC
100
AcDbEntity
  8
PV-7333
100
AcDbEllipse
 10
-10.26401422521441
 20
27.15933061671452
 30
-4.080998991040074
 11
0.1877368504050289
 21
0.0000000000000011
 31
-0.1877368504050278
210
0.5773502691896257
220
-0.577350269189626
230
0.5773502691896258
 40
0.5773502691896223
 41
0.7853981633974656
 42
1.570796326794931
  0
LINE
  5
239
330
1AC
100
AcDbEntity
  8
PV-7333
100
AcDbLine
 10
-9.719330025754462
 20
26.82814641725459
 30
-4.956867389959972
 11
-10.10434755854774
 21
27.21316395004786
 31
-4.186832324373407
  0
LINE
  5
23A
330
1AC
100
AcDbEntity
  8
PV-7333
100
AcDbLine
 10
-10.10434755854774
 20
27.21316395004786
 30
-4.186832324373405
 11
-10.08701422521441
 21
27.24783061671454
 31
-4.169498991040066
  0
LINE
  5
23B
330
1AC
100
AcDbEntity
  8
PV-7333
100
AcDbLine
 10
-9.701996692421126
 20
26.86281308392125
 30
-4.939534056626635
 11
-10.08701422521441
 21
27.24783061671453
 31
-4.169498991040073
  0
ELLIPSE
  5
23C
330
1AC
100
AcDbEntity
  8
PV-7333
100
AcDbEllipse
 10
-9.542330025754456
 20
26.91664641725458
 30
-5.045367389959965
 11
-0.1877368504050289
 21
-0.0000000000000011
 31
0.1877368504050278
210
0.5773502691896257
220
-0.577350269189626
230
0.5773502691896258
 40
0.5773502691896223
 41
0.7853981633974456
 42
1.570796326794884
  0
LINE
  5
23D
330
1AC
100
AcDbEntity
  8
PV-7333
100
AcDbLine
 10
-9.719330025754462
 20
26.82814641725459
 30
-4.956867389959972
 11
-9.701996692421124
 21
26.86281308392125
 31
-4.939534056626634
  0
ELLIPSE
  5
23E
330
1AC
100
AcDbEntity
  8
PV-7333
100
AcDbEllipse
 10
-9.524996692421121
 20
26.95131308392124
 30
-5.02803405662663
 11
-0.1877368504050289
 21
-0.0000000000000011
 31
0.1877368504050278
210
0.5773502691896257
220
-0.577350269189626
230
0.5773502691896258
 40
0.5773502691896223
 41
0.7853981633974456
 42
1.570796326794889
  0
LINE
  5
23F
330
1AC
100
AcDbEntity
  8
PV-7333
100
AcDbLine
 10
-8.260435275079409
 20
26.79148851698455
 30
-6.452420040905042
 11
-9.604908975889472
 21
26.79148851698456
 31
-5.107946340094978
  0
LINE
  5
240
330
1AC
100
AcDbEntity
  8
PV-7333
100
AcDbLine
 10
-9.604908975889475
 20
26.79148851698457
 30
-5.107946340094981
 11
-9.587575642556137
 21
26.82615518365123
 31
-5.090613006761643
  0
LINE
  5
241
330
1AC
100
AcDbEntity
  8
PV-7333
100
AcDbLine
 10
-8.243101941746076
 20
26.82615518365122
 30
-6.435086707571709
 11
-9.587575642556135
 21
26.82615518365123
 31
-5.090613006761641
  0
ELLIPSE
  5
242
330
1AC
100
AcDbEntity
  8
PV-7333
100
AcDbEllipse
 10
-8.323014225214405
 20
26.66633061671456
 30
-6.514998991040034
 11
0.1877368504050289
 21
0.0000000000000011
 31
-0.1877368504050278
210
0.5773502691896257
220
-0.577350269189626
230
0.5773502691896258
 40
0.5773502691896223
 41
0.7853981633974456
 42
1.570796326794879
  0
LINE
  5
243
330
1AC
100
AcDbEntity
  8
PV-7333
100
AcDbLine
 10
-8.260435275079409
 20
26.79148851698455
 30
-6.452420040905042
 11
-8.243101941746076
 21
26.82615518365122
 31
-6.435086707571709
  0
ELLIPSE
  5
244
330
1AC
100
AcDbEntity
  8
PV-7333
100
AcDbEllipse
 10
-8.305680891881072
 20
26.70099728338123
 30
-6.497665657706701
 11
0.1877368504050289
 21
0.0000000000000011
 31
-0.1877368504050278
210
0.5773502691896257
220
-0.577350269189626
230
0.5773502691896258
 40
0.5773502691896223
 41
0.7853981633974456
 42
1.570796326794879
  0
LINE
  5
245
330
1AC
100
AcDbEntity
  8
PV-7333
100
AcDbLine
 10
-7.841005458817768
 20
26.4498218503179
 30
-7.213516523833339
 11
-8.146014225214427
 21
26.75483061671456
 31
-6.603498991040027
  0
LINE
  5
246
330
1AC
100
AcDbEntity
  8
PV-7333
100
AcDbLine
 10
-8.146014225214427
 20
26.75483061671456
 30
-6.603498991040027
 11
-8.128680891881094
 21
26.78949728338122
 31
-6.586165657706693
  0
LINE
  5
247
330
1AC
100
AcDbEntity
  8
PV-7333
100
AcDbLine
 10
-7.823672125484435
 20
26.48448851698457
 30
-7.196183190500006
 11
-8.128680891881094
 21
26.78949728338122
 31
-6.586165657706693
  0
ELLIPSE
  5
248
330
1AC
100
AcDbEntity
  8
PV-7333
100
AcDbEllipse
 10
-7.807672125483955
 20
26.4164885169848
 30
-7.280183190500238
 11
-0.070710678118655
 21
-0.0000000000000004
 31
0.0707106781186546
210
0.5773502691896259
220
-0.5773502691896258
230
0.5773502691896255
 40
0.5773502691896225
 41
5.497787143789198
 42
8.639379797364817
  0
LINE
  5
249
330
1AC
100
AcDbEntity
  8
PV-7333
100
AcDbLine
 10
-7.841005458817768
 20
26.4498218503179
 30
-7.213516523833339
 11
-7.823672125484435
 21
26.48448851698456
 31
-7.196183190500006
  0
ELLIPSE
  5
24A
330
1AC
100
AcDbEntity
  8
PV-7333
100
AcDbEllipse
 10
-7.790338792150624
 20
26.45115518365147
 30
-7.262849857166907
 11
-0.070710678118655
 21
-0.0000000000000004
 31
0.0707106781186546
210
0.5773502691896259
220
-0.5773502691896258
230
0.5773502691896255
 40
0.5773502691896225
 41
0.3765297308752518
 42
2.356194490185213
  0
LINE
  5
24B
330
1AC
100
AcDbEntity
  8
PV-7333
100
AcDbLine
 10
-7.382672125484454
 20
25.99148851698459
 30
-8.130183190499964
 11
-7.774338792151118
 21
26.38315518365125
 31
-7.346849857166642
  0
LINE
  5
24C
330
1AC
100
AcDbEntity
  8
PV-7333
100
AcDbLine
 10
-7.774338792151116
 20
26.38315518365125
 30
-7.34684985716664
 11
-7.757005458817785
 21
26.41782185031792
 31
-7.329516523833309
  0
LINE
  5
24D
330
1AC
100
AcDbEntity
  8
PV-7333
100
AcDbLine
 10
-7.365338792151121
 20
26.02615518365126
 30
-8.112849857166631
 11
-7.757005458817785
 21
26.41782185031792
 31
-7.329516523833309
  0
ELLIPSE
  5
24E
330
1AC
100
AcDbEntity
  8
PV-7333
100
AcDbEllipse
 10
-7.349338792150641
 20
25.95815518365149
 30
-8.196849857166863
 11
-0.070710678118655
 21
-0.0000000000000004
 31
0.0707106781186546
210
0.5773502691896259
220
-0.5773502691896258
230
0.5773502691896255
 40
0.5773502691896225
 41
5.497787143789198
 42
8.639379797364817
  0
LINE
  5
24F
330
1AC
100
AcDbEntity
  8
PV-7333
100
AcDbLine
 10
-7.382672125484452
 20
25.9914885169846
 30
-8.130183190499963
 11
-7.365338792151122
 21
26.02615518365125
 31
-8.112849857166633
  0
ELLIPSE
  5
250
330
1AC
100
AcDbEntity
  8
PV-7333
100
AcDbEllipse
 10
-7.332005458817308
 20
25.99282185031816
 30
-8.17951652383353
 11
-0.070710678118655
 21
-0.0000000000000004
 31
0.0707106781186546
210
0.5773502691896259
220
-0.5773502691896258
230
0.5773502691896255
 40
0.5773502691896225
 41
0.3765297308752051
 42
2.35619449018523
  0
LINE
  5
251
330
1AC
100
AcDbEntity
  8
PV-7333
100
AcDbLine
 10
-7.010996692421127
 20
25.61981308392127
 30
-8.873534056626608
 11
-7.3160054588178
 21
25.92482185031794
 31
-8.263516523833267
  0
LINE
  5
252
330
1AC
100
AcDbEntity
  8
PV-7333
100
AcDbLine
 10
-7.3160054588178
 20
25.92482185031794
 30
-8.263516523833267
 11
-7.29867212548447
 21
25.9594885169846
 31
-8.246183190499937
  0
LINE
  5
253
330
1AC
100
AcDbEntity
  8
PV-7333
100
AcDbLine
 10
-6.993663359087793
 20
25.65447975058794
 30
-8.856200723293275
 11
-7.298672125484467
 21
25.95948851698461
 31
-8.246183190499934
  0
ELLIPSE
  5
254
330
1AC
100
AcDbEntity
  8
PV-7333
100
AcDbEllipse
 10
-7.187996692421108
 20
25.53131308392128
 30
-8.785034056626615
 11
0.1877368504050289
 21
0.0000000000000011
 31
-0.1877368504050278
210
0.5773502691896257
220
-0.577350269189626
230
0.5773502691896258
 40
0.5773502691896223
 41
0.0000000000000266
 42
0.7853981633974522
  0
LINE
  5
255
330
1AC
100
AcDbEntity
  8
PV-7333
100
AcDbLine
 10
-7.010996692421111
 20
25.61981308392128
 30
-8.873534056626617
 11
-6.993663359087783
 21
25.65447975058793
 31
-8.856200723293289
  0
ELLIPSE
  5
256
330
1AC
100
AcDbEntity
  8
PV-7333
100
AcDbEllipse
 10
-7.170663359087775
 20
25.56597975058795
 30
-8.767700723293282
 11
0.1877368504050289
 21
0.0000000000000011
 31
-0.1877368504050278
210
0.5773502691896257
220
-0.577350269189626
230
0.5773502691896258
 40
0.5773502691896223
 41
0.0000000000000266
 42
0.7853981633974522
  0
LINE
  5
257
330
1AC
100
AcDbEntity
  8
PV-7333
100
AcDbLine
 10
-7.448417742286119
 20
24.63499728338125
 30
-9.420928807301635
 11
-7.000259842016118
 21
25.53131308392128
 31
-8.972770907031602
  0
LINE
  5
258
330
1AC
100
AcDbEntity
  8
PV-7333
100
AcDbLine
 10
-7.000259842016118
 20
25.53131308392128
 30
-8.972770907031602
 11
-6.982926508682794
 21
25.56597975058794
 31
-8.955437573698278
  0
ELLIPSE
  5
259
330
1AC
100
AcDbEntity
  8
PV-7333
100
AcDbEllipse
 10
-7.260680891881088
 20
24.63499728338125
 30
-9.608665657706662
 11
-0.1877368504050289
 21
-0.0000000000000011
 31
0.1877368504050278
210
0.5773502691896257
220
-0.577350269189626
230
0.5773502691896258
 40
0.5773502691896223
 41
-0.0000000000000207
 42
0.7853981633974522
  0
ELLIPSE
  5
25A
330
1AC
100
AcDbEntity
  8
PV-7333
100
AcDbEllipse
 10
-7.243347558547755
 20
24.66966395004791
 30
-9.591332324373329
 11
-0.1877368504050289
 21
-0.0000000000000011
 31
0.1877368504050278
210
0.5773502691896257
220
-0.577350269189626
230
0.5773502691896258
 40
0.5773502691896223
 41
-0.0000000000000207
 42
0.7853981633974522
  0
LINE
  5
25B
330
1AC
100
AcDbEntity
  8
PV-7333
100
AcDbLine
 10
-7.052663359087805
 20
24.16147975058797
 30
-10.29020072329323
 11
-7.437680891881091
 21
24.54649728338125
 31
-9.520165657706668
  0
LINE
  5
25C
330
1AC
100
AcDbEntity
  8
PV-7333
100
AcDbLine
 10
-7.437680891881093
 20
24.54649728338125
 30
-9.520165657706668
 11
-7.420347558547769
 21
24.5811639500479
 31
-9.502832324373343
  0
LINE
  5
25D
330
1AC
100
AcDbEntity
  8
PV-7333
100
AcDbLine
 10
-7.035330025754472
 20
24.19614641725464
 30
-10.2728673899599
 11
-7.420347558547758
 21
24.58116395004792
 31
-9.502832324373335
  0
ELLIPSE
  5
25E
330
1AC
100
AcDbEntity
  8
PV-7333
100
AcDbEllipse
 10
-7.229663359087801
 20
24.07297975058797
 30
-10.20170072329323
 11
0.1877368504050289
 21
0.0000000000000011
 31
-0.1877368504050278
210
0.5773502691896257
220
-0.577350269189626
230
0.5773502691896258
 40
0.5773502691896223
 41
-0.0000000000000136
 42
0.7853981633974389
  0
LINE
  5
25F
330
1AC
100
AcDbEntity
  8
PV-7333
100
AcDbLine
 10
-7.052663359087809
 20
24.16147975058797
 30
-10.29020072329323
 11
-7.035330025754486
 21
24.19614641725461
 31
-10.27286738995991
  0
ELLIPSE
  5
260
330
1AC
100
AcDbEntity
  8
PV-7333
100
AcDbEllipse
 10
-7.212330025754468
 20
24.10764641725464
 30
-10.18436738995989
 11
0.1877368504050289
 21
0.0000000000000011
 31
-0.1877368504050278
210
0.5773502691896257
220
-0.577350269189626
230
0.5773502691896258
 40
0.5773502691896223
 41
-0.0000000000000136
 42
0.7853981633974389
  0
LINE
  5
261
330
1AC
100
AcDbEntity
  8
PV-7333
100
AcDbLine
 10
-7.370005458817769
 20
23.41682185031797
 30
-10.71751652383327
 11
-7.041926508682778
 21
24.07297975058797
 31
-10.38943757369826
  0
LINE
  5
262
330
1AC
100
AcDbEntity
  8
PV-7333
100
AcDbLine
 10
-7.041926508682777
 20
24.07297975058797
 30
-10.38943757369826
 11
-7.024593175349455
 21
24.10764641725461
 31
-10.37210424036494
  0
LINE
  5
263
330
1AC
100
AcDbEntity
  8
PV-7333
100
AcDbLine
 10
-7.41200545881777
 20
23.39582185031797
 30
-10.69651652383327
 11
-7.37000545881777
 21
23.41682185031797
 31
-10.71751652383327
  0
LINE
  5
264
330
1AC
100
AcDbEntity
  8
PV-7333
100
AcDbLine
 10
-8.620338792151137
 20
24.60415518365132
 30
-8.279849857166551
 11
-7.412005458817766
 21
23.39582185031797
 31
-10.69651652383327
  0
LINE
  5
265
330
1AC
100
AcDbEntity
  8
PV-7333
100
AcDbLine
 10
-8.578338792151134
 20
24.62515518365132
 30
-8.300849857166554
 11
-8.620338792151136
 21
24.60415518365131
 31
-8.279849857166553
  0
LINE
  5
266
330
1AC
100
AcDbEntity
  8
PV-7333
100
AcDbLine
 10
-8.620338792151137
 20
24.60415518365132
 30
-8.279849857166551
 11
-8.603005458817811
 21
24.63882185031797
 31
-8.262516523833225
  0
LINE
  5
267
330
1AC
100
AcDbEntity
  8
PV-7333
100
AcDbLine
 10
-8.561005458817801
 20
24.65982185031798
 30
-8.28351652383322
 11
-8.603005458817802
 21
24.63882185031798
 31
-8.26251652383322
  0
LINE
  5
268
330
1AC
100
AcDbEntity
  8
PV-7333
100
AcDbLine
 10
-8.500259842016127
 20
24.78131308392129
 30
-8.222770907031604
 11
-8.578338792151111
 21
24.62515518365132
 31
-8.300849857166575
  0
ELLIPSE
  5
269
330
1AC
100
AcDbEntity
  8
PV-7333
100
AcDbEllipse
 10
-8.687996692421135
 20
24.78131308392129
 30
-8.035034056626587
 11
-0.1877368504050289
 21
-0.0000000000000011
 31
0.1877368504050278
210
0.5773502691896257
220
-0.577350269189626
230
0.5773502691896258
 40
0.5773502691896223
 41
3.14159265358976
 42
3.926990816987245
  0
LINE
  5
26A
330
1AC
100
AcDbEntity
  8
PV-7333
100
AcDbLine
 10
-8.816005458817777
 20
25.17482185031795
 30
-7.513516523833288
 11
-8.51099669242112
 21
24.8698130839213
 31
-8.123534056626599
  0
ELLIPSE
  5
26B
330
1AC
100
AcDbEntity
  8
PV-7333
100
AcDbEllipse
 10
-8.849338792151597
 20
25.20815518365103
 30
-7.446849857166371
 11
-0.070710678118655
 21
-0.0000000000000004
 31
0.0707106781186546
210
0.5773502691896259
220
-0.5773502691896258
230
0.5773502691896255
 40
0.5773502691896225
 41
2.356194490199707
 42
5.497787143774774
  0
LINE
  5
26C
330
1AC
100
AcDbEntity
  8
PV-7333
100
AcDbLine
 10
-8.816005458817777
 20
25.17482185031795
 30
-7.513516523833288
 11
-8.798672125484447
 21
25.2094885169846
 31
-7.496183190499959
  0
ELLIPSE
  5
26D
330
1AC
100
AcDbEntity
  8
PV-7333
100
AcDbEllipse
 10
-8.832005458818263
 20
25.2428218503177
 30
-7.429516523833038
 11
-0.070710678118655
 21
-0.0000000000000004
 31
0.0707106781186546
210
0.5773502691896259
220
-0.5773502691896258
230
0.5773502691896255
 40
0.5773502691896225
 41
2.356194490199707
 42
2.765062922714525
  0
LINE
  5
26E
330
1AC
100
AcDbEntity
  8
PV-7333
100
AcDbLine
 10
-9.274338792151072
 20
25.63315518365124
 30
-6.5968498571667
 11
-8.882672125483294
 21
25.24148851698347
 31
-7.380183190502252
  0
ELLIPSE
  5
26F
330
1AC
100
AcDbEntity
  8
PV-7333
100
AcDbEllipse
 10
-9.307672125484899
 20
25.66648851698432
 30
-6.530183190499785
 11
-0.070710678118655
 21
-0.0000000000000004
 31
0.0707106781186546
210
0.5773502691896259
220
-0.5773502691896258
230
0.5773502691896255
 40
0.5773502691896225
 41
2.356194490199459
 42
5.497787143774721
  0
LINE
  5
270
330
1AC
100
AcDbEntity
  8
PV-7333
100
AcDbLine
 10
-9.274338792151091
 20
25.63315518365123
 30
-6.59684985716669
 11
-9.25700545881776
 21
25.66782185031789
 31
-6.579516523833358
  0
ELLIPSE
  5
271
330
1AC
100
AcDbEntity
  8
PV-7333
100
AcDbEllipse
 10
-9.290338792151565
 20
25.70115518365099
 30
-6.512849857166452
 11
-0.070710678118655
 21
-0.0000000000000004
 31
0.0707106781186546
210
0.5773502691896259
220
-0.5773502691896258
230
0.5773502691896255
 40
0.5773502691896225
 41
2.356194490199459
 42
2.765062922714525
  0
LINE
  5
272
330
1AC
100
AcDbEntity
  8
PV-7333
100
AcDbLine
 10
-9.646014225214399
 20
26.00483061671456
 30
-5.853498991040055
 11
-9.341005458817726
 21
25.69982185031789
 31
-6.4635165238334
  0
ELLIPSE
  5
273
330
1AC
100
AcDbEntity
  8
PV-7333
100
AcDbEllipse
 10
-7.682672125484447
 20
25.66648851698459
 30
-8.15518319049997
 11
0.057982756057291
 21
-0.0000000000000119
 31
-0.0579827560573029
210
0.5773502691896257
220
-0.5773502691896258
230
0.5773502691896258
 40
0.5773502691896217
 41
2.781365097990903
 42
6.283185307179602
  0
ELLIPSE
  5
274
330
1AC
100
AcDbEntity
  8
PV-7333
100
AcDbEllipse
 10
-7.682672125484447
 20
25.66648851698459
 30
-8.15518319049997
 11
0.057982756057291
 21
-0.0000000000000119
 31
-0.0579827560573029
210
0.5773502691896257
220
-0.5773502691896258
230
0.5773502691896258
 40
0.5773502691896217
 41
0.0000000000000162
 42
0.3602275555989661
  0
ELLIPSE
  5
275
330
1AC
100
AcDbEntity
  8
PV-7333
100
AcDbEllipse
 10
-7.665338792151114
 20
25.70115518365126
 30
-8.137849857166637
 11
0.057982756057291
 21
-0.0000000000000119
 31
-0.0579827560573029
210
0.5773502691896257
220
-0.5773502691896258
230
0.5773502691896258
 40
0.5773502691896217
 41
3.814255384019615
 42
5.610522576749835
  0
ELLIPSE
  5
276
330
1AC
100
AcDbEntity
  8
PV-7333
100
AcDbEllipse
 10
-8.47433879215111
 20
25.45815518365126
 30
-7.571849857166636
 11
0.057982756057291
 21
-0.0000000000000119
 31
-0.0579827560573029
210
0.5773502691896257
220
-0.5773502691896258
230
0.5773502691896258
 40
0.5773502691896217
 41
2.781365097990931
 42
6.283185307179487
  0
ELLIPSE
  5
277
330
1AC
100
AcDbEntity
  8
PV-7333
100
AcDbEllipse
 10
-8.47433879215111
 20
25.45815518365126
 30
-7.571849857166636
 11
0.057982756057291
 21
-0.0000000000000119
 31
-0.0579827560573029
210
0.5773502691896257
220
-0.5773502691896258
230
0.5773502691896258
 40
0.5773502691896217
 41
-0.0000000000000986
 42
0.3602275555989375
  0
ELLIPSE
  5
278
330
1AC
100
AcDbEntity
  8
PV-7333
100
AcDbEllipse
 10
-8.457005458817777
 20
25.49282185031792
 30
-7.554516523833303
 11
0.057982756057291
 21
-0.0000000000000119
 31
-0.0579827560573029
210
0.5773502691896257
220
-0.5773502691896258
230
0.5773502691896258
 40
0.5773502691896217
 41
3.814255384019592
 42
5.610522576749858
  0
ELLIPSE
  5
279
330
1AC
100
AcDbEntity
  8
PV-7333
100
AcDbEllipse
 10
-8.957005458817796
 20
25.99282185031793
 30
-6.554516523833271
 11
0.057982756057291
 21
-0.0000000000000119
 31
-0.0579827560573029
210
0.5773502691896257
220
-0.5773502691896258
230
0.5773502691896258
 40
0.5773502691896217
 41
4.0530842358124
 42
5.371693724957111
  0
ELLIPSE
  5
27A
330
1AC
100
AcDbEntity
  8
PV-7333
100
AcDbEllipse
 10
-8.182672125484467
 20
26.1664885169846
 30
-7.155183190499936
 11
0.057982756057291
 21
-0.0000000000000119
 31
-0.0579827560573029
210
0.5773502691896257
220
-0.5773502691896258
230
0.5773502691896258
 40
0.5773502691896217
 41
2.78136509799096
 42
6.28318530717961
  0
ELLIPSE
  5
27B
330
1AC
100
AcDbEntity
  8
PV-7333
100
AcDbEllipse
 10
-8.182672125484467
 20
26.1664885169846
 30
-7.155183190499936
 11
0.057982756057291
 21
-0.0000000000000119
 31
-0.0579827560573029
210
0.5773502691896257
220
-0.5773502691896258
230
0.5773502691896258
 40
0.5773502691896217
 41
0.0000000000000239
 42
0.3602275555989088
  0
ELLIPSE
  5
27C
330
1AC
100
AcDbEntity
  8
PV-7333
100
AcDbEllipse
 10
-8.165338792151134
 20
26.20115518365127
 30
-7.137849857166603
 11
0.057982756057291
 21
-0.0000000000000119
 31
-0.0579827560573029
210
0.5773502691896257
220
-0.5773502691896258
230
0.5773502691896258
 40
0.5773502691896217
 41
3.814255384019639
 42
5.610522576749835
  0
LINE
  5
27D
330
1AC
100
AcDbEntity
  8
PV-7333
100
AcDbLine
 10
-8.607005458817809
 20
24.63082185031798
 30
-8.266516523833223
 11
-8.617672125484464
 21
24.64148851698463
 31
-8.245183190499909
  0
LINE
  5
27E
330
1AC
100
AcDbEntity
  8
PV-7333
100
AcDbLine
 10
-8.631005458817798
 20
24.63482185031797
 30
-8.238516523833244
 11
-8.613672125484473
 21
24.61748851698465
 31
-8.273183190499885
  0
LINE
  5
27F
330
1AC
100
AcDbEntity
  8
PV-7333
100
AcDbLine
 10
-8.55433879215113
 20
24.6731551836513
 30
-8.276849857166574
 11
-8.617672125484464
 21
24.64148851698463
 31
-8.245183190499909
  0
LINE
  5
280
330
1AC
100
AcDbEntity
  8
PV-7333
100
AcDbLine
 10
-8.617672125484464
 20
24.64148851698463
 30
-8.245183190499909
 11
-8.631005458817798
 21
24.63482185031797
 31
-8.238516523833244
  0
LINE
  5
281
330
1AC
100
AcDbEntity
  8
PV-7333
100
AcDbLine
 10
-7.403996692421127
 20
24.61581308392131
 30
-9.484534056626568
 11
-7.438501177789373
 21
24.65031756928956
 31
-9.415525085890074
  0
ELLIPSE
  5
282
330
1AC
100
AcDbEntity
  8
PV-7333
100
AcDbEllipse
 10
-7.315496692421113
 20
24.79281308392133
 30
-9.396034056626556
 11
0.0
 21
-0.1877368504050283
 31
-0.1877368504050285
210
0.5773502691896259
220
-0.5773502691896259
230
0.5773502691896257
 40
0.577350269189626
 41
5.49778714378213
 42
6.283185307179509
  0
LINE
  5
283
330
1AC
100
AcDbEntity
  8
PV-7333
100
AcDbLine
 10
-6.533980891881101
 20
24.99583413378631
 30
-9.974528807301592
 11
-7.315496692421126
 21
24.60507623351631
 31
-9.583770907031571
  0
ELLIPSE
  5
284
330
1AC
100
AcDbEntity
  8
PV-7333
100
AcDbEllipse
 10
-6.5339808918811
 20
24.80809728338129
 30
-10.16226565770662
 11
0.0
 21
0.1877368504050283
 31
0.1877368504050285
210
0.5773502691896259
220
-0.5773502691896259
230
0.5773502691896257
 40
0.577350269189626
 41
5.49778714378213
 42
6.283185307179599
  0
LINE
  5
285
330
1AC
100
AcDbEntity
  8
PV-7333
100
AcDbLine
 10
-4.966405458817755
 20
23.506021850318
 30
-13.03191652383325
 11
-6.445480891881091
 21
24.9850972833813
 31
-10.07376565770661
  0
LINE
  5
286
330
1AC
100
AcDbEntity
  8
PV-7333
100
AcDbLine
 10
-5.71640545881776
 20
22.006021850318
 30
-13.78191652383325
 11
-4.966405458817751
 21
23.50602185031801
 31
-13.03191652383324
  0
LINE
  5
287
330
1AC
100
AcDbEntity
  8
PV-7333
100
AcDbLine
 10
-7.195480891881084
 20
23.4850972833813
 30
-10.82376565770662
 11
-5.716405458817757
 21
22.006021850318
 31
-13.78191652383325
  0
LINE
  5
288
330
1AC
100
AcDbEntity
  8
PV-7333
100
AcDbLine
 10
-5.716405458817758
 20
22.006021850318
 30
-13.78191652383325
 11
-5.72973879215109
 21
21.99935518365133
 31
-13.77524985716658
  0
LINE
  5
289
330
1AC
100
AcDbEntity
  8
PV-7333
100
AcDbLine
 10
-7.208814225214418
 20
23.47843061671464
 30
-10.81709899103995
 11
-5.729738792151088
 21
21.99935518365133
 31
-13.77524985716658
  0
ELLIPSE
  5
28A
330
1AC
100
AcDbEntity
  8
PV-7333
100
AcDbEllipse
 10
-7.283980891881093
 20
23.30809728338128
 30
-10.91226565770663
 11
0.0
 21
-0.1877368504050283
 31
-0.1877368504050285
210
0.5773502691896259
220
-0.5773502691896259
230
0.5773502691896257
 40
0.577350269189626
 41
2.356194490192344
 42
3.141592653589806
  0
LINE
  5
28B
330
1AC
100
AcDbEntity
  8
PV-7333
100
AcDbLine
 10
-7.195480891881095
 20
23.48509728338128
 30
-10.82376565770663
 11
-7.208814225214428
 21
23.47843061671461
 31
-10.81709899103996
  0
ELLIPSE
  5
28C
330
1AC
100
AcDbEntity
  8
PV-7333
100
AcDbEllipse
 10
-7.297314225214426
 20
23.30143061671461
 30
-10.90559899103996
 11
0.0
 21
-0.1877368504050283
 31
-0.1877368504050285
210
0.5773502691896259
220
-0.5773502691896259
230
0.5773502691896257
 40
0.577350269189626
 41
2.356194490192344
 42
3.141592653589801
  0
LINE
  5
28D
330
1AC
100
AcDbEntity
  8
PV-7333
100
AcDbLine
 10
-7.346005458817771
 20
23.46482185031797
 30
-10.69351652383327
 11
-7.283980891881098
 21
23.49583413378631
 31
-10.7245288073016
  0
ELLIPSE
  5
28E
330
1AC
100
AcDbEntity
  8
PV-7333
100
AcDbEllipse
 10
-5.746405458817744
 20
23.96602185031796
 30
-11.79191652383329
 11
0.0
 21
-0.0636396103067893
 31
-0.0636396103067893
210
0.5773502691896258
220
-0.5773502691896255
230
0.5773502691896258
 40
0.5773502691896258
 41
1.132416124771155
 42
2.00917652881863
  0
ELLIPSE
  5
28F
330
1AC
100
AcDbEntity
  8
PV-7333
100
AcDbEllipse
 10
-6.772093481721755
 20
24.66464580451003
 30
-10.06760454673722
 11
0.0
 21
-0.0636396103067893
 31
-0.0636396103067893
210
0.5773502691896258
220
-0.5773502691896255
230
0.5773502691896258
 40
0.5773502691896258
 41
1.132416124771155
 42
2.009176528818623
  0
ELLIPSE
  5
290
330
1AC
100
AcDbEntity
  8
PV-7333
100
AcDbEllipse
 10
-6.142238792151095
 20
24.36185518365131
 30
-11.00024985716659
 11
0.0
 21
-0.0636396103067893
 31
-0.0636396103067893
210
0.5773502691896258
220
-0.5773502691896255
230
0.5773502691896258
 40
0.5773502691896258
 41
1.132416124771211
 42
2.00917652881865
  0
ELLIPSE
  5
291
330
1AC
100
AcDbEntity
  8
PV-7333
100
AcDbEllipse
 10
-5.475572125484436
 20
23.69518851698466
 30
-12.3335831904999
 11
0.0
 21
-0.0636396103067893
 31
-0.0636396103067893
210
0.5773502691896258
220
-0.5773502691896255
230
0.5773502691896258
 40
0.5773502691896258
 41
1.132416124771155
 42
2.009176528818618
  0
ELLIPSE
  5
292
330
1AC
100
AcDbEntity
  8
PV-7333
100
AcDbEllipse
 10
-6.767238792151108
 20
23.58685518365134
 30
-11.15024985716656
 11
0.0
 21
-0.0636396103067893
 31
-0.0636396103067893
210
0.5773502691896258
220
-0.5773502691896255
230
0.5773502691896258
 40
0.5773502691896258
 41
1.132416124771174
 42
2.00917652881863
  0
ELLIPSE
  5
293
330
1AC
100
AcDbEntity
  8
PV-7333
100
AcDbEllipse
 10
-6.421405458817734
 20
22.99102185031797
 30
-12.09191652383329
 11
0.0
 21
-0.0636396103067893
 31
-0.0636396103067893
210
0.5773502691896258
220
-0.5773502691896255
230
0.5773502691896258
 40
0.5773502691896258
 41
1.132416124771193
 42
2.009176528818643
  0
ELLIPSE
  5
294
330
1AC
100
AcDbEntity
  8
PV-7333
100
AcDbEllipse
 10
-6.10890545881776
 20
22.678521850318
 30
-12.71691652383324
 11
0.0
 21
-0.0636396103067893
 31
-0.0636396103067893
210
0.5773502691896258
220
-0.5773502691896255
230
0.5773502691896258
 40
0.5773502691896258
 41
1.132416124771155
 42
2.00917652881863
  0
ELLIPSE
  5
295
330
1AC
100
AcDbEntity
  8
PV-7333
100
AcDbEllipse
 10
-6.758760148388423
 20
24.67131247117669
 30
-10.07427121340389
 11
0.0
 21
-0.0463154941814283
 31
-0.0463154941814283
210
0.5773502691896255
220
-0.5773502691896259
230
0.5773502691896259
 40
0.5773502691896257
 41
6.270384287900983
 42
8.63937979737193
  0
ELLIPSE
  5
296
330
1AC
100
AcDbEntity
  8
PV-7333
100
AcDbEllipse
 10
-6.758760148388423
 20
24.67131247117669
 30
-10.07427121340389
 11
0.0
 21
-0.0463154941814283
 31
-0.0463154941814283
210
0.5773502691896255
220
-0.5773502691896259
230
0.5773502691896259
 40
0.5773502691896257
 41
2.356194490192344
 42
3.154393672868434
  0
ELLIPSE
  5
297
330
1AC
100
AcDbEntity
  8
PV-7333
100
AcDbEllipse
 10
-6.741913440564507
 20
24.67973582508865
 30
-10.08269456731585
 11
0.0
 21
0.0893431600721996
 31
0.0893431600721996
210
0.577350269189626
220
-0.5773502691896259
230
0.5773502691896259
 40
0.5773502691896258
 41
5.497787143782137
 42
5.996428754968038
  0
ELLIPSE
  5
298
330
1AC
100
AcDbEntity
  8
PV-7333
100
AcDbEllipse
 10
-6.741913440564507
 20
24.67973582508865
 30
-10.08269456731585
 11
0.0
 21
0.0893431600721996
 31
0.0893431600721996
210
0.577350269189626
220
-0.5773502691896259
230
0.5773502691896259
 40
0.5773502691896258
 41
-0.0000000000000098
 42
3.141592653589783
  0
ELLIPSE
  5
299
330
1AC
100
AcDbEntity
  8
PV-7333
100
AcDbEllipse
 10
-6.741913440564507
 20
24.67973582508865
 30
-10.08269456731585
 11
0.0
 21
0.0893431600721996
 31
0.0893431600721996
210
0.577350269189626
220
-0.5773502691896259
230
0.5773502691896259
 40
0.5773502691896258
 41
3.428349205801328
 42
5.497787143782137
  0
ELLIPSE
  5
29A
330
1AC
100
AcDbEntity
  8
PV-7333
100
AcDbEllipse
 10
-6.708220024916673
 20
24.69658253291257
 30
-10.09954127513976
 11
0.0
 21
0.0893431600721996
 31
0.0893431600721996
210
0.577350269189626
220
-0.5773502691896259
230
0.5773502691896259
 40
0.5773502691896258
 41
0.0
 42
6.283185307179586
  0
ELLIPSE
  5
29B
330
1AC
100
AcDbEntity
  8
PV-7333
100
AcDbEllipse
 10
-6.741913440564507
 20
24.67973582508865
 30
-10.08269456731585
 11
0.0
 21
0.0893431600721996
 31
0.0893431600721996
210
0.577350269189626
220
-0.5773502691896259
230
0.5773502691896259
 40
0.5773502691896258
 41
5.497787143782137
 42
5.996428754968038
  0
ELLIPSE
  5
29C
330
1AC
100
AcDbEntity
  8
PV-7333
100
AcDbEllipse
 10
-6.741913440564507
 20
24.67973582508865
 30
-10.08269456731585
 11
0.0
 21
0.0893431600721996
 31
0.0893431600721996
210
0.577350269189626
220
-0.5773502691896259
230
0.5773502691896259
 40
0.5773502691896258
 41
-0.0000000000000098
 42
3.141592653589783
  0
ELLIPSE
  5
29D
330
1AC
100
AcDbEntity
  8
PV-7333
100
AcDbEllipse
 10
-6.741913440564507
 20
24.67973582508865
 30
-10.08269456731585
 11
0.0
 21
0.0893431600721996
 31
0.0893431600721996
210
0.577350269189626
220
-0.5773502691896259
230
0.5773502691896259
 40
0.5773502691896258
 41
3.428349205801328
 42
5.497787143782137
  0
ELLIPSE
  5
29E
330
1AC
100
AcDbEntity
  8
PV-7333
100
AcDbEllipse
 10
-6.128905458817763
 20
24.36852185031798
 30
-11.00691652383326
 11
0.0
 21
-0.0463154941814283
 31
-0.0463154941814283
210
0.5773502691896255
220
-0.5773502691896259
230
0.5773502691896259
 40
0.5773502691896257
 41
6.270384287901003
 42
8.63937979737193
  0
ELLIPSE
  5
29F
330
1AC
100
AcDbEntity
  8
PV-7333
100
AcDbEllipse
 10
-6.128905458817763
 20
24.36852185031798
 30
-11.00691652383326
 11
0.0
 21
-0.0463154941814283
 31
-0.0463154941814283
210
0.5773502691896255
220
-0.5773502691896259
230
0.5773502691896259
 40
0.5773502691896257
 41
2.356194490192344
 42
3.154393672868356
  0
ELLIPSE
  5
2A0
330
1AC
100
AcDbEntity
  8
PV-7333
100
AcDbEllipse
 10
-6.112058750993847
 20
24.37694520422994
 30
-11.01533987774521
 11
0.0
 21
0.0893431600721996
 31
0.0893431600721996
210
0.577350269189626
220
-0.5773502691896259
230
0.5773502691896259
 40
0.5773502691896258
 41
5.497787143782137
 42
5.996428754968038
  0
ELLIPSE
  5
2A1
330
1AC
100
AcDbEntity
  8
PV-7333
100
AcDbEllipse
 10
-6.112058750993847
 20
24.37694520422994
 30
-11.01533987774521
 11
0.0
 21
0.0893431600721996
 31
0.0893431600721996
210
0.577350269189626
220
-0.5773502691896259
230
0.5773502691896259
 40
0.5773502691896258
 41
-0.0000000000000198
 42
3.141592653589783
  0
ELLIPSE
  5
2A2
330
1AC
100
AcDbEntity
  8
PV-7333
100
AcDbEllipse
 10
-6.112058750993847
 20
24.37694520422994
 30
-11.01533987774521
 11
0.0
 21
0.0893431600721996
 31
0.0893431600721996
210
0.577350269189626
220
-0.5773502691896259
230
0.5773502691896259
 40
0.5773502691896258
 41
3.428349205801378
 42
5.497787143782137
  0
ELLIPSE
  5
2A3
330
1AC
100
AcDbEntity
  8
PV-7333
100
AcDbEllipse
 10
-6.078365335346013
 20
24.39379191205385
 30
-11.03218658556913
 11
0.0
 21
0.0893431600721996
 31
0.0893431600721996
210
0.577350269189626
220
-0.5773502691896259
230
0.5773502691896259
 40
0.5773502691896258
 41
0.0
 42
6.283185307179586
  0
ELLIPSE
  5
2A4
330
1AC
100
AcDbEntity
  8
PV-7333
100
AcDbEllipse
 10
-6.112058750993847
 20
24.37694520422994
 30
-11.01533987774521
 11
0.0
 21
0.0893431600721996
 31
0.0893431600721996
210
0.577350269189626
220
-0.5773502691896259
230
0.5773502691896259
 40
0.5773502691896258
 41
5.497787143782137
 42
5.996428754968038
  0
ELLIPSE
  5
2A5
330
1AC
100
AcDbEntity
  8
PV-7333
100
AcDbEllipse
 10
-6.112058750993847
 20
24.37694520422994
 30
-11.01533987774521
 11
0.0
 21
0.0893431600721996
 31
0.0893431600721996
210
0.577350269189626
220
-0.5773502691896259
230
0.5773502691896259
 40
0.5773502691896258
 41
-0.0000000000000198
 42
3.141592653589783
  0
ELLIPSE
  5
2A6
330
1AC
100
AcDbEntity
  8
PV-7333
100
AcDbEllipse
 10
-6.112058750993847
 20
24.37694520422994
 30
-11.01533987774521
 11
0.0
 21
0.0893431600721996
 31
0.0893431600721996
210
0.577350269189626
220
-0.5773502691896259
230
0.5773502691896259
 40
0.5773502691896258
 41
3.428349205801378
 42
5.497787143782137
  0
ELLIPSE
  5
2A7
330
1AC
100
AcDbEntity
  8
PV-7333
100
AcDbEllipse
 10
-5.73307212548441
 20
23.97268851698463
 30
-11.79858319049996
 11
0.0
 21
-0.0463154941814283
 31
-0.0463154941814283
210
0.5773502691896255
220
-0.5773502691896259
230
0.5773502691896259
 40
0.5773502691896257
 41
6.270384287900983
 42
8.63937979737193
  0
ELLIPSE
  5
2A8
330
1AC
100
AcDbEntity
  8
PV-7333
100
AcDbEllipse
 10
-5.73307212548441
 20
23.97268851698463
 30
-11.79858319049996
 11
0.0
 21
-0.0463154941814283
 31
-0.0463154941814283
210
0.5773502691896255
220
-0.5773502691896259
230
0.5773502691896259
 40
0.5773502691896257
 41
2.356194490192344
 42
3.154393672868453
  0
ELLIPSE
  5
2A9
330
1AC
100
AcDbEntity
  8
PV-7333
100
AcDbEllipse
 10
-5.716225417660496
 20
23.98111187089658
 30
-11.80700654441192
 11
0.0
 21
0.0893431600721996
 31
0.0893431600721996
210
0.577350269189626
220
-0.5773502691896259
230
0.5773502691896259
 40
0.5773502691896258
 41
5.497787143782137
 42
5.996428754968031
  0
ELLIPSE
  5
2AA
330
1AC
100
AcDbEntity
  8
PV-7333
100
AcDbEllipse
 10
-5.716225417660496
 20
23.98111187089658
 30
-11.80700654441192
 11
0.0
 21
0.0893431600721996
 31
0.0893431600721996
210
0.577350269189626
220
-0.5773502691896259
230
0.5773502691896259
 40
0.5773502691896258
 41
-0.0000000000000098
 42
3.141592653589793
  0
ELLIPSE
  5
2AB
330
1AC
100
AcDbEntity
  8
PV-7333
100
AcDbEllipse
 10
-5.716225417660496
 20
23.98111187089658
 30
-11.80700654441192
 11
0.0
 21
0.0893431600721996
 31
0.0893431600721996
210
0.577350269189626
220
-0.5773502691896259
230
0.5773502691896259
 40
0.5773502691896258
 41
3.428349205801347
 42
5.497787143782137
  0
ELLIPSE
  5
2AC
330
1AC
100
AcDbEntity
  8
PV-7333
100
AcDbEllipse
 10
-5.682532002012662
 20
23.9979585787205
 30
-11.82385325223584
 11
0.0
 21
0.0893431600721996
 31
0.0893431600721996
210
0.577350269189626
220
-0.5773502691896259
230
0.5773502691896259
 40
0.5773502691896258
 41
0.0
 42
6.283185307179586
  0
ELLIPSE
  5
2AD
330
1AC
100
AcDbEntity
  8
PV-7333
100
AcDbEllipse
 10
-5.716225417660496
 20
23.98111187089658
 30
-11.80700654441192
 11
0.0
 21
0.0893431600721996
 31
0.0893431600721996
210
0.577350269189626
220
-0.5773502691896259
230
0.5773502691896259
 40
0.5773502691896258
 41
5.497787143782137
 42
5.996428754968031
  0
ELLIPSE
  5
2AE
330
1AC
100
AcDbEntity
  8
PV-7333
100
AcDbEllipse
 10
-5.716225417660496
 20
23.98111187089658
 30
-11.80700654441192
 11
0.0
 21
0.0893431600721996
 31
0.0893431600721996
210
0.577350269189626
220
-0.5773502691896259
230
0.5773502691896259
 40
0.5773502691896258
 41
-0.0000000000000098
 42
3.141592653589793
  0
ELLIPSE
  5
2AF
330
1AC
100
AcDbEntity
  8
PV-7333
100
AcDbEllipse
 10
-5.716225417660496
 20
23.98111187089658
 30
-11.80700654441192
 11
0.0
 21
0.0893431600721996
 31
0.0893431600721996
210
0.577350269189626
220
-0.5773502691896259
230
0.5773502691896259
 40
0.5773502691896258
 41
3.428349205801347
 42
5.497787143782137
  0
ELLIPSE
  5
2B0
330
1AC
100
AcDbEntity
  8
PV-7333
100
AcDbEllipse
 10
-5.462238792151104
 20
23.70185518365133
 30
-12.34024985716657
 11
0.0
 21
-0.0463154941814283
 31
-0.0463154941814283
210
0.5773502691896255
220
-0.5773502691896259
230
0.5773502691896259
 40
0.5773502691896257
 41
6.270384287901022
 42
8.63937979737193
  0
ELLIPSE
  5
2B1
330
1AC
100
AcDbEntity
  8
PV-7333
100
AcDbEllipse
 10
-5.462238792151104
 20
23.70185518365133
 30
-12.34024985716657
 11
0.0
 21
-0.0463154941814283
 31
-0.0463154941814283
210
0.5773502691896255
220
-0.5773502691896259
230
0.5773502691896259
 40
0.5773502691896257
 41
2.356194490192344
 42
3.154393672868395
  0
ELLIPSE
  5
2B2
330
1AC
100
AcDbEntity
  8
PV-7333
100
AcDbEllipse
 10
-5.445392084327188
 20
23.71027853756328
 30
-12.34867321107853
 11
0.0
 21
0.0893431600721996
 31
0.0893431600721996
210
0.577350269189626
220
-0.5773502691896259
230
0.5773502691896259
 40
0.5773502691896258
 41
5.497787143782137
 42
5.996428754968038
  0
ELLIPSE
  5
2B3
330
1AC
100
AcDbEntity
  8
PV-7333
100
AcDbEllipse
 10
-5.445392084327188
 20
23.71027853756328
 30
-12.34867321107853
 11
0.0
 21
0.0893431600721996
 31
0.0893431600721996
210
0.577350269189626
220
-0.5773502691896259
230
0.5773502691896259
 40
0.5773502691896258
 41
-0.0000000000000098
 42
3.141592653589783
  0
ELLIPSE
  5
2B4
330
1AC
100
AcDbEntity
  8
PV-7333
100
AcDbEllipse
 10
-5.445392084327188
 20
23.71027853756328
 30
-12.34867321107853
 11
0.0
 21
0.0893431600721996
 31
0.0893431600721996
210
0.577350269189626
220
-0.5773502691896259
230
0.5773502691896259
 40
0.5773502691896258
 41
3.428349205801353
 42
5.497787143782137
  0
ELLIPSE
  5
2B5
330
1AC
100
AcDbEntity
  8
PV-7333
100
AcDbEllipse
 10
-5.411698668679354
 20
23.7271252453872
 30
-12.36551991890245
 11
0.0
 21
0.0893431600721996
 31
0.0893431600721996
210
0.577350269189626
220
-0.5773502691896259
230
0.5773502691896259
 40
0.5773502691896258
 41
0.0
 42
6.283185307179586
  0
ELLIPSE
  5
2B6
330
1AC
100
AcDbEntity
  8
PV-7333
100
AcDbEllipse
 10
-5.445392084327188
 20
23.71027853756328
 30
-12.34867321107853
 11
0.0
 21
0.0893431600721996
 31
0.0893431600721996
210
0.577350269189626
220
-0.5773502691896259
230
0.5773502691896259
 40
0.5773502691896258
 41
5.497787143782137
 42
5.996428754968038
  0
ELLIPSE
  5
2B7
330
1AC
100
AcDbEntity
  8
PV-7333
100
AcDbEllipse
 10
-5.445392084327188
 20
23.71027853756328
 30
-12.34867321107853
 11
0.0
 21
0.0893431600721996
 31
0.0893431600721996
210
0.577350269189626
220
-0.5773502691896259
230
0.5773502691896259
 40
0.5773502691896258
 41
-0.0000000000000098
 42
3.141592653589783
  0
ELLIPSE
  5
2B8
330
1AC
100
AcDbEntity
  8
PV-7333
100
AcDbEllipse
 10
-5.445392084327188
 20
23.71027853756328
 30
-12.34867321107853
 11
0.0
 21
0.0893431600721996
 31
0.0893431600721996
210
0.577350269189626
220
-0.5773502691896259
230
0.5773502691896259
 40
0.5773502691896258
 41
3.428349205801353
 42
5.497787143782137
  0
ELLIPSE
  5
2B9
330
1AC
100
AcDbEntity
  8
PV-7333
100
AcDbEllipse
 10
-6.095572125484428
 20
22.68518851698468
 30
-12.7235831904999
 11
0.0
 21
-0.0463154941814283
 31
-0.0463154941814283
210
0.5773502691896255
220
-0.5773502691896259
230
0.5773502691896259
 40
0.5773502691896257
 41
6.270384287900983
 42
8.63937979737193
  0
ELLIPSE
  5
2BA
330
1AC
100
AcDbEntity
  8
PV-7333
100
AcDbEllipse
 10
-6.095572125484428
 20
22.68518851698468
 30
-12.7235831904999
 11
0.0
 21
-0.0463154941814283
 31
-0.0463154941814283
210
0.5773502691896255
220
-0.5773502691896259
230
0.5773502691896259
 40
0.5773502691896257
 41
2.356194490192344
 42
3.154393672868414
  0
ELLIPSE
  5
2BB
330
1AC
100
AcDbEntity
  8
PV-7333
100
AcDbEllipse
 10
-6.078725417660512
 20
22.69361187089663
 30
-12.73200654441186
 11
0.0
 21
0.0893431600721996
 31
0.0893431600721996
210
0.577350269189626
220
-0.5773502691896259
230
0.5773502691896259
 40
0.5773502691896258
 41
5.497787143782137
 42
5.996428754968051
  0
ELLIPSE
  5
2BC
330
1AC
100
AcDbEntity
  8
PV-7333
100
AcDbEllipse
 10
-6.078725417660512
 20
22.69361187089663
 30
-12.73200654441186
 11
0.0
 21
0.0893431600721996
 31
0.0893431600721996
210
0.577350269189626
220
-0.5773502691896259
230
0.5773502691896259
 40
0.5773502691896258
 41
0.0000000000000101
 42
3.141592653589783
  0
ELLIPSE
  5
2BD
330
1AC
100
AcDbEntity
  8
PV-7333
100
AcDbEllipse
 10
-6.078725417660512
 20
22.69361187089663
 30
-12.73200654441186
 11
0.0
 21
0.0893431600721996
 31
0.0893431600721996
210
0.577350269189626
220
-0.5773502691896259
230
0.5773502691896259
 40
0.5773502691896258
 41
3.428349205801347
 42
5.497787143782137
  0
ELLIPSE
  5
2BE
330
1AC
100
AcDbEntity
  8
PV-7333
100
AcDbEllipse
 10
-6.045032002012678
 20
22.71045857872055
 30
-12.74885325223578
 11
0.0
 21
0.0893431600721996
 31
0.0893431600721996
210
0.577350269189626
220
-0.5773502691896259
230
0.5773502691896259
 40
0.5773502691896258
 41
0.0
 42
6.283185307179586
  0
ELLIPSE
  5
2BF
330
1AC
100
AcDbEntity
  8
PV-7333
100
AcDbEllipse
 10
-6.078725417660512
 20
22.69361187089663
 30
-12.73200654441186
 11
0.0
 21
0.0893431600721996
 31
0.0893431600721996
210
0.577350269189626
220
-0.5773502691896259
230
0.5773502691896259
 40
0.5773502691896258
 41
5.497787143782137
 42
5.996428754968051
  0
ELLIPSE
  5
2C0
330
1AC
100
AcDbEntity
  8
PV-7333
100
AcDbEllipse
 10
-6.078725417660512
 20
22.69361187089663
 30
-12.73200654441186
 11
0.0
 21
0.0893431600721996
 31
0.0893431600721996
210
0.577350269189626
220
-0.5773502691896259
230
0.5773502691896259
 40
0.5773502691896258
 41
0.0000000000000101
 42
3.141592653589783
  0
ELLIPSE
  5
2C1
330
1AC
100
AcDbEntity
  8
PV-7333
100
AcDbEllipse
 10
-6.078725417660512
 20
22.69361187089663
 30
-12.73200654441186
 11
0.0
 21
0.0893431600721996
 31
0.0893431600721996
210
0.577350269189626
220
-0.5773502691896259
230
0.5773502691896259
 40
0.5773502691896258
 41
3.428349205801347
 42
5.497787143782137
  0
ELLIPSE
  5
2C2
330
1AC
100
AcDbEntity
  8
PV-7333
100
AcDbEllipse
 10
-6.4080721254844
 20
22.99768851698464
 30
-12.09858319049996
 11
0.0
 21
-0.0463154941814283
 31
-0.0463154941814283
210
0.5773502691896255
220
-0.5773502691896259
230
0.5773502691896259
 40
0.5773502691896257
 41
6.270384287901022
 42
8.63937979737193
  0
ELLIPSE
  5
2C3
330
1AC
100
AcDbEntity
  8
PV-7333
100
AcDbEllipse
 10
-6.4080721254844
 20
22.99768851698464
 30
-12.09858319049996
 11
0.0
 21
-0.0463154941814283
 31
-0.0463154941814283
210
0.5773502691896255
220
-0.5773502691896259
230
0.5773502691896259
 40
0.5773502691896257
 41
2.356194490192344
 42
3.154393672868395
  0
ELLIPSE
  5
2C4
330
1AC
100
AcDbEntity
  8
PV-7333
100
AcDbEllipse
 10
-6.391225417660486
 20
23.0061118708966
 30
-12.10700654441192
 11
0.0
 21
0.0893431600721996
 31
0.0893431600721996
210
0.577350269189626
220
-0.5773502691896259
230
0.5773502691896259
 40
0.5773502691896258
 41
5.497787143782137
 42
5.996428754968045
  0
ELLIPSE
  5
2C5
330
1AC
100
AcDbEntity
  8
PV-7333
100
AcDbEllipse
 10
-6.391225417660486
 20
23.0061118708966
 30
-12.10700654441192
 11
0.0
 21
0.0893431600721996
 31
0.0893431600721996
210
0.577350269189626
220
-0.5773502691896259
230
0.5773502691896259
 40
0.5773502691896258
 41
0.0000000000000001
 42
3.141592653589773
  0
ELLIPSE
  5
2C6
330
1AC
100
AcDbEntity
  8
PV-7333
100
AcDbEllipse
 10
-6.391225417660486
 20
23.0061118708966
 30
-12.10700654441192
 11
0.0
 21
0.0893431600721996
 31
0.0893431600721996
210
0.577350269189626
220
-0.5773502691896259
230
0.5773502691896259
 40
0.5773502691896258
 41
3.428349205801353
 42
5.497787143782137
  0
ELLIPSE
  5
2C7
330
1AC
100
AcDbEntity
  8
PV-7333
100
AcDbEllipse
 10
-6.357532002012652
 20
23.02295857872052
 30
-12.12385325223583
 11
0.0
 21
0.0893431600721996
 31
0.0893431600721996
210
0.577350269189626
220
-0.5773502691896259
230
0.5773502691896259
 40
0.5773502691896258
 41
0.0
 42
6.283185307179586
  0
ELLIPSE
  5
2C8
330
1AC
100
AcDbEntity
  8
PV-7333
100
AcDbEllipse
 10
-6.391225417660486
 20
23.0061118708966
 30
-12.10700654441192
 11
0.0
 21
0.0893431600721996
 31
0.0893431600721996
210
0.577350269189626
220
-0.5773502691896259
230
0.5773502691896259
 40
0.5773502691896258
 41
5.497787143782137
 42
5.996428754968045
  0
ELLIPSE
  5
2C9
330
1AC
100
AcDbEntity
  8
PV-7333
100
AcDbEllipse
 10
-6.391225417660486
 20
23.0061118708966
 30
-12.10700654441192
 11
0.0
 21
0.0893431600721996
 31
0.0893431600721996
210
0.577350269189626
220
-0.5773502691896259
230
0.5773502691896259
 40
0.5773502691896258
 41
0.0000000000000001
 42
3.141592653589773
  0
ELLIPSE
  5
2CA
330
1AC
100
AcDbEntity
  8
PV-7333
100
AcDbEllipse
 10
-6.391225417660486
 20
23.0061118708966
 30
-12.10700654441192
 11
0.0
 21
0.0893431600721996
 31
0.0893431600721996
210
0.577350269189626
220
-0.5773502691896259
230
0.5773502691896259
 40
0.5773502691896258
 41
3.428349205801353
 42
5.497787143782137
  0
ELLIPSE
  5
2CB
330
1AC
100
AcDbEntity
  8
PV-7333
100
AcDbEllipse
 10
-6.753905458817774
 20
23.593521850318
 30
-11.15691652383322
 11
0.0
 21
-0.0463154941814283
 31
-0.0463154941814283
210
0.5773502691896255
220
-0.5773502691896259
230
0.5773502691896259
 40
0.5773502691896257
 41
6.270384287900983
 42
8.63937979737193
  0
ELLIPSE
  5
2CC
330
1AC
100
AcDbEntity
  8
PV-7333
100
AcDbEllipse
 10
-6.753905458817774
 20
23.593521850318
 30
-11.15691652383322
 11
0.0
 21
-0.0463154941814283
 31
-0.0463154941814283
210
0.5773502691896255
220
-0.5773502691896259
230
0.5773502691896259
 40
0.5773502691896257
 41
2.356194490192344
 42
3.154393672868414
  0
ELLIPSE
  5
2CD
330
1AC
100
AcDbEntity
  8
PV-7333
100
AcDbEllipse
 10
-6.73705875099386
 20
23.60194520422997
 30
-11.16533987774518
 11
0.0
 21
0.0893431600721996
 31
0.0893431600721996
210
0.577350269189626
220
-0.5773502691896259
230
0.5773502691896259
 40
0.5773502691896258
 41
5.497787143782137
 42
5.996428754968031
  0
ELLIPSE
  5
2CE
330
1AC
100
AcDbEntity
  8
PV-7333
100
AcDbEllipse
 10
-6.73705875099386
 20
23.60194520422997
 30
-11.16533987774518
 11
0.0
 21
0.0893431600721996
 31
0.0893431600721996
210
0.577350269189626
220
-0.5773502691896259
230
0.5773502691896259
 40
0.5773502691896258
 41
-0.0000000000000098
 42
3.141592653589793
  0
ELLIPSE
  5
2CF
330
1AC
100
AcDbEntity
  8
PV-7333
100
AcDbEllipse
 10
-6.73705875099386
 20
23.60194520422997
 30
-11.16533987774518
 11
0.0
 21
0.0893431600721996
 31
0.0893431600721996
210
0.577350269189626
220
-0.5773502691896259
230
0.5773502691896259
 40
0.5773502691896258
 41
3.428349205801366
 42
5.497787143782137
  0
ELLIPSE
  5
2D0
330
1AC
100
AcDbEntity
  8
PV-7333
100
AcDbEllipse
 10
-6.703365335346026
 20
23.61879191205388
 30
-11.1821865855691
 11
0.0
 21
0.0893431600721996
 31
0.0893431600721996
210
0.577350269189626
220
-0.5773502691896259
230
0.5773502691896259
 40
0.5773502691896258
 41
0.0
 42
6.283185307179586
  0
ELLIPSE
  5
2D1
330
1AC
100
AcDbEntity
  8
PV-7333
100
AcDbEllipse
 10
-6.73705875099386
 20
23.60194520422997
 30
-11.16533987774518
 11
0.0
 21
0.0893431600721996
 31
0.0893431600721996
210
0.577350269189626
220
-0.5773502691896259
230
0.5773502691896259
 40
0.5773502691896258
 41
5.497787143782137
 42
5.996428754968031
  0
ELLIPSE
  5
2D2
330
1AC
100
AcDbEntity
  8
PV-7333
100
AcDbEllipse
 10
-6.73705875099386
 20
23.60194520422997
 30
-11.16533987774518
 11
0.0
 21
0.0893431600721996
 31
0.0893431600721996
210
0.577350269189626
220
-0.5773502691896259
230
0.5773502691896259
 40
0.5773502691896258
 41
-0.0000000000000098
 42
3.141592653589793
  0
ELLIPSE
  5
2D3
330
1AC
100
AcDbEntity
  8
PV-7333
100
AcDbEllipse
 10
-6.73705875099386
 20
23.60194520422997
 30
-11.16533987774518
 11
0.0
 21
0.0893431600721996
 31
0.0893431600721996
210
0.577350269189626
220
-0.5773502691896259
230
0.5773502691896259
 40
0.5773502691896258
 41
3.428349205801366
 42
5.497787143782137
  0
ELLIPSE
  5
2D4
330
1AC
100
AcDbEntity
  8
PV-7333
100
AcDbEllipse
 10
-10.89941160001381
 20
27.38822799151392
 30
-3.216704241441265
 11
0.0
 21
-0.0463154941814283
 31
-0.0463154941814283
210
0.5773502691896255
220
-0.5773502691896259
230
0.5773502691896259
 40
0.5773502691896257
 41
6.270384287901002
 42
8.63937979737193
  0
ELLIPSE
  5
2D5
330
1AC
100
AcDbEntity
  8
PV-7333
100
AcDbEllipse
 10
-10.89941160001381
 20
27.38822799151392
 30
-3.216704241441265
 11
0.0
 21
-0.0463154941814283
 31
-0.0463154941814283
210
0.5773502691896255
220
-0.5773502691896259
230
0.5773502691896259
 40
0.5773502691896257
 41
2.356194490192344
 42
3.154393672868376
  0
ELLIPSE
  5
2D6
330
1AC
100
AcDbEntity
  8
PV-7333
100
AcDbEllipse
 10
-10.88256489218989
 20
27.39665134542588
 30
-3.225127595353221
 11
0.0
 21
0.0893431600721996
 31
0.0893431600721996
210
0.577350269189626
220
-0.5773502691896259
230
0.5773502691896259
 40
0.5773502691896258
 41
5.497787143782137
 42
5.996428754968032
  0
ELLIPSE
  5
2D7
330
1AC
100
AcDbEntity
  8
PV-7333
100
AcDbEllipse
 10
-10.88256489218989
 20
27.39665134542588
 30
-3.225127595353221
 11
0.0
 21
0.0893431600721996
 31
0.0893431600721996
210
0.577350269189626
220
-0.5773502691896259
230
0.5773502691896259
 40
0.5773502691896258
 41
0.00000000000002
 42
3.141592653589773
  0
ELLIPSE
  5
2D8
330
1AC
100
AcDbEntity
  8
PV-7333
100
AcDbEllipse
 10
-10.88256489218989
 20
27.39665134542588
 30
-3.225127595353221
 11
0.0
 21
0.0893431600721996
 31
0.0893431600721996
210
0.577350269189626
220
-0.5773502691896259
230
0.5773502691896259
 40
0.5773502691896258
 41
3.428349205801341
 42
5.497787143782137
  0
ELLIPSE
  5
2D9
330
1AC
100
AcDbEntity
  8
PV-7333
100
AcDbEllipse
 10
-10.84887147654206
 20
27.4134980532498
 30
-3.241974303177139
 11
0.0
 21
0.0893431600721996
 31
0.0893431600721996
210
0.577350269189626
220
-0.5773502691896259
230
0.5773502691896259
 40
0.5773502691896258
 41
0.0
 42
6.283185307179586
  0
ELLIPSE
  5
2DA
330
1AC
100
AcDbEntity
  8
PV-7333
100
AcDbEllipse
 10
-10.88256489218989
 20
27.39665134542588
 30
-3.225127595353221
 11
0.0
 21
0.0893431600721996
 31
0.0893431600721996
210
0.577350269189626
220
-0.5773502691896259
230
0.5773502691896259
 40
0.5773502691896258
 41
5.497787143782137
 42
5.996428754968032
  0
ELLIPSE
  5
2DB
330
1AC
100
AcDbEntity
  8
PV-7333
100
AcDbEllipse
 10
-10.88256489218989
 20
27.39665134542588
 30
-3.225127595353221
 11
0.0
 21
0.0893431600721996
 31
0.0893431600721996
210
0.577350269189626
220
-0.5773502691896259
230
0.5773502691896259
 40
0.5773502691896258
 41
0.00000000000002
 42
3.141592653589773
  0
ELLIPSE
  5
2DC
330
1AC
100
AcDbEntity
  8
PV-7333
100
AcDbEllipse
 10
-10.88256489218989
 20
27.39665134542588
 30
-3.225127595353221
 11
0.0
 21
0.0893431600721996
 31
0.0893431600721996
210
0.577350269189626
220
-0.5773502691896259
230
0.5773502691896259
 40
0.5773502691896258
 41
3.428349205801341
 42
5.497787143782137
  0
ELLIPSE
  5
2DD
330
1AC
100
AcDbEntity
  8
PV-7333
100
AcDbEllipse
 10
-10.69183295625111
 20
28.55338527903933
 30
-2.259125597678563
 11
0.0
 21
-0.0463154941814283
 31
-0.0463154941814283
210
0.5773502691896255
220
-0.5773502691896259
230
0.5773502691896259
 40
0.5773502691896257
 41
6.270384287900983
 42
8.63937979737193
  0
ELLIPSE
  5
2DE
330
1AC
100
AcDbEntity
  8
PV-7333
100
AcDbEllipse
 10
-10.69183295625111
 20
28.55338527903933
 30
-2.259125597678563
 11
0.0
 21
-0.0463154941814283
 31
-0.0463154941814283
210
0.5773502691896255
220
-0.5773502691896259
230
0.5773502691896259
 40
0.5773502691896257
 41
2.356194490192344
 42
3.154393672868395
  0
ELLIPSE
  5
2DF
330
1AC
100
AcDbEntity
  8
PV-7333
100
AcDbEllipse
 10
-10.67498624842719
 20
28.56180863295128
 30
-2.267548951590521
 11
0.0
 21
0.0893431600721996
 31
0.0893431600721996
210
0.577350269189626
220
-0.5773502691896259
230
0.5773502691896259
 40
0.5773502691896258
 41
5.497787143782137
 42
5.996428754968012
  0
ELLIPSE
  5
2E0
330
1AC
100
AcDbEntity
  8
PV-7333
100
AcDbEllipse
 10
-10.67498624842719
 20
28.56180863295128
 30
-2.267548951590521
 11
0.0
 21
0.0893431600721996
 31
0.0893431600721996
210
0.577350269189626
220
-0.5773502691896259
230
0.5773502691896259
 40
0.5773502691896258
 41
0.0000000000000001
 42
3.141592653589793
  0
ELLIPSE
  5
2E1
330
1AC
100
AcDbEntity
  8
PV-7333
100
AcDbEllipse
 10
-10.67498624842719
 20
28.56180863295128
 30
-2.267548951590521
 11
0.0
 21
0.0893431600721996
 31
0.0893431600721996
210
0.577350269189626
220
-0.5773502691896259
230
0.5773502691896259
 40
0.5773502691896258
 41
3.428349205801378
 42
5.497787143782137
  0
ELLIPSE
  5
2E2
330
1AC
100
AcDbEntity
  8
PV-7333
100
AcDbEllipse
 10
-10.64129283277936
 20
28.5786553407752
 30
-2.284395659414437
 11
0.0
 21
0.0893431600721996
 31
0.0893431600721996
210
0.577350269189626
220
-0.5773502691896259
230
0.5773502691896259
 40
0.5773502691896258
 41
0.0
 42
6.283185307179586
  0
ELLIPSE
  5
2E3
330
1AC
100
AcDbEntity
  8
PV-7333
100
AcDbEllipse
 10
-10.67498624842719
 20
28.56180863295128
 30
-2.267548951590521
 11
0.0
 21
0.0893431600721996
 31
0.0893431600721996
210
0.577350269189626
220
-0.5773502691896259
230
0.5773502691896259
 40
0.5773502691896258
 41
5.497787143782137
 42
5.996428754968012
  0
ELLIPSE
  5
2E4
330
1AC
100
AcDbEntity
  8
PV-7333
100
AcDbEllipse
 10
-10.67498624842719
 20
28.56180863295128
 30
-2.267548951590521
 11
0.0
 21
0.0893431600721996
 31
0.0893431600721996
210
0.577350269189626
220
-0.5773502691896259
230
0.5773502691896259
 40
0.5773502691896258
 41
0.0000000000000001
 42
3.141592653589793
  0
ELLIPSE
  5
2E5
330
1AC
100
AcDbEntity
  8
PV-7333
100
AcDbEllipse
 10
-10.67498624842719
 20
28.56180863295128
 30
-2.267548951590521
 11
0.0
 21
0.0893431600721996
 31
0.0893431600721996
210
0.577350269189626
220
-0.5773502691896259
230
0.5773502691896259
 40
0.5773502691896258
 41
3.428349205801378
 42
5.497787143782137
  0
ELLIPSE
  5
2E6
330
1AC
100
AcDbEntity
  8
PV-7333
100
AcDbEllipse
 10
-7.674248771572489
 20
25.68333522480851
 30
-8.146759836588012
 11
-0.0463154941814283
 21
0.0
 31
0.0463154941814283
210
0.5773502691896258
220
-0.5773502691896258
230
0.5773502691896255
 40
0.5773502691896258
 41
6.270384287901079
 42
7.068583470577062
  0
ELLIPSE
  5
2E7
330
1AC
100
AcDbEntity
  8
PV-7333
100
AcDbEllipse
 10
-7.674248771572489
 20
25.68333522480851
 30
-8.146759836588012
 11
-0.0463154941814283
 21
0.0
 31
0.0463154941814283
210
0.5773502691896258
220
-0.5773502691896258
230
0.5773502691896255
 40
0.5773502691896258
 41
0.7853981633974759
 42
3.154393672868299
  0
ELLIPSE
  5
2E8
330
1AC
100
AcDbEntity
  8
PV-7333
100
AcDbEllipse
 10
-7.682672125484447
 20
25.6664885169846
 30
-8.15518319049997
 11
-0.0893431600721996
 21
0.0
 31
0.0893431600721996
210
0.5773502691896257
220
-0.5773502691896258
230
0.5773502691896258
 40
0.5773502691896259
 41
0.7853981633974624
 42
2.854836101378245
  0
ELLIPSE
  5
2E9
330
1AC
100
AcDbEntity
  8
PV-7333
100
AcDbEllipse
 10
-7.682672125484447
 20
25.6664885169846
 30
-8.15518319049997
 11
-0.0893431600721996
 21
0.0
 31
0.0893431600721996
210
0.5773502691896257
220
-0.5773502691896258
230
0.5773502691896258
 40
0.5773502691896259
 41
3.141592653589768
 42
6.283185307179601
  0
ELLIPSE
  5
2EA
330
1AC
100
AcDbEntity
  8
PV-7333
100
AcDbEllipse
 10
-7.682672125484447
 20
25.6664885169846
 30
-8.15518319049997
 11
-0.0893431600721996
 21
0.0
 31
0.0893431600721996
210
0.5773502691896257
220
-0.5773502691896258
230
0.5773502691896258
 40
0.5773502691896259
 41
0.2867565522115477
 42
0.7853981633974624
  0
ELLIPSE
  5
2EB
330
1AC
100
AcDbEntity
  8
PV-7333
100
AcDbEllipse
 10
-7.699518833308363
 20
25.63279510133676
 30
-8.172029898323886
 11
-0.0893431600721996
 21
0.0
 31
0.0893431600721996
210
0.5773502691896257
220
-0.5773502691896258
230
0.5773502691896258
 40
0.5773502691896259
 41
0.0
 42
6.283185307179586
  0
ELLIPSE
  5
2EC
330
1AC
100
AcDbEntity
  8
PV-7333
100
AcDbEllipse
 10
-7.682672125484447
 20
25.6664885169846
 30
-8.15518319049997
 11
-0.0893431600721996
 21
0.0
 31
0.0893431600721996
210
0.5773502691896257
220
-0.5773502691896258
230
0.5773502691896258
 40
0.5773502691896259
 41
0.7853981633974624
 42
2.854836101378245
  0
ELLIPSE
  5
2ED
330
1AC
100
AcDbEntity
  8
PV-7333
100
AcDbEllipse
 10
-7.682672125484447
 20
25.6664885169846
 30
-8.15518319049997
 11
-0.0893431600721996
 21
0.0
 31
0.0893431600721996
210
0.5773502691896257
220
-0.5773502691896258
230
0.5773502691896258
 40
0.5773502691896259
 41
3.141592653589768
 42
6.283185307179601
  0
ELLIPSE
  5
2EE
330
1AC
100
AcDbEntity
  8
PV-7333
100
AcDbEllipse
 10
-7.682672125484447
 20
25.6664885169846
 30
-8.15518319049997
 11
-0.0893431600721996
 21
0.0
 31
0.0893431600721996
210
0.5773502691896257
220
-0.5773502691896258
230
0.5773502691896258
 40
0.5773502691896259
 41
0.2867565522115477
 42
0.7853981633974624
  0
ELLIPSE
  5
2EF
330
1AC
100
AcDbEntity
  8
PV-7333
100
AcDbEllipse
 10
-8.174248771572507
 20
26.18333522480852
 30
-7.146759836587976
 11
-0.0463154941814283
 21
0.0
 31
0.0463154941814283
210
0.5773502691896258
220
-0.5773502691896258
230
0.5773502691896255
 40
0.5773502691896258
 41
6.270384287901041
 42
7.068583470577034
  0
ELLIPSE
  5
2F0
330
1AC
100
AcDbEntity
  8
PV-7333
100
AcDbEllipse
 10
-8.174248771572507
 20
26.18333522480852
 30
-7.146759836587976
 11
-0.0463154941814283
 21
0.0
 31
0.0463154941814283
210
0.5773502691896258
220
-0.5773502691896258
230
0.5773502691896255
 40
0.5773502691896258
 41
0.7853981633974487
 42
3.154393672868338
  0
ELLIPSE
  5
2F1
330
1AC
100
AcDbEntity
  8
PV-7333
100
AcDbEllipse
 10
-8.182672125484465
 20
26.1664885169846
 30
-7.155183190499935
 11
-0.0893431600721996
 21
0.0
 31
0.0893431600721996
210
0.5773502691896257
220
-0.5773502691896258
230
0.5773502691896258
 40
0.5773502691896259
 41
0.7853981633974624
 42
2.854836101378206
  0
ELLIPSE
  5
2F2
330
1AC
100
AcDbEntity
  8
PV-7333
100
AcDbEllipse
 10
-8.182672125484465
 20
26.1664885169846
 30
-7.155183190499935
 11
-0.0893431600721996
 21
0.0
 31
0.0893431600721996
210
0.5773502691896257
220
-0.5773502691896258
230
0.5773502691896258
 40
0.5773502691896259
 41
3.141592653589758
 42
6.28318530717963
  0
ELLIPSE
  5
2F3
330
1AC
100
AcDbEntity
  8
PV-7333
100
AcDbEllipse
 10
-8.182672125484465
 20
26.1664885169846
 30
-7.155183190499935
 11
-0.0893431600721996
 21
0.0
 31
0.0893431600721996
210
0.5773502691896257
220
-0.5773502691896258
230
0.5773502691896258
 40
0.5773502691896259
 41
0.2867565522115858
 42
0.7853981633974624
  0
ELLIPSE
  5
2F4
330
1AC
100
AcDbEntity
  8
PV-7333
100
AcDbEllipse
 10
-8.199518833308383
 20
26.13279510133677
 30
-7.172029898323852
 11
-0.0893431600721996
 21
0.0
 31
0.0893431600721996
210
0.5773502691896257
220
-0.5773502691896258
230
0.5773502691896258
 40
0.5773502691896259
 41
0.0
 42
6.283185307179586
  0
ELLIPSE
  5
2F5
330
1AC
100
AcDbEntity
  8
PV-7333
100
AcDbEllipse
 10
-8.182672125484465
 20
26.1664885169846
 30
-7.155183190499935
 11
-0.0893431600721996
 21
0.0
 31
0.0893431600721996
210
0.5773502691896257
220
-0.5773502691896258
230
0.5773502691896258
 40
0.5773502691896259
 41
0.7853981633974624
 42
2.854836101378206
  0
ELLIPSE
  5
2F6
330
1AC
100
AcDbEntity
  8
PV-7333
100
AcDbEllipse
 10
-8.182672125484465
 20
26.1664885169846
 30
-7.155183190499935
 11
-0.0893431600721996
 21
0.0
 31
0.0893431600721996
210
0.5773502691896257
220
-0.5773502691896258
230
0.5773502691896258
 40
0.5773502691896259
 41
3.141592653589758
 42
6.28318530717963
  0
ELLIPSE
  5
2F7
330
1AC
100
AcDbEntity
  8
PV-7333
100
AcDbEllipse
 10
-8.182672125484465
 20
26.1664885169846
 30
-7.155183190499935
 11
-0.0893431600721996
 21
0.0
 31
0.0893431600721996
210
0.5773502691896257
220
-0.5773502691896258
230
0.5773502691896258
 40
0.5773502691896259
 41
0.2867565522115858
 42
0.7853981633974624
  0
ELLIPSE
  5
2F8
330
1AC
100
AcDbEntity
  8
PV-7333
100
AcDbEllipse
 10
-8.974338792151129
 20
25.95815518365127
 30
-6.571849857166604
 11
-0.0463154941814283
 21
0.0
 31
0.0463154941814283
210
0.5773502691896258
220
-0.5773502691896258
230
0.5773502691896255
 40
0.5773502691896258
 41
6.270384287901003
 42
7.068583470577034
  0
ELLIPSE
  5
2F9
330
1AC
100
AcDbEntity
  8
PV-7333
100
AcDbEllipse
 10
-8.974338792151129
 20
25.95815518365127
 30
-6.571849857166604
 11
-0.0463154941814283
 21
0.0
 31
0.0463154941814283
210
0.5773502691896258
220
-0.5773502691896258
230
0.5773502691896255
 40
0.5773502691896258
 41
0.7853981633974487
 42
3.154393672868338
  0
ELLIPSE
  5
2FA
330
1AC
100
AcDbEntity
  8
PV-7333
100
AcDbEllipse
 10
-8.982762146063087
 20
25.94130847582735
 30
-6.580273211078562
 11
-0.0893431600721996
 21
0.0
 31
0.0893431600721996
210
0.5773502691896257
220
-0.5773502691896258
230
0.5773502691896258
 40
0.5773502691896259
 41
0.7853981633974482
 42
2.854836101378264
  0
ELLIPSE
  5
2FB
330
1AC
100
AcDbEntity
  8
PV-7333
100
AcDbEllipse
 10
-8.982762146063087
 20
25.94130847582735
 30
-6.580273211078562
 11
-0.0893431600721996
 21
0.0
 31
0.0893431600721996
210
0.5773502691896257
220
-0.5773502691896258
230
0.5773502691896258
 40
0.5773502691896259
 41
3.141592653589807
 42
6.283185307179601
  0
ELLIPSE
  5
2FC
330
1AC
100
AcDbEntity
  8
PV-7333
100
AcDbEllipse
 10
-8.982762146063087
 20
25.94130847582735
 30
-6.580273211078562
 11
-0.0893431600721996
 21
0.0
 31
0.0893431600721996
210
0.5773502691896257
220
-0.5773502691896258
230
0.5773502691896258
 40
0.5773502691896259
 41
0.2867565522115669
 42
0.7853981633974482
  0
ELLIPSE
  5
2FD
330
1AC
100
AcDbEntity
  8
PV-7333
100
AcDbEllipse
 10
-8.999608853887002
 20
25.90761506017952
 30
-6.597119918902476
 11
-0.0893431600721996
 21
0.0
 31
0.0893431600721996
210
0.5773502691896257
220
-0.5773502691896258
230
0.5773502691896258
 40
0.5773502691896259
 41
0.0
 42
6.283185307179586
  0
ELLIPSE
  5
2FE
330
1AC
100
AcDbEntity
  8
PV-7333
100
AcDbEllipse
 10
-8.982762146063087
 20
25.94130847582735
 30
-6.580273211078562
 11
-0.0893431600721996
 21
0.0
 31
0.0893431600721996
210
0.5773502691896257
220
-0.5773502691896258
230
0.5773502691896258
 40
0.5773502691896259
 41
0.7853981633974482
 42
2.854836101378264
  0
ELLIPSE
  5
2FF
330
1AC
100
AcDbEntity
  8
PV-7333
100
AcDbEllipse
 10
-8.982762146063087
 20
25.94130847582735
 30
-6.580273211078562
 11
-0.0893431600721996
 21
0.0
 31
0.0893431600721996
210
0.5773502691896257
220
-0.5773502691896258
230
0.5773502691896258
 40
0.5773502691896259
 41
3.141592653589807
 42
6.283185307179601
  0
ELLIPSE
  5
300
330
1AC
100
AcDbEntity
  8
PV-7333
100
AcDbEllipse
 10
-8.982762146063087
 20
25.94130847582735
 30
-6.580273211078562
 11
-0.0893431600721996
 21
0.0
 31
0.0893431600721996
210
0.5773502691896257
220
-0.5773502691896258
230
0.5773502691896258
 40
0.5773502691896259
 41
0.2867565522115669
 42
0.7853981633974482
  0
ELLIPSE
  5
301
330
1AC
100
AcDbEntity
  8
PV-7333
100
AcDbEllipse
 10
-8.465915438239152
 20
25.47500189147517
 30
-7.563426503254678
 11
-0.0463154941814283
 21
0.0
 31
0.0463154941814283
210
0.5773502691896258
220
-0.5773502691896258
230
0.5773502691896255
 40
0.5773502691896258
 41
6.270384287901003
 42
7.068583470577034
  0
ELLIPSE
  5
302
330
1AC
100
AcDbEntity
  8
PV-7333
100
AcDbEllipse
 10
-8.465915438239152
 20
25.47500189147517
 30
-7.563426503254678
 11
-0.0463154941814283
 21
0.0
 31
0.0463154941814283
210
0.5773502691896258
220
-0.5773502691896258
230
0.5773502691896255
 40
0.5773502691896258
 41
0.7853981633974487
 42
3.154393672868414
  0
ELLIPSE
  5
303
330
1AC
100
AcDbEntity
  8
PV-7333
100
AcDbEllipse
 10
-8.47433879215111
 20
25.45815518365126
 30
-7.571849857166636
 11
-0.0893431600721996
 21
0.0
 31
0.0893431600721996
210
0.5773502691896257
220
-0.5773502691896258
230
0.5773502691896258
 40
0.5773502691896259
 41
0.7853981633974482
 42
2.854836101378225
  0
ELLIPSE
  5
304
330
1AC
100
AcDbEntity
  8
PV-7333
100
AcDbEllipse
 10
-8.47433879215111
 20
25.45815518365126
 30
-7.571849857166636
 11
-0.0893431600721996
 21
0.0
 31
0.0893431600721996
210
0.5773502691896257
220
-0.5773502691896258
230
0.5773502691896258
 40
0.5773502691896259
 41
3.141592653589787
 42
6.283185307179611
  0
ELLIPSE
  5
305
330
1AC
100
AcDbEntity
  8
PV-7333
100
AcDbEllipse
 10
-8.47433879215111
 20
25.45815518365126
 30
-7.571849857166636
 11
-0.0893431600721996
 21
0.0
 31
0.0893431600721996
210
0.5773502691896257
220
-0.5773502691896258
230
0.5773502691896258
 40
0.5773502691896259
 41
0.2867565522115669
 42
0.7853981633974482
  0
ELLIPSE
  5
306
330
1AC
100
AcDbEntity
  8
PV-7333
100
AcDbEllipse
 10
-8.491185499975026
 20
25.42446176800343
 30
-7.588696564990552
 11
-0.0893431600721996
 21
0.0
 31
0.0893431600721996
210
0.5773502691896257
220
-0.5773502691896258
230
0.5773502691896258
 40
0.5773502691896259
 41
0.0
 42
6.283185307179586
  0
ELLIPSE
  5
307
330
1AC
100
AcDbEntity
  8
PV-7333
100
AcDbEllipse
 10
-8.47433879215111
 20
25.45815518365126
 30
-7.571849857166636
 11
-0.0893431600721996
 21
0.0
 31
0.0893431600721996
210
0.5773502691896257
220
-0.5773502691896258
230
0.5773502691896258
 40
0.5773502691896259
 41
0.7853981633974482
 42
2.854836101378225
  0
ELLIPSE
  5
308
330
1AC
100
AcDbEntity
  8
PV-7333
100
AcDbEllipse
 10
-8.47433879215111
 20
25.45815518365126
 30
-7.571849857166636
 11
-0.0893431600721996
 21
0.0
 31
0.0893431600721996
210
0.5773502691896257
220
-0.5773502691896258
230
0.5773502691896258
 40
0.5773502691896259
 41
3.141592653589787
 42
6.283185307179611
  0
ELLIPSE
  5
309
330
1AC
100
AcDbEntity
  8
PV-7333
100
AcDbEllipse
 10
-8.47433879215111
 20
25.45815518365126
 30
-7.571849857166636
 11
-0.0893431600721996
 21
0.0
 31
0.0893431600721996
210
0.5773502691896257
220
-0.5773502691896258
230
0.5773502691896258
 40
0.5773502691896259
 41
0.2867565522115669
 42
0.7853981633974482
  0
ELLIPSE
  5
30A
330
1AC
100
AcDbEntity
  8
PV-7333
100
AcDbEllipse
 10
-11.19670292466827
 20
29.11479757134978
 30
-1.192843336950947
 11
0.0319178335062688
 21
0.0531215852454466
 31
0.0212037517391778
210
0.5773502691896257
220
-0.5773502691896258
230
0.5773502691896258
 40
0.7502442415183986
 41
5.999443389586561
 42
6.792174896987648
  0
ELLIPSE
  5
30B
330
1AC
100
AcDbEntity
  8
PV-7333
100
AcDbEllipse
 10
-11.19670292466827
 20
29.11479757134978
 30
-1.192843336950947
 11
0.0319178335062688
 21
0.0531215852454466
 31
0.0212037517391778
210
0.5773502691896257
220
-0.5773502691896258
230
0.5773502691896258
 40
0.7502442415183986
 41
0.5089895898080629
 42
3.809863634472882
  0
ELLIPSE
  5
30C
330
1AC
100
AcDbEntity
  8
PV-7333
100
AcDbEllipse
 10
-11.20764874578235
 20
29.11637542389888
 30
-1.180319663287757
 11
0.0615698948809197
 21
0.1024721937605065
 31
0.0409022988795869
210
0.577350269189626
220
-0.5773502691896258
230
0.5773502691896255
 40
0.7502442415183984
 41
0.5089895898080645
 42
2.964414971822864
  0
ELLIPSE
  5
30D
330
1AC
100
AcDbEntity
  8
PV-7333
100
AcDbEllipse
 10
-11.20764874578235
 20
29.11637542389888
 30
-1.180319663287757
 11
0.0615698948809197
 21
0.1024721937605065
 31
0.0409022988795869
210
0.577350269189626
220
-0.5773502691896258
230
0.5773502691896255
 40
0.7502442415183984
 41
3.141592653589789
 42
6.283185307179582
  0
ELLIPSE
  5
30E
330
1AC
100
AcDbEntity
  8
PV-7333
100
AcDbEllipse
 10
-11.20764874578235
 20
29.11637542389888
 30
-1.180319663287757
 11
0.0615698948809197
 21
0.1024721937605065
 31
0.0409022988795869
210
0.577350269189626
220
-0.5773502691896258
230
0.5773502691896255
 40
0.7502442415183984
 41
0.1771776817669149
 42
0.5089895898080645
  0
ELLIPSE
  5
30F
330
1AC
100
AcDbEntity
  8
PV-7333
100
AcDbEllipse
 10
-11.22954038801053
 20
29.11953112899709
 30
-1.155272315961378
 11
0.0615698948809197
 21
0.1024721937605065
 31
0.0409022988795869
210
0.577350269189626
220
-0.5773502691896258
230
0.5773502691896255
 40
0.7502442415183984
 41
0.0
 42
6.283185307179586
  0
ELLIPSE
  5
310
330
1AC
100
AcDbEntity
  8
PV-7333
100
AcDbEllipse
 10
-11.20764874578235
 20
29.11637542389888
 30
-1.180319663287757
 11
0.0615698948809197
 21
0.1024721937605065
 31
0.0409022988795869
210
0.577350269189626
220
-0.5773502691896258
230
0.5773502691896255
 40
0.7502442415183984
 41
0.5089895898080645
 42
2.964414971822864
  0
ELLIPSE
  5
311
330
1AC
100
AcDbEntity
  8
PV-7333
100
AcDbEllipse
 10
-11.20764874578235
 20
29.11637542389888
 30
-1.180319663287757
 11
0.0615698948809197
 21
0.1024721937605065
 31
0.0409022988795869
210
0.577350269189626
220
-0.5773502691896258
230
0.5773502691896255
 40
0.7502442415183984
 41
3.141592653589789
 42
6.283185307179582
  0
ELLIPSE
  5
312
330
1AC
100
AcDbEntity
  8
PV-7333
100
AcDbEllipse
 10
-11.20764874578235
 20
29.11637542389888
 30
-1.180319663287757
 11
0.0615698948809197
 21
0.1024721937605065
 31
0.0409022988795869
210
0.577350269189626
220
-0.5773502691896258
230
0.5773502691896255
 40
0.7502442415183984
 41
0.1771776817669149
 42
0.5089895898080645
  0
ELLIPSE
  5
313
330
1AC
100
AcDbEntity
  8
PV-7333
100
AcDbEllipse
 10
-11.5260454550593
 20
27.98033022349259
 30
-1.997968154417105
 11
0.0319178335062688
 21
0.0531215852454466
 31
0.0212037517391778
210
0.5773502691896257
220
-0.5773502691896258
230
0.5773502691896258
 40
0.7502442415183986
 41
0.0108700460877209
 42
0.5089895898080706
  0
ELLIPSE
  5
314
330
1AC
100
AcDbEntity
  8
PV-7333
100
AcDbEllipse
 10
-11.5260454550593
 20
27.98033022349259
 30
-1.997968154417105
 11
0.0319178335062688
 21
0.0531215852454466
 31
0.0212037517391778
210
0.5773502691896257
220
-0.5773502691896258
230
0.5773502691896258
 40
0.7502442415183986
 41
0.5089895898080706
 42
3.790773269006129
  0
ELLIPSE
  5
315
330
1AC
100
AcDbEntity
  8
PV-7333
100
AcDbEllipse
 10
-11.53699127617338
 20
27.9819080760417
 30
-1.985444480753917
 11
0.0615698948809197
 21
0.1024721937605065
 31
0.0409022988795869
210
0.577350269189626
220
-0.5773502691896258
230
0.5773502691896255
 40
0.7502442415183984
 41
0.5089895898080645
 42
2.96441497182286
  0
ELLIPSE
  5
316
330
1AC
100
AcDbEntity
  8
PV-7333
100
AcDbEllipse
 10
-11.53699127617338
 20
27.9819080760417
 30
-1.985444480753917
 11
0.0615698948809197
 21
0.1024721937605065
 31
0.0409022988795869
210
0.577350269189626
220
-0.5773502691896258
230
0.5773502691896255
 40
0.7502442415183984
 41
3.141592653589789
 42
6.283185307179584
  0
ELLIPSE
  5
317
330
1AC
100
AcDbEntity
  8
PV-7333
100
AcDbEllipse
 10
-11.53699127617338
 20
27.9819080760417
 30
-1.985444480753917
 11
0.0615698948809197
 21
0.1024721937605065
 31
0.0409022988795869
210
0.577350269189626
220
-0.5773502691896258
230
0.5773502691896255
 40
0.7502442415183984
 41
0.1771776817669149
 42
0.5089895898080645
  0
ELLIPSE
  5
318
330
1AC
100
AcDbEntity
  8
PV-7333
100
AcDbEllipse
 10
-11.55888291840155
 20
27.9850637811399
 30
-1.960397133427536
 11
0.0615698948809197
 21
0.1024721937605065
 31
0.0409022988795869
210
0.577350269189626
220
-0.5773502691896258
230
0.5773502691896255
 40
0.7502442415183984
 41
0.0
 42
6.283185307179586
  0
ELLIPSE
  5
319
330
1AC
100
AcDbEntity
  8
PV-7333
100
AcDbEllipse
 10
-11.53699127617338
 20
27.9819080760417
 30
-1.985444480753917
 11
0.0615698948809197
 21
0.1024721937605065
 31
0.0409022988795869
210
0.577350269189626
220
-0.5773502691896258
230
0.5773502691896255
 40
0.7502442415183984
 41
0.5089895898080645
 42
2.96441497182286
  0
ELLIPSE
  5
31A
330
1AC
100
AcDbEntity
  8
PV-7333
100
AcDbEllipse
 10
-11.53699127617338
 20
27.9819080760417
 30
-1.985444480753917
 11
0.0615698948809197
 21
0.1024721937605065
 31
0.0409022988795869
210
0.577350269189626
220
-0.5773502691896258
230
0.5773502691896255
 40
0.7502442415183984
 41
3.141592653589789
 42
6.283185307179584
  0
ELLIPSE
  5
31B
330
1AC
100
AcDbEntity
  8
PV-7333
100
AcDbEllipse
 10
-11.53699127617338
 20
27.9819080760417
 30
-1.985444480753917
 11
0.0615698948809197
 21
0.1024721937605065
 31
0.0409022988795869
210
0.577350269189626
220
-0.5773502691896258
230
0.5773502691896255
 40
0.7502442415183984
 41
0.1771776817669149
 42
0.5089895898080645
  0
LINE
  5
31C
330
1AC
100
AcDbEntity
  8
PV-7333
100
AcDbLine
 10
-11.25612309816444
 20
29.04041815848039
 30
-1.207802576324185
 11
-11.24265476512448
 21
29.03983124452361
 31
-1.22185782332091
  0
LINE
  5
31D
330
1AC
100
AcDbEntity
  8
PV-7333
100
AcDbLine
 10
-11.17799070780846
 20
29.18728740177366
 30
-1.139065723386893
 11
-11.15905630468333
 21
29.18646229109186
 31
-1.158825237193831
  0
LINE
  5
31E
330
1AC
100
AcDbEntity
  8
PV-7333
100
AcDbLine
 10
-11.59143102904343
 20
27.89998541013523
 30
-2.012927393790343
 11
-11.57481523594955
 21
27.89926133828159
 31
-2.030267258737874
  0
LINE
  5
31F
330
1AC
100
AcDbEntity
  8
PV-7333
100
AcDbLine
 10
-11.51329863868745
 20
28.04685465342851
 30
-1.944190540853051
 11
-11.48895766537961
 21
28.04579393886839
 31
-1.969592228721008
  0
LINE
  5
320
330
1AC
100
AcDbEntity
  8
PV-7333
100
AcDbLine
 10
-11.87734203663706
 20
29.03470359904641
 30
-0.5922981972855368
 11
-11.8740734273208
 21
29.03456116178849
 31
-0.5957092438597247
  0
LINE
  5
321
330
1AC
100
AcDbEntity
  8
PV-7333
100
AcDbLine
 10
-11.79920964628108
 20
29.18157284233969
 30
-0.5235613443482486
 11
-11.77486867297324
 21
29.18051212777957
 31
-0.5489630322162054
  0
LINE
  5
322
330
1AC
100
AcDbEntity
  8
PV-7333
100
AcDbLine
 10
-10.71679108733737
 20
28.60454582380299
 30
-2.183006921828653
 11
-10.72649962291778
 21
28.59969155601279
 31
-2.178152654038445
  0
LINE
  5
323
330
1AC
100
AcDbEntity
  8
PV-7333
100
AcDbLine
 10
-10.71679108733736
 20
28.47726660318942
 30
-2.310286142442226
 11
-10.72649962291778
 21
28.47241233539921
 31
-2.305431874652018
  0
LINE
  5
324
330
1AC
100
AcDbEntity
  8
PV-7333
100
AcDbLine
 10
-10.92436973110006
 20
27.43938853627759
 30
-3.140585565591353
 11
-10.93407826668048
 21
27.43453426848738
 31
-3.135731297801147
  0
LINE
  5
325
330
1AC
100
AcDbEntity
  8
PV-7333
100
AcDbLine
 10
-10.92436973110007
 20
27.31210931566401
 30
-3.267864786204931
 11
-10.93407826668048
 21
27.30725504787381
 31
-3.263010518414725
  0
LINE
  5
326
330
1AC
100
AcDbEntity
  8
PV-7333
100
AcDbLine
 10
-6.741913440564511
 20
24.59039266501645
 30
-10.17203772738805
 11
-6.708220024916677
 21
24.60723937284037
 31
-10.18888443521197
  0
LINE
  5
327
330
1AC
100
AcDbEntity
  8
PV-7333
100
AcDbLine
 10
-6.741913440564511
 20
24.76907898516085
 30
-9.99335140724365
 11
-6.708220024916677
 21
24.78592569298477
 31
-10.01019811506757
  0
LINE
  5
328
330
1AC
100
AcDbEntity
  8
PV-7333
100
AcDbLine
 10
-6.112058750993851
 20
24.28760204415774
 30
-11.10468303781742
 11
-6.078365335346017
 21
24.30444875198165
 31
-11.12152974564133
  0
LINE
  5
329
330
1AC
100
AcDbEntity
  8
PV-7333
100
AcDbLine
 10
-6.112058750993853
 20
24.46628836430214
 30
-10.92599671767302
 11
-6.078365335346019
 21
24.48313507212606
 31
-10.94284342549693
  0
LINE
  5
32A
330
1AC
100
AcDbEntity
  8
PV-7333
100
AcDbLine
 10
-5.716225417660497
 20
23.89176871082439
 30
-11.89634970448412
 11
-5.682532002012663
 21
23.9086154186483
 31
-11.91319641230804
  0
LINE
  5
32B
330
1AC
100
AcDbEntity
  8
PV-7333
100
AcDbLine
 10
-5.716225417660499
 20
24.07045503096879
 30
-11.71766338433972
 11
-5.682532002012665
 21
24.0873017387927
 31
-11.73451009216364
  0
LINE
  5
32C
330
1AC
100
AcDbEntity
  8
PV-7333
100
AcDbLine
 10
-5.445392084327192
 20
23.62093537749109
 30
-12.43801637115073
 11
-5.411698668679358
 21
23.637782085315
 31
-12.45486307897465
  0
LINE
  5
32D
330
1AC
100
AcDbEntity
  8
PV-7333
100
AcDbLine
 10
-5.445392084327192
 20
23.79962169763549
 30
-12.25933005100633
 11
-5.411698668679358
 21
23.8164684054594
 31
-12.27617675883025
  0
LINE
  5
32E
330
1AC
100
AcDbEntity
  8
PV-7333
100
AcDbLine
 10
-6.078725417660516
 20
22.60426871082444
 30
-12.82134970448407
 11
-6.04503200201268
 21
22.62111541864835
 31
-12.83819641230798
  0
LINE
  5
32F
330
1AC
100
AcDbEntity
  8
PV-7333
100
AcDbLine
 10
-6.078725417660512
 20
22.78295503096883
 30
-12.64266338433966
 11
-6.045032002012678
 21
22.79980173879275
 31
-12.65951009216358
  0
LINE
  5
330
330
1AC
100
AcDbEntity
  8
PV-7333
100
AcDbLine
 10
-6.391225417660487
 20
22.9167687108244
 30
-12.19634970448412
 11
-6.357532002012654
 21
22.93361541864832
 31
-12.21319641230804
  0
LINE
  5
331
330
1AC
100
AcDbEntity
  8
PV-7333
100
AcDbLine
 10
-6.391225417660487
 20
23.0954550309688
 30
-12.01766338433972
 11
-6.357532002012654
 21
23.11230173879271
 31
-12.03451009216364
  0
LINE
  5
332
330
1AC
100
AcDbEntity
  8
PV-7333
100
AcDbLine
 10
-6.737058750993861
 20
23.51260204415777
 30
-11.25468303781739
 11
-6.703365335346028
 21
23.52944875198168
 31
-11.2715297456413
  0
LINE
  5
333
330
1AC
100
AcDbEntity
  8
PV-7333
100
AcDbLine
 10
-6.73705875099386
 20
23.69128836430216
 30
-11.07599671767298
 11
-6.703365335346026
 21
23.70813507212608
 31
-11.0928434254969
  0
LINE
  5
334
330
1AC
100
AcDbEntity
  8
PV-7333
100
AcDbLine
 10
-10.8825648921899
 20
27.30730818535369
 30
-3.314470755425428
 11
-10.84887147654207
 21
27.32415489317761
 31
-3.331317463249346
  0
LINE
  5
335
330
1AC
100
AcDbEntity
  8
PV-7333
100
AcDbLine
 10
-10.8825648921899
 20
27.48599450549809
 30
-3.135784435281028
 11
-10.84887147654207
 21
27.502841213322
 31
-3.152631143104946
  0
LINE
  5
336
330
1AC
100
AcDbEntity
  8
PV-7333
100
AcDbLine
 10
-10.6749862484272
 20
28.47246547287909
 30
-2.356892111662725
 11
-10.64129283277936
 21
28.489312180703
 31
-2.373738819486641
  0
LINE
  5
337
330
1AC
100
AcDbEntity
  8
PV-7333
100
AcDbLine
 10
-10.6749862484272
 20
28.65115179302349
 30
-2.178205791518324
 11
-10.64129283277936
 21
28.66799850084741
 31
-2.19505249934224
  0
LINE
  5
338
330
1AC
100
AcDbEntity
  8
PV-7333
100
AcDbLine
 10
-7.772015285556649
 20
25.6664885169846
 30
-8.065840030427771
 11
-7.788861993380565
 21
25.63279510133676
 31
-8.082686738251688
  0
LINE
  5
339
330
1AC
100
AcDbEntity
  8
PV-7333
100
AcDbLine
 10
-7.59332896541225
 20
25.6664885169846
 30
-8.244526350572172
 11
-7.610175673236166
 21
25.63279510133676
 31
-8.261373058396088
  0
LINE
  5
33A
330
1AC
100
AcDbEntity
  8
PV-7333
100
AcDbLine
 10
-8.272015285556669
 20
26.1664885169846
 30
-7.065840030427739
 11
-8.288861993380585
 21
26.13279510133677
 31
-7.082686738251656
  0
LINE
  5
33B
330
1AC
100
AcDbEntity
  8
PV-7333
100
AcDbLine
 10
-8.093328965412268
 20
26.1664885169846
 30
-7.244526350572138
 11
-8.110175673236188
 21
26.13279510133677
 31
-7.261373058396055
  0
LINE
  5
33C
330
1AC
100
AcDbEntity
  8
PV-7333
100
AcDbLine
 10
-9.072105306135291
 20
25.94130847582736
 30
-6.490930051006368
 11
-9.088952013959207
 21
25.90761506017952
 31
-6.507776758830282
  0
LINE
  5
33D
330
1AC
100
AcDbEntity
  8
PV-7333
100
AcDbLine
 10
-8.893418985990891
 20
25.94130847582736
 30
-6.669616371150763
 11
-8.910265693814807
 21
25.90761506017952
 31
-6.686463078974681
  0
LINE
  5
33E
330
1AC
100
AcDbEntity
  8
PV-7333
100
AcDbLine
 10
-8.563681952223312
 20
25.45815518365126
 30
-7.482506697094438
 11
-8.580528660047228
 21
25.42446176800343
 31
-7.499353404918355
  0
LINE
  5
33F
330
1AC
100
AcDbEntity
  8
PV-7333
100
AcDbLine
 10
-8.384995632078915
 20
25.45815518365126
 30
-7.661193017238839
 11
-8.401842339902831
 21
25.42446176800343
 31
-7.678039725062755
  0
LINE
  5
340
330
1AC
100
AcDbEntity
  8
PV-7333
100
AcDbLine
 10
-11.14607885090144
 20
29.21884761765939
 30
-1.139417364408178
 11
-11.16797049312961
 21
29.2220033227576
 31
-1.114370017081792
  0
LINE
  5
341
330
1AC
100
AcDbEntity
  8
PV-7333
100
AcDbLine
 10
-11.26921864066328
 20
29.01390323013838
 30
-1.221221962167351
 11
-11.29111028289145
 21
29.01705893523659
 31
-1.196174614840971
  0
LINE
  5
342
330
1AC
100
AcDbEntity
  8
PV-7333
100
AcDbLine
 10
-11.47542138129247
 20
28.08438026980221
 30
-1.944542181874336
 11
-11.49731302352064
 21
28.08753597490042
 31
-1.919494834547954
  0
LINE
  5
343
330
1AC
100
AcDbEntity
  8
PV-7333
100
AcDbLine
 10
-11.5985611710543
 20
27.87943588228119
 30
-2.026346779633508
 11
-11.62045281328247
 21
27.8825915873794
 31
-2.001299432307128
  0
ENDBLK
  5
344
330
1AC
100
AcDbEntity
  8
0
100
AcDbBlockEnd
  0
BLOCK
  5
349
330
347
100
AcDbEntity
  8
0
100
AcDbBlockBegin
  2
A$C742A73EE
 70
     0
 10
0.0
 20
0.0
 30
0.0
  3
A$C742A73EE
  1

  0
INSERT
  5
348
330
347
100
AcDbEntity
  8
PV-7333
100
AcDbBlockReference
  2
*U1
 10
11.25177872345333
 20
18.28935312638226
 30
15.63929259460846
 50
134.9999999999999
210
0.0
220
0.816496580927726
230
0.5773502691896259
  0
ENDBLK
  5
34A
330
347
100
AcDbEntity
  8
0
100
AcDbBlockEnd
  0
BLOCK
  5
384
330
383
100
AcDbEntity
  8
0
100
AcDbBlockBegin
  2
BLOCK B
 70
     2
 10
0.0
 20
0.0
 30
0.0
  3
BLOCK B
  1

  0
ATTDEF
  5
385
330
383
100
AcDbEntity
  8
0
100
AcDbText
 10
-41.25151041834649
 20
47.4045405670226
 30
-1.698343055800367
 40
0.063
  1
NER#
100
AcDbAttributeDefinition
  3
NER#
  2
NER#
 70
     0
  0
ATTDEF
  5
386
330
383
100
AcDbEntity
  8
0
100
AcDbText
 10
-40.23397421984515
 20
46.44433654575894
 30
0.0
 40
0.063
  1
SUPT'D
100
AcDbAttributeDefinition
  3
SUPT'D
  2
SUPT'D
 70
     0
  0
ATTDEF
  5
387
330
383
100
AcDbEntity
  8
0
100
AcDbText
 10
-40.23397421984515
 20
46.64778125040606
 30
0.0
 40
0.063
  1
SUPT'G
100
AcDbAttributeDefinition
  3
SUPT'G
  2
SUPT'G
 70
     0
  0
ATTDEF
  5
388
330
383
100
AcDbEntity
  8
0
100
AcDbText
 10
-41.36819624841514
 20
47.14975640350615
 30
0.0
 40
0.063
  1
PAT
100
AcDbAttributeDefinition
  3
PAT
  2
PAT
 70
     0
  0
ATTDEF
  5
389
330
383
100
AcDbEntity
  8
0
100
AcDbText
 10
-41.36819624841514
 20
47.25824615315045
 30
0.0
 40
0.063
  1
PAT
100
AcDbAttributeDefinition
  3
PAT
  2
PAT
 70
     0
  0
ATTDEF
  5
38A
330
383
100
AcDbEntity
  8
0
100
AcDbText
 10
-41.36991636909268
 20
47.96982993274307
 30
0.0
 40
0.063
  1

100
AcDbAttributeDefinition
  3
Code Listings:
  2
CODE
 70
     0
  0
ATTDEF
  5
38B
330
383
100
AcDbEntity
  8
0
100
AcDbText
 10
-40.23380005607917
 20
46.54400432018777
 30
0.0
 40
0.063
  1

100
AcDbAttributeDefinition
  3
ADD'T FAST
  2
ADD'TFAST
 70
     0
  0
ATTDEF
  5
38C
330
383
100
AcDbEntity
  8
0
100
AcDbText
 10
-41.25151041834649
 20
47.50009009783386
 30
-1.698343055800367
 40
0.063
  1
NER#
100
AcDbAttributeDefinition
  3
NER#
  2
NER#
 70
     0
  0
ATTDEF
  5
38D
330
383
100
AcDbEntity
  8
0
100
AcDbText
 10
-41.25151041834649
 20
47.58907388472954
 30
-1.698343055800367
 40
0.063
  1
NER#
100
AcDbAttributeDefinition
  3
NER#
  2
NER#
 70
     0
  0
ATTDEF
  5
38E
330
383
100
AcDbEntity
  8
0
100
AcDbText
 10
-41.25151041834649
 20
47.68229498971455
 30
-1.698343055800367
 40
0.063
  1
NER#
100
AcDbAttributeDefinition
  3
NER#
  2
NER#
 70
     0
  0
ATTDEF
  5
38F
330
383
100
AcDbEntity
  8
0
100
AcDbText
 10
-41.25151041834649
 20
47.77339743565489
 30
-1.698343055800367
 40
0.063
  1
NER#
100
AcDbAttributeDefinition
  3
NER#
  2
NER#
 70
     0
  0
ATTDEF
  5
390
330
383
100
AcDbEntity
  8
0
100
AcDbText
 10
-41.25151041834649
 20
47.86555921111756
 30
-1.698343055800367
 40
0.063
  1
NER#
100
AcDbAttributeDefinition
  3
NER 505
  2
NER#
 70
     0
  0
ATTDEF
  5
391
330
383
100
AcDbEntity
  8
0
100
AcDbText
 10
-41.36570967508002
 20
46.442263198057
 30
-0.8491715279001837
 40
0.063
  1
SUPPORTED
100
AcDbAttributeDefinition
  3
SUPPORTED
  2
SUPPORTED
 70
     0
  0
ATTDEF
  5
392
330
383
100
AcDbEntity
  8
0
100
AcDbText
 10
-41.36947515490731
 20
46.64551408095522
 30
-0.8491715279001837
 40
0.063
  1
SUPPORTING
100
AcDbAttributeDefinition
  3
SUPPORTING
  2
SUPPORTING
 70
     0
  0
ATTDEF
  5
393
330
383
100
AcDbEntity
  8
0
100
AcDbText
 10
-41.36947515490731
 20
46.78336204979565
 30
-0.8491715279001837
 40
0.094
  1
Fast
100
AcDbAttributeDefinition
  3
Fasteners
  2
FAST
 70
     0
  0
ATTDEF
  5
394
330
383
100
AcDbEntity
  8
0
100
AcDbText
 10
-41.36947515490731
 20
46.97577886657069
 30
-0.8491715279001837
 40
0.063
  1
EXTDESC
100
AcDbAttributeDefinition
  3
ADDITION DESC
  2
EXTDESC
 70
     0
  0
ATTDEF
  5
395
330
383
100
AcDbEntity
  8
0
100
AcDbText
 10
-41.36951114283696
 20
48.35178137839239
 30
-1.698343055800367
 40
0.094
  1
DESC
100
AcDbAttributeDefinition
  3
DESC OF PART
  2
DESC
 70
     0
  0
ATTDEF
  5
396
330
383
100
AcDbEntity
  8
0
100
AcDbText
 10
-41.36951114283696
 20
48.51124346942163
 30
-1.698343055800367
 40
0.094
  1
DESC
100
AcDbAttributeDefinition
  3
DESC OF PART
  2
DESC
 70
     0
  0
ATTDEF
  5
397
330
383
100
AcDbEntity
  8
0
100
AcDbText
 10
-41.36947515490731
 20
48.7186572548389
 30
-0.8491715279001837
 40
0.156
  1
PART#
100
AcDbAttributeDefinition
  3
ENTER PART#
  2
PART#
 70
     0
  0
ATTDEF
  5
398
330
383
100
AcDbEntity
  8
0
100
AcDbText
 10
-41.36968544444642
 20
48.18672647848992
 30
0.0
 40
0.09375
  1

100
AcDbAttributeDefinition
  3
Ref.#
  2
REF.#
 70
     0
  0
TEXT
  5
399
330
383
100
AcDbEntity
  8
0
100
AcDbText
 10
-39.16381375747742
 20
46.25284366216868
 30
0.0
 40
0.0398157395393663
  1
TM
100
AcDbText
  0
TEXT
  5
39A
330
383
100
AcDbEntity
  8
0
100
AcDbText
 10
-41.09405610488397
 20
46.12508229623721
 30
0.0
 40
0.0254123629763196
  1
C
100
AcDbText
  0
CIRCLE
  5
39B
330
383
100
AcDbEntity
  8
0
100
AcDbCircle
 10
-41.085433448715
 20
46.13833620609492
 30
0.0
 40
0.0214703793180158
  0
TEXT
  5
39C
330
383
100
AcDbEntity
  8
0
100
AcDbText
 10
-41.07787067428804
 20
46.21044338549782
 30
0.0
 40
0.078125
  1
USP Structural Connectors
100
AcDbText
  0
TEXT
  5
39D
330
383
100
AcDbEntity
  8
0
100
AcDbText
 10
-41.08564749814343
 20
46.11305792447839
 30
0.0
 40
0.046875
  1
 Copyright 2004 United Steel Products Company
100
AcDbText
  0
LWPOLYLINE
  5
39E
330
383
100
AcDbEntity
  8
0
100
AcDbPolyline
 90
        4
 70
     1
 43
0.0
 10
-41.59827985322625
 20
46.05530417144724
 10
-41.59827985322625
 20
49.05530417144724
 10
-38.59827985322625
 20
49.05530417144724
 10
-38.59827985322625
 20
46.05530417144724
  0
ENDBLK
  5
39F
330
383
100
AcDbEntity
  8
0
100
AcDbBlockEnd
  0
BLOCK
  5
3E0
330
3DF
100
AcDbEntity
  8
0
100
AcDbBlockBegin
  2
*U4
 70
     1
 10
0.0
 20
0.0
 30
0.0
  3
*U4
  1

  0
LINE
  5
3E1
330
3DF
100
AcDbEntity
  8
PV-735A
100
AcDbLine
 10
25.34104958611767
 20
7.024298204807816
 30
11.7251438555284
 11
25.75300541724304
 21
7.848209867058552
 31
12.13709968665377
  0
LINE
  5
3E2
330
3DF
100
AcDbEntity
  8
PV-735A
100
AcDbLine
 10
25.25300541724304
 20
8.348209867058553
 30
13.13709968665377
 11
24.84104958611768
 21
7.524298204807815
 31
12.7251438555284
  0
LINE
  5
3E3
330
3DF
100
AcDbEntity
  8
PV-735A
100
AcDbLine
 10
25.75300541724304
 20
7.848209867058552
 30
12.13709968665377
 11
25.25300541724304
 21
8.348209867058553
 31
13.13709968665377
  0
LINE
  5
3E4
330
3DF
100
AcDbEntity
  8
PV-735A
100
AcDbLine
 10
24.90014588968546
 20
8.445385367472015
 30
13.58713471462482
 11
25.25300541724304
 21
8.348209867058553
 31
13.13709968665377
  0
LINE
  5
3E5
330
3DF
100
AcDbEntity
  8
PV-735A
100
AcDbLine
 10
27.29288871635337
 20
9.584015547222591
 30
12.33302206770748
 11
25.5371872351879
 21
8.064028049113691
 31
12.56873605076405
  0
LINE
  5
3E6
330
3DF
100
AcDbEntity
  8
PV-735A
100
AcDbLine
 10
26.79288871635337
 20
10.08401554722259
 30
13.33302206770748
 11
24.90014588968546
 21
8.445385367472015
 31
13.58713471462482
  0
LINE
  5
3E7
330
3DF
100
AcDbEntity
  8
PV-735A
100
AcDbLine
 10
27.29288871635337
 20
9.584015547222591
 30
12.33302206770748
 11
26.79288871635337
 21
10.08401554722259
 31
13.33302206770748
  0
LINE
  5
3E8
330
3DF
100
AcDbEntity
  8
PV-735A
100
AcDbLine
 10
26.17381828069909
 20
10.18983559397063
 30
14.05791255010981
 11
26.79288871635337
 21
10.08401554722259
 31
13.33302206770748
  0
LINE
  5
3E9
330
3DF
100
AcDbEntity
  8
PV-735A
100
AcDbLine
 10
27.17438291945101
 20
10.69096487147448
 30
13.55847718886173
 11
26.84490174366783
 21
10.03200251990812
 31
13.22899601307855
  0
LINE
  5
3EA
330
3DF
100
AcDbEntity
  8
PV-735A
100
AcDbLine
 10
26.67438291945101
 20
11.19096487147448
 30
14.55847718886173
 11
26.17381828069909
 21
10.18983559397063
 31
14.05791255010981
  0
LINE
  5
3EB
330
3DF
100
AcDbEntity
  8
PV-735A
100
AcDbLine
 10
27.17438291945101
 20
10.69096487147448
 30
13.55847718886173
 11
26.67438291945101
 21
11.19096487147448
 31
14.55847718886173
  0
LINE
  5
3EC
330
3DF
100
AcDbEntity
  8
PV-735A
100
AcDbLine
 10
6.674382919451009
 20
1.190964871474481
 30
24.55847718886174
 11
11.63284940478052
 21
3.670198114139235
 31
22.07924394619698
  0
LINE
  5
3ED
330
3DF
100
AcDbEntity
  8
PV-735A
100
AcDbLine
 10
15.51096355543493
 20
5.609255189466439
 30
20.14018687086978
 11
26.67438291945101
 21
11.19096487147448
 31
14.55847718886173
  0
LINE
  5
3EE
330
3DF
100
AcDbEntity
  8
PV-735A
100
AcDbLine
 10
6.173818280699087
 20
0.1898355939706349
 30
24.05791255010981
 11
6.674382919451009
 21
1.190964871474481
 31
24.55847718886174
  0
LINE
  5
3EF
330
3DF
100
AcDbEntity
  8
PV-735A
100
AcDbLine
 10
5.000940825611225
 20
-0.8119583981484854
 30
24.22899601307856
 11
6.173818280699087
 21
0.1898355939706349
 31
24.05791255010981
  0
LINE
  5
3F0
330
3DF
100
AcDbEntity
  8
PV-735A
100
AcDbLine
 10
5.500940825611223
 20
-1.311958398148483
 30
23.22899601307856
 11
5.611742906277084
 21
-1.335655273375374
 31
23.09449705718581
  0
LINE
  5
3F1
330
3DF
100
AcDbEntity
  8
PV-735A
100
AcDbLine
 10
5.500940825611223
 20
-1.311958398148483
 30
23.22899601307856
 11
5.000940825611225
 21
-0.8119583981484854
 31
24.22899601307856
  0
LINE
  5
3F2
330
3DF
100
AcDbEntity
  8
PV-735A
100
AcDbLine
 10
5.970671963723637
 20
-1.019351595508899
 30
23.05187167760573
 11
5.000940825611225
 21
-0.8119583981484854
 31
24.22899601307856
  0
LINE
  5
3F3
330
3DF
100
AcDbEntity
  8
PV-735A
100
AcDbLine
 10
5.253005417243048
 20
-1.651790132941448
 30
23.13709968665377
 11
5.970671963723637
 21
-1.019351595508899
 31
23.05187167760573
  0
LINE
  5
3F4
330
3DF
100
AcDbEntity
  8
PV-735A
100
AcDbLine
 10
4.841049586117676
 20
-2.475701795192186
 30
22.7251438555284
 11
5.253005417243048
 21
-1.651790132941448
 31
23.13709968665377
  0
LINE
  5
3F5
330
3DF
100
AcDbEntity
  8
PV-735A
100
AcDbLine
 10
25.34104958611767
 20
7.024298204807816
 30
11.7251438555284
 11
24.84104958611768
 21
7.524298204807815
 31
12.7251438555284
  0
LINE
  5
3F6
330
3DF
100
AcDbEntity
  8
PV-735A
100
AcDbLine
 10
5.341049586117675
 20
-2.975701795192184
 30
21.7251438555284
 11
10.77189185074656
 21
-0.2602806628777419
 31
19.00972272321396
  0
LINE
  5
3F7
330
3DF
100
AcDbEntity
  8
PV-735A
100
AcDbLine
 10
14.37628814682327
 20
1.541917485160611
 30
17.2075245751756
 11
14.67002865316744
 21
1.688787738332699
 31
17.06065432200351
  0
LINE
  5
3F8
330
3DF
100
AcDbEntity
  8
PV-735A
100
AcDbLine
 10
16.20469531983412
 20
2.456121071666037
 30
16.29332098867018
 11
25.34104958611767
 21
7.024298204807816
 31
11.7251438555284
  0
LINE
  5
3F9
330
3DF
100
AcDbEntity
  8
PV-735A
100
AcDbLine
 10
5.341049586117675
 20
-2.975701795192184
 30
21.7251438555284
 11
4.841049586117676
 21
-2.475701795192186
 31
22.7251438555284
  0
LINE
  5
3FA
330
3DF
100
AcDbEntity
  8
PV-735A
100
AcDbLine
 10
24.84104958611768
 20
7.524298204807815
 30
12.7251438555284
 11
15.70200548759432
 21
2.954776155546136
 31
17.29466590479008
  0
LINE
  5
3FB
330
3DF
100
AcDbEntity
  8
PV-735A
100
AcDbLine
 10
14.15750032260964
 20
2.182523573053796
 30
18.06691848728242
 11
13.87628814682322
 21
2.041917485160585
 31
18.20752457517563
  0
LINE
  5
3FC
330
3DF
100
AcDbEntity
  8
PV-735A
100
AcDbLine
 10
10.97390496366414
 20
0.5907258935810465
 30
19.65871616675517
 11
4.841049586117676
 21
-2.475701795192186
 31
22.7251438555284
  0
LINE
  5
3FD
330
3DF
100
AcDbEntity
  8
PV-735A
100
AcDbLine
 10
25.84104958611768
 20
6.524298204807815
 30
10.7251438555284
 11
26.25300541724304
 21
7.348209867058552
 31
11.13709968665377
  0
LINE
  5
3FE
330
3DF
100
AcDbEntity
  8
PV-735A
100
AcDbLine
 10
25.75300541724304
 20
7.848209867058552
 30
12.13709968665377
 11
25.34104958611767
 21
7.024298204807816
 31
11.7251438555284
  0
LINE
  5
3FF
330
3DF
100
AcDbEntity
  8
PV-735A
100
AcDbLine
 10
26.25300541724304
 20
7.348209867058552
 30
11.13709968665377
 11
25.75300541724304
 21
7.848209867058552
 31
12.13709968665377
  0
LINE
  5
400
330
3DF
100
AcDbEntity
  8
PV-735A
100
AcDbLine
 10
27.79288871635337
 20
9.084015547222591
 30
11.33302206770748
 11
26.0371872351879
 21
7.564028049113692
 31
11.56873605076405
  0
LINE
  5
401
330
3DF
100
AcDbEntity
  8
PV-735A
100
AcDbLine
 10
27.29288871635337
 20
9.584015547222591
 30
12.33302206770748
 11
25.5371872351879
 21
8.064028049113691
 31
12.56873605076405
  0
LINE
  5
402
330
3DF
100
AcDbEntity
  8
PV-735A
100
AcDbLine
 10
27.79288871635337
 20
9.084015547222591
 30
11.33302206770748
 11
27.29288871635337
 21
9.584015547222591
 31
12.33302206770748
  0
LINE
  5
403
330
3DF
100
AcDbEntity
  8
PV-735A
100
AcDbLine
 10
27.67438291945101
 20
10.19096487147448
 30
12.55847718886173
 11
27.34490174366783
 21
9.532002519908129
 31
12.22899601307856
  0
LINE
  5
404
330
3DF
100
AcDbEntity
  8
PV-735A
100
AcDbLine
 10
27.17438291945101
 20
10.69096487147448
 30
13.55847718886173
 11
26.84490174366783
 21
10.03200251990812
 31
13.22899601307855
  0
LINE
  5
405
330
3DF
100
AcDbEntity
  8
PV-735A
100
AcDbLine
 10
27.67438291945101
 20
10.19096487147448
 30
12.55847718886173
 11
27.17438291945101
 21
10.69096487147448
 31
13.55847718886173
  0
LINE
  5
406
330
3DF
100
AcDbEntity
  8
PV-735A
100
AcDbLine
 10
5.565440960811713
 20
-1.376458533348973
 30
23.09999574267759
 11
5.500940825611223
 21
-1.311958398148483
 31
23.22899601307856
  0
LINE
  5
407
330
3DF
100
AcDbEntity
  8
PV-735A
100
AcDbLine
 10
5.611742906277084
 20
-1.335655273375374
 30
23.09449705718581
 11
5.500940825611223
 21
-1.311958398148483
 31
23.22899601307856
  0
LINE
  5
408
330
3DF
100
AcDbEntity
  8
PV-735A
100
AcDbLine
 10
25.84104958611768
 20
6.524298204807815
 30
10.7251438555284
 11
25.34104958611767
 21
7.024298204807816
 31
11.7251438555284
  0
LINE
  5
409
330
3DF
100
AcDbEntity
  8
PV-735A
100
AcDbLine
 10
5.841049586117676
 20
-3.475701795192186
 30
20.7251438555284
 11
10.56987873782898
 21
-1.111287219336535
 31
18.36072927967275
  0
LINE
  5
40A
330
3DF
100
AcDbEntity
  8
PV-735A
100
AcDbLine
 10
14.36622258223535
 20
0.7868847028666526
 30
16.46255735746956
 11
15.17002865316746
 21
1.188787738332708
 31
16.06065432200351
  0
LINE
  5
40B
330
3DF
100
AcDbEntity
  8
PV-735A
100
AcDbLine
 10
16.70469531983413
 20
1.956121071666043
 30
15.29332098867017
 11
25.84104958611768
 21
6.524298204807815
 31
10.7251438555284
  0
LINE
  5
40C
330
3DF
100
AcDbEntity
  8
PV-735A
100
AcDbLine
 10
5.841049586117676
 20
-3.475701795192186
 30
20.7251438555284
 11
5.341049586117675
 21
-2.975701795192184
 31
21.7251438555284
  0
LINE
  5
40D
330
3DF
100
AcDbEntity
  8
PV-735A
100
AcDbLine
 10
25.34104958611767
 20
7.024298204807816
 30
11.7251438555284
 11
16.20469531983412
 21
2.456121071666037
 31
16.29332098867018
  0
LINE
  5
40E
330
3DF
100
AcDbEntity
  8
PV-735A
100
AcDbLine
 10
14.67002865316744
 20
1.688787738332699
 30
17.06065432200351
 11
14.37628814682327
 21
1.541917485160611
 31
17.2075245751756
  0
LINE
  5
40F
330
3DF
100
AcDbEntity
  8
PV-735A
100
AcDbLine
 10
10.77189185074656
 20
-0.2602806628777419
 30
19.00972272321396
 11
5.341049586117675
 21
-2.975701795192184
 31
21.7251438555284
  0
LINE
  5
410
330
3DF
100
AcDbEntity
  8
PV-735A
100
AcDbLine
 10
14.22412748364425
 20
0.188290587884504
 30
16.00605834107852
 11
17.87242977318652
 21
-3.460011701657766
 31
8.709453761993982
  0
LINE
  5
411
330
3DF
100
AcDbEntity
  8
PV-735A
100
AcDbLine
 10
18.87242977318652
 20
-2.960011701657766
 30
8.209453761993982
 11
14.87242977318652
 21
1.039988298342237
 31
16.20945376199397
  0
LINE
  5
412
330
3DF
100
AcDbEntity
  8
PV-735A
100
AcDbLine
 10
17.87242977318652
 20
-3.460011701657766
 30
8.709453761993982
 11
18.87242977318652
 21
-2.960011701657766
 31
8.209453761993982
  0
LINE
  5
413
330
3DF
100
AcDbEntity
  8
PV-735A
100
AcDbLine
 10
19.45084207429449
 20
-1.803187099441807
 30
8.787866063101958
 11
18.87242977318652
 21
-2.960011701657766
 31
8.209453761993982
  0
LINE
  5
414
330
3DF
100
AcDbEntity
  8
PV-735A
100
AcDbLine
 10
20.05339746824878
 20
-1.944074022524061
 30
8.044423746065428
 11
19.45084207429449
 21
-1.803187099441807
 31
8.787866063101958
  0
LINE
  5
415
330
3DF
100
AcDbEntity
  8
PV-735A
100
AcDbLine
 10
19.15606566092157
 20
-2.392739926187664
 30
8.49308964972903
 11
20.05339746824878
 21
-1.944074022524061
 31
8.044423746065428
  0
LINE
  5
416
330
3DF
100
AcDbEntity
  8
PV-735A
100
AcDbLine
 10
19.57964080880992
 20
-0.4431415672221775
 30
10.01911286080617
 11
20.05339746824878
 21
-1.944074022524061
 31
8.044423746065428
  0
LINE
  5
417
330
3DF
100
AcDbEntity
  8
PV-735A
100
AcDbLine
 10
20.22367084244067
 20
-0.2575295631494736
 30
9.560694831248129
 11
19.57964080880992
 21
-0.4431415672221775
 31
10.01911286080617
  0
LINE
  5
418
330
3DF
100
AcDbEntity
  8
PV-735A
100
AcDbLine
 10
19.6168265808234
 20
-0.5609516939581081
 30
9.864116962056764
 11
20.22367084244067
 21
-0.2575295631494736
 31
9.560694831248129
  0
LINE
  5
419
330
3DF
100
AcDbEntity
  8
PV-735A
100
AcDbLine
 10
20.70576310651985
 20
0.7066549650089016
 30
10.04278709532731
 11
20.22367084244067
 21
-0.2575295631494736
 31
9.560694831248129
  0
LINE
  5
41A
330
3DF
100
AcDbEntity
  8
PV-735A
100
AcDbLine
 10
18.53909643985318
 20
2.873321631675569
 30
14.37612042866065
 11
20.70576310651985
 21
0.7066549650089016
 31
10.04278709532731
  0
LINE
  5
41B
330
3DF
100
AcDbEntity
  8
PV-735A
100
AcDbLine
 10
14.36622258223535
 20
0.7868847028666526
 30
16.46255735746956
 11
14.87242977318652
 21
1.039988298342237
 31
16.20945376199397
  0
LINE
  5
41C
330
3DF
100
AcDbEntity
  8
PV-735A
100
AcDbLine
 10
10.40571878049794
 20
-5.515462706497698
 30
14.12071374984262
 11
12.39737947240778
 21
-7.507123398407353
 31
10.13739236602313
  0
LINE
  5
41D
330
3DF
100
AcDbEntity
  8
PV-735A
100
AcDbLine
 10
9.405718780497977
 20
-6.015462706497698
 30
14.62071374984258
 11
11.39737947240781
 21
-8.007123398407353
 31
10.63739236602309
  0
LINE
  5
41E
330
3DF
100
AcDbEntity
  8
PV-735A
100
AcDbLine
 10
14.53647479064886
 20
11.88588514167002
 30
27.39130558785942
 11
13.01445172082367
 21
5.474164670676493
 31
22.50160818669108
  0
LINE
  5
41F
330
3DF
100
AcDbEntity
  8
PV-735A
100
AcDbLine
 10
12.52133967922782
 20
3.396865952755833
 30
20.91742151036627
 11
10.40571878049794
 21
-5.515462706497704
 31
14.12071374984261
  0
LINE
  5
420
330
3DF
100
AcDbEntity
  8
PV-735A
100
AcDbLine
 10
10.40571878049794
 20
-5.515462706497698
 30
14.12071374984262
 11
9.405718780497906
 21
-6.015462706497734
 31
14.62071374984262
  0
LINE
  5
421
330
3DF
100
AcDbEntity
  8
PV-735A
100
AcDbLine
 10
13.5364747906489
 20
11.38588514167002
 30
27.89130558785938
 11
12.14029683649933
 21
5.504303615577367
 31
23.4059020159163
  0
LINE
  5
422
330
3DF
100
AcDbEntity
  8
PV-735A
100
AcDbLine
 10
11.70507204644073
 20
3.670862486315753
 30
22.00768567671328
 11
9.405718780497977
 21
-6.015462706497705
 31
14.62071374984258
  0
LINE
  5
423
330
3DF
100
AcDbEntity
  8
PV-735A
100
AcDbLine
 10
15.84463124006717
 20
11.74716909678862
 30
25.94443309355972
 11
14.53647479064886
 21
11.88588514167002
 31
27.39130558785942
  0
LINE
  5
424
330
3DF
100
AcDbEntity
  8
PV-735A
100
AcDbLine
 10
14.53647479064886
 20
11.88588514167002
 30
27.39130558785942
 11
13.53647479064886
 21
11.38588514167
 31
27.89130558785941
  0
LINE
  5
425
330
3DF
100
AcDbEntity
  8
PV-735A
100
AcDbLine
 10
16.10868877137128
 20
12.15163991336867
 30
26.08484637883565
 11
15.84463124006717
 21
11.74716909678862
 31
25.94443309355972
  0
LINE
  5
426
330
3DF
100
AcDbEntity
  8
PV-735A
100
AcDbLine
 10
16.19033420400295
 20
11.08829849707819
 30
24.9398595299135
 11
16.10868877137128
 21
12.15163991336867
 31
26.08484637883565
  0
LINE
  5
427
330
3DF
100
AcDbEntity
  8
PV-735A
100
AcDbLine
 10
16.10868877137128
 20
12.15163991336867
 30
26.08484637883565
 11
15.39508608102073
 21
11.79483856819339
 31
26.44164772401091
  0
LINE
  5
428
330
3DF
100
AcDbEntity
  8
PV-735A
100
AcDbLine
 10
16.54161208268403
 20
11.67540649180132
 30
25.17568964595555
 11
16.19033420400295
 21
11.08829849707819
 31
24.9398595299135
  0
LINE
  5
429
330
3DF
100
AcDbEntity
  8
PV-735A
100
AcDbLine
 10
16.94090405462427
 20
11.63306583512754
 30
24.73405701734153
 11
16.54161208268403
 21
11.67540649180132
 31
25.17568964595555
  0
LINE
  5
42A
330
3DF
100
AcDbEntity
  8
PV-735A
100
AcDbLine
 10
16.54161208268403
 20
11.67540649180132
 30
25.17568964595555
 11
16.15990886410176
 21
11.48455488251017
 31
25.36654125524668
  0
LINE
  5
42B
330
3DF
100
AcDbEntity
  8
PV-735A
100
AcDbLine
 10
15.37628814682321
 20
5.041917485160597
 30
19.70752457517565
 11
16.94090405462427
 21
11.63306583512754
 31
24.73405701734153
  0
LINE
  5
42C
330
3DF
100
AcDbEntity
  8
PV-735A
100
AcDbLine
 10
15.37628814682321
 20
5.041917485160597
 30
19.70752457517565
 11
14.34403381776731
 21
2.977408827048805
 31
18.67527024611975
  0
LINE
  5
42D
330
3DF
100
AcDbEntity
  8
PV-735A
100
AcDbLine
 10
13.95170048443397
 20
2.192742160382129
 30
18.28293691278641
 11
13.87628814682321
 21
2.041917485160597
 31
18.20752457517565
  0
LINE
  5
42E
330
3DF
100
AcDbEntity
  8
PV-735A
100
AcDbLine
 10
14.51300037113766
 20
1.405205260846217
 30
16.93410012654682
 11
13.87628814682321
 21
2.041917485160597
 31
18.20752457517565
  0
LINE
  5
42F
330
3DF
100
AcDbEntity
  8
PV-735A
100
AcDbLine
 10
12.39737947240778
 20
-7.507123398407353
 30
10.13739236602313
 11
11.3973794724078
 21
-8.007123398407362
 31
10.6373923660231
  0
LINE
  5
430
330
3DF
100
AcDbEntity
  8
PV-735A
100
AcDbLine
 10
12.39737947240778
 20
-7.507123398407353
 30
10.13739236602313
 11
14.51300037113767
 21
1.405205260846219
 31
16.93410012654682
  0
LINE
  5
431
330
3DF
100
AcDbEntity
  8
PV-735A
100
AcDbLine
 10
13.72001018965193
 20
3.440806201848229
 30
19.76269124903456
 11
13.72734352298525
 21
3.444472868514891
 31
19.7590245823679
  0
ELLIPSE
  5
432
330
3DF
100
AcDbEntity
  8
PV-735A
100
AcDbEllipse
 10
13.63884352298526
 20
3.267472868514907
 30
19.6705245823679
 11
0.0
 21
0.1877368504050283
 31
0.1877368504050285
210
0.577350269189626
220
-0.577350269189626
230
0.5773502691896257
 40
0.577350269189626
 41
5.185949645292637
 42
5.497787143782157
  0
ELLIPSE
  5
433
330
3DF
100
AcDbEntity
  8
PV-735A
100
AcDbEllipse
 10
12.63168945361597
 20
5.265106423524603
 30
22.67531220674689
 11
0.0390661951779896
 21
0.0734346216466356
 31
0.0343684264686459
210
0.577350269189626
220
-0.5773502691896258
230
0.5773502691896258
 40
0.7361005317151218
 41
0.0
 42
6.283185307179586
  0
ELLIPSE
  5
434
330
3DF
100
AcDbEntity
  8
PV-735A
100
AcDbEllipse
 10
12.29638152273698
 20
4.124673675179444
 30
21.87018738928072
 11
0.0390661951779897
 21
0.0734346216466356
 31
0.0343684264686459
210
0.5773502691896259
220
-0.5773502691896258
230
0.577350269189626
 40
0.7361005317151216
 41
0.0
 42
6.283185307179586
  0
ELLIPSE
  5
435
330
3DF
100
AcDbEntity
  8
PV-735A
100
AcDbEllipse
 10
13.12224673368464
 20
4.687305589103575
 30
21.60695409225719
 11
0.0
 21
-0.0636396103067893
 31
-0.0636396103067893
210
0.5773502691896258
220
-0.5773502691896255
230
0.5773502691896258
 40
0.5773502691896258
 41
0.8670936394004485
 42
2.274499014189343
  0
ELLIPSE
  5
436
330
3DF
100
AcDbEntity
  8
PV-735A
100
AcDbEllipse
 10
12.91466808992194
 20
3.522148301578171
 30
20.64937544849449
 11
0.0
 21
-0.0636396103067893
 31
-0.0636396103067893
210
0.5773502691896258
220
-0.5773502691896255
230
0.5773502691896258
 40
0.5773502691896258
 41
0.8670936394004485
 42
2.274499014189343
  0
ELLIPSE
  5
437
330
3DF
100
AcDbEntity
  8
PV-735A
100
AcDbEllipse
 10
13.63151018965193
 20
3.263806201848241
 30
19.67419124903456
 11
0.0
 21
0.1877368504050283
 31
0.1877368504050285
210
0.577350269189626
220
-0.577350269189626
230
0.5773502691896257
 40
0.577350269189626
 41
5.272779893480478
 42
5.49778714378217
  0
ELLIPSE
  5
438
330
3DF
100
AcDbEntity
  8
PV-735A
100
AcDbEllipse
 10
17.089986208214
 20
0.8225661145742684
 30
13.77447514319853
 11
0.0
 21
-0.0463154941814283
 31
-0.0463154941814283
210
0.5773502691896254
220
-0.5773502691896259
230
0.5773502691896259
 40
0.5773502691896257
 41
6.270384287901003
 42
8.639379797371958
  0
ELLIPSE
  5
439
330
3DF
100
AcDbEntity
  8
PV-735A
100
AcDbEllipse
 10
17.089986208214
 20
0.8225661145742684
 30
13.77447514319853
 11
0.0
 21
-0.0463154941814283
 31
-0.0463154941814283
210
0.5773502691896254
220
-0.5773502691896259
230
0.5773502691896259
 40
0.5773502691896257
 41
2.356194490192371
 42
3.154393672868434
  0
ELLIPSE
  5
43A
330
3DF
100
AcDbEntity
  8
PV-735A
100
AcDbEllipse
 10
17.10683291603791
 20
0.8309894684862264
 30
13.76605178928657
 11
0.0
 21
0.0893431600721996
 31
0.0893431600721996
210
0.577350269189626
220
-0.5773502691896259
230
0.5773502691896259
 40
0.5773502691896258
 41
5.497787143782123
 42
5.996428754968019
  0
ELLIPSE
  5
43B
330
3DF
100
AcDbEntity
  8
PV-735A
100
AcDbEllipse
 10
17.10683291603791
 20
0.8309894684862264
 30
13.76605178928657
 11
0.0
 21
0.0893431600721996
 31
0.0893431600721996
210
0.577350269189626
220
-0.5773502691896259
230
0.5773502691896259
 40
0.5773502691896258
 41
-0.0000000000000297
 42
3.141592653589783
  0
ELLIPSE
  5
43C
330
3DF
100
AcDbEntity
  8
PV-735A
100
AcDbEllipse
 10
17.10683291603791
 20
0.8309894684862264
 30
13.76605178928657
 11
0.0
 21
0.0893431600721996
 31
0.0893431600721996
210
0.577350269189626
220
-0.5773502691896259
230
0.5773502691896259
 40
0.5773502691896258
 41
3.42834920580136
 42
5.497787143782123
  0
ELLIPSE
  5
43D
330
3DF
100
AcDbEntity
  8
PV-735A
100
AcDbEllipse
 10
17.14052633168574
 20
0.8478361763101442
 30
13.74920508146265
 11
0.0
 21
0.0893431600721996
 31
0.0893431600721996
210
0.577350269189626
220
-0.5773502691896259
230
0.5773502691896259
 40
0.5773502691896258
 41
0.0
 42
6.283185307179586
  0
ELLIPSE
  5
43E
330
3DF
100
AcDbEntity
  8
PV-735A
100
AcDbEllipse
 10
17.10683291603791
 20
0.8309894684862264
 30
13.76605178928657
 11
0.0
 21
0.0893431600721996
 31
0.0893431600721996
210
0.577350269189626
220
-0.5773502691896259
230
0.5773502691896259
 40
0.5773502691896258
 41
5.497787143782123
 42
5.996428754968019
  0
ELLIPSE
  5
43F
330
3DF
100
AcDbEntity
  8
PV-735A
100
AcDbEllipse
 10
17.10683291603791
 20
0.8309894684862264
 30
13.76605178928657
 11
0.0
 21
0.0893431600721996
 31
0.0893431600721996
210
0.577350269189626
220
-0.5773502691896259
230
0.5773502691896259
 40
0.5773502691896258
 41
-0.0000000000000297
 42
3.141592653589783
  0
ELLIPSE
  5
440
330
3DF
100
AcDbEntity
  8
PV-735A
100
AcDbEllipse
 10
17.10683291603791
 20
0.8309894684862264
 30
13.76605178928657
 11
0.0
 21
0.0893431600721996
 31
0.0893431600721996
210
0.577350269189626
220
-0.5773502691896259
230
0.5773502691896259
 40
0.5773502691896258
 41
3.42834920580136
 42
5.497787143782123
  0
ELLIPSE
  5
441
330
3DF
100
AcDbEntity
  8
PV-735A
100
AcDbEllipse
 10
17.71984089778466
 20
0.5197754937155584
 30
12.84182983276916
 11
0.0
 21
-0.0463154941814283
 31
-0.0463154941814283
210
0.5773502691896254
220
-0.5773502691896259
230
0.5773502691896259
 40
0.5773502691896257
 41
6.270384287901003
 42
8.639379797371958
  0
ELLIPSE
  5
442
330
3DF
100
AcDbEntity
  8
PV-735A
100
AcDbEllipse
 10
17.71984089778466
 20
0.5197754937155584
 30
12.84182983276916
 11
0.0
 21
-0.0463154941814283
 31
-0.0463154941814283
210
0.5773502691896254
220
-0.5773502691896259
230
0.5773502691896259
 40
0.5773502691896257
 41
2.356194490192371
 42
3.154393672868395
  0
ELLIPSE
  5
443
330
3DF
100
AcDbEntity
  8
PV-735A
100
AcDbEllipse
 10
17.73668760560857
 20
0.5281988476275164
 30
12.8334064788572
 11
0.0
 21
0.0893431600721996
 31
0.0893431600721996
210
0.577350269189626
220
-0.5773502691896259
230
0.5773502691896259
 40
0.5773502691896258
 41
5.497787143782166
 42
5.996428754968076
  0
ELLIPSE
  5
444
330
3DF
100
AcDbEntity
  8
PV-735A
100
AcDbEllipse
 10
17.73668760560857
 20
0.5281988476275164
 30
12.8334064788572
 11
0.0
 21
0.0893431600721996
 31
0.0893431600721996
210
0.577350269189626
220
-0.5773502691896259
230
0.5773502691896259
 40
0.5773502691896258
 41
0.00000000000001
 42
3.141592653589763
  0
ELLIPSE
  5
445
330
3DF
100
AcDbEntity
  8
PV-735A
100
AcDbEllipse
 10
17.73668760560857
 20
0.5281988476275164
 30
12.8334064788572
 11
0.0
 21
0.0893431600721996
 31
0.0893431600721996
210
0.577350269189626
220
-0.5773502691896259
230
0.5773502691896259
 40
0.5773502691896258
 41
3.428349205801315
 42
5.497787143782166
  0
ELLIPSE
  5
446
330
3DF
100
AcDbEntity
  8
PV-735A
100
AcDbEllipse
 10
17.7703810212564
 20
0.5450455554514324
 30
12.81655977103328
 11
0.0
 21
0.0893431600721996
 31
0.0893431600721996
210
0.577350269189626
220
-0.5773502691896259
230
0.5773502691896259
 40
0.5773502691896258
 41
0.0
 42
6.283185307179586
  0
ELLIPSE
  5
447
330
3DF
100
AcDbEntity
  8
PV-735A
100
AcDbEllipse
 10
17.73668760560857
 20
0.5281988476275164
 30
12.8334064788572
 11
0.0
 21
0.0893431600721996
 31
0.0893431600721996
210
0.577350269189626
220
-0.5773502691896259
230
0.5773502691896259
 40
0.5773502691896258
 41
5.497787143782166
 42
5.996428754968076
  0
ELLIPSE
  5
448
330
3DF
100
AcDbEntity
  8
PV-735A
100
AcDbEllipse
 10
17.73668760560857
 20
0.5281988476275164
 30
12.8334064788572
 11
0.0
 21
0.0893431600721996
 31
0.0893431600721996
210
0.577350269189626
220
-0.5773502691896259
230
0.5773502691896259
 40
0.5773502691896258
 41
0.00000000000001
 42
3.141592653589763
  0
ELLIPSE
  5
449
330
3DF
100
AcDbEntity
  8
PV-735A
100
AcDbEllipse
 10
17.73668760560857
 20
0.5281988476275164
 30
12.8334064788572
 11
0.0
 21
0.0893431600721996
 31
0.0893431600721996
210
0.577350269189626
220
-0.5773502691896259
230
0.5773502691896259
 40
0.5773502691896258
 41
3.428349205801315
 42
5.497787143782166
  0
ELLIPSE
  5
44A
330
3DF
100
AcDbEntity
  8
PV-735A
100
AcDbEllipse
 10
18.11567423111801
 20
0.1239421603822066
 30
12.05016316610245
 11
0.0
 21
-0.0463154941814283
 31
-0.0463154941814283
210
0.5773502691896254
220
-0.5773502691896259
230
0.5773502691896259
 40
0.5773502691896257
 41
6.270384287901041
 42
8.639379797371958
  0
ELLIPSE
  5
44B
330
3DF
100
AcDbEntity
  8
PV-735A
100
AcDbEllipse
 10
18.11567423111801
 20
0.1239421603822066
 30
12.05016316610245
 11
0.0
 21
-0.0463154941814283
 31
-0.0463154941814283
210
0.5773502691896254
220
-0.5773502691896259
230
0.5773502691896259
 40
0.5773502691896257
 41
2.356194490192371
 42
3.154393672868452
  0
ELLIPSE
  5
44C
330
3DF
100
AcDbEntity
  8
PV-735A
100
AcDbEllipse
 10
18.13252093894192
 20
0.1323655142941646
 30
12.04173981219049
 11
0.0
 21
0.0893431600721996
 31
0.0893431600721996
210
0.577350269189626
220
-0.5773502691896259
230
0.5773502691896259
 40
0.5773502691896258
 41
5.497787143782123
 42
5.996428754968019
  0
ELLIPSE
  5
44D
330
3DF
100
AcDbEntity
  8
PV-735A
100
AcDbEllipse
 10
18.13252093894192
 20
0.1323655142941646
 30
12.04173981219049
 11
0.0
 21
0.0893431600721996
 31
0.0893431600721996
210
0.577350269189626
220
-0.5773502691896259
230
0.5773502691896259
 40
0.5773502691896258
 41
-0.0000000000000297
 42
3.141592653589802
  0
ELLIPSE
  5
44E
330
3DF
100
AcDbEntity
  8
PV-735A
100
AcDbEllipse
 10
18.13252093894192
 20
0.1323655142941646
 30
12.04173981219049
 11
0.0
 21
0.0893431600721996
 31
0.0893431600721996
210
0.577350269189626
220
-0.5773502691896259
230
0.5773502691896259
 40
0.5773502691896258
 41
3.428349205801379
 42
5.497787143782123
  0
ELLIPSE
  5
44F
330
3DF
100
AcDbEntity
  8
PV-735A
100
AcDbEllipse
 10
18.16621435458975
 20
0.1492122221180825
 30
12.02489310436658
 11
0.0
 21
0.0893431600721996
 31
0.0893431600721996
210
0.577350269189626
220
-0.5773502691896259
230
0.5773502691896259
 40
0.5773502691896258
 41
0.0
 42
6.283185307179586
  0
ELLIPSE
  5
450
330
3DF
100
AcDbEntity
  8
PV-735A
100
AcDbEllipse
 10
18.13252093894192
 20
0.1323655142941646
 30
12.04173981219049
 11
0.0
 21
0.0893431600721996
 31
0.0893431600721996
210
0.577350269189626
220
-0.5773502691896259
230
0.5773502691896259
 40
0.5773502691896258
 41
5.497787143782123
 42
5.996428754968019
  0
ELLIPSE
  5
451
330
3DF
100
AcDbEntity
  8
PV-735A
100
AcDbEllipse
 10
18.13252093894192
 20
0.1323655142941646
 30
12.04173981219049
 11
0.0
 21
0.0893431600721996
 31
0.0893431600721996
210
0.577350269189626
220
-0.5773502691896259
230
0.5773502691896259
 40
0.5773502691896258
 41
-0.0000000000000297
 42
3.141592653589802
  0
ELLIPSE
  5
452
330
3DF
100
AcDbEntity
  8
PV-735A
100
AcDbEllipse
 10
18.13252093894192
 20
0.1323655142941646
 30
12.04173981219049
 11
0.0
 21
0.0893431600721996
 31
0.0893431600721996
210
0.577350269189626
220
-0.5773502691896259
230
0.5773502691896259
 40
0.5773502691896258
 41
3.428349205801379
 42
5.497787143782123
  0
ELLIPSE
  5
453
330
3DF
100
AcDbEntity
  8
PV-735A
100
AcDbEllipse
 10
18.38650756445131
 20
-0.1468911729510918
 30
11.50849649943584
 11
0.0
 21
-0.0463154941814283
 31
-0.0463154941814283
210
0.5773502691896254
220
-0.5773502691896259
230
0.5773502691896259
 40
0.5773502691896257
 41
6.270384287900945
 42
8.63937979737193
  0
ELLIPSE
  5
454
330
3DF
100
AcDbEntity
  8
PV-735A
100
AcDbEllipse
 10
18.38650756445131
 20
-0.1468911729510918
 30
11.50849649943584
 11
0.0
 21
-0.0463154941814283
 31
-0.0463154941814283
210
0.5773502691896254
220
-0.5773502691896259
230
0.5773502691896259
 40
0.5773502691896257
 41
2.356194490192344
 42
3.154393672868434
  0
ELLIPSE
  5
455
330
3DF
100
AcDbEntity
  8
PV-735A
100
AcDbEllipse
 10
18.40335427227523
 20
-0.1384678190391355
 30
11.50007314552389
 11
0.0
 21
0.0893431600721996
 31
0.0893431600721996
210
0.577350269189626
220
-0.5773502691896259
230
0.5773502691896259
 40
0.5773502691896258
 41
5.497787143782137
 42
5.996428754968038
  0
ELLIPSE
  5
456
330
3DF
100
AcDbEntity
  8
PV-735A
100
AcDbEllipse
 10
18.40335427227523
 20
-0.1384678190391355
 30
11.50007314552389
 11
0.0
 21
0.0893431600721996
 31
0.0893431600721996
210
0.577350269189626
220
-0.5773502691896259
230
0.5773502691896259
 40
0.5773502691896258
 41
-0.0000000000000098
 42
3.141592653589783
  0
ELLIPSE
  5
457
330
3DF
100
AcDbEntity
  8
PV-735A
100
AcDbEllipse
 10
18.40335427227523
 20
-0.1384678190391355
 30
11.50007314552389
 11
0.0
 21
0.0893431600721996
 31
0.0893431600721996
210
0.577350269189626
220
-0.5773502691896259
230
0.5773502691896259
 40
0.5773502691896258
 41
3.428349205801353
 42
5.497787143782137
  0
ELLIPSE
  5
458
330
3DF
100
AcDbEntity
  8
PV-735A
100
AcDbEllipse
 10
18.43704768792306
 20
-0.1216211112152195
 30
11.48322643769997
 11
0.0
 21
0.0893431600721996
 31
0.0893431600721996
210
0.577350269189626
220
-0.5773502691896259
230
0.5773502691896259
 40
0.5773502691896258
 41
0.0
 42
6.283185307179586
  0
ELLIPSE
  5
459
330
3DF
100
AcDbEntity
  8
PV-735A
100
AcDbEllipse
 10
18.40335427227523
 20
-0.1384678190391355
 30
11.50007314552389
 11
0.0
 21
0.0893431600721996
 31
0.0893431600721996
210
0.577350269189626
220
-0.5773502691896259
230
0.5773502691896259
 40
0.5773502691896258
 41
5.497787143782137
 42
5.996428754968038
  0
ELLIPSE
  5
45A
330
3DF
100
AcDbEntity
  8
PV-735A
100
AcDbEllipse
 10
18.40335427227523
 20
-0.1384678190391355
 30
11.50007314552389
 11
0.0
 21
0.0893431600721996
 31
0.0893431600721996
210
0.577350269189626
220
-0.5773502691896259
230
0.5773502691896259
 40
0.5773502691896258
 41
-0.0000000000000098
 42
3.141592653589783
  0
ELLIPSE
  5
45B
330
3DF
100
AcDbEntity
  8
PV-735A
100
AcDbEllipse
 10
18.40335427227523
 20
-0.1384678190391355
 30
11.50007314552389
 11
0.0
 21
0.0893431600721996
 31
0.0893431600721996
210
0.577350269189626
220
-0.5773502691896259
230
0.5773502691896259
 40
0.5773502691896258
 41
3.428349205801353
 42
5.497787143782137
  0
ELLIPSE
  5
45C
330
3DF
100
AcDbEntity
  8
PV-735A
100
AcDbEllipse
 10
17.75317423111799
 20
-1.16355783961775
 30
11.12516316610252
 11
0.0
 21
-0.0463154941814283
 31
-0.0463154941814283
210
0.5773502691896254
220
-0.5773502691896259
230
0.5773502691896259
 40
0.5773502691896257
 41
6.270384287900965
 42
8.639379797371985
  0
ELLIPSE
  5
45D
330
3DF
100
AcDbEntity
  8
PV-735A
100
AcDbEllipse
 10
17.75317423111799
 20
-1.16355783961775
 30
11.12516316610252
 11
0.0
 21
-0.0463154941814283
 31
-0.0463154941814283
210
0.5773502691896254
220
-0.5773502691896259
230
0.5773502691896259
 40
0.5773502691896257
 41
2.356194490192399
 42
3.154393672868434
  0
ELLIPSE
  5
45E
330
3DF
100
AcDbEntity
  8
PV-735A
100
AcDbEllipse
 10
17.77002093894191
 20
-1.15513448570579
 30
11.11673981219055
 11
0.0
 21
0.0893431600721996
 31
0.0893431600721996
210
0.577350269189626
220
-0.5773502691896259
230
0.5773502691896259
 40
0.5773502691896258
 41
5.497787143782137
 42
5.996428754968038
  0
ELLIPSE
  5
45F
330
3DF
100
AcDbEntity
  8
PV-735A
100
AcDbEllipse
 10
17.77002093894191
 20
-1.15513448570579
 30
11.11673981219055
 11
0.0
 21
0.0893431600721996
 31
0.0893431600721996
210
0.577350269189626
220
-0.5773502691896259
230
0.5773502691896259
 40
0.5773502691896258
 41
-0.0000000000000098
 42
3.141592653589802
  0
ELLIPSE
  5
460
330
3DF
100
AcDbEntity
  8
PV-735A
100
AcDbEllipse
 10
17.77002093894191
 20
-1.15513448570579
 30
11.11673981219055
 11
0.0
 21
0.0893431600721996
 31
0.0893431600721996
210
0.577350269189626
220
-0.5773502691896259
230
0.5773502691896259
 40
0.5773502691896258
 41
3.42834920580136
 42
5.497787143782137
  0
ELLIPSE
  5
461
330
3DF
100
AcDbEntity
  8
PV-735A
100
AcDbEllipse
 10
17.80371435458974
 20
-1.138287777881872
 30
11.09989310436664
 11
0.0
 21
0.0893431600721996
 31
0.0893431600721996
210
0.577350269189626
220
-0.5773502691896259
230
0.5773502691896259
 40
0.5773502691896258
 41
0.0
 42
6.283185307179586
  0
ELLIPSE
  5
462
330
3DF
100
AcDbEntity
  8
PV-735A
100
AcDbEllipse
 10
17.77002093894191
 20
-1.15513448570579
 30
11.11673981219055
 11
0.0
 21
0.0893431600721996
 31
0.0893431600721996
210
0.577350269189626
220
-0.5773502691896259
230
0.5773502691896259
 40
0.5773502691896258
 41
5.497787143782137
 42
5.996428754968038
  0
ELLIPSE
  5
463
330
3DF
100
AcDbEntity
  8
PV-735A
100
AcDbEllipse
 10
17.77002093894191
 20
-1.15513448570579
 30
11.11673981219055
 11
0.0
 21
0.0893431600721996
 31
0.0893431600721996
210
0.577350269189626
220
-0.5773502691896259
230
0.5773502691896259
 40
0.5773502691896258
 41
-0.0000000000000098
 42
3.141592653589802
  0
ELLIPSE
  5
464
330
3DF
100
AcDbEntity
  8
PV-735A
100
AcDbEllipse
 10
17.77002093894191
 20
-1.15513448570579
 30
11.11673981219055
 11
0.0
 21
0.0893431600721996
 31
0.0893431600721996
210
0.577350269189626
220
-0.5773502691896259
230
0.5773502691896259
 40
0.5773502691896258
 41
3.42834920580136
 42
5.497787143782137
  0
ELLIPSE
  5
465
330
3DF
100
AcDbEntity
  8
PV-735A
100
AcDbEllipse
 10
17.44067423111802
 20
-0.8510578396177805
 30
11.75016316610246
 11
0.0
 21
-0.0463154941814283
 31
-0.0463154941814283
210
0.5773502691896254
220
-0.5773502691896259
230
0.5773502691896259
 40
0.5773502691896257
 41
6.270384287901003
 42
8.639379797371958
  0
ELLIPSE
  5
466
330
3DF
100
AcDbEntity
  8
PV-735A
100
AcDbEllipse
 10
17.44067423111802
 20
-0.8510578396177805
 30
11.75016316610246
 11
0.0
 21
-0.0463154941814283
 31
-0.0463154941814283
210
0.5773502691896254
220
-0.5773502691896259
230
0.5773502691896259
 40
0.5773502691896257
 41
2.356194490192371
 42
3.154393672868414
  0
ELLIPSE
  5
467
330
3DF
100
AcDbEntity
  8
PV-735A
100
AcDbEllipse
 10
17.45752093894193
 20
-0.8426344857058207
 30
11.7417398121905
 11
0.0
 21
0.0893431600721996
 31
0.0893431600721996
210
0.577350269189626
220
-0.5773502691896259
230
0.5773502691896259
 40
0.5773502691896258
 41
5.497787143782109
 42
5.996428754968019
  0
ELLIPSE
  5
468
330
3DF
100
AcDbEntity
  8
PV-735A
100
AcDbEllipse
 10
17.45752093894193
 20
-0.8426344857058207
 30
11.7417398121905
 11
0.0
 21
0.0893431600721996
 31
0.0893431600721996
210
0.577350269189626
220
-0.5773502691896259
230
0.5773502691896259
 40
0.5773502691896258
 41
-0.0000000000000297
 42
3.141592653589802
  0
ELLIPSE
  5
469
330
3DF
100
AcDbEntity
  8
PV-735A
100
AcDbEllipse
 10
17.45752093894193
 20
-0.8426344857058207
 30
11.7417398121905
 11
0.0
 21
0.0893431600721996
 31
0.0893431600721996
210
0.577350269189626
220
-0.5773502691896259
230
0.5773502691896259
 40
0.5773502691896258
 41
3.428349205801372
 42
5.497787143782109
  0
ELLIPSE
  5
46A
330
3DF
100
AcDbEntity
  8
PV-735A
100
AcDbEllipse
 10
17.49121435458976
 20
-0.8257877778819029
 30
11.72489310436658
 11
0.0
 21
0.0893431600721996
 31
0.0893431600721996
210
0.577350269189626
220
-0.5773502691896259
230
0.5773502691896259
 40
0.5773502691896258
 41
0.0
 42
6.283185307179586
  0
ELLIPSE
  5
46B
330
3DF
100
AcDbEntity
  8
PV-735A
100
AcDbEllipse
 10
17.45752093894193
 20
-0.8426344857058207
 30
11.7417398121905
 11
0.0
 21
0.0893431600721996
 31
0.0893431600721996
210
0.577350269189626
220
-0.5773502691896259
230
0.5773502691896259
 40
0.5773502691896258
 41
5.497787143782109
 42
5.996428754968019
  0
ELLIPSE
  5
46C
330
3DF
100
AcDbEntity
  8
PV-735A
100
AcDbEllipse
 10
17.45752093894193
 20
-0.8426344857058207
 30
11.7417398121905
 11
0.0
 21
0.0893431600721996
 31
0.0893431600721996
210
0.577350269189626
220
-0.5773502691896259
230
0.5773502691896259
 40
0.5773502691896258
 41
-0.0000000000000297
 42
3.141592653589802
  0
ELLIPSE
  5
46D
330
3DF
100
AcDbEntity
  8
PV-735A
100
AcDbEllipse
 10
17.45752093894193
 20
-0.8426344857058207
 30
11.7417398121905
 11
0.0
 21
0.0893431600721996
 31
0.0893431600721996
210
0.577350269189626
220
-0.5773502691896259
230
0.5773502691896259
 40
0.5773502691896258
 41
3.428349205801372
 42
5.497787143782109
  0
ELLIPSE
  5
46E
330
3DF
100
AcDbEntity
  8
PV-735A
100
AcDbEllipse
 10
17.09484089778464
 20
-0.2552245062844172
 30
12.69182983276919
 11
0.0
 21
-0.0463154941814283
 31
-0.0463154941814283
210
0.5773502691896254
220
-0.5773502691896259
230
0.5773502691896259
 40
0.5773502691896257
 41
6.270384287901003
 42
8.639379797371958
  0
ELLIPSE
  5
46F
330
3DF
100
AcDbEntity
  8
PV-735A
100
AcDbEllipse
 10
17.09484089778464
 20
-0.2552245062844172
 30
12.69182983276919
 11
0.0
 21
-0.0463154941814283
 31
-0.0463154941814283
210
0.5773502691896254
220
-0.5773502691896259
230
0.5773502691896259
 40
0.5773502691896257
 41
2.356194490192371
 42
3.154393672868395
  0
ELLIPSE
  5
470
330
3DF
100
AcDbEntity
  8
PV-735A
100
AcDbEllipse
 10
17.11168760560856
 20
-0.2468011523724609
 30
12.68340647885724
 11
0.0
 21
0.0893431600721996
 31
0.0893431600721996
210
0.577350269189626
220
-0.5773502691896259
230
0.5773502691896259
 40
0.5773502691896258
 41
5.497787143782152
 42
5.996428754968038
  0
ELLIPSE
  5
471
330
3DF
100
AcDbEntity
  8
PV-735A
100
AcDbEllipse
 10
17.11168760560856
 20
-0.2468011523724609
 30
12.68340647885724
 11
0.0
 21
0.0893431600721996
 31
0.0893431600721996
210
0.577350269189626
220
-0.5773502691896259
230
0.5773502691896259
 40
0.5773502691896258
 41
-0.0000000000000098
 42
3.141592653589783
  0
ELLIPSE
  5
472
330
3DF
100
AcDbEntity
  8
PV-735A
100
AcDbEllipse
 10
17.11168760560856
 20
-0.2468011523724609
 30
12.68340647885724
 11
0.0
 21
0.0893431600721996
 31
0.0893431600721996
210
0.577350269189626
220
-0.5773502691896259
230
0.5773502691896259
 40
0.5773502691896258
 41
3.428349205801334
 42
5.497787143782152
  0
ELLIPSE
  5
473
330
3DF
100
AcDbEntity
  8
PV-735A
100
AcDbEllipse
 10
17.1453810212564
 20
-0.2299544445485431
 30
12.66655977103332
 11
0.0
 21
0.0893431600721996
 31
0.0893431600721996
210
0.577350269189626
220
-0.5773502691896259
230
0.5773502691896259
 40
0.5773502691896258
 41
0.0
 42
6.283185307179586
  0
ELLIPSE
  5
474
330
3DF
100
AcDbEntity
  8
PV-735A
100
AcDbEllipse
 10
17.11168760560856
 20
-0.2468011523724609
 30
12.68340647885724
 11
0.0
 21
0.0893431600721996
 31
0.0893431600721996
210
0.577350269189626
220
-0.5773502691896259
230
0.5773502691896259
 40
0.5773502691896258
 41
5.497787143782152
 42
5.996428754968038
  0
ELLIPSE
  5
475
330
3DF
100
AcDbEntity
  8
PV-735A
100
AcDbEllipse
 10
17.11168760560856
 20
-0.2468011523724609
 30
12.68340647885724
 11
0.0
 21
0.0893431600721996
 31
0.0893431600721996
210
0.577350269189626
220
-0.5773502691896259
230
0.5773502691896259
 40
0.5773502691896258
 41
-0.0000000000000098
 42
3.141592653589783
  0
ELLIPSE
  5
476
330
3DF
100
AcDbEntity
  8
PV-735A
100
AcDbEllipse
 10
17.11168760560856
 20
-0.2468011523724609
 30
12.68340647885724
 11
0.0
 21
0.0893431600721996
 31
0.0893431600721996
210
0.577350269189626
220
-0.5773502691896259
230
0.5773502691896259
 40
0.5773502691896258
 41
3.428349205801334
 42
5.497787143782152
  0
ELLIPSE
  5
477
330
3DF
100
AcDbEntity
  8
PV-735A
100
AcDbEllipse
 10
12.9493347565886
 20
3.539481634911505
 30
20.63204211516115
 11
0.0
 21
-0.0463154941814283
 31
-0.0463154941814283
210
0.5773502691896254
220
-0.5773502691896259
230
0.5773502691896259
 40
0.5773502691896257
 41
6.270384287900983
 42
8.639379797371903
  0
ELLIPSE
  5
478
330
3DF
100
AcDbEntity
  8
PV-735A
100
AcDbEllipse
 10
12.9493347565886
 20
3.539481634911505
 30
20.63204211516115
 11
0.0
 21
-0.0463154941814283
 31
-0.0463154941814283
210
0.5773502691896254
220
-0.5773502691896259
230
0.5773502691896259
 40
0.5773502691896257
 41
2.356194490192317
 42
3.154393672868395
  0
ELLIPSE
  5
479
330
3DF
100
AcDbEntity
  8
PV-735A
100
AcDbEllipse
 10
12.96618146441252
 20
3.547904988823463
 30
20.62361876124919
 11
0.0
 21
0.0893431600721996
 31
0.0893431600721996
210
0.577350269189626
220
-0.5773502691896259
230
0.5773502691896259
 40
0.5773502691896258
 41
5.497787143782137
 42
5.996428754968025
  0
ELLIPSE
  5
47A
330
3DF
100
AcDbEntity
  8
PV-735A
100
AcDbEllipse
 10
12.96618146441252
 20
3.547904988823463
 30
20.62361876124919
 11
0.0
 21
0.0893431600721996
 31
0.0893431600721996
210
0.577350269189626
220
-0.5773502691896259
230
0.5773502691896259
 40
0.5773502691896258
 41
-0.0000000000000098
 42
3.141592653589802
  0
ELLIPSE
  5
47B
330
3DF
100
AcDbEntity
  8
PV-735A
100
AcDbEllipse
 10
12.96618146441252
 20
3.547904988823463
 30
20.62361876124919
 11
0.0
 21
0.0893431600721996
 31
0.0893431600721996
210
0.577350269189626
220
-0.5773502691896259
230
0.5773502691896259
 40
0.5773502691896258
 41
3.428349205801353
 42
5.497787143782137
  0
ELLIPSE
  5
47C
330
3DF
100
AcDbEntity
  8
PV-735A
100
AcDbEllipse
 10
12.99987488006035
 20
3.564751696647379
 30
20.60677205342528
 11
0.0
 21
0.0893431600721996
 31
0.0893431600721996
210
0.577350269189626
220
-0.5773502691896259
230
0.5773502691896259
 40
0.5773502691896258
 41
0.0
 42
6.283185307179586
  0
ELLIPSE
  5
47D
330
3DF
100
AcDbEntity
  8
PV-735A
100
AcDbEllipse
 10
12.96618146441252
 20
3.547904988823463
 30
20.62361876124919
 11
0.0
 21
0.0893431600721996
 31
0.0893431600721996
210
0.577350269189626
220
-0.5773502691896259
230
0.5773502691896259
 40
0.5773502691896258
 41
5.497787143782137
 42
5.996428754968025
  0
ELLIPSE
  5
47E
330
3DF
100
AcDbEntity
  8
PV-735A
100
AcDbEllipse
 10
12.96618146441252
 20
3.547904988823463
 30
20.62361876124919
 11
0.0
 21
0.0893431600721996
 31
0.0893431600721996
210
0.577350269189626
220
-0.5773502691896259
230
0.5773502691896259
 40
0.5773502691896258
 41
-0.0000000000000098
 42
3.141592653589802
  0
ELLIPSE
  5
47F
330
3DF
100
AcDbEntity
  8
PV-735A
100
AcDbEllipse
 10
12.96618146441252
 20
3.547904988823463
 30
20.62361876124919
 11
0.0
 21
0.0893431600721996
 31
0.0893431600721996
210
0.577350269189626
220
-0.5773502691896259
230
0.5773502691896259
 40
0.5773502691896258
 41
3.428349205801353
 42
5.497787143782137
  0
ELLIPSE
  5
480
330
3DF
100
AcDbEntity
  8
PV-735A
100
AcDbEllipse
 10
13.15691340035131
 20
4.704638922436908
 30
21.58962075892386
 11
0.0
 21
-0.0463154941814283
 31
-0.0463154941814283
210
0.5773502691896254
220
-0.5773502691896259
230
0.5773502691896259
 40
0.5773502691896257
 41
6.270384287901022
 42
8.639379797371903
  0
ELLIPSE
  5
481
330
3DF
100
AcDbEntity
  8
PV-735A
100
AcDbEllipse
 10
13.15691340035131
 20
4.704638922436908
 30
21.58962075892386
 11
0.0
 21
-0.0463154941814283
 31
-0.0463154941814283
210
0.5773502691896254
220
-0.5773502691896259
230
0.5773502691896259
 40
0.5773502691896257
 41
2.356194490192317
 42
3.154393672868357
  0
ELLIPSE
  5
482
330
3DF
100
AcDbEntity
  8
PV-735A
100
AcDbEllipse
 10
13.17376010817522
 20
4.713062276348866
 30
21.5811974050119
 11
0.0
 21
0.0893431600721996
 31
0.0893431600721996
210
0.577350269189626
220
-0.5773502691896259
230
0.5773502691896259
 40
0.5773502691896258
 41
5.497787143782109
 42
5.996428754968
  0
ELLIPSE
  5
483
330
3DF
100
AcDbEntity
  8
PV-735A
100
AcDbEllipse
 10
13.17376010817522
 20
4.713062276348866
 30
21.5811974050119
 11
0.0
 21
0.0893431600721996
 31
0.0893431600721996
210
0.577350269189626
220
-0.5773502691896259
230
0.5773502691896259
 40
0.5773502691896258
 41
-0.0000000000000098
 42
3.141592653589793
  0
ELLIPSE
  5
484
330
3DF
100
AcDbEntity
  8
PV-735A
100
AcDbEllipse
 10
13.17376010817522
 20
4.713062276348866
 30
21.5811974050119
 11
0.0
 21
0.0893431600721996
 31
0.0893431600721996
210
0.577350269189626
220
-0.5773502691896259
230
0.5773502691896259
 40
0.5773502691896258
 41
3.428349205801353
 42
5.497787143782109
  0
ELLIPSE
  5
485
330
3DF
100
AcDbEntity
  8
PV-735A
100
AcDbEllipse
 10
13.20745352382306
 20
4.729908984172782
 30
21.56435069718798
 11
0.0
 21
0.0893431600721996
 31
0.0893431600721996
210
0.577350269189626
220
-0.5773502691896259
230
0.5773502691896259
 40
0.5773502691896258
 41
0.0
 42
6.283185307179586
  0
ELLIPSE
  5
486
330
3DF
100
AcDbEntity
  8
PV-735A
100
AcDbEllipse
 10
13.17376010817522
 20
4.713062276348866
 30
21.5811974050119
 11
0.0
 21
0.0893431600721996
 31
0.0893431600721996
210
0.577350269189626
220
-0.5773502691896259
230
0.5773502691896259
 40
0.5773502691896258
 41
5.497787143782109
 42
5.996428754968
  0
ELLIPSE
  5
487
330
3DF
100
AcDbEntity
  8
PV-735A
100
AcDbEllipse
 10
13.17376010817522
 20
4.713062276348866
 30
21.5811974050119
 11
0.0
 21
0.0893431600721996
 31
0.0893431600721996
210
0.577350269189626
220
-0.5773502691896259
230
0.5773502691896259
 40
0.5773502691896258
 41
-0.0000000000000098
 42
3.141592653589793
  0
ELLIPSE
  5
488
330
3DF
100
AcDbEntity
  8
PV-735A
100
AcDbEllipse
 10
13.17376010817522
 20
4.713062276348866
 30
21.5811974050119
 11
0.0
 21
0.0893431600721996
 31
0.0893431600721996
210
0.577350269189626
220
-0.5773502691896259
230
0.5773502691896259
 40
0.5773502691896258
 41
3.428349205801353
 42
5.497787143782109
  0
ELLIPSE
  5
489
330
3DF
100
AcDbEntity
  8
PV-735A
100
AcDbEllipse
 10
16.17449758502993
 20
1.834588868206084
 30
15.70198652001441
 11
-0.0463154941814283
 21
0.0
 31
0.0463154941814283
210
0.5773502691896258
220
-0.5773502691896258
230
0.5773502691896255
 40
0.5773502691896258
 41
6.270384287901022
 42
7.068583470577034
  0
ELLIPSE
  5
48A
330
3DF
100
AcDbEntity
  8
PV-735A
100
AcDbEllipse
 10
16.17449758502993
 20
1.834588868206084
 30
15.70198652001441
 11
-0.0463154941814283
 21
0.0
 31
0.0463154941814283
210
0.5773502691896258
220
-0.5773502691896258
230
0.5773502691896255
 40
0.5773502691896258
 41
0.7853981633974487
 42
3.154393672868376
  0
ELLIPSE
  5
48B
330
3DF
100
AcDbEntity
  8
PV-735A
100
AcDbEllipse
 10
16.16607423111797
 20
1.81774216038217
 30
15.69356316610245
 11
-0.0893431600721996
 21
0.0
 31
0.0893431600721996
210
0.5773502691896259
220
-0.577350269189626
230
0.5773502691896259
 40
0.5773502691896259
 41
0.7853981633974483
 42
2.854836101378244
  0
ELLIPSE
  5
48C
330
3DF
100
AcDbEntity
  8
PV-735A
100
AcDbEllipse
 10
16.16607423111797
 20
1.81774216038217
 30
15.69356316610245
 11
-0.0893431600721996
 21
0.0
 31
0.0893431600721996
210
0.5773502691896259
220
-0.577350269189626
230
0.5773502691896259
 40
0.5773502691896259
 41
3.141592653589773
 42
6.283185307179605
  0
ELLIPSE
  5
48D
330
3DF
100
AcDbEntity
  8
PV-735A
100
AcDbEllipse
 10
16.16607423111797
 20
1.81774216038217
 30
15.69356316610245
 11
-0.0893431600721996
 21
0.0
 31
0.0893431600721996
210
0.5773502691896259
220
-0.577350269189626
230
0.5773502691896259
 40
0.5773502691896259
 41
0.2867565522115545
 42
0.7853981633974483
  0
ELLIPSE
  5
48E
330
3DF
100
AcDbEntity
  8
PV-735A
100
AcDbEllipse
 10
16.14922752329406
 20
1.784048744734334
 30
15.67671645827853
 11
-0.0893431600721996
 21
0.0
 31
0.0893431600721996
210
0.5773502691896259
220
-0.577350269189626
230
0.5773502691896259
 40
0.5773502691896259
 41
0.0
 42
6.283185307179586
  0
ELLIPSE
  5
48F
330
3DF
100
AcDbEntity
  8
PV-735A
100
AcDbEllipse
 10
16.16607423111797
 20
1.81774216038217
 30
15.69356316610245
 11
-0.0893431600721996
 21
0.0
 31
0.0893431600721996
210
0.5773502691896259
220
-0.577350269189626
230
0.5773502691896259
 40
0.5773502691896259
 41
0.7853981633974483
 42
2.854836101378244
  0
ELLIPSE
  5
490
330
3DF
100
AcDbEntity
  8
PV-735A
100
AcDbEllipse
 10
16.16607423111797
 20
1.81774216038217
 30
15.69356316610245
 11
-0.0893431600721996
 21
0.0
 31
0.0893431600721996
210
0.5773502691896259
220
-0.577350269189626
230
0.5773502691896259
 40
0.5773502691896259
 41
3.141592653589773
 42
6.283185307179605
  0
ELLIPSE
  5
491
330
3DF
100
AcDbEntity
  8
PV-735A
100
AcDbEllipse
 10
16.16607423111797
 20
1.81774216038217
 30
15.69356316610245
 11
-0.0893431600721996
 21
0.0
 31
0.0893431600721996
210
0.5773502691896259
220
-0.577350269189626
230
0.5773502691896259
 40
0.5773502691896259
 41
0.2867565522115545
 42
0.7853981633974483
  0
ELLIPSE
  5
492
330
3DF
100
AcDbEntity
  8
PV-735A
100
AcDbEllipse
 10
15.67449758502991
 20
2.334588868206095
 30
16.70198652001444
 11
-0.0463154941814283
 21
0.0
 31
0.0463154941814283
210
0.5773502691896258
220
-0.5773502691896258
230
0.5773502691896255
 40
0.5773502691896258
 41
6.270384287901022
 42
7.068583470577088
  0
ELLIPSE
  5
493
330
3DF
100
AcDbEntity
  8
PV-735A
100
AcDbEllipse
 10
15.67449758502991
 20
2.334588868206095
 30
16.70198652001444
 11
-0.0463154941814283
 21
0.0
 31
0.0463154941814283
210
0.5773502691896258
220
-0.5773502691896258
230
0.5773502691896255
 40
0.5773502691896258
 41
0.7853981633975029
 42
3.154393672868376
  0
ELLIPSE
  5
494
330
3DF
100
AcDbEntity
  8
PV-735A
100
AcDbEllipse
 10
15.66607423111795
 20
2.317742160382181
 30
16.69356316610248
 11
-0.0893431600721996
 21
0.0
 31
0.0893431600721996
210
0.5773502691896259
220
-0.577350269189626
230
0.5773502691896259
 40
0.5773502691896259
 41
0.7853981633974482
 42
2.854836101378245
  0
ELLIPSE
  5
495
330
3DF
100
AcDbEntity
  8
PV-735A
100
AcDbEllipse
 10
15.66607423111795
 20
2.317742160382181
 30
16.69356316610248
 11
-0.0893431600721996
 21
0.0
 31
0.0893431600721996
210
0.5773502691896259
220
-0.577350269189626
230
0.5773502691896259
 40
0.5773502691896259
 41
3.141592653589802
 42
6.283185307179575
  0
ELLIPSE
  5
496
330
3DF
100
AcDbEntity
  8
PV-735A
100
AcDbEllipse
 10
15.66607423111795
 20
2.317742160382181
 30
16.69356316610248
 11
-0.0893431600721996
 21
0.0
 31
0.0893431600721996
210
0.5773502691896259
220
-0.577350269189626
230
0.5773502691896259
 40
0.5773502691896259
 41
0.2867565522115602
 42
0.7853981633974482
  0
ELLIPSE
  5
497
330
3DF
100
AcDbEntity
  8
PV-735A
100
AcDbEllipse
 10
15.64922752329403
 20
2.284048744734347
 30
16.67671645827856
 11
-0.0893431600721996
 21
0.0
 31
0.0893431600721996
210
0.5773502691896259
220
-0.577350269189626
230
0.5773502691896259
 40
0.5773502691896259
 41
0.0
 42
6.283185307179586
  0
ELLIPSE
  5
498
330
3DF
100
AcDbEntity
  8
PV-735A
100
AcDbEllipse
 10
15.66607423111795
 20
2.317742160382181
 30
16.69356316610248
 11
-0.0893431600721996
 21
0.0
 31
0.0893431600721996
210
0.5773502691896259
220
-0.577350269189626
230
0.5773502691896259
 40
0.5773502691896259
 41
0.7853981633974482
 42
2.854836101378245
  0
ELLIPSE
  5
499
330
3DF
100
AcDbEntity
  8
PV-735A
100
AcDbEllipse
 10
15.66607423111795
 20
2.317742160382181
 30
16.69356316610248
 11
-0.0893431600721996
 21
0.0
 31
0.0893431600721996
210
0.5773502691896259
220
-0.577350269189626
230
0.5773502691896259
 40
0.5773502691896259
 41
3.141592653589802
 42
6.283185307179575
  0
ELLIPSE
  5
49A
330
3DF
100
AcDbEntity
  8
PV-735A
100
AcDbEllipse
 10
15.66607423111795
 20
2.317742160382181
 30
16.69356316610248
 11
-0.0893431600721996
 21
0.0
 31
0.0893431600721996
210
0.5773502691896259
220
-0.577350269189626
230
0.5773502691896259
 40
0.5773502691896259
 41
0.2867565522115602
 42
0.7853981633974482
  0
ELLIPSE
  5
49B
330
3DF
100
AcDbEntity
  8
PV-735A
100
AcDbEllipse
 10
14.87440756445129
 20
2.109408827048849
 30
17.27689649943581
 11
-0.0463154941814283
 21
0.0
 31
0.0463154941814283
210
0.5773502691896258
220
-0.5773502691896258
230
0.5773502691896255
 40
0.5773502691896258
 41
6.270384287901003
 42
7.068583470577034
  0
ELLIPSE
  5
49C
330
3DF
100
AcDbEntity
  8
PV-735A
100
AcDbEllipse
 10
14.87440756445129
 20
2.109408827048849
 30
17.27689649943581
 11
-0.0463154941814283
 21
0.0
 31
0.0463154941814283
210
0.5773502691896258
220
-0.5773502691896258
230
0.5773502691896255
 40
0.5773502691896258
 41
0.7853981633974487
 42
3.154393672868356
  0
ELLIPSE
  5
49D
330
3DF
100
AcDbEntity
  8
PV-735A
100
AcDbEllipse
 10
14.86598421053933
 20
2.092562119224931
 30
17.26847314552385
 11
-0.0893431600721996
 21
0.0
 31
0.0893431600721996
210
0.5773502691896259
220
-0.577350269189626
230
0.5773502691896259
 40
0.5773502691896259
 41
0.7853981633974201
 42
2.854836101378258
  0
ELLIPSE
  5
49E
330
3DF
100
AcDbEntity
  8
PV-735A
100
AcDbEllipse
 10
14.86598421053933
 20
2.092562119224931
 30
17.26847314552385
 11
-0.0893431600721996
 21
0.0
 31
0.0893431600721996
210
0.5773502691896259
220
-0.577350269189626
230
0.5773502691896259
 40
0.5773502691896259
 41
3.141592653589802
 42
6.283185307179575
  0
ELLIPSE
  5
49F
330
3DF
100
AcDbEntity
  8
PV-735A
100
AcDbEllipse
 10
14.86598421053933
 20
2.092562119224931
 30
17.26847314552385
 11
-0.0893431600721996
 21
0.0
 31
0.0893431600721996
210
0.5773502691896259
220
-0.577350269189626
230
0.5773502691896259
 40
0.5773502691896259
 41
0.2867565522115231
 42
0.7853981633974201
  0
ELLIPSE
  5
4A0
330
3DF
100
AcDbEntity
  8
PV-735A
100
AcDbEllipse
 10
14.84913750271541
 20
2.058868703577099
 30
17.25162643769994
 11
-0.0893431600721996
 21
0.0
 31
0.0893431600721996
210
0.5773502691896259
220
-0.577350269189626
230
0.5773502691896259
 40
0.5773502691896259
 41
0.0
 42
6.283185307179586
  0
ELLIPSE
  5
4A1
330
3DF
100
AcDbEntity
  8
PV-735A
100
AcDbEllipse
 10
14.86598421053933
 20
2.092562119224931
 30
17.26847314552385
 11
-0.0893431600721996
 21
0.0
 31
0.0893431600721996
210
0.5773502691896259
220
-0.577350269189626
230
0.5773502691896259
 40
0.5773502691896259
 41
0.7853981633974201
 42
2.854836101378258
  0
ELLIPSE
  5
4A2
330
3DF
100
AcDbEntity
  8
PV-735A
100
AcDbEllipse
 10
14.86598421053933
 20
2.092562119224931
 30
17.26847314552385
 11
-0.0893431600721996
 21
0.0
 31
0.0893431600721996
210
0.5773502691896259
220
-0.577350269189626
230
0.5773502691896259
 40
0.5773502691896259
 41
3.141592653589802
 42
6.283185307179575
  0
ELLIPSE
  5
4A3
330
3DF
100
AcDbEntity
  8
PV-735A
100
AcDbEllipse
 10
14.86598421053933
 20
2.092562119224931
 30
17.26847314552385
 11
-0.0893431600721996
 21
0.0
 31
0.0893431600721996
210
0.5773502691896259
220
-0.577350269189626
230
0.5773502691896259
 40
0.5773502691896259
 41
0.2867565522115231
 42
0.7853981633974201
  0
ELLIPSE
  5
4A4
330
3DF
100
AcDbEntity
  8
PV-735A
100
AcDbEllipse
 10
15.38283091836327
 20
1.62625553487275
 30
16.28531985334774
 11
-0.0463154941814283
 21
0.0
 31
0.0463154941814283
210
0.5773502691896258
220
-0.5773502691896258
230
0.5773502691896255
 40
0.5773502691896258
 41
6.270384287901022
 42
7.068583470577007
  0
ELLIPSE
  5
4A5
330
3DF
100
AcDbEntity
  8
PV-735A
100
AcDbEllipse
 10
15.38283091836327
 20
1.62625553487275
 30
16.28531985334774
 11
-0.0463154941814283
 21
0.0
 31
0.0463154941814283
210
0.5773502691896258
220
-0.5773502691896258
230
0.5773502691896255
 40
0.5773502691896258
 41
0.7853981633974216
 42
3.154393672868376
  0
ELLIPSE
  5
4A6
330
3DF
100
AcDbEntity
  8
PV-735A
100
AcDbEllipse
 10
15.37440756445131
 20
1.609408827048834
 30
16.27689649943578
 11
-0.0893431600721996
 21
0.0
 31
0.0893431600721996
210
0.5773502691896259
220
-0.577350269189626
230
0.5773502691896259
 40
0.5773502691896259
 41
0.7853981633974624
 42
2.854836101378245
  0
ELLIPSE
  5
4A7
330
3DF
100
AcDbEntity
  8
PV-735A
100
AcDbEllipse
 10
15.37440756445131
 20
1.609408827048834
 30
16.27689649943578
 11
-0.0893431600721996
 21
0.0
 31
0.0893431600721996
210
0.5773502691896259
220
-0.577350269189626
230
0.5773502691896259
 40
0.5773502691896259
 41
3.141592653589782
 42
6.283185307179596
  0
ELLIPSE
  5
4A8
330
3DF
100
AcDbEntity
  8
PV-735A
100
AcDbEllipse
 10
15.37440756445131
 20
1.609408827048834
 30
16.27689649943578
 11
-0.0893431600721996
 21
0.0
 31
0.0893431600721996
210
0.5773502691896259
220
-0.577350269189626
230
0.5773502691896259
 40
0.5773502691896259
 41
0.2867565522115602
 42
0.7853981633974624
  0
ELLIPSE
  5
4A9
330
3DF
100
AcDbEntity
  8
PV-735A
100
AcDbEllipse
 10
15.35756085662739
 20
1.575715411401002
 30
16.26004979161187
 11
-0.0893431600721996
 21
0.0
 31
0.0893431600721996
210
0.5773502691896259
220
-0.577350269189626
230
0.5773502691896259
 40
0.5773502691896259
 41
0.0
 42
6.283185307179586
  0
ELLIPSE
  5
4AA
330
3DF
100
AcDbEntity
  8
PV-735A
100
AcDbEllipse
 10
15.37440756445131
 20
1.609408827048834
 30
16.27689649943578
 11
-0.0893431600721996
 21
0.0
 31
0.0893431600721996
210
0.5773502691896259
220
-0.577350269189626
230
0.5773502691896259
 40
0.5773502691896259
 41
0.7853981633974624
 42
2.854836101378245
  0
ELLIPSE
  5
4AB
330
3DF
100
AcDbEntity
  8
PV-735A
100
AcDbEllipse
 10
15.37440756445131
 20
1.609408827048834
 30
16.27689649943578
 11
-0.0893431600721996
 21
0.0
 31
0.0893431600721996
210
0.5773502691896259
220
-0.577350269189626
230
0.5773502691896259
 40
0.5773502691896259
 41
3.141592653589782
 42
6.283185307179596
  0
ELLIPSE
  5
4AC
330
3DF
100
AcDbEntity
  8
PV-735A
100
AcDbEllipse
 10
15.37440756445131
 20
1.609408827048834
 30
16.27689649943578
 11
-0.0893431600721996
 21
0.0
 31
0.0893431600721996
210
0.5773502691896259
220
-0.577350269189626
230
0.5773502691896259
 40
0.5773502691896259
 41
0.2867565522115602
 42
0.7853981633974624
  0
ELLIPSE
  5
4AD
330
3DF
100
AcDbEntity
  8
PV-735A
100
AcDbEllipse
 10
12.61920596859189
 20
5.270784772394673
 30
22.69347404064104
 11
0.0615698948809197
 21
0.1024721937605065
 31
0.0409022988795869
210
0.577350269189626
220
-0.5773502691896258
230
0.5773502691896255
 40
0.7502442415183984
 41
0.0
 42
6.283185307179586
  0
ELLIPSE
  5
4AE
330
3DF
100
AcDbEntity
  8
PV-735A
100
AcDbEllipse
 10
12.28986343820086
 20
4.136317424537487
 30
21.88834922317488
 11
0.0615698948809197
 21
0.1024721937605065
 31
0.0409022988795869
210
0.577350269189626
220
-0.5773502691896258
230
0.5773502691896255
 40
0.7502442415183984
 41
0.0
 42
6.283185307179586
  0
LINE
  5
4AF
330
3DF
100
AcDbEntity
  8
PV-735A
100
AcDbLine
 10
15.24174089778461
 20
0.7820754937155546
 30
15.5822298327692
 11
15.23107423111795
 21
0.7927421603822129
 31
15.60356316610251
  0
LINE
  5
4B0
330
3DF
100
AcDbEntity
  8
PV-735A
100
AcDbLine
 10
15.21774089778462
 20
0.7860754937155435
 30
15.61022983276918
 11
15.23507423111795
 21
0.7687421603822227
 31
15.57556316610253
  0
LINE
  5
4B1
330
3DF
100
AcDbEntity
  8
PV-735A
100
AcDbLine
 10
15.29440756445129
 20
0.8244088270488756
 30
15.57189649943585
 11
15.23107423111795
 21
0.7927421603822129
 31
15.60356316610251
  0
LINE
  5
4B2
330
3DF
100
AcDbEntity
  8
PV-735A
100
AcDbLine
 10
15.23107423111795
 20
0.7927421603822129
 30
15.60356316610251
 11
15.21774089778462
 21
0.7860754937155435
 31
15.61022983276918
  0
LINE
  5
4B3
330
3DF
100
AcDbEntity
  8
PV-735A
100
AcDbLine
 10
16.44474966418129
 20
0.7670667273188858
 30
14.36421229997585
 11
16.41024517881305
 21
0.8015712126871328
 31
14.43322127071234
  0
ELLIPSE
  5
4B4
330
3DF
100
AcDbEntity
  8
PV-735A
100
AcDbEllipse
 10
16.5332496641813
 20
0.9440667273189067
 30
14.45271229997586
 11
0.0
 21
-0.1877368504050283
 31
-0.1877368504050285
210
0.577350269189626
220
-0.577350269189626
230
0.5773502691896257
 40
0.577350269189626
 41
5.49778714378213
 42
6.283185307179524
  0
LINE
  5
4B5
330
3DF
100
AcDbEntity
  8
PV-735A
100
AcDbLine
 10
17.31476546472132
 20
1.147087777183887
 30
13.87421754930083
 11
16.5332496641813
 21
0.7563298769138847
 31
14.26497544957085
  0
ELLIPSE
  5
4B6
330
3DF
100
AcDbEntity
  8
PV-735A
100
AcDbEllipse
 10
17.31476546472132
 20
0.9593509267788675
 30
13.6864806988958
 11
0.0
 21
0.1877368504050283
 31
0.1877368504050285
210
0.577350269189626
220
-0.577350269189626
230
0.5773502691896257
 40
0.577350269189626
 41
5.497787143782137
 42
6.283185307179599
  0
LINE
  5
4B7
330
3DF
100
AcDbEntity
  8
PV-735A
100
AcDbLine
 10
18.88234089778466
 20
-0.3427245062844193
 30
10.81682983276917
 11
17.40326546472133
 21
1.136350926778877
 31
13.77498069889581
  0
LINE
  5
4B8
330
3DF
100
AcDbEntity
  8
PV-735A
100
AcDbLine
 10
18.13234089778466
 20
-1.842724506284426
 30
10.06682983276917
 11
18.88234089778467
 21
-0.3427245062844175
 31
10.81682983276918
  0
LINE
  5
4B9
330
3DF
100
AcDbEntity
  8
PV-735A
100
AcDbLine
 10
16.65326546472133
 20
-0.3636490732211204
 30
13.0249806988958
 11
18.13234089778466
 21
-1.842724506284426
 31
10.06682983276917
  0
LINE
  5
4BA
330
3DF
100
AcDbEntity
  8
PV-735A
100
AcDbLine
 10
18.13234089778466
 20
-1.842724506284426
 30
10.06682983276917
 11
18.11900756445133
 21
-1.849391172951092
 31
10.07349649943584
  0
LINE
  5
4BB
330
3DF
100
AcDbEntity
  8
PV-735A
100
AcDbLine
 10
16.63993213138801
 20
-0.3703157398877881
 30
13.03164736556247
 11
18.11900756445133
 21
-1.84939117295109
 31
10.07349649943584
  0
ELLIPSE
  5
4BC
330
3DF
100
AcDbEntity
  8
PV-735A
100
AcDbEllipse
 10
16.56476546472132
 20
-0.5406490732211396
 30
12.93648069889579
 11
0.0
 21
-0.1877368504050283
 31
-0.1877368504050285
210
0.577350269189626
220
-0.577350269189626
230
0.5773502691896257
 40
0.577350269189626
 41
2.356194490192337
 42
3.141592653589806
  0
LINE
  5
4BD
330
3DF
100
AcDbEntity
  8
PV-735A
100
AcDbLine
 10
16.65326546472133
 20
-0.3636490732211417
 30
13.02498069889579
 11
16.63993213138799
 21
-0.3703157398878094
 31
13.03164736556246
  0
ELLIPSE
  5
4BE
330
3DF
100
AcDbEntity
  8
PV-735A
100
AcDbEllipse
 10
16.55143213138799
 20
-0.5473157398878055
 30
12.94314736556246
 11
0.0
 21
-0.1877368504050283
 31
-0.1877368504050285
210
0.577350269189626
220
-0.577350269189626
230
0.5773502691896257
 40
0.577350269189626
 41
2.356194490192344
 42
3.141592653589787
  0
LINE
  5
4BF
330
3DF
100
AcDbEntity
  8
PV-735A
100
AcDbLine
 10
16.50274089778465
 20
-0.3839245062844529
 30
13.15522983276915
 11
16.56476546472132
 21
-0.3529122228161121
 31
13.12421754930082
  0
ELLIPSE
  5
4C0
330
3DF
100
AcDbEntity
  8
PV-735A
100
AcDbEllipse
 10
18.10234089778467
 20
0.1172754937155407
 30
12.05682983276912
 11
0.0
 21
-0.0636396103067893
 31
-0.0636396103067893
210
0.5773502691896258
220
-0.5773502691896255
230
0.5773502691896258
 40
0.5773502691896258
 41
1.132416124771198
 42
2.009176528818624
  0
ELLIPSE
  5
4C1
330
3DF
100
AcDbEntity
  8
PV-735A
100
AcDbEllipse
 10
17.07665287488066
 20
0.8158994479076024
 30
13.7811418098652
 11
0.0
 21
-0.0636396103067893
 31
-0.0636396103067893
210
0.5773502691896258
220
-0.5773502691896255
230
0.5773502691896258
 40
0.5773502691896258
 41
1.132416124771162
 42
2.009176528818648
  0
ELLIPSE
  5
4C2
330
3DF
100
AcDbEntity
  8
PV-735A
100
AcDbEllipse
 10
17.70650756445132
 20
0.5131088270488906
 30
12.84849649943583
 11
0.0
 21
-0.0636396103067893
 31
-0.0636396103067893
210
0.5773502691896258
220
-0.5773502691896255
230
0.5773502691896258
 40
0.5773502691896258
 41
1.132416124771186
 42
2.009176528818624
  0
ELLIPSE
  5
4C3
330
3DF
100
AcDbEntity
  8
PV-735A
100
AcDbEllipse
 10
18.37317423111798
 20
-0.1535578396177613
 30
11.51516316610251
 11
0.0
 21
-0.0636396103067893
 31
-0.0636396103067893
210
0.5773502691896258
220
-0.5773502691896255
230
0.5773502691896258
 40
0.5773502691896258
 41
1.132416124771174
 42
2.009176528818636
  0
ELLIPSE
  5
4C4
330
3DF
100
AcDbEntity
  8
PV-735A
100
AcDbEllipse
 10
17.08150756445131
 20
-0.2618911729510849
 30
12.69849649943586
 11
0.0
 21
-0.0636396103067893
 31
-0.0636396103067893
210
0.5773502691896258
220
-0.5773502691896255
230
0.5773502691896258
 40
0.5773502691896258
 41
1.132416124771162
 42
2.009176528818636
  0
ELLIPSE
  5
4C5
330
3DF
100
AcDbEntity
  8
PV-735A
100
AcDbEllipse
 10
17.42734089778468
 20
-0.8577245062844447
 30
11.75682983276912
 11
0.0
 21
-0.0636396103067893
 31
-0.0636396103067893
210
0.5773502691896258
220
-0.5773502691896255
230
0.5773502691896258
 40
0.5773502691896258
 41
1.132416124771162
 42
2.009176528818636
  0
ELLIPSE
  5
4C6
330
3DF
100
AcDbEntity
  8
PV-735A
100
AcDbEllipse
 10
17.73984089778466
 20
-1.170224506284414
 30
11.13182983276918
 11
0.0
 21
-0.0636396103067893
 31
-0.0636396103067893
210
0.5773502691896258
220
-0.5773502691896255
230
0.5773502691896258
 40
0.5773502691896258
 41
1.132416124771162
 42
2.00917652881863
  0
LINE
  5
4C7
330
3DF
100
AcDbEntity
  8
PV-735A
100
AcDbLine
 10
12.5587498043528
 20
3.679866587147316
 30
21.16301201963278
 11
12.51167685631859
 21
3.726939535181527
 31
21.2571579157012
  0
LINE
  5
4C8
330
3DF
100
AcDbEntity
  8
PV-735A
100
AcDbLine
 10
12.97625704402243
 20
5.51235934747774
 30
22.57799754029357
 11
12.5587498043528
 21
3.679866587147316
 31
21.16301201963278
  0
ELLIPSE
  5
4C9
330
3DF
100
AcDbEntity
  8
PV-735A
100
AcDbEllipse
 10
13.17317685631859
 20
5.049939535181538
 30
21.9186579157012
 11
0.0
 21
0.1877368504050283
 31
0.1877368504050285
210
0.577350269189626
220
-0.577350269189626
230
0.5773502691896257
 40
0.577350269189626
 41
4.712388980384694
 42
5.497787143782157
  0
LINE
  5
4CA
330
3DF
100
AcDbEntity
  8
PV-735A
100
AcDbLine
 10
13.29833475658863
 20
3.940244784506511
 30
20.68380526475615
 11
13.29833475658861
 21
5.112518485316543
 31
21.8560789655662
  0
ELLIPSE
  5
4CB
330
3DF
100
AcDbEntity
  8
PV-735A
100
AcDbEllipse
 10
13.42349265685863
 20
4.002823734641534
 30
20.62122631462115
 11
0.0
 21
-0.1877368504050283
 31
-0.1877368504050285
210
0.577350269189626
220
-0.577350269189626
230
0.5773502691896257
 40
0.577350269189626
 41
4.712388980384765
 42
5.497787143782097
  0
LINE
  5
4CC
330
3DF
100
AcDbEntity
  8
PV-735A
100
AcDbLine
 10
13.72001018965192
 20
3.440806201848227
 30
19.76269124903456
 11
13.33499265685863
 21
3.825823734641517
 31
20.53272631462116
  0
ELLIPSE
  5
4CD
330
3DF
100
AcDbEntity
  8
PV-735A
100
AcDbEllipse
 10
13.63151018965193
 20
3.263806201848241
 30
19.67419124903456
 11
0.0
 21
0.1877368504050283
 31
0.1877368504050285
210
0.577350269189626
220
-0.577350269189626
230
0.5773502691896257
 40
0.577350269189626
 41
5.272779893480478
 42
5.49778714378217
  0
LINE
  5
4CE
330
3DF
100
AcDbEntity
  8
PV-735A
100
AcDbLine
 10
13.75666808992196
 20
2.216148301578193
 30
18.50137544849449
 11
13.75666808992196
 21
2.227148301578191
 31
18.51237544849449
  0
LINE
  5
4CF
330
3DF
100
AcDbEntity
  8
PV-735A
100
AcDbLine
 10
13.75666808992196
 20
2.21614830157819
 30
18.50137544849449
 11
12.54833475658861
 21
3.424481634911517
 31
20.91804211516117
  0
LINE
  5
4D0
330
3DF
100
AcDbEntity
  8
PV-735A
100
AcDbLine
 10
13.75666808992196
 20
2.216148301578193
 30
18.50137544849449
 11
13.72026091691104
 21
2.197944715072729
 31
18.51957903499995
  0
LINE
  5
4D1
330
3DF
100
AcDbEntity
  8
PV-735A
100
AcDbLine
 10
12.54833475658862
 20
3.612518485316538
 30
21.10607896556619
 11
12.54833475658861
 21
3.424481634911517
 31
20.91804211516117
  0
LINE
  5
4D2
330
3DF
100
AcDbEntity
  8
PV-735A
100
AcDbLine
 10
12.54833475658861
 20
3.424481634911517
 30
20.91804211516117
 11
12.50633475658861
 21
3.403481634911518
 31
20.93904211516116
  0
LINE
  5
4D3
330
3DF
100
AcDbEntity
  8
PV-735A
100
AcDbLine
 10
12.51167685631859
 20
3.72693953518153
 30
21.2571579157012
 11
12.46967685631859
 21
3.705939535181531
 31
21.2781579157012
  0
ELLIPSE
  5
4D4
330
3DF
100
AcDbEntity
  8
PV-735A
100
AcDbEllipse
 10
12.42317685631859
 20
3.549939535181533
 30
21.1686579157012
 11
0.0
 21
-0.1877368504050283
 31
-0.1877368504050285
210
0.577350269189626
220
-0.577350269189626
230
0.5773502691896257
 40
0.577350269189626
 41
1.570796326794882
 42
2.356194490192351
  0
LINE
  5
4D5
330
3DF
100
AcDbEntity
  8
PV-735A
100
AcDbLine
 10
12.54833475658862
 20
3.612518485316538
 30
21.10607896556619
 11
12.50633475658862
 21
3.591518485316539
 31
21.12707896556619
  0
LINE
  5
4D6
330
3DF
100
AcDbEntity
  8
PV-735A
100
AcDbLine
 10
13.2616768563186
 20
5.226939535181559
 30
22.00715791570122
 11
12.97625704402243
 21
5.51235934747773
 31
22.57799754029357
  0
LINE
  5
4D7
330
3DF
100
AcDbEntity
  8
PV-735A
100
AcDbLine
 10
12.97625704402243
 20
5.51235934747774
 30
22.57799754029357
 11
12.96718219907398
 21
5.507821925003513
 31
22.58253496276779
  0
ELLIPSE
  5
4D8
330
3DF
100
AcDbEntity
  8
PV-735A
100
AcDbEllipse
 10
12.38117685631859
 20
3.528939535181532
 30
21.1896579157012
 11
0.0
 21
-0.1877368504050283
 31
-0.1877368504050285
210
0.577350269189626
220
-0.577350269189626
230
0.5773502691896257
 40
0.577350269189626
 41
1.570796326794882
 42
2.356194490192344
  0
LINE
  5
4D9
330
3DF
100
AcDbEntity
  8
PV-735A
100
AcDbLine
 10
12.50633475658862
 20
3.591518485316539
 30
21.12707896556619
 11
12.50633475658861
 21
3.403481634911518
 31
20.93904211516116
  0
LINE
  5
4DA
330
3DF
100
AcDbEntity
  8
PV-735A
100
AcDbLine
 10
12.50633475658861
 20
3.403481634911518
 30
20.93904211516116
 11
12.5157468522388
 21
3.394069539261327
 31
20.92021792386078
  0
LINE
  5
4DB
330
3DF
100
AcDbEntity
  8
PV-735A
100
AcDbLine
 10
12.03235102097892
 20
5.503310627855583
 30
23.51285484371493
 11
11.97879242889855
 21
5.283743238156421
 31
23.34684604609613
  0
LINE
  5
4DC
330
3DF
100
AcDbEntity
  8
PV-735A
100
AcDbLine
 10
11.61496727445862
 20
3.670033617389055
 30
22.09696157976869
 11
12.48905013566531
 21
3.678074258379279
 31
21.23091935955223
  0
LINE
  5
4DD
330
3DF
100
AcDbEntity
  8
PV-735A
100
AcDbLine
 10
11.58547724910488
 20
3.671318713875349
 30
22.12773670160872
 11
12.48828123213983
 21
3.679623558912703
 31
21.23323756361113
  0
LINE
  5
4DE
330
3DF
100
AcDbEntity
  8
PV-735A
100
AcDbLine
 10
12.96262349406127
 20
5.511868154048052
 30
22.59113989682504
 11
12.54846548688345
 21
3.690150904616674
 31
21.18358065457149
  0
LINE
  5
4DF
330
3DF
100
AcDbEntity
  8
PV-735A
100
AcDbLine
 10
12.98950540362659
 20
5.499110987873578
 30
22.55150082108524
 11
12.992113519415
 21
5.510583057561758
 31
22.56036477498502
  0
LINE
  5
4E0
330
3DF
100
AcDbEntity
  8
PV-735A
100
AcDbLine
 10
12.96718219907398
 20
5.507821925003513
 30
22.58253496276779
 11
12.55329346409634
 21
3.685322927403779
 31
21.1739247001457
  0
LINE
  5
4E1
330
3DF
100
AcDbEntity
  8
PV-735A
100
AcDbLine
 10
12.96262349406127
 20
5.511868154048052
 30
22.59113989682504
 11
12.97426044290636
 21
5.511361046919704
 31
22.5789958408516
  0
LINE
  5
4E2
330
3DF
100
AcDbEntity
  8
PV-735A
100
AcDbLine
 10
12.97739180078769
 20
5.511224590712483
 30
22.57572802676305
 11
12.992113519415
 21
5.510583057561758
 31
22.56036477498502
  0
LINE
  5
4E3
330
3DF
100
AcDbEntity
  8
PV-735A
100
AcDbLine
 10
12.03235102097892
 20
5.503310627855583
 30
23.51285484371493
 11
12.96262349406127
 21
5.511868154048052
 31
22.59113989682504
  0
ELLIPSE
  5
4E4
330
3DF
100
AcDbEntity
  8
PV-735A
100
AcDbEllipse
 10
12.03996054049708
 20
5.258106767604335
 30
23.26004146394551
 11
-0.03906619517799
 21
-0.0734346216466355
 31
-0.0343684264686456
210
0.5773502691896258
220
-0.577350269189626
230
0.5773502691896259
 40
0.7361005317151173
 41
3.469263011573034
 42
3.815870568026707
  0
LINE
  5
4E5
330
3DF
100
AcDbEntity
  8
PV-735A
100
AcDbLine
 10
11.97879242889856
 20
5.283743238156423
 30
23.34684604609613
 11
11.98208828571866
 21
5.283599613525112
 31
23.34340656464471
  0
ELLIPSE
  5
4E6
330
3DF
100
AcDbEntity
  8
PV-735A
100
AcDbEllipse
 10
12.01047051514335
 20
5.25939186409063
 30
23.29081658578553
 11
0.03906619517799
 21
0.0734346216466355
 31
0.0343684264686456
210
0.5773502691896258
220
-0.5773502691896258
230
0.5773502691896258
 40
0.7361005317151168
 41
2.738576753195189
 42
7.543286568113119
  0
LINE
  5
4E7
330
3DF
100
AcDbEntity
  8
PV-735A
100
AcDbLine
 10
11.95656583115292
 20
5.192623665006042
 30
23.27795307069138
 11
11.95985295833712
 21
5.192480420788928
 31
23.27452269929008
  0
LINE
  5
4E8
330
3DF
100
AcDbEntity
  8
PV-735A
100
AcDbLine
 10
11.95656583115292
 20
5.192623665006044
 30
23.27795307069138
 11
11.58547724910488
 21
3.671318713875349
 31
22.12773670160872
  0
LINE
  5
4E9
330
3DF
100
AcDbEntity
  8
PV-735A
100
AcDbLine
 10
11.58547724910488
 20
3.671318713875349
 30
22.12773670160872
 11
11.61496727445862
 21
3.670033617389057
 31
22.0969615797687
  0
LINE
  5
4EA
330
3DF
100
AcDbEntity
  8
PV-735A
100
AcDbLine
 10
12.15692032194189
 20
5.574332213714118
 30
23.45930712861049
 11
12.03312309703908
 21
5.507711860369985
 31
23.51648400016916
  0
LINE
  5
4EB
330
3DF
100
AcDbEntity
  8
PV-735A
100
AcDbLine
 10
12.03312309703908
 20
5.507711860369983
 30
23.51648400016916
 11
11.58042973594664
 21
3.672937964366202
 31
22.13440346525782
  0
LINE
  5
4EC
330
3DF
100
AcDbEntity
  8
PV-735A
100
AcDbLine
 10
12.03312309703908
 20
5.507711860369985
 30
23.51648400016916
 11
12.06651485539936
 21
5.524154220915335
 31
23.49953460235424
  0
ELLIPSE
  5
4ED
330
3DF
100
AcDbEntity
  8
PV-735A
100
AcDbEllipse
 10
12.01372318892399
 20
5.259250121260761
 30
23.28742216917502
 11
-0.0390315003543733
 21
-0.0734361272440608
 31
-0.0344046268896875
210
0.5773502691896258
220
-0.5773502691896258
230
0.5773502691896259
 40
0.7352895131266824
 41
3.816261906200891
 42
4.401284077126894
  0
ELLIPSE
  5
4EE
330
3DF
100
AcDbEntity
  8
PV-735A
100
AcDbEllipse
 10
12.01372318892399
 20
5.259250121260761
 30
23.28742216917502
 11
-0.0390315003543733
 21
-0.0734361272440608
 31
-0.0344046268896875
210
0.5773502691896258
220
-0.5773502691896258
230
0.5773502691896259
 40
0.7352895131266824
 41
5.879759569388582
 42
6.247076502171524
  0
LINE
  5
4EF
330
3DF
100
AcDbEntity
  8
PV-735A
100
AcDbLine
 10
11.98347837741772
 20
5.187605962621555
 30
23.2460228220421
 11
12.01560712078695
 21
5.31782430623283
 31
23.34411242228414
  0
LINE
  5
4F0
330
3DF
100
AcDbEntity
  8
PV-735A
100
AcDbLine
 10
12.01560710376526
 20
5.317824237161236
 30
23.34411237023424
 11
12.04187356827226
 21
5.316717219980324
 31
23.31673888854632
  0
LINE
  5
4F1
330
3DF
100
AcDbEntity
  8
PV-735A
100
AcDbLine
 10
12.06143813794254
 20
5.503578198672181
 30
23.4840352975679
 11
12.06651485539937
 21
5.524154220915338
 31
23.49953460235424
  0
LINE
  5
4F2
330
3DF
100
AcDbEntity
  8
PV-735A
100
AcDbLine
 10
12.06651485539937
 20
5.524154220915342
 30
23.49953460235423
 11
12.15650472371879
 21
5.572581452055127
 31
23.45797196517459
  0
LINE
  5
4F3
330
3DF
100
AcDbEntity
  8
PV-735A
100
AcDbLine
 10
11.58042973594664
 20
3.672937964366202
 30
22.13440346525782
 11
11.58661517435084
 21
3.675983722162948
 31
22.13126378465037
  0
ELLIPSE
  5
4F4
330
3DF
100
AcDbEntity
  8
PV-735A
100
AcDbEllipse
 10
14.025732131388
 20
2.067584260112123
 30
18.08374736556237
 11
-0.1877368504050289
 21
-0.0000000000000011
 31
0.1877368504050278
210
0.5773502691896257
220
-0.577350269189626
230
0.5773502691896258
 40
0.5773502691896223
 41
3.926990816987245
 42
4.712388980384714
  0
LINE
  5
4F5
330
3DF
100
AcDbEntity
  8
PV-735A
100
AcDbLine
 10
13.85407423111803
 20
2.192742160382126
 30
18.38056316610235
 11
14.088311081523
 21
2.192742160382131
 31
18.14632631569739
  0
LINE
  5
4F6
330
3DF
100
AcDbEntity
  8
PV-735A
100
AcDbLine
 10
13.81207423111803
 20
2.171742160382125
 30
18.40156316610235
 11
13.85407423111802
 21
2.192742160382126
 31
18.38056316610235
  0
LINE
  5
4F7
330
3DF
100
AcDbEntity
  8
PV-735A
100
AcDbLine
 10
12.60374089778468
 20
3.380075493715454
 30
20.81822983276904
 11
13.81207423111803
 21
2.171742160382125
 31
18.40156316610235
  0
LINE
  5
4F8
330
3DF
100
AcDbEntity
  8
PV-735A
100
AcDbLine
 10
12.64574089778468
 20
3.401075493715454
 30
20.79722983276903
 11
12.60374089778468
 21
3.380075493715454
 31
20.81822983276904
  0
LINE
  5
4F9
330
3DF
100
AcDbEntity
  8
PV-735A
100
AcDbLine
 10
12.60374089778468
 20
3.380075493715454
 30
20.81822983276904
 11
12.62107423111802
 21
3.414742160382136
 31
20.83556316610238
  0
LINE
  5
4FA
330
3DF
100
AcDbEntity
  8
PV-735A
100
AcDbLine
 10
12.66307423111801
 20
3.435742160382121
 30
20.81456316610237
 11
12.62107423111801
 21
3.41474216038212
 31
20.83556316610237
  0
LINE
  5
4FB
330
3DF
100
AcDbEntity
  8
PV-735A
100
AcDbLine
 10
13.62997774818968
 20
3.401075493715454
 30
19.81299298236403
 11
12.64574089778468
 21
3.401075493715454
 31
20.79722983276903
  0
LINE
  5
4FC
330
3DF
100
AcDbEntity
  8
PV-735A
100
AcDbLine
 10
12.64574089778468
 20
3.401075493715454
 30
20.79722983276903
 11
12.66307423111802
 21
3.435742160382137
 31
20.81456316610237
  0
LINE
  5
4FD
330
3DF
100
AcDbEntity
  8
PV-735A
100
AcDbLine
 10
13.64731108152301
 20
3.435742160382121
 30
19.83032631569736
 11
12.66307423111801
 21
3.435742160382121
 31
20.81456316610237
  0
ELLIPSE
  5
4FE
330
3DF
100
AcDbEntity
  8
PV-735A
100
AcDbEllipse
 10
13.56739879805467
 20
3.275917593445432
 30
19.75041403222901
 11
0.1877368504050289
 21
0.0000000000000011
 31
-0.1877368504050278
210
0.5773502691896257
220
-0.577350269189626
230
0.5773502691896258
 40
0.5773502691896223
 41
0.785398163397479
 42
1.570796326794936
  0
LINE
  5
4FF
330
3DF
100
AcDbEntity
  8
PV-735A
100
AcDbLine
 10
13.62997774818968
 20
3.401075493715458
 30
19.81299298236404
 11
13.64731108152302
 21
3.435742160382133
 31
19.83032631569737
  0
ELLIPSE
  5
500
330
3DF
100
AcDbEntity
  8
PV-735A
100
AcDbEllipse
 10
13.58473213138801
 20
3.310584260112099
 30
19.76774736556234
 11
0.1877368504050289
 21
0.0000000000000011
 31
-0.1877368504050278
210
0.5773502691896257
220
-0.577350269189626
230
0.5773502691896258
 40
0.5773502691896223
 41
0.7853981633974856
 42
1.570796326794936
  0
LINE
  5
501
330
3DF
100
AcDbEntity
  8
PV-735A
100
AcDbLine
 10
14.12941633084796
 20
2.979400060652158
 30
18.89187896664245
 11
13.74439879805468
 21
3.364417593445438
 31
19.66191403222902
  0
LINE
  5
502
330
3DF
100
AcDbEntity
  8
PV-735A
100
AcDbLine
 10
13.74439879805468
 20
3.364417593445434
 30
19.66191403222902
 11
13.76173213138801
 21
3.399084260112113
 31
19.67924736556235
  0
LINE
  5
503
330
3DF
100
AcDbEntity
  8
PV-735A
100
AcDbLine
 10
14.1467496641813
 20
3.014066727318825
 30
18.90921229997579
 11
13.76173213138801
 21
3.399084260112104
 31
19.67924736556235
  0
ELLIPSE
  5
504
330
3DF
100
AcDbEntity
  8
PV-735A
100
AcDbEllipse
 10
14.30641633084796
 20
3.06790006065216
 30
18.80337896664245
 11
-0.1877368504050289
 21
-0.0000000000000011
 31
0.1877368504050278
210
0.5773502691896257
220
-0.577350269189626
230
0.5773502691896258
 40
0.5773502691896223
 41
0.7853981633974522
 42
1.570796326794884
  0
LINE
  5
505
330
3DF
100
AcDbEntity
  8
PV-735A
100
AcDbLine
 10
14.12941633084796
 20
2.979400060652158
 30
18.89187896664245
 11
14.1467496641813
 21
3.01406672731883
 31
18.90921229997579
  0
ELLIPSE
  5
506
330
3DF
100
AcDbEntity
  8
PV-735A
100
AcDbEllipse
 10
14.32374966418129
 20
3.102566727318826
 30
18.82071229997579
 11
-0.1877368504050289
 21
-0.0000000000000011
 31
0.1877368504050278
210
0.5773502691896257
220
-0.577350269189626
230
0.5773502691896258
 40
0.5773502691896223
 41
0.7853981633974522
 42
1.570796326794884
  0
LINE
  5
507
330
3DF
100
AcDbEntity
  8
PV-735A
100
AcDbLine
 10
15.58831108152301
 20
2.942742160382129
 30
17.39632631569738
 11
14.24383738071295
 21
2.942742160382136
 31
18.74080001650744
  0
LINE
  5
508
330
3DF
100
AcDbEntity
  8
PV-735A
100
AcDbLine
 10
14.24383738071295
 20
2.942742160382136
 30
18.74080001650744
 11
14.26117071404628
 21
2.977408827048808
 31
18.75813334984078
  0
LINE
  5
509
330
3DF
100
AcDbEntity
  8
PV-735A
100
AcDbLine
 10
15.60564441485635
 20
2.977408827048796
 30
17.41365964903071
 11
14.26117071404628
 21
2.977408827048803
 31
18.75813334984078
  0
ELLIPSE
  5
50A
330
3DF
100
AcDbEntity
  8
PV-735A
100
AcDbEllipse
 10
15.52573213138801
 20
2.817584260112139
 30
17.33374736556238
 11
0.1877368504050289
 21
0.0000000000000011
 31
-0.1877368504050278
210
0.5773502691896257
220
-0.577350269189626
230
0.5773502691896258
 40
0.5773502691896223
 41
0.785398163397459
 42
1.570796326794884
  0
LINE
  5
50B
330
3DF
100
AcDbEntity
  8
PV-735A
100
AcDbLine
 10
15.58831108152301
 20
2.942742160382129
 30
17.39632631569738
 11
15.60564441485635
 21
2.977408827048796
 31
17.41365964903071
  0
ELLIPSE
  5
50C
330
3DF
100
AcDbEntity
  8
PV-735A
100
AcDbEllipse
 10
15.54306546472134
 20
2.852250926778806
 30
17.35108069889571
 11
0.1877368504050289
 21
0.0000000000000011
 31
-0.1877368504050278
210
0.5773502691896257
220
-0.577350269189626
230
0.5773502691896258
 40
0.5773502691896223
 41
0.785398163397459
 42
1.570796326794884
  0
LINE
  5
50D
330
3DF
100
AcDbEntity
  8
PV-735A
100
AcDbLine
 10
16.00774089778466
 20
2.601075493715477
 30
16.63522983276908
 11
15.702732131388
 21
2.906084260112132
 31
17.2452473655624
  0
LINE
  5
50E
330
3DF
100
AcDbEntity
  8
PV-735A
100
AcDbLine
 10
15.70273213138799
 20
2.906084260112132
 30
17.24524736556239
 11
15.72006546472133
 21
2.940750926778799
 31
17.26258069889573
  0
LINE
  5
50F
330
3DF
100
AcDbEntity
  8
PV-735A
100
AcDbLine
 10
16.02507423111799
 20
2.635742160382143
 30
16.65256316610242
 11
15.72006546472133
 21
2.940750926778799
 31
17.26258069889573
  0
ELLIPSE
  5
510
330
3DF
100
AcDbEntity
  8
PV-735A
100
AcDbEllipse
 10
16.04107423111846
 20
2.567742160382382
 30
16.56856316610218
 11
-0.070710678118655
 21
-0.0000000000000004
 31
0.0707106781186546
210
0.5773502691896259
220
-0.577350269189626
230
0.5773502691896257
 40
0.5773502691896225
 41
5.497787143789252
 42
8.639379797364799
  0
LINE
  5
511
330
3DF
100
AcDbEntity
  8
PV-735A
100
AcDbLine
 10
16.00774089778466
 20
2.601075493715477
 30
16.63522983276908
 11
16.02507423111799
 21
2.63574216038214
 31
16.65256316610242
  0
ELLIPSE
  5
512
330
3DF
100
AcDbEntity
  8
PV-735A
100
AcDbEllipse
 10
16.0584075644518
 20
2.602408827049048
 30
16.58589649943551
 11
-0.070710678118655
 21
-0.0000000000000004
 31
0.0707106781186546
210
0.5773502691896259
220
-0.577350269189626
230
0.5773502691896257
 40
0.5773502691896225
 41
0.3765297308752426
 42
2.356194490185212
  0
LINE
  5
513
330
3DF
100
AcDbEntity
  8
PV-735A
100
AcDbLine
 10
16.46607423111797
 20
2.142742160382166
 30
15.71856316610246
 11
16.0744075644513
 21
2.534408827048824
 31
16.50189649943578
  0
LINE
  5
514
330
3DF
100
AcDbEntity
  8
PV-735A
100
AcDbLine
 10
16.07440756445131
 20
2.534408827048824
 30
16.50189649943579
 11
16.09174089778464
 21
2.569075493715489
 31
16.51922983276911
  0
LINE
  5
515
330
3DF
100
AcDbEntity
  8
PV-735A
100
AcDbLine
 10
16.4834075644513
 20
2.177408827048832
 30
15.73589649943579
 11
16.09174089778464
 21
2.569075493715491
 31
16.51922983276911
  0
ELLIPSE
  5
516
330
3DF
100
AcDbEntity
  8
PV-735A
100
AcDbEllipse
 10
16.49940756445177
 20
2.109408827049076
 30
15.65189649943555
 11
-0.070710678118655
 21
-0.0000000000000004
 31
0.0707106781186546
210
0.5773502691896259
220
-0.577350269189626
230
0.5773502691896257
 40
0.5773502691896225
 41
5.497787143789234
 42
8.639379797364817
  0
LINE
  5
517
330
3DF
100
AcDbEntity
  8
PV-735A
100
AcDbLine
 10
16.46607423111797
 20
2.142742160382169
 30
15.71856316610246
 11
16.48340756445129
 21
2.177408827048827
 31
15.73589649943579
  0
ELLIPSE
  5
518
330
3DF
100
AcDbEntity
  8
PV-735A
100
AcDbEllipse
 10
16.51674089778511
 20
2.144075493715742
 30
15.66922983276888
 11
-0.070710678118655
 21
-0.0000000000000004
 31
0.0707106781186546
210
0.5773502691896259
220
-0.577350269189626
230
0.5773502691896257
 40
0.5773502691896225
 41
0.3765297308752589
 42
2.35619449018523
  0
LINE
  5
519
330
3DF
100
AcDbEntity
  8
PV-735A
100
AcDbLine
 10
16.83774966418129
 20
1.771066727318849
 30
14.97521229997581
 11
16.53274089778463
 21
2.076075493715515
 31
15.58522983276916
  0
LINE
  5
51A
330
3DF
100
AcDbEntity
  8
PV-735A
100
AcDbLine
 10
16.53274089778463
 20
2.076075493715515
 30
15.58522983276916
 11
16.55007423111795
 21
2.110742160382173
 31
15.60256316610248
  0
LINE
  5
51B
330
3DF
100
AcDbEntity
  8
PV-735A
100
AcDbLine
 10
16.85508299751463
 20
1.805733393985516
 30
14.99254563330915
 11
16.55007423111796
 21
2.110742160382182
 31
15.60256316610249
  0
ELLIPSE
  5
51C
330
3DF
100
AcDbEntity
  8
PV-735A
100
AcDbEllipse
 10
16.66074966418131
 20
1.682566727318862
 30
15.0637122999758
 11
0.1877368504050289
 21
0.0000000000000011
 31
-0.1877368504050278
210
0.5773502691896257
220
-0.577350269189626
230
0.5773502691896258
 40
0.5773502691896223
 41
0.000000000000029
 42
0.7853981633974456
  0
LINE
  5
51D
330
3DF
100
AcDbEntity
  8
PV-735A
100
AcDbLine
 10
16.83774966418131
 20
1.771066727318858
 30
14.9752122999758
 11
16.85508299751464
 21
1.80573339398551
 31
14.99254563330913
  0
ELLIPSE
  5
51E
330
3DF
100
AcDbEntity
  8
PV-735A
100
AcDbEllipse
 10
16.67808299751464
 20
1.717233393985528
 30
15.08104563330913
 11
0.1877368504050289
 21
0.0000000000000011
 31
-0.1877368504050278
210
0.5773502691896257
220
-0.577350269189626
230
0.5773502691896258
 40
0.5773502691896223
 41
0.0000000000000195
 42
0.7853981633974456
  0
LINE
  5
51F
330
3DF
100
AcDbEntity
  8
PV-735A
100
AcDbLine
 10
16.4003286143163
 20
0.7862509267788252
 30
14.42781754930079
 11
16.8484865145863
 21
1.682566727318862
 31
14.87597544957082
  0
LINE
  5
520
330
3DF
100
AcDbEntity
  8
PV-735A
100
AcDbLine
 10
16.8484865145863
 20
1.682566727318862
 30
14.87597544957082
 11
16.86581984791963
 21
1.717233393985512
 31
14.89330878290415
  0
ELLIPSE
  5
521
330
3DF
100
AcDbEntity
  8
PV-735A
100
AcDbEllipse
 10
16.58806546472133
 20
0.7862509267788287
 30
14.24008069889575
 11
-0.1877368504050289
 21
-0.0000000000000011
 31
0.1877368504050278
210
0.5773502691896257
220
-0.577350269189626
230
0.5773502691896258
 40
0.5773502691896223
 41
0.0000000000000101
 42
0.785398163397459
  0
ELLIPSE
  5
522
330
3DF
100
AcDbEntity
  8
PV-735A
100
AcDbEllipse
 10
16.60539879805466
 20
0.820917593445495
 30
14.25741403222909
 11
-0.1877368504050289
 21
-0.0000000000000011
 31
0.1877368504050278
210
0.5773502691896257
220
-0.577350269189626
230
0.5773502691896258
 40
0.5773502691896223
 41
0.0000000000000101
 42
0.785398163397459
  0
LINE
  5
523
330
3DF
100
AcDbEntity
  8
PV-735A
100
AcDbLine
 10
16.79608299751462
 20
0.3127333939855443
 30
13.55854563330919
 11
16.41106546472133
 21
0.6977509267788254
 31
14.32858069889575
  0
LINE
  5
524
330
3DF
100
AcDbEntity
  8
PV-735A
100
AcDbLine
 10
16.41106546472133
 20
0.6977509267788254
 30
14.32858069889575
 11
16.42839879805466
 21
0.7324175934454705
 31
14.34591403222908
  0
LINE
  5
525
330
3DF
100
AcDbEntity
  8
PV-735A
100
AcDbLine
 10
16.81341633084795
 20
0.3474000606522107
 30
13.57587896664252
 11
16.42839879805466
 21
0.7324175934454918
 31
14.34591403222909
  0
ELLIPSE
  5
526
330
3DF
100
AcDbEntity
  8
PV-735A
100
AcDbEllipse
 10
16.61908299751462
 20
0.2242333939855499
 30
13.64704563330919
 11
0.1877368504050289
 21
0.0000000000000011
 31
-0.1877368504050278
210
0.5773502691896257
220
-0.577350269189626
230
0.5773502691896258
 40
0.5773502691896223
 41
-0.0000000000000088
 42
0.7853981633974389
  0
LINE
  5
527
330
3DF
100
AcDbEntity
  8
PV-735A
100
AcDbLine
 10
16.79608299751462
 20
0.3127333939855426
 30
13.55854563330919
 11
16.81341633084794
 21
0.3474000606521859
 31
13.57587896664251
  0
ELLIPSE
  5
528
330
3DF
100
AcDbEntity
  8
PV-735A
100
AcDbEllipse
 10
16.63641633084795
 20
0.2589000606522163
 30
13.66437896664252
 11
0.1877368504050289
 21
0.0000000000000011
 31
-0.1877368504050278
210
0.5773502691896257
220
-0.577350269189626
230
0.5773502691896258
 40
0.5773502691896223
 41
-0.0000000000000088
 42
0.7853981633974389
  0
LINE
  5
529
330
3DF
100
AcDbEntity
  8
PV-735A
100
AcDbLine
 10
16.47874089778465
 20
-0.431924506284453
 30
13.13122983276915
 11
16.80681984791965
 21
0.2242333939855445
 31
13.45930878290416
  0
LINE
  5
52A
330
3DF
100
AcDbEntity
  8
PV-735A
100
AcDbLine
 10
16.80681984791965
 20
0.2242333939855428
 30
13.45930878290416
 11
16.82415318125296
 21
0.2589000606521861
 31
13.47664211623748
  0
LINE
  5
52B
330
3DF
100
AcDbEntity
  8
PV-735A
100
AcDbLine
 10
16.43674089778465
 20
-0.4529245062844556
 30
13.15222983276916
 11
16.47874089778465
 21
-0.431924506284453
 31
13.13122983276915
  0
LINE
  5
52C
330
3DF
100
AcDbEntity
  8
PV-735A
100
AcDbLine
 10
15.22840756445128
 20
0.7554088270488979
 30
15.56889649943587
 11
16.43674089778466
 21
-0.4529245062844556
 31
13.15222983276915
  0
LINE
  5
52D
330
3DF
100
AcDbEntity
  8
PV-735A
100
AcDbLine
 10
15.27040756445129
 20
0.7764088270488916
 30
15.54789649943587
 11
15.22840756445128
 21
0.7554088270488944
 31
15.56889649943587
  0
LINE
  5
52E
330
3DF
100
AcDbEntity
  8
PV-735A
100
AcDbLine
 10
15.22840756445128
 20
0.7554088270488979
 30
15.56889649943587
 11
15.24574089778461
 21
0.7900754937155466
 31
15.5862298327692
  0
LINE
  5
52F
330
3DF
100
AcDbEntity
  8
PV-735A
100
AcDbLine
 10
15.28774089778462
 20
0.8110754937155579
 30
15.5652298327692
 11
15.24574089778462
 21
0.7900754937155608
 31
15.5862298327692
  0
LINE
  5
530
330
3DF
100
AcDbEntity
  8
PV-735A
100
AcDbLine
 10
15.34848651458629
 20
0.9325667273188571
 30
15.62597544957082
 11
15.27040756445131
 21
0.7764088270488987
 31
15.54789649943584
  0
ELLIPSE
  5
531
330
3DF
100
AcDbEntity
  8
PV-735A
100
AcDbEllipse
 10
15.16074966418128
 20
0.9325667273188624
 30
15.81371229997583
 11
-0.1877368504050289
 21
-0.0000000000000011
 31
0.1877368504050278
210
0.5773502691896257
220
-0.577350269189626
230
0.5773502691896258
 40
0.5773502691896223
 41
3.14159265358976
 42
3.926990816987238
  0
LINE
  5
532
330
3DF
100
AcDbEntity
  8
PV-735A
100
AcDbLine
 10
15.03274089778465
 20
1.326075493715519
 30
16.33522983276914
 11
15.3377496641813
 21
1.021066727318871
 31
15.72521229997582
  0
ELLIPSE
  5
533
330
3DF
100
AcDbEntity
  8
PV-735A
100
AcDbEllipse
 10
14.99940756445082
 20
1.359408827048612
 30
16.40189649943604
 11
-0.070710678118655
 21
-0.0000000000000004
 31
0.0707106781186546
210
0.5773502691896259
220
-0.577350269189626
230
0.5773502691896257
 40
0.5773502691896225
 41
2.35619449019969
 42
5.497787143774757
  0
LINE
  5
534
330
3DF
100
AcDbEntity
  8
PV-735A
100
AcDbLine
 10
15.03274089778465
 20
1.326075493715519
 30
16.33522983276914
 11
15.05007423111798
 21
1.360742160382176
 31
16.35256316610246
  0
ELLIPSE
  5
535
330
3DF
100
AcDbEntity
  8
PV-735A
100
AcDbEllipse
 10
15.01674089778415
 20
1.394075493715279
 30
16.41922983276938
 11
-0.070710678118655
 21
-0.0000000000000004
 31
0.0707106781186546
210
0.5773502691896259
220
-0.577350269189626
230
0.5773502691896257
 40
0.5773502691896225
 41
2.35619449019969
 42
2.765062922714518
  0
LINE
  5
536
330
3DF
100
AcDbEntity
  8
PV-735A
100
AcDbLine
 10
14.57440756445135
 20
1.784408827048816
 30
17.25189649943572
 11
14.96607423111913
 21
1.392742160381045
 31
16.46856316610017
  0
ELLIPSE
  5
537
330
3DF
100
AcDbEntity
  8
PV-735A
100
AcDbEllipse
 10
14.54107423111752
 20
1.817742160381898
 30
17.31856316610263
 11
-0.070710678118655
 21
-0.0000000000000004
 31
0.0707106781186546
210
0.5773502691896259
220
-0.577350269189626
230
0.5773502691896257
 40
0.5773502691896225
 41
2.356194490199441
 42
5.497787143774739
  0
LINE
  5
538
330
3DF
100
AcDbEntity
  8
PV-735A
100
AcDbLine
 10
14.57440756445133
 20
1.784408827048803
 30
17.25189649943573
 11
14.59174089778466
 21
1.819075493715464
 31
17.26922983276906
  0
ELLIPSE
  5
539
330
3DF
100
AcDbEntity
  8
PV-735A
100
AcDbEllipse
 10
14.55840756445085
 20
1.852408827048565
 30
17.33589649943597
 11
-0.070710678118655
 21
-0.0000000000000004
 31
0.0707106781186546
210
0.5773502691896259
220
-0.577350269189626
230
0.5773502691896257
 40
0.5773502691896225
 41
2.356194490199441
 42
2.765062922714525
  0
LINE
  5
53A
330
3DF
100
AcDbEntity
  8
PV-735A
100
AcDbLine
 10
14.20273213138802
 20
2.156084260112134
 30
17.99524736556237
 11
14.5077408977847
 21
1.851075493715462
 31
17.38522983276903
  0
ELLIPSE
  5
53B
330
3DF
100
AcDbEntity
  8
PV-735A
100
AcDbEllipse
 10
16.16607423111797
 20
1.817742160382168
 30
15.69356316610245
 11
0.057982756057291
 21
-0.0000000000000119
 31
-0.0579827560573029
210
0.5773502691896258
220
-0.577350269189626
230
0.5773502691896259
 40
0.5773502691896217
 41
2.781365097990943
 42
6.283185307179572
  0
ELLIPSE
  5
53C
330
3DF
100
AcDbEntity
  8
PV-735A
100
AcDbEllipse
 10
16.16607423111797
 20
1.817742160382168
 30
15.69356316610245
 11
0.057982756057291
 21
-0.0000000000000119
 31
-0.0579827560573029
210
0.5773502691896258
220
-0.577350269189626
230
0.5773502691896259
 40
0.5773502691896217
 41
-0.0000000000000145
 42
0.3602275555989374
  0
ELLIPSE
  5
53D
330
3DF
100
AcDbEntity
  8
PV-735A
100
AcDbEllipse
 10
16.18340756445131
 20
1.852408827048835
 30
15.71089649943578
 11
0.057982756057291
 21
-0.0000000000000119
 31
-0.0579827560573029
210
0.5773502691896258
220
-0.577350269189626
230
0.5773502691896259
 40
0.5773502691896217
 41
3.814255384019596
 42
5.610522576749837
  0
ELLIPSE
  5
53E
330
3DF
100
AcDbEntity
  8
PV-735A
100
AcDbEllipse
 10
15.37440756445131
 20
1.609408827048833
 30
16.27689649943578
 11
0.057982756057291
 21
-0.0000000000000119
 31
-0.0579827560573029
210
0.5773502691896258
220
-0.577350269189626
230
0.5773502691896259
 40
0.5773502691896217
 41
2.781365097990903
 42
6.28318530717954
  0
ELLIPSE
  5
53F
330
3DF
100
AcDbEntity
  8
PV-735A
100
AcDbEllipse
 10
15.37440756445131
 20
1.609408827048833
 30
16.27689649943578
 11
0.057982756057291
 21
-0.0000000000000119
 31
-0.0579827560573029
210
0.5773502691896258
220
-0.577350269189626
230
0.5773502691896259
 40
0.5773502691896217
 41
-0.000000000000045
 42
0.3602275555989375
  0
ELLIPSE
  5
540
330
3DF
100
AcDbEntity
  8
PV-735A
100
AcDbEllipse
 10
15.39174089778464
 20
1.644075493715499
 30
16.29422983276912
 11
0.057982756057291
 21
-0.0000000000000119
 31
-0.0579827560573029
210
0.5773502691896258
220
-0.577350269189626
230
0.5773502691896259
 40
0.5773502691896217
 41
3.814255384019592
 42
5.610522576749858
  0
ELLIPSE
  5
541
330
3DF
100
AcDbEntity
  8
PV-735A
100
AcDbEllipse
 10
14.89174089778462
 20
2.144075493715513
 30
17.29422983276915
 11
0.057982756057291
 21
-0.0000000000000119
 31
-0.0579827560573029
210
0.5773502691896258
220
-0.577350269189626
230
0.5773502691896259
 40
0.5773502691896217
 41
4.0530842358124
 42
5.371693724957111
  0
ELLIPSE
  5
542
330
3DF
100
AcDbEntity
  8
PV-735A
100
AcDbEllipse
 10
15.66607423111795
 20
2.317742160382179
 30
16.69356316610248
 11
0.057982756057291
 21
-0.0000000000000119
 31
-0.0579827560573029
210
0.5773502691896258
220
-0.577350269189626
230
0.5773502691896259
 40
0.5773502691896217
 41
2.781365097990903
 42
6.283185307179633
  0
ELLIPSE
  5
543
330
3DF
100
AcDbEntity
  8
PV-735A
100
AcDbEllipse
 10
15.66607423111795
 20
2.317742160382179
 30
16.69356316610248
 11
0.057982756057291
 21
-0.0000000000000119
 31
-0.0579827560573029
210
0.5773502691896258
220
-0.577350269189626
230
0.5773502691896259
 40
0.5773502691896217
 41
0.0000000000000469
 42
0.3602275555989375
  0
ELLIPSE
  5
544
330
3DF
100
AcDbEntity
  8
PV-735A
100
AcDbEllipse
 10
15.68340756445128
 20
2.352408827048845
 30
16.71089649943581
 11
0.057982756057291
 21
-0.0000000000000119
 31
-0.0579827560573029
210
0.5773502691896258
220
-0.577350269189626
230
0.5773502691896259
 40
0.5773502691896217
 41
3.814255384019592
 42
5.610522576749861
  0
LINE
  5
545
330
3DF
100
AcDbEntity
  8
PV-735A
100
AcDbLine
 10
17.10683291603791
 20
0.7416463084140262
 30
13.67670862921437
 11
17.14052633168575
 21
0.7584930162379422
 31
13.65986192139045
  0
LINE
  5
546
330
3DF
100
AcDbEntity
  8
PV-735A
100
AcDbLine
 10
17.10683291603792
 20
0.920332628558425
 30
13.85539494935877
 11
17.14052633168575
 21
0.9371793363823428
 31
13.83854824153486
  0
LINE
  5
547
330
3DF
100
AcDbEntity
  8
PV-735A
100
AcDbLine
 10
17.73668760560857
 20
0.4388556875553143
 30
12.744063318785
 11
17.7703810212564
 21
0.4557023953792321
 31
12.72721661096108
  0
LINE
  5
548
330
3DF
100
AcDbEntity
  8
PV-735A
100
AcDbLine
 10
17.73668760560857
 20
0.6175420076997149
 30
12.9227496389294
 11
17.7703810212564
 21
0.634388715523631
 31
12.90590293110549
  0
LINE
  5
549
330
3DF
100
AcDbEntity
  8
PV-735A
100
AcDbLine
 10
18.13252093894193
 20
0.043022354221959
 30
11.9523966521183
 11
18.16621435458976
 21
0.0598690620458768
 31
11.93554994429438
  0
LINE
  5
54A
330
3DF
100
AcDbEntity
  8
PV-735A
100
AcDbLine
 10
18.13252093894193
 20
0.2217086743663597
 30
12.1310829722627
 11
18.16621435458976
 21
0.2385553821902775
 31
12.11423626443878
  0
LINE
  5
54B
330
3DF
100
AcDbEntity
  8
PV-735A
100
AcDbLine
 10
18.40335427227523
 20
-0.2278109791113394
 30
11.41072998545169
 11
18.43704768792307
 21
-0.2109642712874233
 31
11.39388327762777
  0
LINE
  5
54C
330
3DF
100
AcDbEntity
  8
PV-735A
100
AcDbLine
 10
18.40335427227523
 20
-0.0491246589669388
 30
11.58941630559609
 11
18.43704768792307
 21
-0.0322779511430227
 31
11.57256959777217
  0
LINE
  5
54D
330
3DF
100
AcDbEntity
  8
PV-735A
100
AcDbLine
 10
17.77002093894191
 20
-1.244477645777992
 30
11.02739665211836
 11
17.80371435458974
 21
-1.227630937954074
 31
11.01054994429444
  0
LINE
  5
54E
330
3DF
100
AcDbEntity
  8
PV-735A
100
AcDbLine
 10
17.77002093894191
 20
-1.065791325633593
 30
11.20608297226276
 11
17.80371435458974
 21
-1.048944617809677
 31
11.18923626443884
  0
LINE
  5
54F
330
3DF
100
AcDbEntity
  8
PV-735A
100
AcDbLine
 10
17.45752093894193
 20
-0.9319776457780228
 30
11.6523966521183
 11
17.49121435458977
 21
-0.915130937954105
 31
11.63554994429438
  0
LINE
  5
550
330
3DF
100
AcDbEntity
  8
PV-735A
100
AcDbLine
 10
17.45752093894193
 20
-0.7532913256336223
 30
11.8310829722627
 11
17.49121435458977
 21
-0.7364446178097044
 31
11.81423626443878
  0
LINE
  5
551
330
3DF
100
AcDbEntity
  8
PV-735A
100
AcDbLine
 10
17.11168760560856
 20
-0.3361443124446612
 30
12.59406331878504
 11
17.1453810212564
 21
-0.3192976046207452
 31
12.57721661096112
  0
LINE
  5
552
330
3DF
100
AcDbEntity
  8
PV-735A
100
AcDbLine
 10
17.11168760560856
 20
-0.1574579923002606
 30
12.77274963892944
 11
17.1453810212564
 21
-0.1406112844763445
 31
12.75590293110552
  0
LINE
  5
553
330
3DF
100
AcDbEntity
  8
PV-735A
100
AcDbLine
 10
12.96618146441252
 20
3.45856182875126
 30
20.53427560117699
 11
12.99987488006036
 21
3.475408536575177
 31
20.51742889335308
  0
LINE
  5
554
330
3DF
100
AcDbEntity
  8
PV-735A
100
AcDbLine
 10
12.96618146441252
 20
3.637248148895661
 30
20.71296192132139
 11
12.99987488006036
 21
3.654094856719577
 31
20.69611521349748
  0
LINE
  5
555
330
3DF
100
AcDbEntity
  8
PV-735A
100
AcDbLine
 10
13.17376010817522
 20
4.623719116276662
 30
21.4918542449397
 11
13.20745352382306
 21
4.64056582410058
 31
21.47500753711578
  0
LINE
  5
556
330
3DF
100
AcDbEntity
  8
PV-735A
100
AcDbLine
 10
13.17376010817522
 20
4.802405436421064
 30
21.6705405650841
 11
13.20745352382306
 21
4.81925214424498
 31
21.65369385726018
  0
LINE
  5
557
330
3DF
100
AcDbEntity
  8
PV-735A
100
AcDbLine
 10
16.07673107104577
 20
1.817742160382165
 30
15.78290632617465
 11
16.05988436322186
 21
1.784048744734331
 31
15.76605961835074
  0
LINE
  5
558
330
3DF
100
AcDbEntity
  8
PV-735A
100
AcDbLine
 10
16.25541739119017
 20
1.817742160382167
 30
15.60422000603025
 11
16.23857068336626
 21
1.784048744734334
 31
15.58737329820633
  0
LINE
  5
559
330
3DF
100
AcDbEntity
  8
PV-735A
100
AcDbLine
 10
15.57673107104576
 20
2.317742160382177
 30
16.78290632617468
 11
15.55988436322184
 21
2.284048744734343
 31
16.76605961835077
  0
LINE
  5
55A
330
3DF
100
AcDbEntity
  8
PV-735A
100
AcDbLine
 10
15.75541739119015
 20
2.317742160382179
 30
16.60422000603028
 11
15.73857068336623
 21
2.284048744734345
 31
16.58737329820637
  0
LINE
  5
55B
330
3DF
100
AcDbEntity
  8
PV-735A
100
AcDbLine
 10
14.77664105046713
 20
2.092562119224931
 30
17.35781630559605
 11
14.75979434264322
 21
2.058868703577097
 31
17.34096959777214
  0
LINE
  5
55C
330
3DF
100
AcDbEntity
  8
PV-735A
100
AcDbLine
 10
14.95532737061153
 20
2.092562119224931
 30
17.17912998545166
 11
14.93848066278761
 21
2.058868703577097
 31
17.16228327762774
  0
LINE
  5
55D
330
3DF
100
AcDbEntity
  8
PV-735A
100
AcDbLine
 10
15.28506440437911
 20
1.609408827048833
 30
16.36623965950798
 11
15.26821769655519
 21
1.575715411401001
 31
16.34939295168407
  0
LINE
  5
55E
330
3DF
100
AcDbEntity
  8
PV-735A
100
AcDbLine
 10
15.46375072452351
 20
1.609408827048834
 30
16.18755333936358
 11
15.44690401669959
 21
1.575715411401001
 31
16.17070663153967
  0
LINE
  5
55F
330
3DF
100
AcDbEntity
  8
PV-735A
100
AcDbLine
 10
12.69118729616064
 20
5.371756146304832
 30
22.72246408698245
 11
12.68077586347281
 21
5.373256966155178
 31
22.73437633952063
  0
LINE
  5
560
330
3DF
100
AcDbEntity
  8
PV-735A
100
AcDbLine
 10
12.57390439959302
 20
5.165967480975877
 30
22.63395831822112
 11
12.55763607371097
 21
5.168312578634164
 31
22.65257174176146
  0
LINE
  5
561
330
3DF
100
AcDbEntity
  8
PV-735A
100
AcDbLine
 10
12.35738630142086
 20
4.237931491148767
 30
21.92244042656616
 11
12.35143333308178
 21
4.238789618297992
 31
21.92925152205447
  0
LINE
  5
562
330
3DF
100
AcDbEntity
  8
PV-735A
100
AcDbLine
 10
12.24010340485324
 20
4.032142825819811
 30
21.83393465780483
 11
12.22829354331995
 21
4.033845230776979
 31
21.84744692429529
  0
ENDBLK
  5
563
330
3DF
100
AcDbEntity
  8
0
100
AcDbBlockEnd
  0
BLOCK
  5
567
330
565
100
AcDbEntity
  8
0
100
AcDbBlockBegin
  2
A$C40E6250D
 70
     0
 10
0.0
 20
0.0
 30
0.0
  3
A$C40E6250D
  1

  0
INSERT
  5
566
330
565
100
AcDbEntity
  8
PV-735A
100
AcDbBlockReference
  2
*U4
 10
11.25177872345332
 20
-15.43786741672083
 30
-8.209453761993977
 50
134.9999999999999
210
0.0
220
0.816496580927726
230
0.5773502691896259
  0
ENDBLK
  5
568
330
565
100
AcDbEntity
  8
0
100
AcDbBlockEnd
  0
ENDSEC
  0
SECTION
  2
ENTITIES
  0
INSERT
  5
575
330
2
100
AcDbEntity
  8
0
100
AcDbBlockReference
  2
A$C40E6250D
 10
2.422112245791105
 20
0.8763829353557657
 30
0.0
 41
-0.065
 42
0.065
 43
0.065
  0
TEXT
  5
581
330
2
100
AcDbEntity
  8
0
100
AcDbText
 10
2.166833464228133
 20
0.416975529647436
 30
0.0
 40
0.125
  1
USP  RT20
100
AcDbText
  0
TEXT
  5
587
330
2
100
AcDbEntity
  8
0
100
AcDbText
 10
1.703420591257973
 20
0.1982254464675748
 30
0.0
 40
0.125
  1
SIMPSON  --
100
AcDbText
  0
ENDSEC
  0
SECTION
  2
OBJECTS
  0
DICTIONARY
  5
19C
330
0
100
AcDbDictionary
281
     1
  3
ACAD_COLOR
350
1A5
  3
ACAD_GROUP
350
19A
  3
ACAD_LAYOUT
350
1A6
  3
ACAD_MATERIAL
350
1A4
  3
ACAD_MLINESTYLE
350
19B
  3
ACAD_PLOTSETTINGS
350
1A7
  3
ACAD_PLOTSTYLENAME
350
1A2
  3
AcDbVariableDictionary
350
3D9
  0
DICTIONARY
  5
184
330
2
100
AcDbDictionary
280
     1
281
     1
  3
ACAD_LAYOUTSELFREF
360
185
  0
DICTIONARY
  5
189
330
188
100
AcDbDictionary
280
     1
281
     1
  3
ACAD_LAYOUTSELFREF
360
18A
  0
DICTIONARY
  5
381
330
1B
100
AcDbDictionary
280
     1
281
     1
  3
ACAD_SORTENTS
360
382
  0
DICTIONARY
  5
1A5
102
{ACAD_REACTORS
330
19C
102
}
330
19C
100
AcDbDictionary
281
     1
  0
DICTIONARY
  5
19A
102
{ACAD_REACTORS
330
19C
102
}
330
19C
100
AcDbDictionary
281
     1
  0
DICTIONARY
  5
1A6
102
{ACAD_REACTORS
330
19C
102
}
330
19C
100
AcDbDictionary
281
     1
  3
Layout1
350
1A9
  3
Model
350
1A8
  0
DICTIONARY
  5
1A4
102
{ACAD_REACTORS
330
19C
102
}
330
19C
100
AcDbDictionary
281
     1
  0
DICTIONARY
  5
19B
102
{ACAD_REACTORS
330
19C
102
}
330
19C
100
AcDbDictionary
281
     1
  3
STANDARD
350
19F
  0
DICTIONARY
  5
1A7
102
{ACAD_REACTORS
330
19C
102
}
330
19C
100
AcDbDictionary
281
     1
  0
ACDBDICTIONARYWDFLT
  5
1A2
102
{ACAD_REACTORS
330
19C
102
}
330
19C
100
AcDbDictionary
281
     1
  3
Normal
350
1A3
100
AcDbDictionaryWithDefault
340
1A3
  0
DICTIONARY
  5
3D9
102
{ACAD_REACTORS
330
19C
102
}
330
19C
100
AcDbDictionary
281
     1
  3
DIMASSOC
350
3DA
  3
PROJECTNAME
350
3DB
  0
XRECORD
  5
185
102
{ACAD_REACTORS
330
184
102
}
330
184
100
AcDbXrecord
280
     1
340
0
  0
XRECORD
  5
18A
102
{ACAD_REACTORS
330
189
102
}
330
189
100
AcDbXrecord
280
     1
340
0
  0
SORTENTSTABLE
  5
382
102
{ACAD_REACTORS
330
381
102
}
330
381
100
AcDbSortentsTable
330
1B
  0
LAYOUT
  5
1A9
102
{ACAD_REACTORS
330
1A6
102
}
330
1A6
100
AcDbPlotSettings
  1

  2
\\MNPS6\laser4050
  4

  6

 40
0.0
 41
0.0
 42
0.0
 43
0.0
 44
0.0
 45
0.0
 46
0.0
 47
0.0
 48
0.0
 49
0.0
140
0.0
141
0.0
142
1.0
143
1.0
 70
   688
 72
     0
 73
     0
 74
     5
  7
USP.ctb
 75
    16
147
1.0
 76
     0
 77
     2
 78
   300
148
0.0
149
0.0
100
AcDbLayout
  1
Layout1
 70
     0
 71
     1
 10
0.0
 20
0.0
 11
12.0
 21
9.0
 12
0.0
 22
0.0
 32
0.0
 14
1.049999952316284
 24
0.7999999523162842
 34
0.0
 15
9.449999570846555
 25
7.199999570846556
 35
0.0
146
0.0
 13
0.0
 23
0.0
 33
0.0
 16
1.0
 26
0.0
 36
0.0
 17
0.0
 27
1.0
 37
0.0
 76
     0
330
188
  0
LAYOUT
  5
1A8
102
{ACAD_REACTORS
330
1A6
102
}
330
1A6
100
AcDbPlotSettings
  1

  2
\\MNPS6\laser4050
  4
Letter
  6

 40
5.365749835968017
 41
5.450419902801513
 42
5.154083251953125
 43
5.069427490234375
 44
215.8999938964844
 45
279.3999938964844
 46
0.0
 47
0.0
 48
-22.94500572183498
 49
10.35757506140448
140
-19.94500572183498
141
13.35757506140448
142
1.0
143
0.3710192829726467
 70
 11952
 72
     0
 73
     1
 74
     4
  7
USP.ctb
 75
     0
147
2.695277700899779
 76
     0
 77
     2
 78
   300
148
582.8031453346085
149
-263.082406559674
100
AcDbLayout
  1
Model
 70
     1
 71
     0
 10
0.0
 20
0.0
 11
12.0
 21
9.0
 12
0.0
 22
0.0
 32
0.0
 14
0.0
 24
0.0
 34
0.0
 15
0.0
 25
0.0
 35
0.0
146
0.0
 13
0.0
 23
0.0
 33
0.0
 16
1.0
 26
0.0
 36
0.0
 17
0.0
 27
1.0
 37
0.0
 76
     0
330
2
  0
MLINESTYLE
  5
19F
102
{ACAD_REACTORS
330
19B
102
}
330
19B
100
AcDbMlineStyle
  2
STANDARD
 70
     0
  3

 62
     0
 51
90.0
 52
90.0
 71
     2
 49
0.5
 62
   256
  6
BYLAYER
 49
-0.5
 62
   256
  6
BYLAYER
  0
ACDBPLACEHOLDER
  5
1A3
102
{ACAD_REACTORS
330
1A2
102
}
330
1A2
  0
DICTIONARYVAR
  5
3DA
102
{ACAD_REACTORS
330
3D9
102
}
330
3D9
100
DictionaryVariables
280
     0
  1
1
  0
DICTIONARYVAR
  5
3DB
102
{ACAD_REACTORS
330
3D9
102
}
330
3D9
100
DictionaryVariables
280
     0
  1

  0
ENDSEC
  0
EOF
