  0
SECTION
  2
HEADER
  9
$ACADVER
  1
AC1018
  9
$ACADMAINTVER
 70
     0
  9
$DWGCODEPAGE
  3
ANSI_1252
  9
$INSBASE
 10
0.0
 20
0.0
 30
0.0
  9
$EXTMIN
 10
0.9362866253889945
 20
-0.0847089836403168
 30
0.0
  9
$EXTMAX
 10
3.387999607181003
 20
2.420150351760162
 30
0.0000000000000039
  9
$LIMMIN
 10
0.0
 20
0.0
  9
$LIMMAX
 10
12.0
 20
9.0
  9
$ORTHOMODE
 70
     0
  9
$REGENMODE
 70
     1
  9
$FILLMODE
 70
     1
  9
$QTEXTMODE
 70
     0
  9
$MIRRTEXT
 70
     0
  9
$LTSCALE
 40
1.5
  9
$ATTMODE
 70
     1
  9
$TEXTSIZE
 40
0.125
  9
$TRACEWID
 40
0.05
  9
$TEXTSTYLE
  7
STANDARD
  9
$CLAYER
  8
0
  9
$CELTYPE
  6
BYLAYER
  9
$CECOLOR
 62
   256
  9
$CELTSCALE
 40
1.0
  9
$DISPSILH
 70
     1
  9
$DIMSCALE
 40
1.0
  9
$DIMASZ
 40
0.18
  9
$DIMEXO
 40
0.0625
  9
$DIMDLI
 40
0.38
  9
$DIMRND
 40
0.0
  9
$DIMDLE
 40
0.0
  9
$DIMEXE
 40
0.18
  9
$DIMTP
 40
0.0
  9
$DIMTM
 40
0.0
  9
$DIMTXT
 40
0.18
  9
$DIMCEN
 40
0.09
  9
$DIMTSZ
 40
0.0
  9
$DIMTOL
 70
     0
  9
$DIMLIM
 70
     0
  9
$DIMTIH
 70
     1
  9
$DIMTOH
 70
     1
  9
$DIMSE1
 70
     0
  9
$DIMSE2
 70
     0
  9
$DIMTAD
 70
     0
  9
$DIMZIN
 70
     0
  9
$DIMBLK
  1

  9
$DIMASO
 70
     1
  9
$DIMSHO
 70
     1
  9
$DIMPOST
  1

  9
$DIMAPOST
  1

  9
$DIMALT
 70
     0
  9
$DIMALTD
 70
     2
  9
$DIMALTF
 40
25.4
  9
$DIMLFAC
 40
1.0
  9
$DIMTOFL
 70
     0
  9
$DIMTVP
 40
0.0
  9
$DIMTIX
 70
     0
  9
$DIMSOXD
 70
     0
  9
$DIMSAH
 70
     0
  9
$DIMBLK1
  1

  9
$DIMBLK2
  1

  9
$DIMSTYLE
  2
STANDARD
  9
$DIMCLRD
 70
     0
  9
$DIMCLRE
 70
     0
  9
$DIMCLRT
 70
     0
  9
$DIMTFAC
 40
1.0
  9
$DIMGAP
 40
0.09
  9
$DIMJUST
 70
     0
  9
$DIMSD1
 70
     0
  9
$DIMSD2
 70
     0
  9
$DIMTOLJ
 70
     1
  9
$DIMTZIN
 70
     0
  9
$DIMALTZ
 70
     0
  9
$DIMALTTZ
 70
     0
  9
$DIMUPT
 70
     0
  9
$DIMDEC
 70
     4
  9
$DIMTDEC
 70
     4
  9
$DIMALTU
 70
     2
  9
$DIMALTTD
 70
     2
  9
$DIMTXSTY
  7
STANDARD
  9
$DIMAUNIT
 70
     0
  9
$DIMADEC
 70
     0
  9
$DIMALTRND
 40
0.0
  9
$DIMAZIN
 70
     0
  9
$DIMDSEP
 70
    46
  9
$DIMATFIT
 70
     3
  9
$DIMFRAC
 70
     0
  9
$DIMLDRBLK
  1

  9
$DIMLUNIT
 70
     2
  9
$DIMLWD
 70
    -2
  9
$DIMLWE
 70
    -2
  9
$DIMTMOVE
 70
     0
  9
$LUNITS
 70
     5
  9
$LUPREC
 70
     6
  9
$SKETCHINC
 40
0.1
  9
$FILLETRAD
 40
0.0
  9
$AUNITS
 70
     0
  9
$AUPREC
 70
     1
  9
$MENU
  1
CUSTOM
  9
$ELEVATION
 40
0.0
  9
$PELEVATION
 40
0.0
  9
$THICKNESS
 40
0.0
  9
$LIMCHECK
 70
     0
  9
$CHAMFERA
 40
0.0
  9
$CHAMFERB
 40
0.0
  9
$CHAMFERC
 40
0.0
  9
$CHAMFERD
 40
0.0
  9
$SKPOLY
 70
     0
  9
$TDCREATE
 40
2451263.663231366
  9
$TDUCREATE
 40
2451263.871564699
  9
$TDUPDATE
 40
2456573.366077002
  9
$TDUUPDATE
 40
2456573.574410336
  9
$TDINDWG
 40
0.6501151273
  9
$TDUSRTIMER
 40
0.6501151273
  9
$USRTIMER
 70
     1
  9
$ANGBASE
 50
0.0
  9
$ANGDIR
 70
     0
  9
$PDMODE
 70
     0
  9
$PDSIZE
 40
0.0
  9
$PLINEWID
 40
0.0
  9
$SPLFRAME
 70
     0
  9
$SPLINETYPE
 70
     6
  9
$SPLINESEGS
 70
     8
  9
$HANDSEED
  5
3D2
  9
$SURFTAB1
 70
     6
  9
$SURFTAB2
 70
     6
  9
$SURFTYPE
 70
     6
  9
$SURFU
 70
     6
  9
$SURFV
 70
     6
  9
$UCSBASE
  2

  9
$UCSNAME
  2

  9
$UCSORG
 10
0.0
 20
0.0
 30
0.0
  9
$UCSXDIR
 10
1.0
 20
0.0
 30
0.0
  9
$UCSYDIR
 10
0.0
 20
1.0
 30
0.0
  9
$UCSORTHOREF
  2

  9
$UCSORTHOVIEW
 70
     0
  9
$UCSORGTOP
 10
0.0
 20
0.0
 30
0.0
  9
$UCSORGBOTTOM
 10
0.0
 20
0.0
 30
0.0
  9
$UCSORGLEFT
 10
0.0
 20
0.0
 30
0.0
  9
$UCSORGRIGHT
 10
0.0
 20
0.0
 30
0.0
  9
$UCSORGFRONT
 10
0.0
 20
0.0
 30
0.0
  9
$UCSORGBACK
 10
0.0
 20
0.0
 30
0.0
  9
$PUCSBASE
  2

  9
$PUCSNAME
  2

  9
$PUCSORG
 10
0.0
 20
0.0
 30
0.0
  9
$PUCSXDIR
 10
1.0
 20
0.0
 30
0.0
  9
$PUCSYDIR
 10
0.0
 20
1.0
 30
0.0
  9
$PUCSORTHOREF
  2

  9
$PUCSORTHOVIEW
 70
     0
  9
$PUCSORGTOP
 10
0.0
 20
0.0
 30
0.0
  9
$PUCSORGBOTTOM
 10
0.0
 20
0.0
 30
0.0
  9
$PUCSORGLEFT
 10
0.0
 20
0.0
 30
0.0
  9
$PUCSORGRIGHT
 10
0.0
 20
0.0
 30
0.0
  9
$PUCSORGFRONT
 10
0.0
 20
0.0
 30
0.0
  9
$PUCSORGBACK
 10
0.0
 20
0.0
 30
0.0
  9
$USERI1
 70
     0
  9
$USERI2
 70
     0
  9
$USERI3
 70
     0
  9
$USERI4
 70
     0
  9
$USERI5
 70
     0
  9
$USERR1
 40
0.0
  9
$USERR2
 40
0.0
  9
$USERR3
 40
0.0
  9
$USERR4
 40
0.0
  9
$USERR5
 40
0.0
  9
$WORLDVIEW
 70
     1
  9
$SHADEDGE
 70
     3
  9
$SHADEDIF
 70
    70
  9
$TILEMODE
 70
     1
  9
$MAXACTVP
 70
    16
  9
$PINSBASE
 10
0.0
 20
0.0
 30
0.0
  9
$PLIMCHECK
 70
     0
  9
$PEXTMIN
 10
1.049999952316284
 20
0.7999999523162842
 30
0.0
  9
$PEXTMAX
 10
9.449999570846555
 20
7.199999570846556
 30
0.0
  9
$PLIMMIN
 10
0.0
 20
0.0
  9
$PLIMMAX
 10
12.0
 20
9.0
  9
$UNITMODE
 70
     0
  9
$VISRETAIN
 70
     0
  9
$PLINEGEN
 70
     0
  9
$PSLTSCALE
 70
     0
  9
$TREEDEPTH
 70
  3020
  9
$CMLSTYLE
  2
STANDARD
  9
$CMLJUST
 70
     0
  9
$CMLSCALE
 40
1.0
  9
$PROXYGRAPHICS
 70
     1
  9
$MEASUREMENT
 70
     0
  9
$CELWEIGHT
370
    -1
  9
$ENDCAPS
280
     0
  9
$JOINSTYLE
280
     0
  9
$LWDISPLAY
290
     0
  9
$INSUNITS
 70
     0
  9
$HYPERLINKBASE
  1

  9
$STYLESHEET
  1

  9
$XEDIT
290
     1
  9
$CEPSNTYPE
380
     0
  9
$PSTYLEMODE
290
     1
  9
$FINGERPRINTGUID
  2
{1D44869A-A1E3-44D0-8481-800FF31F214F}
  9
$VERSIONGUID
  2
{574D5520-5F88-4AE4-8B40-AE3720D99C13}
  9
$EXTNAMES
290
     1
  9
$PSVPSCALE
 40
0.0
  9
$OLESTARTUP
290
     0
  9
$SORTENTS
280
   127
  9
$INDEXCTL
280
     0
  9
$HIDETEXT
280
     0
  9
$XCLIPFRAME
290
     0
  9
$HALOGAP
280
     0
  9
$OBSCOLOR
 70
   257
  9
$OBSLTYPE
280
     0
  9
$INTERSECTIONDISPLAY
280
     0
  9
$INTERSECTIONCOLOR
 70
   257
  9
$DIMASSOC
280
     1
  9
$PROJECTNAME
  1

  0
ENDSEC
  0
SECTION
  2
CLASSES
  0
CLASS
  1
ACDBDICTIONARYWDFLT
  2
AcDbDictionaryWithDefault
  3
ObjectDBX Classes
 90
        0
 91
        1
280
     0
281
     0
  0
CLASS
  1
DICTIONARYVAR
  2
AcDbDictionaryVar
  3
ObjectDBX Classes
 90
        0
 91
        0
280
     0
281
     0
  0
CLASS
  1
SORTENTSTABLE
  2
AcDbSortentsTable
  3
ObjectDBX Classes
 90
        0
 91
        1
280
     0
281
     0
  0
ENDSEC
  0
SECTION
  2
TABLES
  0
TABLE
  2
VPORT
  5
3B1
330
0
100
AcDbSymbolTable
 70
     3
  0
VPORT
  5
3D1
330
3B1
100
AcDbSymbolTableRecord
100
AcDbViewportTableRecord
  2
*Active
 70
     0
 10
0.0
 20
0.0
 11
1.0
 21
1.0
 12
-20.26621077523335
 22
11.52046763715272
 13
0.0
 23
0.0
 14
1.0
 24
1.0
 15
0.0
 25
0.0
 16
0.0
 26
0.0
 36
1.0
 17
23.09603071721725
 27
-10.27010416511326
 37
-10.44050274849355
 40
3.375677321561013
 41
2.144329896907216
 42
50.0
 43
0.0
 44
0.0
 50
0.0
 51
0.0
 71
     0
 72
   100
 73
     1
 74
     1
 75
     0
 76
     0
 77
     0
 78
     0
281
     0
 65
     1
110
0.0
120
0.0
130
0.0
111
1.0
121
0.0
131
0.0
112
0.0
122
1.0
132
0.0
 79
     0
146
0.0
  0
ENDTAB
  0
TABLE
  2
LTYPE
  5
3AC
330
0
100
AcDbSymbolTable
 70
     1
  0
LTYPE
  5
3AD
330
3AC
100
AcDbSymbolTableRecord
100
AcDbLinetypeTableRecord
  2
BYBLOCK
 70
     0
  3

 72
    65
 73
     0
 40
0.0
  0
LTYPE
  5
3AE
330
3AC
100
AcDbSymbolTableRecord
100
AcDbLinetypeTableRecord
  2
BYLAYER
 70
     0
  3

 72
    65
 73
     0
 40
0.0
  0
LTYPE
  5
6
330
3AC
100
AcDbSymbolTableRecord
100
AcDbLinetypeTableRecord
  2
CONTINUOUS
 70
     0
  3
Solid line
 72
    65
 73
     0
 40
0.0
  0
ENDTAB
  0
TABLE
  2
LAYER
  5
3AA
330
0
100
AcDbSymbolTable
 70
     4
  0
LAYER
  5
38
330
3AA
100
AcDbSymbolTableRecord
100
AcDbLayerTableRecord
  2
0
 70
     0
 62
     7
  6
CONTINUOUS
370
    -3
390
3C0
  0
LAYER
  5
19
330
3AA
100
AcDbSymbolTableRecord
100
AcDbLayerTableRecord
  2
USP
 70
     0
 62
     7
  6
CONTINUOUS
370
    -3
390
3C0
  0
LAYER
  5
1C
330
3AA
100
AcDbSymbolTableRecord
100
AcDbLayerTableRecord
  2
USP-GEO
 70
     0
 62
     7
  6
CONTINUOUS
370
    -3
390
3C0
  0
LAYER
  5
5
330
3AA
100
AcDbSymbolTableRecord
100
AcDbLayerTableRecord
  2
USP-TXT
 70
     0
 62
     7
  6
CONTINUOUS
370
    -3
390
3C0
  0
ENDTAB
  0
TABLE
  2
STYLE
  5
3AB
330
0
100
AcDbSymbolTable
 70
     1
  0
STYLE
  5
7
330
3AB
100
AcDbSymbolTableRecord
100
AcDbTextStyleTableRecord
  2
STANDARD
 70
     0
 40
0.0
 41
1.0
 50
0.0
 71
     0
 42
0.125
  3
txt
  4

  0
ENDTAB
  0
TABLE
  2
VIEW
  5
3AF
330
0
100
AcDbSymbolTable
 70
     0
  0
ENDTAB
  0
TABLE
  2
UCS
  5
3B0
330
0
100
AcDbSymbolTable
 70
     0
  0
ENDTAB
  0
TABLE
  2
APPID
  5
3B3
330
0
100
AcDbSymbolTable
 70
     1
  0
APPID
  5
3B4
330
3B3
100
AcDbSymbolTableRecord
100
AcDbRegAppTableRecord
  2
ACAD
 70
     0
  0
ENDTAB
  0
TABLE
  2
DIMSTYLE
  5
3B5
330
0
100
AcDbSymbolTable
 70
     1
100
AcDbDimStyleTable
 71
     0
  0
DIMSTYLE
105
3BD
330
3B5
100
AcDbSymbolTableRecord
100
AcDbDimStyleTableRecord
  2
STANDARD
 70
     0
340
7
  0
ENDTAB
  0
TABLE
  2
BLOCK_RECORD
  5
1
330
0
100
AcDbSymbolTable
 70
     3
  0
BLOCK_RECORD
  5
2
102
{ACAD_XDICTIONARY
360
3A1
102
}
330
1
100
AcDbSymbolTableRecord
100
AcDbBlockTableRecord
  2
*MODEL_SPACE
340
3C5
  0
BLOCK_RECORD
  5
3A5
102
{ACAD_XDICTIONARY
360
3A6
102
}
330
1
100
AcDbSymbolTableRecord
100
AcDbBlockTableRecord
  2
*PAPER_SPACE
340
3C6
  0
BLOCK_RECORD
  5
1A
102
{ACAD_XDICTIONARY
360
34
102
}
330
1
100
AcDbSymbolTableRecord
100
AcDbBlockTableRecord
  2
base blockA
340
0
  0
BLOCK_RECORD
  5
3E
330
1
100
AcDbSymbolTableRecord
100
AcDbBlockTableRecord
  2
*U1
340
0
102
{BLKREFS
331
3D
102
}
  0
BLOCK_RECORD
  5
3C
330
1
100
AcDbSymbolTableRecord
100
AcDbBlockTableRecord
  2
A$C69F01EBB
340
0
102
{BLKREFS
331
3B
102
}
  0
ENDTAB
  0
ENDSEC
  0
SECTION
  2
BLOCKS
  0
BLOCK
  5
3A3
330
2
100
AcDbEntity
  8
0
100
AcDbBlockBegin
  2
*MODEL_SPACE
 70
     0
 10
0.0
 20
0.0
 30
0.0
  3
*MODEL_SPACE
  1

  0
ENDBLK
  5
3A4
330
2
100
AcDbEntity
  8
0
100
AcDbBlockEnd
  0
BLOCK
  5
3A8
330
3A5
100
AcDbEntity
 67
     1
  8
0
100
AcDbBlockBegin
  2
*PAPER_SPACE
 70
     0
 10
0.0
 20
0.0
 30
0.0
  3
*PAPER_SPACE
  1

  0
ENDBLK
  5
3A9
330
3A5
100
AcDbEntity
 67
     1
  8
0
100
AcDbBlockEnd
  0
BLOCK
  5
37
330
1A
100
AcDbEntity
  8
0
100
AcDbBlockBegin
  2
base blockA
 70
     2
 10
0.0
 20
0.0
 30
0.0
  3
base blockA
  1

  0
LWPOLYLINE
  5
1B
330
1A
100
AcDbEntity
  8
USP-GEO
100
AcDbPolyline
 90
        4
 70
     1
 43
0.0
 10
0.0
 20
0.0
 10
0.0
 20
3.0
 10
3.0
 20
3.0
 10
3.0
 20
0.0
  0
TEXT
  5
1D
330
1A
100
AcDbEntity
  8
USP-TXT
100
AcDbText
 10
0.5126323550828254
 20
0.0577537530311503
 30
0.0
 40
0.046875
  1
 Copyright 2004 United Steel Products Company
100
AcDbText
  0
TEXT
  5
1E
330
1A
100
AcDbEntity
  8
USP-TXT
100
AcDbText
 10
0.5204091789382091
 20
0.1551392140505712
 30
0.0
 40
0.078125
  1
USP Structural Connectors
100
AcDbText
  0
CIRCLE
  5
1F
330
1A
100
AcDbEntity
  8
USP-GEO
100
AcDbCircle
 10
0.5128464045112509
 20
0.0830320346476796
 30
0.0
 40
0.0214703793180158
  0
TEXT
  5
20
330
1A
100
AcDbEntity
  8
USP-TXT
100
AcDbText
 10
0.5042237483422803
 20
0.0697781247899698
 30
0.0
 40
0.0254123629763196
  1
C
100
AcDbText
  0
TEXT
  5
21
330
1A
100
AcDbEntity
  8
USP-TXT
100
AcDbText
 10
2.434466095748831
 20
0.1975394907214323
 30
0.0
 40
0.0398157395393663
  1
TM
100
AcDbText
  0
ATTDEF
  5
22
330
1A
100
AcDbEntity
  8
USP-TXT
100
AcDbText
 10
0.2285944087798271
 20
2.131422307042676
 30
0.0
 40
0.09375
  1
REF#
100
AcDbAttributeDefinition
  3
REF#
  2
REF#
 70
     0
  0
ATTDEF
  5
23
330
1A
100
AcDbEntity
  8
USP-TXT
100
AcDbText
 10
0.228804698318946
 20
2.663353083391648
 30
0.0
 40
0.156
  1
PART#
100
AcDbAttributeDefinition
  3
ENTER PART#
  2
PART#
 70
     0
  0
ATTDEF
  5
24
330
1A
100
AcDbEntity
  8
USP-TXT
100
AcDbText
 10
0.2287687103892821
 20
2.455939297974389
 30
0.0
 40
0.094
  1
DESC
100
AcDbAttributeDefinition
  3
DESC OF PART
  2
DESC
 70
     0
  0
ATTDEF
  5
25
330
1A
100
AcDbEntity
  8
USP-TXT
100
AcDbText
 10
0.2287687103892821
 20
2.296477206945141
 30
0.0
 40
0.094
  1
DESC
100
AcDbAttributeDefinition
  3
DESC OF PART
  2
DESC
 70
     0
  0
ATTDEF
  5
26
330
1A
100
AcDbEntity
  8
USP-TXT
100
AcDbText
 10
0.228804698318946
 20
0.9922084511082687
 30
0.0
 40
0.063
  1
EXTDESC
100
AcDbAttributeDefinition
  3
ADDITION DESC
  2
EXTDESC
 70
     0
  0
ATTDEF
  5
27
330
1A
100
AcDbEntity
  8
USP-TXT
100
AcDbText
 10
0.228804698318946
 20
0.7280192225426916
 30
0.0
 40
0.094
  1
Fast
100
AcDbAttributeDefinition
  3
Fasteners
  2
FAST
 70
     0
  0
ATTDEF
  5
28
330
1A
100
AcDbEntity
  8
USP-TXT
100
AcDbText
 10
0.228804698318946
 20
0.5901712537022519
 30
0.0
 40
0.063
  1
Supporting Member:
100
AcDbAttributeDefinition
  3
Supporting
  2
SUPPORTING
 70
     0
  0
ATTDEF
  5
29
330
1A
100
AcDbEntity
  8
USP-TXT
100
AcDbText
 10
0.2325701781462328
 20
0.4923097209131698
 30
0.0
 40
0.063
  1
SUPPORTED
100
AcDbAttributeDefinition
  3
Supported
  2
SUPPORTED
 70
     0
  0
ATTDEF
  5
2A
330
1A
100
AcDbEntity
  8
USP-TXT
100
AcDbText
 10
0.3467694348797607
 20
1.814279556124766
 30
0.0
 40
0.063
  1
NER#
100
AcDbAttributeDefinition
  3
NER#
  2
NER#
 70
     0
  0
ATTDEF
  5
2B
330
1A
100
AcDbEntity
  8
USP-TXT
100
AcDbText
 10
0.3467694348797607
 20
1.722117780662095
 30
0.0
 40
0.063
  1
NER#
100
AcDbAttributeDefinition
  3
NER#
  2
NER#
 70
     0
  0
ATTDEF
  5
2C
330
1A
100
AcDbEntity
  8
USP-TXT
100
AcDbText
 10
0.3467694348797607
 20
1.631015334721752
 30
0.0
 40
0.063
  1
NER#
100
AcDbAttributeDefinition
  3
NER#
  2
NER#
 70
     0
  0
ATTDEF
  5
2D
330
1A
100
AcDbEntity
  8
USP-TXT
100
AcDbText
 10
0.3467694348797607
 20
1.537794229736753
 30
0.0
 40
0.063
  1
NER#
100
AcDbAttributeDefinition
  3
NER#
  2
NER#
 70
     0
  0
ATTDEF
  5
2E
330
1A
100
AcDbEntity
  8
USP-TXT
100
AcDbText
 10
0.3467694348797607
 20
1.448810442841057
 30
0.0
 40
0.063
  1
NER#
100
AcDbAttributeDefinition
  3
NER#
  2
NER#
 70
     0
  0
ATTDEF
  5
2F
330
1A
100
AcDbEntity
  8
USP-TXT
100
AcDbText
 10
0.2283634841335704
 20
1.934648364679425
 30
0.0
 40
0.063
  1

100
AcDbAttributeDefinition
  3
Code Listings:
  2
CODE
 70
     0
  0
ATTDEF
  5
30
330
1A
100
AcDbEntity
  8
USP-TXT
100
AcDbText
 10
0.2300163426662962
 20
1.266739663439999
 30
0.0
 40
0.063
  1
pat
100
AcDbAttributeDefinition
  3
pat
  2
PAT
 70
     0
  0
ATTDEF
  5
31
330
1A
100
AcDbEntity
  8
USP-TXT
100
AcDbText
 10
0.2300163426662962
 20
1.168627150031042
 30
0.0
 40
0.063
  1
pat
100
AcDbAttributeDefinition
  3
pat
  2
PAT
 70
     0
  0
ATTDEF
  5
32
330
1A
100
AcDbEntity
  8
USP-TXT
100
AcDbText
 10
1.328369046230498
 20
0.5884879628236562
 30
0.0
 40
0.063
  1
SUPT'G
100
AcDbAttributeDefinition
  3
SUPT'G
  2
SUPT'G
 70
     0
  0
ATTDEF
  5
33
330
1A
100
AcDbEntity
  8
USP-TXT
100
AcDbText
 10
1.324378030103837
 20
0.4936287084484193
 30
0.0
 40
0.063
  1
SUPT'D
100
AcDbAttributeDefinition
  3
SUPT'D
  2
SUPT'D
 70
     0
  0
ENDBLK
  5
39
330
1A
100
AcDbEntity
  8
0
100
AcDbBlockEnd
  0
BLOCK
  5
39D
330
3E
100
AcDbEntity
  8
0
100
AcDbBlockBegin
  2
*U1
 70
     1
 10
0.0
 20
0.0
 30
0.0
  3
*U1
  1

  0
LINE
  5
3F
330
3E
100
AcDbEntity
  8
USP-GEO
100
AcDbLine
 10
18.49305947726628
 20
21.17922574303108
 30
2.68616626576481
 11
19.81128380487385
 21
19.86100141542351
 31
0.0497176105496671
  0
LINE
  5
40
330
3E
100
AcDbEntity
  8
USP-GEO
100
AcDbLine
 10
19.31128380487385
 20
18.86100141542351
 30
-0.4502823894503321
 11
17.46267212588977
 21
20.7096130944076
 31
3.246940968517834
  0
LINE
  5
41
330
3E
100
AcDbEntity
  8
USP-GEO
100
AcDbLine
 10
19.81128380487385
 20
19.86100141542351
 30
0.0497176105496671
 11
19.31128380487385
 21
18.86100141542351
 31
-0.4502823894503321
  0
LINE
  5
42
330
3E
100
AcDbEntity
  8
USP-GEO
100
AcDbLine
 10
9.075462655836126
 20
20.03309084090471
 30
10.95762818506859
 11
6.462950471540573
 21
18.72683474875693
 31
12.26388427721637
  0
LINE
  5
43
330
3E
100
AcDbEntity
  8
USP-GEO
100
AcDbLine
 10
6.962950471540572
 20
19.72683474875693
 30
12.76388427721636
 11
7.092901687323386
 21
19.79181035664834
 31
12.69890866932496
  0
LINE
  5
44
330
3E
100
AcDbEntity
  8
USP-GEO
100
AcDbLine
 10
6.462950471540568
 20
18.72683474875693
 30
12.26388427721636
 11
6.96295047154057
 21
19.72683474875692
 31
12.76388427721636
  0
LINE
  5
45
330
3E
100
AcDbEntity
  8
USP-GEO
100
AcDbLine
 10
6.462950471540568
 20
18.72683474875693
 30
12.26388427721636
 11
6.489617138207274
 21
18.70016808209022
 31
12.21055094388295
  0
LINE
  5
46
330
3E
100
AcDbEntity
  8
USP-GEO
100
AcDbLine
 10
19.90321940396713
 20
23.91860057630173
 30
4.015381172334607
 11
7.593322796476952
 21
22.42046868438358
 31
14.82714588790663
  0
LINE
  5
47
330
3E
100
AcDbEntity
  8
USP-GEO
100
AcDbLine
 10
8.093322796476952
 20
23.42046868438359
 30
15.32714588790663
 11
20.40321940396713
 21
24.91860057630173
 31
4.515381172334606
  0
LINE
  5
48
330
3E
100
AcDbEntity
  8
USP-GEO
100
AcDbLine
 10
7.593322796476948
 20
22.42046868438358
 30
14.82714588790663
 11
8.093322796476947
 21
23.42046868438358
 31
15.32714588790663
  0
LINE
  5
49
330
3E
100
AcDbEntity
  8
USP-GEO
100
AcDbLine
 10
7.593322796476948
 20
22.42046868438358
 30
14.82714588790663
 11
7.582611275486009
 21
22.36907711492838
 31
14.78646583944238
  0
LINE
  5
4A
330
3E
100
AcDbEntity
  8
USP-GEO
100
AcDbLine
 10
7.062078710452697
 20
21.34517387937523
 30
14.28309516892253
 11
6.914467577130824
 21
21.24387421951587
 31
14.32940664238504
  0
LINE
  5
4B
330
3E
100
AcDbEntity
  8
USP-GEO
100
AcDbLine
 10
7.414467577130825
 20
22.24387421951586
 30
14.82940664238504
 11
7.552330483381129
 21
22.33848405819196
 31
14.78615357481084
  0
LINE
  5
4C
330
3E
100
AcDbEntity
  8
USP-GEO
100
AcDbLine
 10
6.914467577130824
 20
21.24387421951587
 30
14.32940664238504
 11
7.414467577130825
 21
22.24387421951586
 31
14.82940664238504
  0
LINE
  5
4D
330
3E
100
AcDbEntity
  8
USP-GEO
100
AcDbLine
 10
6.914467577130824
 20
21.24387421951587
 30
14.32940664238504
 11
6.940781311339195
 21
21.22689923170207
 31
14.28611792036287
  0
LINE
  5
4E
330
3E
100
AcDbEntity
  8
USP-GEO
100
AcDbLine
 10
21.31047367722169
 20
22.51134630304718
 30
1.200872625825493
 11
21.23915345010576
 21
22.50266653016296
 31
1.263513080057204
  0
LINE
  5
4F
330
3E
100
AcDbEntity
  8
USP-GEO
100
AcDbLine
 10
21.31047367722169
 20
22.51134630304718
 30
1.200872625825493
 11
21.81047367722169
 21
23.51134630304718
 31
1.700872625825492
  0
LINE
  5
50
330
3E
100
AcDbEntity
  8
USP-GEO
100
AcDbLine
 10
19.90321940396713
 20
23.91860057630173
 30
4.015381172334607
 11
21.31047367722169
 21
22.51134630304718
 31
1.200872625825491
  0
LINE
  5
51
330
3E
100
AcDbEntity
  8
USP-GEO
100
AcDbLine
 10
19.90321940396713
 20
23.91860057630173
 30
4.015381172334607
 11
20.40321940396713
 21
24.91860057630173
 31
4.515381172334606
  0
LINE
  5
52
330
3E
100
AcDbEntity
  8
USP-GEO
100
AcDbLine
 10
20.40321940396713
 20
24.91860057630173
 30
4.515381172334606
 11
21.81047367722169
 21
23.51134630304718
 31
1.700872625825492
  0
LINE
  5
53
330
3E
100
AcDbEntity
  8
USP-GEO
100
AcDbLine
 10
17.78560164519187
 20
24.6177221330118
 30
6.832120487819935
 11
17.87692126230186
 21
24.61114650619855
 31
6.734225243896686
  0
LINE
  5
54
330
3E
100
AcDbEntity
  8
USP-GEO
100
AcDbLine
 10
17.78710885582795
 20
25.07035073832984
 30
7.283241882501894
 11
16.54434836499376
 21
24.44897049291275
 31
7.904622127918996
  0
LINE
  5
55
330
3E
100
AcDbEntity
  8
USP-GEO
100
AcDbLine
 10
18.1204421891613
 20
24.73701740499651
 30
6.616575215835219
 11
17.78710885582796
 21
25.07035073832984
 31
7.283241882501887
  0
LINE
  5
56
330
3E
100
AcDbEntity
  8
USP-GEO
100
AcDbLine
 10
18.1204421891613
 20
24.64078334869287
 30
6.52034115953157
 11
18.1204421891613
 21
24.73701740499651
 31
6.616575215835215
  0
LINE
  5
57
330
3E
100
AcDbEntity
  8
USP-GEO
100
AcDbLine
 10
16.9029277678891
 20
19.59012437840627
 30
2.687196610517172
 11
17.64593002153986
 21
21.07612888570778
 31
3.430198864167928
  0
LINE
  5
58
330
3E
100
AcDbEntity
  8
USP-GEO
100
AcDbLine
 10
15.09501831185852
 20
18.68616965039098
 30
3.591151338532453
 11
16.9029277678891
 21
19.59012437840627
 31
2.687196610517169
  0
LINE
  5
59
330
3E
100
AcDbEntity
  8
USP-GEO
100
AcDbLine
 10
15.05301831185852
 20
18.66516965039098
 30
3.612151338532453
 11
15.09501831185852
 21
18.68616965039097
 31
3.591151338532458
  0
LINE
  5
5A
330
3E
100
AcDbEntity
  8
USP-GEO
100
AcDbLine
 10
14.76168497852519
 20
19.01950298372431
 30
4.257818005199122
 11
15.09501831185852
 21
18.68616965039098
 31
3.591151338532453
  0
LINE
  5
5B
330
3E
100
AcDbEntity
  8
USP-GEO
100
AcDbLine
 10
14.71968497852518
 20
18.99850298372431
 30
4.278818005199122
 11
14.76168497852518
 21
19.0195029837243
 31
4.257818005199126
  0
LINE
  5
5C
330
3E
100
AcDbEntity
  8
USP-GEO
100
AcDbLine
 10
14.76168497852516
 20
21.94313879967848
 30
7.18145382115332
 11
14.76168497852519
 21
19.01950298372431
 31
4.257818005199122
  0
LINE
  5
5D
330
3E
100
AcDbEntity
  8
USP-GEO
100
AcDbLine
 10
14.71968497852517
 20
21.92213879967848
 30
7.202453821153318
 11
14.76168497852516
 21
21.94313879967848
 31
7.181453821153323
  0
LINE
  5
5E
330
3E
100
AcDbEntity
  8
USP-GEO
100
AcDbLine
 10
14.78268497852516
 20
21.98513879967848
 30
7.202453821153325
 11
14.76168497852516
 21
21.94313879967848
 31
7.181453821153322
  0
LINE
  5
5F
330
3E
100
AcDbEntity
  8
USP-GEO
100
AcDbLine
 10
14.87682657149117
 20
21.82799720671249
 30
6.951170635221322
 11
14.89782657149116
 21
21.86999720671248
 31
6.972170635221321
  0
LINE
  5
60
330
3E
100
AcDbEntity
  8
USP-GEO
100
AcDbLine
 10
14.82791731369631
 20
21.80354257781504
 30
6.975625264118725
 11
14.87682657149117
 21
21.82799720671249
 31
6.951170635221322
  0
LINE
  5
61
330
3E
100
AcDbEntity
  8
USP-GEO
100
AcDbLine
 10
14.8279173136963
 20
21.64020091136093
 30
6.812283597664622
 11
14.82791731369631
 21
21.80354257781504
 31
6.975625264118725
  0
LINE
  5
62
330
3E
100
AcDbEntity
  8
USP-GEO
100
AcDbLine
 10
14.93681175799904
 20
21.69464813351231
 30
6.757836375513273
 11
14.8279173136963
 21
21.64020091136093
 31
6.812283597664622
  0
LINE
  5
63
330
3E
100
AcDbEntity
  8
USP-GEO
100
AcDbLine
 10
14.93681175799904
 20
21.7680120202046
 30
6.831200262205553
 11
14.93681175799904
 21
21.69464813351231
 31
6.757836375513268
  0
LINE
  5
64
330
3E
100
AcDbEntity
  8
USP-GEO
100
AcDbLine
 10
14.89481175799905
 20
21.7470120202046
 30
6.852200262205549
 11
14.93681175799904
 21
21.7680120202046
 31
6.831200262205554
  0
LINE
  5
65
330
3E
100
AcDbEntity
  8
USP-GEO
100
AcDbLine
 10
14.95781175799904
 20
21.81001202020459
 30
6.852200262205548
 11
14.93681175799904
 21
21.7680120202046
 31
6.831200262205553
  0
LINE
  5
66
330
3E
100
AcDbEntity
  8
USP-GEO
100
AcDbLine
 10
14.91581175799905
 20
21.78901202020459
 30
6.873200262205545
 11
14.95781175799904
 21
21.81001202020459
 31
6.852200262205548
  0
LINE
  5
67
330
3E
100
AcDbEntity
  8
USP-GEO
100
AcDbLine
 10
14.89782657149117
 20
21.86999720671249
 30
6.972170635221322
 11
14.78268497852516
 21
21.98513879967848
 31
7.202453821153325
  0
LINE
  5
68
330
3E
100
AcDbEntity
  8
USP-GEO
100
AcDbLine
 10
14.74068497852517
 20
21.96413879967849
 30
7.223453821153321
 11
14.78268497852516
 21
21.98513879967848
 31
7.202453821153325
  0
LINE
  5
69
330
3E
100
AcDbEntity
  8
USP-GEO
100
AcDbLine
 10
15.90968497852519
 20
20.85813879967847
 30
4.948453821153286
 11
14.95781175799904
 21
21.81001202020459
 31
6.852200262205548
  0
LINE
  5
6A
330
3E
100
AcDbEntity
  8
USP-GEO
100
AcDbLine
 10
15.86435164519186
 20
20.76747213301181
 30
4.903120487819947
 11
15.9096849785252
 21
20.85813879967848
 31
4.948453821153284
  0
LINE
  5
6B
330
3E
100
AcDbEntity
  8
USP-GEO
100
AcDbLine
 10
15.9506849785252
 20
20.6811387996785
 30
4.730453821153302
 11
15.86435164519186
 21
20.76747213301181
 31
4.903120487819947
  0
LINE
  5
6C
330
3E
100
AcDbEntity
  8
USP-GEO
100
AcDbLine
 10
16.05113565220283
 20
20.88204014703377
 30
4.830904494830937
 11
15.9506849785252
 21
20.6811387996785
 31
4.730453821153302
  0
LINE
  5
6D
330
3E
100
AcDbEntity
  8
USP-GEO
100
AcDbLine
 10
17.78560164519187
 20
24.6177221330118
 30
6.832120487819935
 11
17.77618389125506
 21
24.59888662513818
 31
6.822702733883126
  0
LINE
  5
6E
330
3E
100
AcDbEntity
  8
USP-GEO
100
AcDbLine
 10
15.29507919380023
 20
20.37471547529741
 30
5.079636281497178
 11
15.18618474949751
 21
20.32026825314606
 31
5.134083503648556
  0
LINE
  5
6F
330
3E
100
AcDbEntity
  8
USP-GEO
100
AcDbLine
 10
15.29507919380023
 20
20.21137380884333
 30
4.916294615043096
 11
15.29507919380022
 21
20.37471547529741
 31
5.079636281497183
  0
LINE
  5
70
330
3E
100
AcDbEntity
  8
USP-GEO
100
AcDbLine
 10
15.18618474949749
 20
20.15692658669195
 30
4.970741837194452
 11
15.29507919380024
 21
20.21137380884333
 31
4.916294615043096
  0
LINE
  5
71
330
3E
100
AcDbEntity
  8
USP-GEO
100
AcDbLine
 10
15.18618474949751
 20
20.32026825314607
 30
5.134083503648559
 11
15.18618474949749
 21
20.15692658669194
 31
4.970741837194447
  0
LINE
  5
72
330
3E
100
AcDbEntity
  8
USP-GEO
100
AcDbLine
 10
15.12951831185852
 20
19.10555546634512
 30
3.976037154486602
 11
15.14222763311415
 21
19.13097410885639
 31
3.988746475742237
  0
LINE
  5
73
330
3E
100
AcDbEntity
  8
USP-GEO
100
AcDbLine
 10
15.10058756972007
 20
19.13448620848356
 30
4.033898638763492
 11
15.12951831185852
 21
19.10555546634512
 31
3.976037154486602
  0
LINE
  5
74
330
3E
100
AcDbEntity
  8
USP-GEO
100
AcDbLine
 10
14.89481175799905
 20
21.7470120202046
 30
6.852200262205549
 11
14.89481175799905
 21
21.67364813351232
 31
6.778836375513265
  0
LINE
  5
75
330
3E
100
AcDbEntity
  8
USP-GEO
100
AcDbLine
 10
14.71968497852518
 20
18.99850298372431
 30
4.278818005199122
 11
14.71968497852516
 21
21.92213879967848
 31
7.202453821153321
  0
LINE
  5
76
330
3E
100
AcDbEntity
  8
USP-GEO
100
AcDbLine
 10
14.71968497852518
 20
18.99850298372431
 30
4.278818005199122
 11
15.05301831185852
 21
18.66516965039098
 31
3.612151338532453
  0
LINE
  5
77
330
3E
100
AcDbEntity
  8
USP-GEO
100
AcDbLine
 10
15.92968497852519
 20
20.70213879967849
 30
4.772453821153298
 11
16.01759465895688
 21
20.87795816054187
 31
4.86036350158499
  0
LINE
  5
78
330
3E
100
AcDbEntity
  8
USP-GEO
100
AcDbLine
 10
15.25307919380023
 20
20.35371547529741
 30
5.10063628149718
 11
15.25307919380024
 21
20.19037380884333
 31
4.937294615043093
  0
LINE
  5
79
330
3E
100
AcDbEntity
  8
USP-GEO
100
AcDbLine
 10
15.11200229955405
 20
19.13352344173619
 30
4.021521142182132
 11
15.10851831185852
 21
19.12655546634511
 31
4.018037154486594
  0
LINE
  5
7A
330
3E
100
AcDbEntity
  8
USP-GEO
100
AcDbLine
 10
14.82791731369631
 20
21.79317869112277
 30
6.965261377426461
 11
14.83482657149116
 21
21.80699720671248
 31
6.972170635221319
  0
LINE
  5
7B
330
3E
100
AcDbEntity
  8
USP-GEO
100
AcDbLine
 10
14.74068497852517
 20
21.96413879967849
 30
7.223453821153321
 11
14.71968497852517
 21
21.92213879967848
 31
7.202453821153318
  0
LINE
  5
7C
330
3E
100
AcDbEntity
  8
USP-GEO
100
AcDbLine
 10
14.71968497852517
 20
21.92213879967848
 30
7.202453821153318
 11
13.6051849785252
 21
21.92213879967848
 31
8.316953821153282
  0
LINE
  5
7D
330
3E
100
AcDbEntity
  8
USP-GEO
100
AcDbLine
 10
13.6261849785252
 20
21.96413879967848
 30
8.337953821153282
 11
14.74068497852517
 21
21.96413879967849
 31
7.223453821153321
  0
LINE
  5
7E
330
3E
100
AcDbEntity
  8
USP-GEO
100
AcDbLine
 10
13.6051849785252
 20
21.92213879967848
 30
8.316953821153278
 11
13.6261849785252
 21
21.96413879967848
 31
8.337953821153279
  0
LINE
  5
7F
330
3E
100
AcDbEntity
  8
USP-GEO
100
AcDbLine
 10
13.6051849785252
 20
21.92213879967848
 30
8.316953821153278
 11
13.35818497852517
 21
21.79863879967845
 31
8.440453821153289
  0
LINE
  5
80
330
3E
100
AcDbEntity
  8
USP-GEO
100
AcDbLine
 10
13.37918497852517
 20
21.84063879967846
 30
8.461453821153289
 11
13.6261849785252
 21
21.96413879967848
 31
8.337953821153279
  0
LINE
  5
81
330
3E
100
AcDbEntity
  8
USP-GEO
100
AcDbLine
 10
13.35818497852517
 20
21.79863879967845
 30
8.440453821153289
 11
13.37918497852517
 21
21.84063879967846
 31
8.461453821153289
  0
LINE
  5
82
330
3E
100
AcDbEntity
  8
USP-GEO
100
AcDbLine
 10
13.35818497852517
 20
21.79863879967845
 30
8.440453821153289
 11
14.71968497852518
 21
20.43713879967847
 31
5.717453821153298
  0
LINE
  5
83
330
3E
100
AcDbEntity
  8
USP-GEO
100
AcDbLine
 10
14.91581175799905
 20
21.78901202020459
 30
6.873200262205545
 11
14.89481175799905
 21
21.7470120202046
 31
6.852200262205549
  0
LINE
  5
84
330
3E
100
AcDbEntity
  8
USP-GEO
100
AcDbLine
 10
14.89481175799905
 20
21.74701202020461
 30
6.852200262205549
 11
14.82791731369631
 21
21.7470120202046
 31
6.919094706508291
  0
LINE
  5
85
330
3E
100
AcDbEntity
  8
USP-GEO
100
AcDbLine
 10
14.84855484729814
 20
21.7890120202046
 30
6.940457172906461
 11
14.91581175799905
 21
21.78901202020461
 31
6.87320026220555
  0
LINE
  5
86
330
3E
100
AcDbEntity
  8
USP-GEO
100
AcDbLine
 10
15.06285164519185
 20
19.17222213301179
 30
4.109370487819939
 11
15.10058756972007
 21
19.13448620848356
 31
4.033898638763492
  0
LINE
  5
87
330
3E
100
AcDbEntity
  8
USP-GEO
100
AcDbLine
 10
15.17431936997115
 20
19.1282673556033
 30
3.953947985632148
 11
15.10058756972007
 21
19.13448620848356
 31
4.033898638763487
  0
LINE
  5
88
330
3E
100
AcDbEntity
  8
USP-GEO
100
AcDbLine
 10
15.19933085510978
 20
19.16239471169105
 30
3.963063856581276
 11
15.17431936997115
 21
19.1282673556033
 31
3.953947985632149
  0
LINE
  5
89
330
3E
100
AcDbEntity
  8
USP-GEO
100
AcDbLine
 10
15.12951831185851
 20
19.30555546634513
 30
4.176037154486616
 11
15.06285164519185
 21
19.17222213301179
 31
4.109370487819938
  0
LINE
  5
8A
330
3E
100
AcDbEntity
  8
USP-GEO
100
AcDbLine
 10
15.12951831185852
 20
19.30555546634513
 30
4.176037154486614
 11
15.26599752177645
 21
19.29572804502439
 31
4.029730523247943
  0
LINE
  5
8B
330
3E
100
AcDbEntity
  8
USP-GEO
100
AcDbLine
 10
15.26599752177645
 20
19.2957280450244
 30
4.029730523247945
 11
15.19933085510978
 21
19.16239471169105
 31
3.963063856581272
  0
LINE
  5
8C
330
3E
100
AcDbEntity
  8
USP-GEO
100
AcDbLine
 10
15.06285164519185
 20
19.17222213301178
 30
4.109370487819934
 11
15.19933085510978
 21
19.16239471169105
 31
3.96306385658127
  0
LINE
  5
8D
330
3E
100
AcDbEntity
  8
USP-GEO
100
AcDbLine
 10
19.05570411813286
 20
25.84984204194154
 30
6.794137923808682
 11
18.47260407204138
 21
24.68364194975858
 31
6.211037877717203
  0
LINE
  5
8E
330
3E
100
AcDbEntity
  8
USP-GEO
100
AcDbLine
 10
15.60015112585727
 20
18.93873605739035
 30
3.338584931533084
 11
14.06686349161483
 21
15.87216078890548
 31
1.805297297290647
  0
LINE
  5
8F
330
3E
100
AcDbEntity
  8
USP-GEO
100
AcDbLine
 10
19.55570411813286
 20
25.34984204194155
 30
5.794137923808682
 11
19.27119914932581
 21
24.78083210432744
 31
5.50963295500163
  0
LINE
  5
90
330
3E
100
AcDbEntity
  8
USP-GEO
100
AcDbLine
 10
16.60015112585727
 20
19.43873605739035
 30
2.838584931533087
 11
14.56686349161483
 21
15.37216078890548
 31
0.8052972972906481
  0
LINE
  5
91
330
3E
100
AcDbEntity
  8
USP-GEO
100
AcDbLine
 10
19.05570411813286
 20
25.84984204194154
 30
6.794137923808682
 11
19.55570411813286
 21
25.34984204194155
 31
5.794137923808682
  0
LINE
  5
92
330
3E
100
AcDbEntity
  8
USP-GEO
100
AcDbLine
 10
11.73353015828149
 20
14.70549412223881
 30
2.971963963957314
 11
12.2335301582815
 21
14.20549412223881
 31
1.971963963957315
  0
LINE
  5
93
330
3E
100
AcDbEntity
  8
USP-GEO
100
AcDbLine
 10
11.73353015828149
 20
14.70549412223881
 30
2.971963963957314
 11
12.62889780453581
 21
15.15317794536596
 31
2.524280140830159
  0
LINE
  5
94
330
3E
100
AcDbEntity
  8
USP-GEO
100
AcDbLine
 10
13.12889780453581
 20
14.65317794536596
 30
1.52428014083016
 11
12.2335301582815
 21
14.20549412223881
 31
1.971963963957315
  0
LINE
  5
95
330
3E
100
AcDbEntity
  8
USP-GEO
100
AcDbLine
 10
12.62889780453581
 20
15.15317794536596
 30
2.524280140830159
 11
13.12889780453581
 21
14.65317794536596
 31
1.52428014083016
  0
LINE
  5
96
330
3E
100
AcDbEntity
  8
USP-GEO
100
AcDbLine
 10
12.62889780453581
 20
15.15317794536596
 30
2.524280140830159
 11
12.79259340310627
 21
15.31221756582299
 31
2.519624162716716
  0
LINE
  5
97
330
3E
100
AcDbEntity
  8
USP-GEO
100
AcDbLine
 10
13.29259340310627
 20
14.81221756582299
 30
1.519624162716717
 11
13.12889780453581
 21
14.65317794536596
 31
1.52428014083016
  0
LINE
  5
98
330
3E
100
AcDbEntity
  8
USP-GEO
100
AcDbLine
 10
13.07648924232652
 20
15.02832172660275
 30
1.951832484276231
 11
13.57648924232652
 21
14.52832172660275
 31
0.9518324842762314
  0
LINE
  5
99
330
3E
100
AcDbEntity
  8
USP-GEO
100
AcDbLine
 10
13.07648924232652
 20
15.02832172660275
 30
1.951832484276231
 11
13.63760313869282
 21
15.65753061244447
 31
2.01992747375165
  0
LINE
  5
9A
330
3E
100
AcDbEntity
  8
USP-GEO
100
AcDbLine
 10
14.13760313869282
 20
15.15753061244447
 30
1.01992747375165
 11
13.57648924232652
 21
14.52832172660275
 31
0.9518324842762314
  0
LINE
  5
9B
330
3E
100
AcDbEntity
  8
USP-GEO
100
AcDbLine
 10
13.63760313869282
 20
15.65753061244447
 30
2.01992747375165
 11
14.13760313869282
 21
15.15753061244447
 31
1.01992747375165
  0
LINE
  5
9C
330
3E
100
AcDbEntity
  8
USP-GEO
100
AcDbLine
 10
13.63760313869282
 20
15.65753061244447
 30
2.01992747375165
 11
14.06686349161483
 21
15.87216078890548
 31
1.805297297290647
  0
LINE
  5
9D
330
3E
100
AcDbEntity
  8
USP-GEO
100
AcDbLine
 10
14.06686349161483
 20
15.87216078890548
 30
1.805297297290647
 11
14.56686349161483
 21
15.37216078890548
 31
0.8052972972906481
  0
LINE
  5
9E
330
3E
100
AcDbEntity
  8
USP-GEO
100
AcDbLine
 10
14.56686349161483
 20
15.37216078890548
 30
0.8052972972906481
 11
14.13760313869282
 21
15.15753061244447
 31
1.01992747375165
  0
LINE
  5
9F
330
3E
100
AcDbEntity
  8
USP-GEO
100
AcDbLine
 10
18.55570411813286
 20
26.34984204194154
 30
7.794137923808683
 11
17.87300859616066
 21
24.98445099799713
 31
7.111442401836477
  0
LINE
  5
A0
330
3E
100
AcDbEntity
  8
USP-GEO
100
AcDbLine
 10
14.82658471885789
 20
18.8916032433916
 30
4.065018524533709
 11
13.56686349161483
 21
16.37216078890548
 31
2.805297297290647
  0
LINE
  5
A1
330
3E
100
AcDbEntity
  8
USP-GEO
100
AcDbLine
 10
19.05570411813286
 20
25.84984204194154
 30
6.794137923808682
 11
18.47260407204138
 21
24.68364194975858
 31
6.211037877717203
  0
LINE
  5
A2
330
3E
100
AcDbEntity
  8
USP-GEO
100
AcDbLine
 10
15.60015112585727
 20
18.93873605739035
 30
3.338584931533084
 11
14.06686349161483
 21
15.87216078890548
 31
1.805297297290647
  0
LINE
  5
A3
330
3E
100
AcDbEntity
  8
USP-GEO
100
AcDbLine
 10
18.55570411813286
 20
26.34984204194154
 30
7.794137923808683
 11
19.05570411813286
 21
25.84984204194154
 31
6.794137923808682
  0
LINE
  5
A4
330
3E
100
AcDbEntity
  8
USP-GEO
100
AcDbLine
 10
18.12644376521086
 20
26.13521186548054
 30
8.008768100269685
 11
18.55570411813286
 21
26.34984204194154
 31
7.794137923808683
  0
LINE
  5
A5
330
3E
100
AcDbEntity
  8
USP-GEO
100
AcDbLine
 10
18.03019911905598
 20
26.43574148006167
 30
8.405542361005698
 11
18.12644376521086
 21
26.13521186548054
 31
8.008768100269685
  0
LINE
  5
A6
330
3E
100
AcDbEntity
  8
USP-GEO
100
AcDbLine
 10
18.03019911905598
 20
26.43574148006167
 30
8.405542361005698
 11
18.2626337441617
 21
26.20330685495596
 31
7.940673110794266
  0
LINE
  5
A7
330
3E
100
AcDbEntity
  8
USP-GEO
100
AcDbLine
 10
17.26502783313972
 20
25.5174223777399
 30
8.252394544600186
 11
18.03019911905598
 21
26.43574148006167
 31
8.405542361005698
  0
LINE
  5
A8
330
3E
100
AcDbEntity
  8
USP-GEO
100
AcDbLine
 10
17.11773843105384
 20
25.63085919840203
 30
8.513120767348194
 11
17.26502783313972
 21
25.5174223777399
 31
8.252394544600186
  0
LINE
  5
A9
330
3E
100
AcDbEntity
  8
USP-GEO
100
AcDbLine
 10
16.22237078479953
 20
25.18317537527487
 30
8.960804590475351
 11
17.11773843105384
 21
25.63085919840203
 31
8.513120767348194
  0
LINE
  5
AA
330
3E
100
AcDbEntity
  8
USP-GEO
100
AcDbLine
 10
16.22237078479953
 20
25.18317537527487
 30
8.960804590475351
 11
15.81062048109329
 21
24.35967476786238
 31
8.549054286769102
  0
LINE
  5
AB
330
3E
100
AcDbEntity
  8
USP-GEO
100
AcDbLine
 10
13.47795047154051
 20
19.69433474875684
 30
6.21638427721633
 11
11.2335301582815
 21
15.20549412223881
 31
3.971963963957314
  0
LINE
  5
AC
330
3E
100
AcDbEntity
  8
USP-GEO
100
AcDbLine
 10
11.2335301582815
 20
15.20549412223881
 30
3.971963963957314
 11
11.73353015828149
 21
14.70549412223881
 31
2.971963963957314
  0
LINE
  5
AD
330
3E
100
AcDbEntity
  8
USP-GEO
100
AcDbLine
 10
11.2335301582815
 20
15.20549412223881
 30
3.971963963957314
 11
12.1288978045358
 21
15.65317794536596
 31
3.524280140830159
  0
LINE
  5
AE
330
3E
100
AcDbEntity
  8
USP-GEO
100
AcDbLine
 10
12.62889780453581
 20
15.15317794536596
 30
2.524280140830159
 11
11.73353015828149
 21
14.70549412223881
 31
2.971963963957314
  0
LINE
  5
AF
330
3E
100
AcDbEntity
  8
USP-GEO
100
AcDbLine
 10
12.1288978045358
 20
15.65317794536596
 30
3.524280140830159
 11
12.62889780453581
 21
15.15317794536596
 31
2.524280140830159
  0
LINE
  5
B0
330
3E
100
AcDbEntity
  8
USP-GEO
100
AcDbLine
 10
12.1288978045358
 20
15.65317794536596
 30
3.524280140830159
 11
12.52562923556178
 21
16.03862518258402
 31
3.512995947022244
  0
LINE
  5
B1
330
3E
100
AcDbEntity
  8
USP-GEO
100
AcDbLine
 10
12.79259340310627
 20
15.31221756582299
 30
2.519624162716716
 11
12.62889780453581
 21
15.15317794536596
 31
2.524280140830159
  0
LINE
  5
B2
330
3E
100
AcDbEntity
  8
USP-GEO
100
AcDbLine
 10
12.52562923556178
 20
16.03862518258402
 30
3.512995947022244
 11
12.57648924232652
 21
15.52832172660275
 31
2.951832484276231
  0
LINE
  5
B3
330
3E
100
AcDbEntity
  8
USP-GEO
100
AcDbLine
 10
12.57648924232652
 20
15.52832172660275
 30
2.951832484276231
 11
13.07648924232652
 21
15.02832172660275
 31
1.951832484276231
  0
LINE
  5
B4
330
3E
100
AcDbEntity
  8
USP-GEO
100
AcDbLine
 10
12.57648924232652
 20
15.52832172660275
 30
2.951832484276231
 11
13.13760313869283
 21
16.15753061244447
 31
3.01992747375165
  0
LINE
  5
B5
330
3E
100
AcDbEntity
  8
USP-GEO
100
AcDbLine
 10
13.63760313869282
 20
15.65753061244447
 30
2.01992747375165
 11
13.07648924232652
 21
15.02832172660275
 31
1.951832484276231
  0
LINE
  5
B6
330
3E
100
AcDbEntity
  8
USP-GEO
100
AcDbLine
 10
13.13760313869283
 20
16.15753061244447
 30
3.01992747375165
 11
13.63760313869282
 21
15.65753061244447
 31
2.01992747375165
  0
LINE
  5
B7
330
3E
100
AcDbEntity
  8
USP-GEO
100
AcDbLine
 10
13.13760313869283
 20
16.15753061244447
 30
3.01992747375165
 11
13.56686349161483
 21
16.37216078890548
 31
2.805297297290647
  0
LINE
  5
B8
330
3E
100
AcDbEntity
  8
USP-GEO
100
AcDbLine
 10
13.56686349161483
 20
16.37216078890548
 30
2.805297297290647
 11
14.06686349161483
 21
15.87216078890548
 31
1.805297297290647
  0
LINE
  5
B9
330
3E
100
AcDbEntity
  8
USP-GEO
100
AcDbLine
 10
14.06686349161483
 20
15.87216078890548
 30
1.805297297290647
 11
13.63760313869282
 21
15.65753061244447
 31
2.01992747375165
  0
LINE
  5
BA
330
3E
100
AcDbEntity
  8
USP-GEO
100
AcDbLine
 10
19.3765527373004
 20
22.86526724296831
 30
3.488714505667906
 11
7.066656129810224
 21
21.36713535105016
 31
14.30047922123994
  0
LINE
  5
BB
330
3E
100
AcDbEntity
  8
USP-GEO
100
AcDbLine
 10
7.566656129810224
 20
22.36713535105016
 30
14.80047922123994
 11
19.8765527373004
 21
23.86526724296831
 31
3.988714505667907
  0
LINE
  5
BC
330
3E
100
AcDbEntity
  8
USP-GEO
100
AcDbLine
 10
7.066656129810226
 20
21.36713535105016
 30
14.30047922123994
 11
7.566656129810226
 21
22.36713535105016
 31
14.80047922123994
  0
LINE
  5
BD
330
3E
100
AcDbEntity
  8
USP-GEO
100
AcDbLine
 10
7.066656129810226
 20
21.36713535105016
 30
14.30047922123994
 11
6.947804924178376
 21
20.79691287804839
 31
13.84910795387001
  0
LINE
  5
BE
330
3E
100
AcDbEntity
  8
USP-GEO
100
AcDbLine
 10
6.947804924178376
 20
20.79691287804839
 30
13.84910795387001
 11
7.150475948969827
 21
20.713934482893
 31
13.56345853392317
  0
LINE
  5
BF
330
3E
100
AcDbEntity
  8
USP-GEO
100
AcDbLine
 10
7.150475948969827
 20
20.713934482893
 30
13.56345853392317
 11
6.387800910464103
 21
20.19054088618245
 31
13.80273997571834
  0
LINE
  5
C0
330
3E
100
AcDbEntity
  8
USP-GEO
100
AcDbLine
 10
6.887800910464104
 20
21.19054088618245
 30
14.30273997571835
 11
7.053558011801855
 21
21.3042934034006
 31
14.25073539159875
  0
LINE
  5
C1
330
3E
100
AcDbEntity
  8
USP-GEO
100
AcDbLine
 10
6.387800910464103
 20
20.19054088618245
 30
13.80273997571834
 11
6.887800910464104
 21
21.19054088618245
 31
14.30273997571835
  0
LINE
  5
C2
330
3E
100
AcDbEntity
  8
USP-GEO
100
AcDbLine
 10
6.387800910464103
 20
20.19054088618245
 30
13.80273997571834
 11
6.766827498242357
 21
19.94603086500138
 31
13.17920336675903
  0
LINE
  5
C3
330
3E
100
AcDbEntity
  8
USP-GEO
100
AcDbLine
 10
6.766827498242357
 20
19.94603086500138
 30
13.17920336675903
 11
6.729083189692699
 21
19.74753312902007
 31
13.01844993932737
  0
LINE
  5
C4
330
3E
100
AcDbEntity
  8
USP-GEO
100
AcDbLine
 10
20.78380701055497
 20
21.45801296971376
 30
0.6742059591587922
 11
15.90372385602627
 21
20.8640999221774
 31
4.96037606615113
  0
LINE
  5
C5
330
3E
100
AcDbEntity
  8
USP-GEO
100
AcDbLine
 10
13.99957055443211
 20
20.63236176229036
 30
6.632791207858252
 11
13.9359816585173
 21
20.6246229033885
 31
6.688641244871204
  0
LINE
  5
C6
330
3E
100
AcDbEntity
  8
USP-GEO
100
AcDbLine
 10
13.71789995198086
 20
20.59808205012029
 30
6.880182098139438
 11
13.6559764510134
 21
20.59054587214768
 31
6.934569421134275
  0
LINE
  5
C7
330
3E
100
AcDbEntity
  8
USP-GEO
100
AcDbLine
 10
13.01739507643969
 20
20.51282961234971
 30
7.495434535910026
 11
12.88522434520553
 21
20.49674424673263
 31
7.611519901527088
  0
LINE
  5
C8
330
3E
100
AcDbEntity
  8
USP-GEO
100
AcDbLine
 10
12.30968394355507
 20
20.42670016283063
 30
8.11701621927556
 11
12.21561462642387
 21
20.41525179339757
 31
8.199637166973705
  0
LINE
  5
C9
330
3E
100
AcDbEntity
  8
USP-GEO
100
AcDbLine
 10
11.63488922773013
 20
20.34457668799493
 30
8.709687460264802
 11
6.729083189692699
 21
19.74753312902007
 31
13.01844993932738
  0
LINE
  5
CA
330
3E
100
AcDbEntity
  8
USP-GEO
100
AcDbLine
 10
20.78380701055497
 20
21.45801296971376
 30
0.6742059591587922
 11
21.28380701055497
 21
22.45801296971376
 31
1.174205959158792
  0
LINE
  5
CB
330
3E
100
AcDbEntity
  8
USP-GEO
100
AcDbLine
 10
19.3765527373004
 20
22.86526724296831
 30
3.488714505667906
 11
20.78380701055497
 21
21.45801296971376
 31
0.6742059591587926
  0
LINE
  5
CC
330
3E
100
AcDbEntity
  8
USP-GEO
100
AcDbLine
 10
19.3765527373004
 20
22.86526724296831
 30
3.488714505667906
 11
19.8765527373004
 21
23.86526724296831
 31
3.988714505667907
  0
LINE
  5
CD
330
3E
100
AcDbEntity
  8
USP-GEO
100
AcDbLine
 10
19.8765527373004
 20
23.86526724296831
 30
3.988714505667907
 11
21.28380701055497
 21
22.45801296971376
 31
1.174205959158793
  0
LINE
  5
CE
330
3E
100
AcDbEntity
  8
USP-GEO
100
AcDbLine
 10
11.16376020933637
 20
20.28723961765477
 30
9.123479408318404
 11
5.936283804873847
 21
17.67350141542351
 31
11.73721761054966
  0
LINE
  5
CF
330
3E
100
AcDbEntity
  8
USP-GEO
100
AcDbLine
 10
6.436283804873847
 20
18.67350141542351
 30
12.23721761054966
 11
9.181199240823634
 21
20.0459591333984
 31
10.86475989257477
  0
LINE
  5
D0
330
3E
100
AcDbEntity
  8
USP-GEO
100
AcDbLine
 10
5.936283804873847
 20
17.67350141542351
 30
11.73721761054966
 11
6.436283804873847
 21
18.67350141542351
 31
12.23721761054966
  0
LINE
  5
D1
330
3E
100
AcDbEntity
  8
USP-GEO
100
AcDbLine
 10
5.936283804873847
 20
17.67350141542351
 30
11.73721761054966
 11
6.347038706779041
 21
17.26274651351831
 31
10.91570780673928
  0
LINE
  5
D2
330
3E
100
AcDbEntity
  8
USP-GEO
100
AcDbLine
 10
6.347038706779041
 20
17.26274651351831
 30
10.91570780673928
 11
6.630172883654042
 21
17.28497608199662
 31
10.65480319834259
  0
LINE
  5
D3
330
3E
100
AcDbEntity
  8
USP-GEO
100
AcDbLine
 10
6.630172883654041
 20
17.28497608199662
 30
10.65480319834259
 11
6.343522439691658
 21
16.66430080729859
 31
10.32077836760694
  0
LINE
  5
D4
330
3E
100
AcDbEntity
  8
USP-GEO
100
AcDbLine
 10
6.343522439691658
 20
16.66430080729859
 30
10.32077836760694
 11
6.956279829114492
 21
16.64846822117213
 31
9.692188392057644
  0
LINE
  5
D5
330
3E
100
AcDbEntity
  8
USP-GEO
100
AcDbLine
 10
6.95627982911449
 20
16.64846822117213
 30
9.692188392057641
 11
7.102950471540514
 21
16.50683474875684
 31
9.403884277216333
  0
LINE
  5
D6
330
3E
100
AcDbEntity
  8
USP-GEO
100
AcDbLine
 10
14.71968497852517
 20
20.31520200224917
 30
5.595517023723999
 11
7.102950471540514
 21
16.50683474875684
 31
9.403884277216333
  0
LINE
  5
D7
330
3E
100
AcDbEntity
  8
USP-GEO
100
AcDbLine
 10
11.16376020933637
 20
20.28723961765477
 30
9.123479408318404
 11
11.63534141399285
 21
20.3448027811263
 31
8.709461367133446
  0
LINE
  5
D8
330
3E
100
AcDbEntity
  8
USP-GEO
100
AcDbLine
 10
12.21584777058722
 20
20.41566180173811
 30
8.199814031150896
 11
12.30990528898142
 21
20.42714285368333
 31
8.117237564701914
  0
LINE
  5
D9
330
3E
100
AcDbEntity
  8
USP-GEO
100
AcDbLine
 10
12.88687659417262
 20
20.49757037121617
 30
7.610693777043544
 11
13.01917418192943
 21
20.51371916509459
 31
7.494544983165153
  0
LINE
  5
DA
330
3E
100
AcDbEntity
  8
USP-GEO
100
AcDbLine
 10
13.6551707690897
 20
20.59135155407138
 30
6.936180784981679
 11
13.72035139704071
 21
20.59930777265022
 31
6.878956375609512
  0
LINE
  5
DB
330
3E
100
AcDbEntity
  8
USP-GEO
100
AcDbLine
 10
13.93864241683954
 20
20.62595328254962
 30
6.687310865710083
 11
13.99865379564694
 21
20.63327852107553
 31
6.634624725428582
  0
LINE
  5
DC
330
3E
100
AcDbEntity
  8
USP-GEO
100
AcDbLine
 10
17.46267212588977
 20
20.7096130944076
 30
3.246940968517834
 11
19.31128380487385
 21
18.86100141542351
 31
-0.4502823894503321
  0
LINE
  5
DD
330
3E
100
AcDbEntity
  8
USP-GEO
100
AcDbLine
 10
18.81128380487385
 20
17.86100141542351
 30
-0.9502823894503338
 11
16.96267212588977
 21
19.7096130944076
 31
2.746940968517833
  0
LINE
  5
DE
330
3E
100
AcDbEntity
  8
USP-GEO
100
AcDbLine
 10
19.31128380487385
 20
18.86100141542351
 30
-0.4502823894503321
 11
18.81128380487385
 21
17.86100141542351
 31
-0.9502823894503338
  0
LINE
  5
DF
330
3E
100
AcDbEntity
  8
USP-GEO
100
AcDbLine
 10
18.1543317942912
 20
17.53252541013219
 30
-0.6218063841590125
 11
18.81128380487385
 21
17.86100141542351
 31
-0.9502823894503338
  0
LINE
  5
E0
330
3E
100
AcDbEntity
  8
USP-GEO
100
AcDbLine
 10
17.767759351684
 20
17.47076333476726
 30
-0.2969960169167427
 11
18.1543317942912
 21
17.53252541013219
 31
-0.6218063841590125
  0
LINE
  5
E1
330
3E
100
AcDbEntity
  8
USP-GEO
100
AcDbLine
 10
17.65345364170693
 20
16.99736091273404
 30
-0.6560927289728902
 11
17.767759351684
 21
17.47076333476726
 31
-0.2969960169167427
  0
LINE
  5
E2
330
3E
100
AcDbEntity
  8
USP-GEO
100
AcDbLine
 10
17.90078119912223
 20
17.49201602756463
 30
-0.4087651715575929
 11
17.65345364170693
 21
16.99736091273404
 31
-0.6560927289728902
  0
LINE
  5
E3
330
3E
100
AcDbEntity
  8
USP-GEO
100
AcDbLine
 10
17.04827870887856
 20
16.98412656553621
 30
-0.0641521433423522
 11
17.65345364170693
 21
16.99736091273404
 31
-0.6560927289728902
  0
LINE
  5
E4
330
3E
100
AcDbEntity
  8
USP-GEO
100
AcDbLine
 10
16.47795047154051
 20
16.69433474875684
 30
0.2163842772163331
 11
17.04827870887856
 21
16.98412656553621
 31
-0.0641521433423522
  0
LINE
  5
E5
330
3E
100
AcDbEntity
  8
USP-GEO
100
AcDbLine
 10
15.64461713820718
 20
17.52766808209018
 30
1.883050943883001
 11
16.47795047154051
 21
16.69433474875684
 31
0.2163842772163331
  0
ELLIPSE
  5
E6
330
3E
100
AcDbEntity
  8
USP-GEO
100
AcDbEllipse
 10
15.9734182916298
 20
19.99511098113607
 30
4.021692689506265
 11
0.0
 21
0.0893431600721996
 31
0.0893431600721996
210
0.577350269189626
220
-0.5773502691896261
230
0.5773502691896259
 40
0.5773502691896259
 41
0.0
 42
6.283185307179586
  0
ELLIPSE
  5
E7
330
3E
100
AcDbEntity
  8
USP-GEO
100
AcDbEllipse
 10
15.93972487598197
 20
19.97826427331215
 30
4.038539397330183
 11
0.0
 21
0.0893431600721996
 31
0.0893431600721996
210
0.577350269189626
220
-0.5773502691896261
230
0.5773502691896259
 40
0.5773502691896259
 41
2.356194490192344
 42
3.141592653589787
  0
ELLIPSE
  5
E8
330
3E
100
AcDbEntity
  8
USP-GEO
100
AcDbEllipse
 10
15.93972487598197
 20
19.97826427331215
 30
4.038539397330183
 11
0.0
 21
0.0893431600721996
 31
0.0893431600721996
210
0.577350269189626
220
-0.5773502691896261
230
0.5773502691896259
 40
0.5773502691896259
 41
-0.0000000000000202
 42
2.356194490192344
  0
ELLIPSE
  5
E9
330
3E
100
AcDbEntity
  8
USP-GEO
100
AcDbEllipse
 10
16.84645946413481
 20
20.11767615654175
 30
3.271216692406938
 11
0.0
 21
0.0893431600721996
 31
0.0893431600721996
210
0.577350269189626
220
-0.5773502691896261
230
0.5773502691896259
 40
0.5773502691896259
 41
0.0
 42
6.283185307179586
  0
ELLIPSE
  5
EA
330
3E
100
AcDbEntity
  8
USP-GEO
100
AcDbEllipse
 10
16.81276604848697
 20
20.10082944871783
 30
3.288063400230855
 11
0.0
 21
0.0893431600721996
 31
0.0893431600721996
210
0.577350269189626
220
-0.5773502691896261
230
0.5773502691896259
 40
0.5773502691896259
 41
2.356194490192351
 42
3.141592653589785
  0
ELLIPSE
  5
EB
330
3E
100
AcDbEntity
  8
USP-GEO
100
AcDbEllipse
 10
16.81276604848697
 20
20.10082944871783
 30
3.288063400230855
 11
0.0
 21
0.0893431600721996
 31
0.0893431600721996
210
0.577350269189626
220
-0.5773502691896261
230
0.5773502691896259
 40
0.5773502691896259
 41
-0.0000000000000053
 42
2.356194490192351
  0
ELLIPSE
  5
EC
330
3E
100
AcDbEntity
  8
USP-GEO
100
AcDbEllipse
 10
17.20375699949109
 20
20.4542427181385
 30
3.250485718647404
 11
0.0
 21
0.0893431600721996
 31
0.0893431600721996
210
0.577350269189626
220
-0.5773502691896261
230
0.5773502691896259
 40
0.5773502691896259
 41
0.0
 42
6.283185307179586
  0
ELLIPSE
  5
ED
330
3E
100
AcDbEntity
  8
USP-GEO
100
AcDbEllipse
 10
17.17006358384326
 20
20.43739601031458
 30
3.267332426471321
 11
0.0
 21
0.0893431600721996
 31
0.0893431600721996
210
0.577350269189626
220
-0.5773502691896261
230
0.5773502691896259
 40
0.5773502691896259
 41
2.356194490192337
 42
3.141592653589805
  0
ELLIPSE
  5
EE
330
3E
100
AcDbEntity
  8
USP-GEO
100
AcDbEllipse
 10
17.17006358384326
 20
20.43739601031458
 30
3.267332426471321
 11
0.0
 21
0.0893431600721996
 31
0.0893431600721996
210
0.577350269189626
220
-0.5773502691896261
230
0.5773502691896259
 40
0.5773502691896259
 41
-0.0000000000000351
 42
2.356194490192337
  0
ELLIPSE
  5
EF
330
3E
100
AcDbEntity
  8
USP-GEO
100
AcDbEllipse
 10
15.8290903328244
 20
19.32890938480514
 30
3.499819051980733
 11
0.0
 21
0.0893431600721996
 31
0.0893431600721996
210
0.577350269189626
220
-0.5773502691896261
230
0.5773502691896259
 40
0.5773502691896259
 41
0.0
 42
6.283185307179586
  0
ELLIPSE
  5
F0
330
3E
100
AcDbEntity
  8
USP-GEO
100
AcDbEllipse
 10
15.79539691717657
 20
19.31206267698122
 30
3.51666575980465
 11
0.0
 21
0.0893431600721996
 31
0.0893431600721996
210
0.577350269189626
220
-0.5773502691896261
230
0.5773502691896259
 40
0.5773502691896259
 41
2.356194490192348
 42
3.141592653589802
  0
ELLIPSE
  5
F1
330
3E
100
AcDbEntity
  8
USP-GEO
100
AcDbEllipse
 10
15.79539691717657
 20
19.31206267698122
 30
3.51666575980465
 11
0.0
 21
0.0893431600721996
 31
0.0893431600721996
210
0.577350269189626
220
-0.5773502691896261
230
0.5773502691896259
 40
0.5773502691896259
 41
-0.0000000000000202
 42
2.356194490192348
  0
LINE
  5
F2
330
3E
100
AcDbEntity
  8
USP-GEO
100
AcDbLine
 10
11.23566264815568
 20
20.1249633982077
 30
8.889300750052015
 11
13.76646113604918
 21
21.39036264215445
 31
7.623901506105266
  0
LINE
  5
F3
330
3E
100
AcDbEntity
  8
USP-GEO
100
AcDbLine
 10
11.24899598148902
 20
20.15163006487437
 30
8.902634083385347
 11
11.23566264815569
 21
20.1249633982077
 31
8.889300750052015
  0
LINE
  5
F4
330
3E
100
AcDbEntity
  8
USP-GEO
100
AcDbLine
 10
12.15132931482235
 20
19.20929673154102
 30
7.057967416718675
 11
11.23566264815568
 21
20.1249633982077
 31
8.889300750052015
  0
LINE
  5
F5
330
3E
100
AcDbEntity
  8
USP-GEO
100
AcDbLine
 10
14.68212780271588
 20
20.47469597548779
 30
5.792568172771908
 11
12.15132931482235
 21
19.20929673154101
 31
7.057967416718675
  0
LINE
  5
F6
330
3E
100
AcDbEntity
  8
USP-GEO
100
AcDbLine
 10
14.82791731369631
 20
21.78270873266708
 30
6.954791418970764
 11
14.83957457358502
 21
21.77105147277837
 31
6.931476899193342
  0
ELLIPSE
  5
F7
330
3E
100
AcDbEntity
  8
USP-GEO
100
AcDbEllipse
 10
11.61066264815568
 20
20.1244633982077
 30
8.513800750052016
 11
0.0220970869120795
 21
-0.0000000000000002
 31
-0.0220970869120797
210
0.5773502691896258
220
-0.5773502691896258
230
0.5773502691896259
 40
0.5773502691896308
 41
3.926990816987358
 42
7.068583470576981
  0
ELLIPSE
  5
F8
330
3E
100
AcDbEntity
  8
USP-GEO
100
AcDbEllipse
 10
11.74066264815568
 20
20.1194633982077
 30
8.378800750052015
 11
0.0220970869120795
 21
-0.0000000000000002
 31
-0.0220970869120797
210
0.5773502691896258
220
-0.5773502691896258
230
0.5773502691896259
 40
0.5773502691896308
 41
0.7853981633975656
 42
3.926990816987244
  0
ELLIPSE
  5
F9
330
3E
100
AcDbEntity
  8
USP-GEO
100
AcDbEllipse
 10
11.69899598148901
 20
20.03613006487436
 30
8.337134083385347
 11
0.0220970869120795
 21
-0.0000000000000002
 31
-0.0220970869120797
210
0.5773502691896258
220
-0.5773502691896258
230
0.5773502691896259
 40
0.5773502691896308
 41
3.926990816987358
 42
7.068583470577038
  0
ELLIPSE
  5
FA
330
3E
100
AcDbEntity
  8
USP-GEO
100
AcDbEllipse
 10
11.82899598148901
 20
20.03113006487436
 30
8.202134083385345
 11
0.0220970869120795
 21
-0.0000000000000002
 31
-0.0220970869120797
210
0.5773502691896258
220
-0.5773502691896258
230
0.5773502691896259
 40
0.5773502691896308
 41
0.785398163397452
 42
3.926990816987244
  0
ELLIPSE
  5
FB
330
3E
100
AcDbEntity
  8
USP-GEO
100
AcDbEllipse
 10
11.78732931482235
 20
19.94779673154103
 30
8.160467416718681
 11
0.0220970869120795
 21
-0.0000000000000002
 31
-0.0220970869120797
210
0.5773502691896258
220
-0.5773502691896258
230
0.5773502691896259
 40
0.5773502691896308
 41
3.926990816987244
 42
7.068583470576981
  0
ELLIPSE
  5
FC
330
3E
100
AcDbEntity
  8
USP-GEO
100
AcDbEllipse
 10
11.91732931482235
 20
19.94279673154103
 30
8.025467416718681
 11
0.0220970869120795
 21
-0.0000000000000002
 31
-0.0220970869120797
210
0.5773502691896258
220
-0.5773502691896258
230
0.5773502691896259
 40
0.5773502691896308
 41
0.7853981633973952
 42
3.926990816987301
  0
ELLIPSE
  5
FD
330
3E
100
AcDbEntity
  8
USP-GEO
100
AcDbEllipse
 10
11.52232931482235
 20
20.21279673154103
 30
8.690467416718682
 11
0.0220970869120795
 21
-0.0000000000000002
 31
-0.0220970869120797
210
0.5773502691896258
220
-0.5773502691896258
230
0.5773502691896259
 40
0.5773502691896308
 41
3.926990816987244
 42
7.068583470577038
  0
ELLIPSE
  5
FE
330
3E
100
AcDbEntity
  8
USP-GEO
100
AcDbEllipse
 10
11.65232931482235
 20
20.20779673154104
 30
8.555467416718682
 11
0.0220970869120795
 21
-0.0000000000000002
 31
-0.0220970869120797
210
0.5773502691896258
220
-0.5773502691896258
230
0.5773502691896259
 40
0.5773502691896308
 41
0.7853981633975088
 42
3.926990816987244
  0
ELLIPSE
  5
FF
330
3E
100
AcDbEntity
  8
USP-GEO
100
AcDbEllipse
 10
12.14066264815568
 20
19.59446339820769
 30
7.45380075005201
 11
0.0220970869120795
 21
-0.0000000000000002
 31
-0.0220970869120797
210
0.5773502691896258
220
-0.5773502691896258
230
0.5773502691896259
 40
0.5773502691896308
 41
3.926990816987244
 42
7.068583470577094
  0
ELLIPSE
  5
100
330
3E
100
AcDbEntity
  8
USP-GEO
100
AcDbEllipse
 10
12.27066264815568
 20
19.58946339820769
 30
7.318800750052011
 11
0.0220970869120795
 21
-0.0000000000000002
 31
-0.0220970869120797
210
0.5773502691896258
220
-0.5773502691896258
230
0.5773502691896259
 40
0.5773502691896308
 41
0.7853981633973951
 42
3.926990816987273
  0
ELLIPSE
  5
101
330
3E
100
AcDbEntity
  8
USP-GEO
100
AcDbEllipse
 10
12.22899598148901
 20
19.50613006487435
 30
7.277134083385341
 11
0.0220970869120795
 21
-0.0000000000000002
 31
-0.0220970869120797
210
0.5773502691896258
220
-0.5773502691896258
230
0.5773502691896259
 40
0.5773502691896308
 41
3.926990816987244
 42
7.068583470577094
  0
ELLIPSE
  5
102
330
3E
100
AcDbEntity
  8
USP-GEO
100
AcDbEllipse
 10
12.35899598148901
 20
19.50113006487435
 30
7.142134083385341
 11
0.0220970869120795
 21
-0.0000000000000002
 31
-0.0220970869120797
210
0.5773502691896258
220
-0.5773502691896258
230
0.5773502691896259
 40
0.5773502691896308
 41
0.7853981633973951
 42
3.926990816987244
  0
ELLIPSE
  5
103
330
3E
100
AcDbEntity
  8
USP-GEO
100
AcDbEllipse
 10
11.96399598148901
 20
19.77113006487436
 30
7.807134083385346
 11
0.0220970869120795
 21
-0.0000000000000002
 31
-0.0220970869120797
210
0.5773502691896258
220
-0.5773502691896258
230
0.5773502691896259
 40
0.5773502691896308
 41
3.926990816987244
 42
7.068583470577009
  0
ELLIPSE
  5
104
330
3E
100
AcDbEntity
  8
USP-GEO
100
AcDbEllipse
 10
12.09399598148901
 20
19.76613006487436
 30
7.672134083385344
 11
0.0220970869120795
 21
-0.0000000000000002
 31
-0.0220970869120797
210
0.5773502691896258
220
-0.5773502691896258
230
0.5773502691896259
 40
0.5773502691896308
 41
0.7853981633975088
 42
3.926990816987273
  0
ELLIPSE
  5
105
330
3E
100
AcDbEntity
  8
USP-GEO
100
AcDbEllipse
 10
12.05232931482234
 20
19.68279673154102
 30
7.630467416718677
 11
0.0220970869120795
 21
-0.0000000000000002
 31
-0.0220970869120797
210
0.5773502691896258
220
-0.5773502691896258
230
0.5773502691896259
 40
0.5773502691896308
 41
3.926990816987216
 42
7.068583470577009
  0
ELLIPSE
  5
106
330
3E
100
AcDbEntity
  8
USP-GEO
100
AcDbEllipse
 10
12.18232931482235
 20
19.67779673154102
 30
7.495467416718677
 11
0.0220970869120795
 21
-0.0000000000000002
 31
-0.0220970869120797
210
0.5773502691896258
220
-0.5773502691896258
230
0.5773502691896259
 40
0.5773502691896308
 41
0.7853981633975372
 42
3.926990816987159
  0
ELLIPSE
  5
107
330
3E
100
AcDbEntity
  8
USP-GEO
100
AcDbEllipse
 10
11.87566264815568
 20
19.85946339820769
 30
7.983800750052014
 11
0.0220970869120795
 21
-0.0000000000000002
 31
-0.0220970869120797
210
0.5773502691896258
220
-0.5773502691896258
230
0.5773502691896259
 40
0.5773502691896308
 41
3.926990816987159
 42
7.068583470576981
  0
ELLIPSE
  5
108
330
3E
100
AcDbEntity
  8
USP-GEO
100
AcDbEllipse
 10
12.00566264815568
 20
19.85446339820769
 30
7.848800750052014
 11
0.0220970869120795
 21
-0.0000000000000002
 31
-0.0220970869120797
210
0.5773502691896258
220
-0.5773502691896258
230
0.5773502691896259
 40
0.5773502691896308
 41
0.7853981633975088
 42
3.926990816987244
  0
ELLIPSE
  5
109
330
3E
100
AcDbEntity
  8
USP-GEO
100
AcDbEllipse
 10
12.31732931482234
 20
19.41779673154101
 30
7.100467416718676
 11
0.0220970869120795
 21
-0.0000000000000002
 31
-0.0220970869120797
210
0.5773502691896258
220
-0.5773502691896258
230
0.5773502691896259
 40
0.5773502691896308
 41
3.926990816987188
 42
7.068583470577066
  0
ELLIPSE
  5
10A
330
3E
100
AcDbEntity
  8
USP-GEO
100
AcDbEllipse
 10
12.44732931482234
 20
19.41279673154102
 30
6.965467416718675
 11
0.0220970869120795
 21
-0.0000000000000002
 31
-0.0220970869120797
210
0.5773502691896258
220
-0.5773502691896258
230
0.5773502691896259
 40
0.5773502691896308
 41
0.7853981633975088
 42
3.926990816987244
  0
ELLIPSE
  5
10B
330
3E
100
AcDbEntity
  8
USP-GEO
100
AcDbEllipse
 10
12.68899598148902
 20
20.79613006487436
 30
8.10713408338535
 11
0.0220970869120795
 21
-0.0000000000000002
 31
-0.0220970869120797
210
0.5773502691896258
220
-0.5773502691896258
230
0.5773502691896259
 40
0.5773502691896308
 41
3.926990816987244
 42
7.068583470577151
  0
ELLIPSE
  5
10C
330
3E
100
AcDbEntity
  8
USP-GEO
100
AcDbEllipse
 10
12.81899598148902
 20
20.79113006487437
 30
7.97213408338535
 11
0.0220970869120795
 21
-0.0000000000000002
 31
-0.0220970869120797
210
0.5773502691896258
220
-0.5773502691896258
230
0.5773502691896259
 40
0.5773502691896308
 41
0.7853981633975088
 42
3.926990816987244
  0
ELLIPSE
  5
10D
330
3E
100
AcDbEntity
  8
USP-GEO
100
AcDbEllipse
 10
12.77732931482235
 20
20.70779673154103
 30
7.930467416718682
 11
0.0220970869120795
 21
-0.0000000000000002
 31
-0.0220970869120797
210
0.5773502691896258
220
-0.5773502691896258
230
0.5773502691896259
 40
0.5773502691896308
 41
3.926990816987244
 42
7.068583470576981
  0
ELLIPSE
  5
10E
330
3E
100
AcDbEntity
  8
USP-GEO
100
AcDbEllipse
 10
12.90732931482235
 20
20.70279673154103
 30
7.795467416718681
 11
0.0220970869120795
 21
-0.0000000000000002
 31
-0.0220970869120797
210
0.5773502691896258
220
-0.5773502691896258
230
0.5773502691896259
 40
0.5773502691896308
 41
0.7853981633975088
 42
3.926990816987273
  0
ELLIPSE
  5
10F
330
3E
100
AcDbEntity
  8
USP-GEO
100
AcDbEllipse
 10
12.86566264815568
 20
20.6194633982077
 30
7.753800750052013
 11
0.0220970869120795
 21
-0.0000000000000002
 31
-0.0220970869120797
210
0.5773502691896258
220
-0.5773502691896258
230
0.5773502691896259
 40
0.5773502691896308
 41
3.926990816987244
 42
7.068583470577009
  0
ELLIPSE
  5
110
330
3E
100
AcDbEntity
  8
USP-GEO
100
AcDbEllipse
 10
12.99566264815568
 20
20.6144633982077
 30
7.618800750052013
 11
0.0220970869120795
 21
-0.0000000000000002
 31
-0.0220970869120797
210
0.5773502691896258
220
-0.5773502691896258
230
0.5773502691896259
 40
0.5773502691896308
 41
0.7853981633973952
 42
3.926990816987244
  0
ELLIPSE
  5
111
330
3E
100
AcDbEntity
  8
USP-GEO
100
AcDbEllipse
 10
12.95399598148901
 20
20.53113006487436
 30
7.577134083385347
 11
0.0220970869120795
 21
-0.0000000000000002
 31
-0.0220970869120797
210
0.5773502691896258
220
-0.5773502691896258
230
0.5773502691896259
 40
0.5773502691896308
 41
3.926990816987102
 42
7.068583470577151
  0
ELLIPSE
  5
112
330
3E
100
AcDbEntity
  8
USP-GEO
100
AcDbEllipse
 10
13.08399598148901
 20
20.52613006487436
 30
7.442134083385347
 11
0.0220970869120795
 21
-0.0000000000000002
 31
-0.0220970869120797
210
0.5773502691896258
220
-0.5773502691896258
230
0.5773502691896259
 40
0.5773502691896308
 41
0.7853981633975088
 42
3.926990816987244
  0
ELLIPSE
  5
113
330
3E
100
AcDbEntity
  8
USP-GEO
100
AcDbEllipse
 10
13.13066264815568
 20
20.3544633982077
 30
7.223800750052014
 11
0.0220970869120795
 21
-0.0000000000000002
 31
-0.0220970869120797
210
0.5773502691896258
220
-0.5773502691896258
230
0.5773502691896259
 40
0.5773502691896308
 41
3.926990816987244
 42
7.068583470577094
  0
ELLIPSE
  5
114
330
3E
100
AcDbEntity
  8
USP-GEO
100
AcDbEllipse
 10
13.26066264815568
 20
20.3494633982077
 30
7.088800750052014
 11
0.0220970869120795
 21
-0.0000000000000002
 31
-0.0220970869120797
210
0.5773502691896258
220
-0.5773502691896258
230
0.5773502691896259
 40
0.5773502691896308
 41
0.7853981633973952
 42
3.926990816987244
  0
ELLIPSE
  5
115
330
3E
100
AcDbEntity
  8
USP-GEO
100
AcDbEllipse
 10
13.21899598148901
 20
20.26613006487436
 30
7.047134083385344
 11
0.0220970869120795
 21
-0.0000000000000002
 31
-0.0220970869120797
210
0.5773502691896258
220
-0.5773502691896258
230
0.5773502691896259
 40
0.5773502691896308
 41
3.926990816987358
 42
7.068583470577038
  0
ELLIPSE
  5
116
330
3E
100
AcDbEntity
  8
USP-GEO
100
AcDbEllipse
 10
13.34899598148901
 20
20.26113006487436
 30
6.912134083385344
 11
0.0220970869120795
 21
-0.0000000000000002
 31
-0.0220970869120797
210
0.5773502691896258
220
-0.5773502691896258
230
0.5773502691896259
 40
0.5773502691896308
 41
0.7853981633974235
 42
3.926990816987244
  0
ELLIPSE
  5
117
330
3E
100
AcDbEntity
  8
USP-GEO
100
AcDbEllipse
 10
13.30732931482234
 20
20.17779673154103
 30
6.870467416718677
 11
0.0220970869120795
 21
-0.0000000000000002
 31
-0.0220970869120797
210
0.5773502691896258
220
-0.5773502691896258
230
0.5773502691896259
 40
0.5773502691896308
 41
3.926990816987216
 42
7.068583470577038
  0
ELLIPSE
  5
118
330
3E
100
AcDbEntity
  8
USP-GEO
100
AcDbEllipse
 10
13.43732931482234
 20
20.17279673154103
 30
6.735467416718677
 11
0.0220970869120795
 21
-0.0000000000000002
 31
-0.0220970869120797
210
0.5773502691896258
220
-0.5773502691896258
230
0.5773502691896259
 40
0.5773502691896308
 41
0.785398163397452
 42
3.926990816987358
  0
ELLIPSE
  5
119
330
3E
100
AcDbEntity
  8
USP-GEO
100
AcDbEllipse
 10
13.39566264815568
 20
20.08946339820769
 30
6.693800750052011
 11
0.0220970869120795
 21
-0.0000000000000002
 31
-0.0220970869120797
210
0.5773502691896258
220
-0.5773502691896258
230
0.5773502691896259
 40
0.5773502691896308
 41
3.926990816987244
 42
7.068583470577009
  0
ELLIPSE
  5
11A
330
3E
100
AcDbEntity
  8
USP-GEO
100
AcDbEllipse
 10
13.52566264815568
 20
20.08446339820769
 30
6.558800750052008
 11
0.0220970869120795
 21
-0.0000000000000002
 31
-0.0220970869120797
210
0.5773502691896258
220
-0.5773502691896258
230
0.5773502691896259
 40
0.5773502691896308
 41
0.7853981633975373
 42
3.926990816987244
  0
ELLIPSE
  5
11B
330
3E
100
AcDbEntity
  8
USP-GEO
100
AcDbEllipse
 10
13.04232931482235
 20
20.44279673154103
 30
7.40046741671868
 11
0.0220970869120795
 21
-0.0000000000000002
 31
-0.0220970869120797
210
0.5773502691896258
220
-0.5773502691896258
230
0.5773502691896259
 40
0.5773502691896308
 41
3.926990816987216
 42
7.068583470577009
  0
ELLIPSE
  5
11C
330
3E
100
AcDbEntity
  8
USP-GEO
100
AcDbEllipse
 10
13.17232931482235
 20
20.43779673154103
 30
7.265467416718681
 11
0.0220970869120795
 21
-0.0000000000000002
 31
-0.0220970869120797
210
0.5773502691896258
220
-0.5773502691896258
230
0.5773502691896259
 40
0.5773502691896308
 41
0.7853981633975088
 42
3.926990816987244
  0
ELLIPSE
  5
11D
330
3E
100
AcDbEntity
  8
USP-GEO
100
AcDbEllipse
 10
13.27232931482235
 20
21.08779673154103
 30
7.815467416718684
 11
0.0220970869120795
 21
-0.0000000000000002
 31
-0.0220970869120797
210
0.5773502691896258
220
-0.5773502691896258
230
0.5773502691896259
 40
0.5773502691896308
 41
3.926990816987244
 42
7.068583470577094
  0
ELLIPSE
  5
11E
330
3E
100
AcDbEntity
  8
USP-GEO
100
AcDbEllipse
 10
13.40232931482235
 20
21.08279673154104
 30
7.680467416718684
 11
0.0220970869120795
 21
-0.0000000000000002
 31
-0.0220970869120797
210
0.5773502691896258
220
-0.5773502691896258
230
0.5773502691896259
 40
0.5773502691896308
 41
0.7853981633975088
 42
3.926990816987301
  0
ELLIPSE
  5
11F
330
3E
100
AcDbEntity
  8
USP-GEO
100
AcDbEllipse
 10
13.36066264815568
 20
20.9994633982077
 30
7.638800750052016
 11
0.0220970869120795
 21
-0.0000000000000002
 31
-0.0220970869120797
210
0.5773502691896258
220
-0.5773502691896258
230
0.5773502691896259
 40
0.5773502691896308
 41
3.926990816987273
 42
7.068583470576981
  0
ELLIPSE
  5
120
330
3E
100
AcDbEntity
  8
USP-GEO
100
AcDbEllipse
 10
13.49066264815568
 20
20.9944633982077
 30
7.503800750052016
 11
0.0220970869120795
 21
-0.0000000000000002
 31
-0.0220970869120797
210
0.5773502691896258
220
-0.5773502691896258
230
0.5773502691896259
 40
0.5773502691896308
 41
0.7853981633975088
 42
3.926990816987244
  0
ELLIPSE
  5
121
330
3E
100
AcDbEntity
  8
USP-GEO
100
AcDbEllipse
 10
13.44899598148902
 20
20.91113006487436
 30
7.462134083385348
 11
0.0220970869120795
 21
-0.0000000000000002
 31
-0.0220970869120797
210
0.5773502691896258
220
-0.5773502691896258
230
0.5773502691896259
 40
0.5773502691896308
 41
3.926990816987273
 42
7.068583470576952
  0
ELLIPSE
  5
122
330
3E
100
AcDbEntity
  8
USP-GEO
100
AcDbEllipse
 10
13.57899598148901
 20
20.90613006487436
 30
7.327134083385347
 11
0.0220970869120795
 21
-0.0000000000000002
 31
-0.0220970869120797
210
0.5773502691896258
220
-0.5773502691896258
230
0.5773502691896259
 40
0.5773502691896308
 41
0.7853981633973952
 42
3.926990816987159
  0
ELLIPSE
  5
123
330
3E
100
AcDbEntity
  8
USP-GEO
100
AcDbEllipse
 10
13.53732931482235
 20
20.82279673154103
 30
7.285467416718681
 11
0.0220970869120795
 21
-0.0000000000000002
 31
-0.0220970869120797
210
0.5773502691896258
220
-0.5773502691896258
230
0.5773502691896259
 40
0.5773502691896308
 41
3.926990816987244
 42
7.068583470577094
  0
ELLIPSE
  5
124
330
3E
100
AcDbEntity
  8
USP-GEO
100
AcDbEllipse
 10
13.66732931482235
 20
20.81779673154103
 30
7.150467416718681
 11
0.0220970869120795
 21
-0.0000000000000002
 31
-0.0220970869120797
210
0.5773502691896258
220
-0.5773502691896258
230
0.5773502691896259
 40
0.5773502691896308
 41
0.7853981633973952
 42
3.926990816987244
  0
ELLIPSE
  5
125
330
3E
100
AcDbEntity
  8
USP-GEO
100
AcDbEllipse
 10
13.62566264815568
 20
20.73446339820769
 30
7.108800750052014
 11
0.0220970869120795
 21
-0.0000000000000002
 31
-0.0220970869120797
210
0.5773502691896258
220
-0.5773502691896258
230
0.5773502691896259
 40
0.5773502691896308
 41
3.926990816987159
 42
7.068583470577066
  0
ELLIPSE
  5
126
330
3E
100
AcDbEntity
  8
USP-GEO
100
AcDbEllipse
 10
13.75566264815568
 20
20.7294633982077
 30
6.973800750052014
 11
0.0220970869120795
 21
-0.0000000000000002
 31
-0.0220970869120797
210
0.5773502691896258
220
-0.5773502691896258
230
0.5773502691896259
 40
0.5773502691896308
 41
0.7853981633974235
 42
3.926990816987273
  0
ELLIPSE
  5
127
330
3E
100
AcDbEntity
  8
USP-GEO
100
AcDbEllipse
 10
13.71399598148901
 20
20.64613006487436
 30
6.932134083385347
 11
0.0220970869120795
 21
-0.0000000000000002
 31
-0.0220970869120797
210
0.5773502691896258
220
-0.5773502691896258
230
0.5773502691896259
 40
0.5773502691896308
 41
3.926990816987244
 42
7.068583470576981
  0
ELLIPSE
  5
128
330
3E
100
AcDbEntity
  8
USP-GEO
100
AcDbEllipse
 10
13.84399598148901
 20
20.64113006487436
 30
6.797134083385348
 11
0.0220970869120795
 21
-0.0000000000000002
 31
-0.0220970869120797
210
0.5773502691896258
220
-0.5773502691896258
230
0.5773502691896259
 40
0.5773502691896308
 41
0.7853981633975088
 42
3.926990816987244
  0
ELLIPSE
  5
129
330
3E
100
AcDbEntity
  8
USP-GEO
100
AcDbEllipse
 10
13.80232931482234
 20
20.55779673154102
 30
6.755467416718678
 11
0.0220970869120795
 21
-0.0000000000000002
 31
-0.0220970869120797
210
0.5773502691896258
220
-0.5773502691896258
230
0.5773502691896259
 40
0.5773502691896308
 41
3.926990816987244
 42
7.068583470577094
  0
ELLIPSE
  5
12A
330
3E
100
AcDbEntity
  8
USP-GEO
100
AcDbEllipse
 10
13.93232931482234
 20
20.55279673154103
 30
6.620467416718678
 11
0.0220970869120795
 21
-0.0000000000000002
 31
-0.0220970869120797
210
0.5773502691896258
220
-0.5773502691896258
230
0.5773502691896259
 40
0.5773502691896308
 41
0.7853981633973952
 42
3.926990816987244
  0
ELLIPSE
  5
12B
330
3E
100
AcDbEntity
  8
USP-GEO
100
AcDbEllipse
 10
13.89066264815568
 20
20.46946339820769
 30
6.57880075005201
 11
0.0220970869120795
 21
-0.0000000000000002
 31
-0.0220970869120797
210
0.5773502691896258
220
-0.5773502691896258
230
0.5773502691896259
 40
0.5773502691896308
 41
3.926990816987358
 42
7.068583470576981
  0
ELLIPSE
  5
12C
330
3E
100
AcDbEntity
  8
USP-GEO
100
AcDbEllipse
 10
14.02066264815568
 20
20.46446339820769
 30
6.443800750052011
 11
0.0220970869120795
 21
-0.0000000000000002
 31
-0.0220970869120797
210
0.5773502691896258
220
-0.5773502691896258
230
0.5773502691896259
 40
0.5773502691896308
 41
0.785398163397452
 42
3.926990816987244
  0
ELLIPSE
  5
12D
330
3E
100
AcDbEntity
  8
USP-GEO
100
AcDbEllipse
 10
13.97899598148901
 20
20.38113006487435
 30
6.402134083385343
 11
0.0220970869120795
 21
-0.0000000000000002
 31
-0.0220970869120797
210
0.5773502691896258
220
-0.5773502691896258
230
0.5773502691896259
 40
0.5773502691896308
 41
3.926990816987273
 42
7.068583470577066
  0
ELLIPSE
  5
12E
330
3E
100
AcDbEntity
  8
USP-GEO
100
AcDbEllipse
 10
14.10899598148901
 20
20.37613006487435
 30
6.267134083385341
 11
0.0220970869120795
 21
-0.0000000000000002
 31
-0.0220970869120797
210
0.5773502691896258
220
-0.5773502691896258
230
0.5773502691896259
 40
0.5773502691896308
 41
0.785398163397452
 42
3.926990816987244
  0
ELLIPSE
  5
12F
330
3E
100
AcDbEntity
  8
USP-GEO
100
AcDbEllipse
 10
13.48399598148901
 20
20.00113006487435
 30
6.517134083385343
 11
0.0220970869120795
 21
-0.0000000000000002
 31
-0.0220970869120797
210
0.5773502691896258
220
-0.5773502691896258
230
0.5773502691896259
 40
0.5773502691896308
 41
3.926990816987301
 42
7.068583470576981
  0
ELLIPSE
  5
130
330
3E
100
AcDbEntity
  8
USP-GEO
100
AcDbEllipse
 10
13.61399598148901
 20
19.99613006487435
 30
6.382134083385342
 11
0.0220970869120795
 21
-0.0000000000000002
 31
-0.0220970869120797
210
0.5773502691896258
220
-0.5773502691896258
230
0.5773502691896259
 40
0.5773502691896308
 41
0.7853981633975088
 42
3.926990816987131
  0
ELLIPSE
  5
131
330
3E
100
AcDbEntity
  8
USP-GEO
100
AcDbEllipse
 10
14.06732931482234
 20
20.29279673154102
 30
6.225467416718675
 11
0.0220970869120795
 21
-0.0000000000000002
 31
-0.0220970869120797
210
0.5773502691896258
220
-0.5773502691896258
230
0.5773502691896259
 40
0.5773502691896308
 41
3.926990816987216
 42
7.068583470577038
  0
ELLIPSE
  5
132
330
3E
100
AcDbEntity
  8
USP-GEO
100
AcDbEllipse
 10
14.19732931482234
 20
20.28779673154102
 30
6.090467416718675
 11
0.0220970869120795
 21
-0.0000000000000002
 31
-0.0220970869120797
210
0.5773502691896258
220
-0.5773502691896258
230
0.5773502691896259
 40
0.5773502691896308
 41
0.7853981633975088
 42
3.926990816987244
  0
ELLIPSE
  5
133
330
3E
100
AcDbEntity
  8
USP-GEO
100
AcDbEllipse
 10
12.10566264815568
 20
20.5044633982077
 30
8.398800750052018
 11
0.0220970869120795
 21
-0.0000000000000002
 31
-0.0220970869120797
210
0.5773502691896258
220
-0.5773502691896258
230
0.5773502691896259
 40
0.5773502691896308
 41
3.926990816987301
 42
7.068583470576981
  0
ELLIPSE
  5
134
330
3E
100
AcDbEntity
  8
USP-GEO
100
AcDbEllipse
 10
12.23566264815568
 20
20.4994633982077
 30
8.263800750052016
 11
0.0220970869120795
 21
-0.0000000000000002
 31
-0.0220970869120797
210
0.5773502691896258
220
-0.5773502691896258
230
0.5773502691896259
 40
0.5773502691896308
 41
0.785398163397452
 42
3.926990816987358
  0
LINE
  5
135
330
3E
100
AcDbEntity
  8
USP-GEO
100
AcDbLine
 10
12.33353349506175
 20
20.54839882166073
 30
8.214865326598985
 11
12.25649598148902
 21
20.50988006487437
 31
8.253384083385352
  0
LINE
  5
136
330
3E
100
AcDbEntity
  8
USP-GEO
100
AcDbLine
 10
12.26982931482235
 20
20.53654673154103
 30
8.266717416718684
 11
12.25649598148902
 21
20.50988006487437
 31
8.25338408338535
  0
ELLIPSE
  5
137
330
3E
100
AcDbEntity
  8
USP-GEO
100
AcDbEllipse
 10
12.19399598148902
 20
20.41613006487437
 30
8.222134083385348
 11
0.0220970869120795
 21
-0.0000000000000002
 31
-0.0220970869120797
210
0.5773502691896258
220
-0.5773502691896258
230
0.5773502691896259
 40
0.5773502691896308
 41
3.926990816987244
 42
7.068583470577038
  0
ELLIPSE
  5
138
330
3E
100
AcDbEntity
  8
USP-GEO
100
AcDbEllipse
 10
12.32399598148901
 20
20.41113006487436
 30
8.087134083385347
 11
0.0220970869120795
 21
-0.0000000000000002
 31
-0.0220970869120797
210
0.5773502691896258
220
-0.5773502691896258
230
0.5773502691896259
 40
0.5773502691896308
 41
0.7853981633973952
 42
3.926990816987301
  0
ELLIPSE
  5
139
330
3E
100
AcDbEntity
  8
USP-GEO
100
AcDbEllipse
 10
12.28232931482235
 20
20.32779673154103
 30
8.045467416718679
 11
0.0220970869120795
 21
-0.0000000000000002
 31
-0.0220970869120797
210
0.5773502691896258
220
-0.5773502691896258
230
0.5773502691896259
 40
0.5773502691896308
 41
3.926990816987244
 42
7.068583470577038
  0
ELLIPSE
  5
13A
330
3E
100
AcDbEntity
  8
USP-GEO
100
AcDbEllipse
 10
12.41232931482235
 20
20.32279673154103
 30
7.910467416718679
 11
0.0220970869120795
 21
-0.0000000000000002
 31
-0.0220970869120797
210
0.5773502691896258
220
-0.5773502691896258
230
0.5773502691896259
 40
0.5773502691896308
 41
0.7853981633974236
 42
3.926990816987301
  0
ELLIPSE
  5
13B
330
3E
100
AcDbEntity
  8
USP-GEO
100
AcDbEllipse
 10
12.37066264815568
 20
20.2394633982077
 30
7.868800750052014
 11
0.0220970869120795
 21
-0.0000000000000002
 31
-0.0220970869120797
210
0.5773502691896258
220
-0.5773502691896258
230
0.5773502691896259
 40
0.5773502691896308
 41
3.92699081698733
 42
7.068583470576981
  0
ELLIPSE
  5
13C
330
3E
100
AcDbEntity
  8
USP-GEO
100
AcDbEllipse
 10
12.50066264815568
 20
20.2344633982077
 30
7.733800750052013
 11
0.0220970869120795
 21
-0.0000000000000002
 31
-0.0220970869120797
210
0.5773502691896258
220
-0.5773502691896258
230
0.5773502691896259
 40
0.5773502691896308
 41
0.7853981633975088
 42
3.926990816987131
  0
ELLIPSE
  5
13D
330
3E
100
AcDbEntity
  8
USP-GEO
100
AcDbEllipse
 10
12.45899598148901
 20
20.15113006487436
 30
7.692134083385347
 11
0.0220970869120795
 21
-0.0000000000000002
 31
-0.0220970869120797
210
0.5773502691896258
220
-0.5773502691896258
230
0.5773502691896259
 40
0.5773502691896308
 41
3.926990816987244
 42
7.068583470577094
  0
ELLIPSE
  5
13E
330
3E
100
AcDbEntity
  8
USP-GEO
100
AcDbEllipse
 10
12.58899598148901
 20
20.14613006487437
 30
7.557134083385347
 11
0.0220970869120795
 21
-0.0000000000000002
 31
-0.0220970869120797
210
0.5773502691896258
220
-0.5773502691896258
230
0.5773502691896259
 40
0.5773502691896308
 41
0.7853981633974235
 42
3.926990816987216
  0
ELLIPSE
  5
13F
330
3E
100
AcDbEntity
  8
USP-GEO
100
AcDbEllipse
 10
12.54732931482235
 20
20.06279673154103
 30
7.51546741671868
 11
0.0220970869120795
 21
-0.0000000000000002
 31
-0.0220970869120797
210
0.5773502691896258
220
-0.5773502691896258
230
0.5773502691896259
 40
0.5773502691896308
 41
3.926990816987159
 42
7.068583470577094
  0
ELLIPSE
  5
140
330
3E
100
AcDbEntity
  8
USP-GEO
100
AcDbEllipse
 10
12.67732931482235
 20
20.05779673154103
 30
7.380467416718676
 11
0.0220970869120795
 21
-0.0000000000000002
 31
-0.0220970869120797
210
0.5773502691896258
220
-0.5773502691896258
230
0.5773502691896259
 40
0.5773502691896308
 41
0.7853981633973951
 42
3.926990816987244
  0
ELLIPSE
  5
141
330
3E
100
AcDbEntity
  8
USP-GEO
100
AcDbEllipse
 10
12.63566264815568
 20
19.97446339820769
 30
7.338800750052011
 11
0.0220970869120795
 21
-0.0000000000000002
 31
-0.0220970869120797
210
0.5773502691896258
220
-0.5773502691896258
230
0.5773502691896259
 40
0.5773502691896308
 41
3.926990816987216
 42
7.068583470577009
  0
ELLIPSE
  5
142
330
3E
100
AcDbEntity
  8
USP-GEO
100
AcDbEllipse
 10
12.76566264815568
 20
19.96946339820769
 30
7.20380075005201
 11
0.0220970869120795
 21
-0.0000000000000002
 31
-0.0220970869120797
210
0.5773502691896258
220
-0.5773502691896258
230
0.5773502691896259
 40
0.5773502691896308
 41
0.7853981633974236
 42
3.926990816987358
  0
ELLIPSE
  5
143
330
3E
100
AcDbEntity
  8
USP-GEO
100
AcDbEllipse
 10
12.72399598148901
 20
19.88613006487436
 30
7.162134083385344
 11
0.0220970869120795
 21
-0.0000000000000002
 31
-0.0220970869120797
210
0.5773502691896258
220
-0.5773502691896258
230
0.5773502691896259
 40
0.5773502691896308
 41
3.926990816987244
 42
7.068583470576981
  0
ELLIPSE
  5
144
330
3E
100
AcDbEntity
  8
USP-GEO
100
AcDbEllipse
 10
12.85399598148901
 20
19.88113006487436
 30
7.027134083385344
 11
0.0220970869120795
 21
-0.0000000000000002
 31
-0.0220970869120797
210
0.5773502691896258
220
-0.5773502691896258
230
0.5773502691896259
 40
0.5773502691896308
 41
0.7853981633974235
 42
3.926990816987273
  0
ELLIPSE
  5
145
330
3E
100
AcDbEntity
  8
USP-GEO
100
AcDbEllipse
 10
12.81232931482234
 20
19.79779673154102
 30
6.985467416718675
 11
0.0220970869120795
 21
-0.0000000000000002
 31
-0.0220970869120797
210
0.5773502691896258
220
-0.5773502691896258
230
0.5773502691896259
 40
0.5773502691896308
 41
3.926990816987273
 42
7.068583470577009
  0
ELLIPSE
  5
146
330
3E
100
AcDbEntity
  8
USP-GEO
100
AcDbEllipse
 10
12.94232931482234
 20
19.79279673154102
 30
6.850467416718674
 11
0.0220970869120795
 21
-0.0000000000000002
 31
-0.0220970869120797
210
0.5773502691896258
220
-0.5773502691896258
230
0.5773502691896259
 40
0.5773502691896308
 41
0.7853981633975372
 42
3.926990816987159
  0
ELLIPSE
  5
147
330
3E
100
AcDbEntity
  8
USP-GEO
100
AcDbEllipse
 10
12.90066264815568
 20
19.70946339820768
 30
6.808800750052009
 11
0.0220970869120795
 21
-0.0000000000000002
 31
-0.0220970869120797
210
0.5773502691896258
220
-0.5773502691896258
230
0.5773502691896259
 40
0.5773502691896308
 41
3.926990816987244
 42
7.068583470577094
  0
ELLIPSE
  5
148
330
3E
100
AcDbEntity
  8
USP-GEO
100
AcDbEllipse
 10
13.03066264815568
 20
19.70446339820768
 30
6.673800750052008
 11
0.0220970869120795
 21
-0.0000000000000002
 31
-0.0220970869120797
210
0.5773502691896258
220
-0.5773502691896258
230
0.5773502691896259
 40
0.5773502691896308
 41
0.7853981633974236
 42
3.926990816987273
  0
LINE
  5
149
330
3E
100
AcDbEntity
  8
USP-GEO
100
AcDbLine
 10
12.12649598148902
 20
20.51488006487437
 30
8.38838408338535
 11
12.28686682839508
 21
20.5950654883274
 31
8.308198659932319
  0
LINE
  5
14A
330
3E
100
AcDbEntity
  8
USP-GEO
100
AcDbLine
 10
14.84069475026433
 20
21.80993129609905
 30
6.969236545834723
 11
14.86161402615878
 21
21.7890120202046
 31
6.927397994045811
  0
LINE
  5
14B
330
3E
100
AcDbEntity
  8
USP-GEO
100
AcDbLine
 10
11.24899598148902
 20
20.15163006487437
 30
8.902634083385347
 11
13.75312780271585
 21
21.40369597548778
 31
7.650568172771932
  0
ELLIPSE
  5
14C
330
3E
100
AcDbEntity
  8
USP-GEO
100
AcDbEllipse
 10
12.83232931482235
 20
20.81779673154104
 30
7.985467416718682
 11
-0.0220970869120795
 21
0.0000000000000002
 31
0.0220970869120797
210
0.5773502691896258
220
-0.5773502691896258
230
0.5773502691896259
 40
0.5773502691896308
 41
3.926990816987244
 42
6.283185307179517
  0
ELLIPSE
  5
14D
330
3E
100
AcDbEntity
  8
USP-GEO
100
AcDbEllipse
 10
12.92066264815568
 20
20.7294633982077
 30
7.808800750052015
 11
-0.0220970869120795
 21
0.0000000000000002
 31
0.0220970869120797
210
0.5773502691896258
220
-0.5773502691896258
230
0.5773502691896259
 40
0.5773502691896308
 41
3.92699081698733
 42
6.283185307179538
  0
ELLIPSE
  5
14E
330
3E
100
AcDbEntity
  8
USP-GEO
100
AcDbEllipse
 10
13.00899598148902
 20
20.64113006487437
 30
7.632134083385348
 11
-0.0220970869120795
 21
0.0000000000000002
 31
0.0220970869120797
210
0.5773502691896258
220
-0.5773502691896258
230
0.5773502691896259
 40
0.5773502691896308
 41
3.926990816987216
 42
6.283185307179738
  0
ELLIPSE
  5
14F
330
3E
100
AcDbEntity
  8
USP-GEO
100
AcDbEllipse
 10
13.09732931482235
 20
20.55279673154103
 30
7.45546741671868
 11
-0.0220970869120795
 21
0.0000000000000002
 31
0.0220970869120797
210
0.5773502691896258
220
-0.5773502691896258
230
0.5773502691896259
 40
0.5773502691896308
 41
3.926990816987216
 42
6.283185307179578
  0
ELLIPSE
  5
150
330
3E
100
AcDbEntity
  8
USP-GEO
100
AcDbEllipse
 10
13.18566264815568
 20
20.4644633982077
 30
7.278800750052013
 11
-0.0220970869120795
 21
0.0000000000000002
 31
0.0220970869120797
210
0.5773502691896258
220
-0.5773502691896258
230
0.5773502691896259
 40
0.5773502691896308
 41
3.926990816987216
 42
6.283185307179517
  0
ELLIPSE
  5
151
330
3E
100
AcDbEntity
  8
USP-GEO
100
AcDbEllipse
 10
13.27399598148901
 20
20.37613006487436
 30
7.102134083385347
 11
-0.0220970869120795
 21
0.0000000000000002
 31
0.0220970869120797
210
0.5773502691896258
220
-0.5773502691896258
230
0.5773502691896259
 40
0.5773502691896308
 41
3.92699081698733
 42
6.283185307179538
  0
ELLIPSE
  5
152
330
3E
100
AcDbEntity
  8
USP-GEO
100
AcDbEllipse
 10
13.36232931482234
 20
20.28779673154103
 30
6.925467416718677
 11
-0.0220970869120795
 21
0.0000000000000002
 31
0.0220970869120797
210
0.5773502691896258
220
-0.5773502691896258
230
0.5773502691896259
 40
0.5773502691896308
 41
3.926990816987216
 42
6.283185307179738
  0
ELLIPSE
  5
153
330
3E
100
AcDbEntity
  8
USP-GEO
100
AcDbEllipse
 10
13.45066264815568
 20
20.19946339820769
 30
6.74880075005201
 11
-0.0220970869120795
 21
0.0000000000000002
 31
0.0220970869120797
210
0.5773502691896258
220
-0.5773502691896258
230
0.5773502691896259
 40
0.5773502691896308
 41
3.926990816987188
 42
6.283185307179538
  0
ELLIPSE
  5
154
330
3E
100
AcDbEntity
  8
USP-GEO
100
AcDbEllipse
 10
13.53899598148901
 20
20.11113006487436
 30
6.572134083385343
 11
-0.0220970869120795
 21
0.0000000000000002
 31
0.0220970869120797
210
0.5773502691896258
220
-0.5773502691896258
230
0.5773502691896259
 40
0.5773502691896308
 41
3.926990816987358
 42
6.283185307179517
  0
ELLIPSE
  5
155
330
3E
100
AcDbEntity
  8
USP-GEO
100
AcDbEllipse
 10
13.62732931482234
 20
20.02279673154102
 30
6.395467416718674
 11
-0.0220970869120795
 21
0.0000000000000002
 31
0.0220970869120797
210
0.5773502691896258
220
-0.5773502691896258
230
0.5773502691896259
 40
0.5773502691896308
 41
3.926990816987216
 42
6.283185307179738
  0
ELLIPSE
  5
156
330
3E
100
AcDbEntity
  8
USP-GEO
100
AcDbEllipse
 10
13.41566264815568
 20
21.1094633982077
 30
7.693800750052017
 11
-0.0220970869120795
 21
0.0000000000000002
 31
0.0220970869120797
210
0.5773502691896258
220
-0.5773502691896258
230
0.5773502691896259
 40
0.5773502691896308
 41
3.926990816987188
 42
6.283185307179738
  0
ELLIPSE
  5
157
330
3E
100
AcDbEntity
  8
USP-GEO
100
AcDbEllipse
 10
13.50399598148902
 20
21.02113006487437
 30
7.51713408338535
 11
-0.0220970869120795
 21
0.0000000000000002
 31
0.0220970869120797
210
0.5773502691896258
220
-0.5773502691896258
230
0.5773502691896259
 40
0.5773502691896308
 41
3.926990816987188
 42
6.283185307179618
  0
ELLIPSE
  5
158
330
3E
100
AcDbEntity
  8
USP-GEO
100
AcDbEllipse
 10
13.59232931482235
 20
20.93279673154103
 30
7.340467416718682
 11
-0.0220970869120795
 21
0.0000000000000002
 31
0.0220970869120797
210
0.5773502691896258
220
-0.5773502691896258
230
0.5773502691896259
 40
0.5773502691896308
 41
3.926990816987301
 42
6.283185307179597
  0
ELLIPSE
  5
159
330
3E
100
AcDbEntity
  8
USP-GEO
100
AcDbEllipse
 10
13.68066264815568
 20
20.84446339820769
 30
7.163800750052014
 11
-0.0220970869120795
 21
0.0000000000000002
 31
0.0220970869120797
210
0.5773502691896258
220
-0.5773502691896258
230
0.5773502691896259
 40
0.5773502691896308
 41
3.92699081698733
 42
6.283185307179538
  0
ELLIPSE
  5
15A
330
3E
100
AcDbEntity
  8
USP-GEO
100
AcDbEllipse
 10
13.76899598148902
 20
20.75613006487436
 30
6.987134083385347
 11
-0.0220970869120795
 21
0.0000000000000002
 31
0.0220970869120797
210
0.5773502691896258
220
-0.5773502691896258
230
0.5773502691896259
 40
0.5773502691896308
 41
3.926990816987188
 42
6.283185307179718
  0
ELLIPSE
  5
15B
330
3E
100
AcDbEntity
  8
USP-GEO
100
AcDbEllipse
 10
13.85732931482234
 20
20.66779673154103
 30
6.810467416718677
 11
-0.0220970869120795
 21
0.0000000000000002
 31
0.0220970869120797
210
0.5773502691896258
220
-0.5773502691896258
230
0.5773502691896259
 40
0.5773502691896308
 41
3.926990816987216
 42
6.283185307179538
  0
ELLIPSE
  5
15C
330
3E
100
AcDbEntity
  8
USP-GEO
100
AcDbEllipse
 10
13.94566264815568
 20
20.57946339820769
 30
6.633800750052012
 11
-0.0220970869120795
 21
0.0000000000000002
 31
0.0220970869120797
210
0.5773502691896258
220
-0.5773502691896258
230
0.5773502691896259
 40
0.5773502691896308
 41
3.926990816987301
 42
6.283185307179557
  0
ELLIPSE
  5
15D
330
3E
100
AcDbEntity
  8
USP-GEO
100
AcDbEllipse
 10
14.03399598148901
 20
20.49113006487436
 30
6.457134083385344
 11
-0.0220970869120795
 21
0.0000000000000002
 31
0.0220970869120797
210
0.5773502691896258
220
-0.5773502691896258
230
0.5773502691896259
 40
0.5773502691896308
 41
3.926990816987188
 42
6.283185307179738
  0
ELLIPSE
  5
15E
330
3E
100
AcDbEntity
  8
USP-GEO
100
AcDbEllipse
 10
14.12232931482235
 20
20.40279673154103
 30
6.280467416718677
 11
-0.0220970869120795
 21
0.0000000000000002
 31
0.0220970869120797
210
0.5773502691896258
220
-0.5773502691896258
230
0.5773502691896259
 40
0.5773502691896308
 41
3.926990816987188
 42
6.283185307179538
  0
ELLIPSE
  5
15F
330
3E
100
AcDbEntity
  8
USP-GEO
100
AcDbEllipse
 10
14.21066264815568
 20
20.31446339820769
 30
6.103800750052009
 11
-0.0220970869120795
 21
0.0000000000000002
 31
0.0220970869120797
210
0.5773502691896258
220
-0.5773502691896258
230
0.5773502691896259
 40
0.5773502691896308
 41
3.926990816987188
 42
6.283185307179597
  0
ELLIPSE
  5
160
330
3E
100
AcDbEntity
  8
USP-GEO
100
AcDbEllipse
 10
11.66566264815568
 20
20.2344633982077
 30
8.568800750052016
 11
-0.0220970869120795
 21
0.0000000000000002
 31
0.0220970869120797
210
0.5773502691896258
220
-0.5773502691896258
230
0.5773502691896259
 40
0.5773502691896308
 41
3.926990816987188
 42
6.283185307179759
  0
ELLIPSE
  5
161
330
3E
100
AcDbEntity
  8
USP-GEO
100
AcDbEllipse
 10
11.75399598148902
 20
20.14613006487437
 30
8.392134083385348
 11
-0.0220970869120795
 21
0.0000000000000002
 31
0.0220970869120797
210
0.5773502691896258
220
-0.5773502691896258
230
0.5773502691896259
 40
0.5773502691896308
 41
3.926990816987188
 42
6.283185307179718
  0
ELLIPSE
  5
162
330
3E
100
AcDbEntity
  8
USP-GEO
100
AcDbEllipse
 10
11.84232931482235
 20
20.05779673154103
 30
8.215467416718681
 11
-0.0220970869120795
 21
0.0000000000000002
 31
0.0220970869120797
210
0.5773502691896258
220
-0.5773502691896258
230
0.5773502691896259
 40
0.5773502691896308
 41
3.926990816987301
 42
6.283185307179517
  0
ELLIPSE
  5
163
330
3E
100
AcDbEntity
  8
USP-GEO
100
AcDbEllipse
 10
11.93066264815568
 20
19.96946339820769
 30
8.038800750052015
 11
-0.0220970869120795
 21
0.0000000000000002
 31
0.0220970869120797
210
0.5773502691896258
220
-0.5773502691896258
230
0.5773502691896259
 40
0.5773502691896308
 41
3.926990816987244
 42
6.283185307179597
  0
ELLIPSE
  5
164
330
3E
100
AcDbEntity
  8
USP-GEO
100
AcDbEllipse
 10
12.01899598148902
 20
19.88113006487436
 30
7.862134083385346
 11
-0.0220970869120795
 21
0.0000000000000002
 31
0.0220970869120797
210
0.5773502691896258
220
-0.5773502691896258
230
0.5773502691896259
 40
0.5773502691896308
 41
3.926990816987216
 42
6.283185307179738
  0
ELLIPSE
  5
165
330
3E
100
AcDbEntity
  8
USP-GEO
100
AcDbEllipse
 10
12.10732931482235
 20
19.79279673154102
 30
7.685467416718676
 11
-0.0220970869120795
 21
0.0000000000000002
 31
0.0220970869120797
210
0.5773502691896258
220
-0.5773502691896258
230
0.5773502691896259
 40
0.5773502691896308
 41
3.926990816987216
 42
6.283185307179578
  0
ELLIPSE
  5
166
330
3E
100
AcDbEntity
  8
USP-GEO
100
AcDbEllipse
 10
12.19566264815568
 20
19.70446339820769
 30
7.508800750052009
 11
-0.0220970869120795
 21
0.0000000000000002
 31
0.0220970869120797
210
0.5773502691896258
220
-0.5773502691896258
230
0.5773502691896259
 40
0.5773502691896308
 41
3.926990816987216
 42
6.283185307179738
  0
ELLIPSE
  5
167
330
3E
100
AcDbEntity
  8
USP-GEO
100
AcDbEllipse
 10
12.28399598148901
 20
19.61613006487436
 30
7.332134083385343
 11
-0.0220970869120795
 21
0.0000000000000002
 31
0.0220970869120797
210
0.5773502691896258
220
-0.5773502691896258
230
0.5773502691896259
 40
0.5773502691896308
 41
3.926990816987188
 42
6.283185307179738
  0
ELLIPSE
  5
168
330
3E
100
AcDbEntity
  8
USP-GEO
100
AcDbEllipse
 10
12.37232931482235
 20
19.52779673154102
 30
7.155467416718677
 11
-0.0220970869120795
 21
0.0000000000000002
 31
0.0220970869120797
210
0.5773502691896258
220
-0.5773502691896258
230
0.5773502691896259
 40
0.5773502691896308
 41
3.926990816987159
 42
6.283185307179618
  0
ELLIPSE
  5
169
330
3E
100
AcDbEntity
  8
USP-GEO
100
AcDbEllipse
 10
12.46066264815568
 20
19.43946339820768
 30
6.978800750052007
 11
-0.0220970869120795
 21
0.0000000000000002
 31
0.0220970869120797
210
0.5773502691896258
220
-0.5773502691896258
230
0.5773502691896259
 40
0.5773502691896308
 41
3.926990816987188
 42
6.283185307179517
  0
LINE
  5
16A
330
3E
100
AcDbEntity
  8
USP-GEO
100
AcDbLine
 10
12.26982931482235
 20
20.53654673154103
 30
8.266717416718684
 11
12.32020016172842
 21
20.56173215499407
 31
8.241531993265651
  0
ELLIPSE
  5
16B
330
3E
100
AcDbEntity
  8
USP-GEO
100
AcDbEllipse
 10
12.24899598148901
 20
20.52613006487437
 30
8.277134083385348
 11
-0.0220970869120795
 21
0.0000000000000002
 31
0.0220970869120797
210
0.5773502691896258
220
-0.5773502691896258
230
0.5773502691896259
 40
0.5773502691896308
 41
3.926990816987358
 42
6.283185307179517
  0
ELLIPSE
  5
16C
330
3E
100
AcDbEntity
  8
USP-GEO
100
AcDbEllipse
 10
12.33732931482235
 20
20.43779673154103
 30
8.100467416718682
 11
-0.0220970869120795
 21
0.0000000000000002
 31
0.0220970869120797
210
0.5773502691896258
220
-0.5773502691896258
230
0.5773502691896259
 40
0.5773502691896308
 41
3.926990816987131
 42
6.283185307179759
  0
ELLIPSE
  5
16D
330
3E
100
AcDbEntity
  8
USP-GEO
100
AcDbEllipse
 10
12.42566264815568
 20
20.3494633982077
 30
7.923800750052014
 11
-0.0220970869120795
 21
0.0000000000000002
 31
0.0220970869120797
210
0.5773502691896258
220
-0.5773502691896258
230
0.5773502691896259
 40
0.5773502691896308
 41
3.926990816987216
 42
6.283185307179678
  0
ELLIPSE
  5
16E
330
3E
100
AcDbEntity
  8
USP-GEO
100
AcDbEllipse
 10
12.51399598148902
 20
20.26113006487436
 30
7.747134083385347
 11
-0.0220970869120795
 21
0.0000000000000002
 31
0.0220970869120797
210
0.5773502691896258
220
-0.5773502691896258
230
0.5773502691896259
 40
0.5773502691896308
 41
3.926990816987188
 42
6.283185307179597
  0
ELLIPSE
  5
16F
330
3E
100
AcDbEntity
  8
USP-GEO
100
AcDbEllipse
 10
12.60232931482235
 20
20.17279673154103
 30
7.57046741671868
 11
-0.0220970869120795
 21
0.0000000000000002
 31
0.0220970869120797
210
0.5773502691896258
220
-0.5773502691896258
230
0.5773502691896259
 40
0.5773502691896308
 41
3.926990816987273
 42
6.283185307179538
  0
ELLIPSE
  5
170
330
3E
100
AcDbEntity
  8
USP-GEO
100
AcDbEllipse
 10
12.69066264815568
 20
20.08446339820769
 30
7.39380075005201
 11
-0.0220970869120795
 21
0.0000000000000002
 31
0.0220970869120797
210
0.5773502691896258
220
-0.5773502691896258
230
0.5773502691896259
 40
0.5773502691896308
 41
3.926990816987273
 42
6.283185307179517
  0
ELLIPSE
  5
171
330
3E
100
AcDbEntity
  8
USP-GEO
100
AcDbEllipse
 10
12.77899598148901
 20
19.99613006487436
 30
7.217134083385344
 11
-0.0220970869120795
 21
0.0000000000000002
 31
0.0220970869120797
210
0.5773502691896258
220
-0.5773502691896258
230
0.5773502691896259
 40
0.5773502691896308
 41
3.926990816987188
 42
6.283185307179538
  0
ELLIPSE
  5
172
330
3E
100
AcDbEntity
  8
USP-GEO
100
AcDbEllipse
 10
12.86732931482234
 20
19.90779673154102
 30
7.040467416718676
 11
-0.0220970869120795
 21
0.0000000000000002
 31
0.0220970869120797
210
0.5773502691896258
220
-0.5773502691896258
230
0.5773502691896259
 40
0.5773502691896308
 41
3.926990816987188
 42
6.283185307179678
  0
ELLIPSE
  5
173
330
3E
100
AcDbEntity
  8
USP-GEO
100
AcDbEllipse
 10
12.95566264815568
 20
19.81946339820769
 30
6.863800750052009
 11
-0.0220970869120795
 21
0.0000000000000002
 31
0.0220970869120797
210
0.5773502691896258
220
-0.5773502691896258
230
0.5773502691896259
 40
0.5773502691896308
 41
3.926990816987216
 42
6.283185307179718
  0
ELLIPSE
  5
174
330
3E
100
AcDbEntity
  8
USP-GEO
100
AcDbEllipse
 10
13.04399598148901
 20
19.73113006487435
 30
6.68713408338534
 11
-0.0220970869120795
 21
0.0000000000000002
 31
0.0220970869120797
210
0.5773502691896258
220
-0.5773502691896258
230
0.5773502691896259
 40
0.5773502691896308
 41
3.926990816987216
 42
6.283185307179658
  0
LINE
  5
175
330
3E
100
AcDbEntity
  8
USP-GEO
100
AcDbLine
 10
12.28686682839508
 20
20.5950654883274
 30
8.308198659932319
 11
12.33353349506175
 21
20.54839882166073
 31
8.214865326598985
  0
LINE
  5
176
330
3E
100
AcDbEntity
  8
USP-GEO
100
AcDbLine
 10
12.42186682839508
 20
20.4600654883274
 30
8.038198659932318
 11
12.34482931482235
 21
20.42154673154103
 31
8.076717416718683
  0
LINE
  5
177
330
3E
100
AcDbEntity
  8
USP-GEO
100
AcDbLine
 10
12.35816264815568
 20
20.4482133982077
 30
8.090050750052014
 11
12.34482931482235
 21
20.42154673154103
 31
8.076717416718681
  0
LINE
  5
178
330
3E
100
AcDbEntity
  8
USP-GEO
100
AcDbLine
 10
12.35816264815568
 20
20.4482133982077
 30
8.090050750052016
 11
12.40853349506174
 21
20.47339882166073
 31
8.064865326598987
  0
LINE
  5
179
330
3E
100
AcDbEntity
  8
USP-GEO
100
AcDbLine
 10
12.21482931482235
 20
20.42654673154103
 30
8.211717416718684
 11
12.37520016172841
 21
20.50673215499406
 31
8.131531993265651
  0
LINE
  5
17A
330
3E
100
AcDbEntity
  8
USP-GEO
100
AcDbLine
 10
12.37520016172841
 20
20.50673215499406
 30
8.13153199326565
 11
12.42186682839508
 21
20.46006548832739
 31
8.038198659932316
  0
LINE
  5
17B
330
3E
100
AcDbEntity
  8
USP-GEO
100
AcDbLine
 10
12.51020016172841
 20
20.37173215499406
 30
7.861531993265648
 11
12.43316264815568
 21
20.33321339820769
 31
7.900050750052014
  0
LINE
  5
17C
330
3E
100
AcDbEntity
  8
USP-GEO
100
AcDbLine
 10
12.44649598148902
 20
20.35988006487436
 30
7.913384083385349
 11
12.43316264815568
 21
20.33321339820769
 31
7.900050750052013
  0
LINE
  5
17D
330
3E
100
AcDbEntity
  8
USP-GEO
100
AcDbLine
 10
12.44649598148902
 20
20.35988006487436
 30
7.913384083385349
 11
12.49686682839508
 21
20.3850654883274
 31
7.888198659932319
  0
LINE
  5
17E
330
3E
100
AcDbEntity
  8
USP-GEO
100
AcDbLine
 10
12.30316264815568
 20
20.3382133982077
 30
8.035050750052016
 11
12.46353349506175
 21
20.41839882166073
 31
7.954865326598984
  0
LINE
  5
17F
330
3E
100
AcDbEntity
  8
USP-GEO
100
AcDbLine
 10
12.46353349506175
 20
20.41839882166073
 30
7.954865326598982
 11
12.51020016172841
 21
20.37173215499406
 31
7.861531993265648
  0
LINE
  5
180
330
3E
100
AcDbEntity
  8
USP-GEO
100
AcDbLine
 10
12.59853349506175
 20
20.28339882166072
 30
7.684865326598982
 11
12.52149598148902
 21
20.24488006487436
 31
7.723384083385348
  0
LINE
  5
181
330
3E
100
AcDbEntity
  8
USP-GEO
100
AcDbLine
 10
12.53482931482235
 20
20.27154673154103
 30
7.736717416718681
 11
12.52149598148902
 21
20.24488006487436
 31
7.723384083385347
  0
LINE
  5
182
330
3E
100
AcDbEntity
  8
USP-GEO
100
AcDbLine
 10
12.53482931482235
 20
20.27154673154103
 30
7.736717416718681
 11
12.58520016172841
 21
20.29673215499406
 31
7.71153199326565
  0
LINE
  5
183
330
3E
100
AcDbEntity
  8
USP-GEO
100
AcDbLine
 10
12.39149598148901
 20
20.24988006487436
 30
7.858384083385348
 11
12.55186682839508
 21
20.33006548832739
 31
7.778198659932316
  0
LINE
  5
184
330
3E
100
AcDbEntity
  8
USP-GEO
100
AcDbLine
 10
12.55186682839508
 20
20.33006548832739
 30
7.778198659932316
 11
12.59853349506175
 21
20.28339882166072
 31
7.684865326598982
  0
LINE
  5
185
330
3E
100
AcDbEntity
  8
USP-GEO
100
AcDbLine
 10
12.68686682839508
 20
20.19506548832739
 30
7.508198659932316
 11
12.60982931482235
 21
20.15654673154103
 31
7.546717416718681
  0
LINE
  5
186
330
3E
100
AcDbEntity
  8
USP-GEO
100
AcDbLine
 10
12.62316264815568
 20
20.18321339820769
 30
7.560050750052013
 11
12.60982931482235
 21
20.15654673154103
 31
7.546717416718681
  0
LINE
  5
187
330
3E
100
AcDbEntity
  8
USP-GEO
100
AcDbLine
 10
12.62316264815568
 20
20.18321339820769
 30
7.560050750052014
 11
12.67353349506175
 21
20.20839882166073
 31
7.534865326598983
  0
LINE
  5
188
330
3E
100
AcDbEntity
  8
USP-GEO
100
AcDbLine
 10
12.47982931482235
 20
20.16154673154103
 30
7.681717416718681
 11
12.64020016172841
 21
20.24173215499406
 31
7.601531993265648
  0
LINE
  5
189
330
3E
100
AcDbEntity
  8
USP-GEO
100
AcDbLine
 10
12.64020016172841
 20
20.24173215499406
 30
7.601531993265648
 11
12.68686682839508
 21
20.19506548832739
 31
7.508198659932315
  0
LINE
  5
18A
330
3E
100
AcDbEntity
  8
USP-GEO
100
AcDbLine
 10
12.77520016172841
 20
20.10673215499406
 30
7.331531993265649
 11
12.69816264815568
 21
20.06821339820769
 31
7.370050750052015
  0
LINE
  5
18B
330
3E
100
AcDbEntity
  8
USP-GEO
100
AcDbLine
 10
12.71149598148901
 20
20.09488006487436
 30
7.383384083385343
 11
12.69816264815568
 21
20.06821339820769
 31
7.370050750052014
  0
LINE
  5
18C
330
3E
100
AcDbEntity
  8
USP-GEO
100
AcDbLine
 10
12.71149598148901
 20
20.09488006487436
 30
7.383384083385344
 11
12.76186682839508
 21
20.12006548832739
 31
7.358198659932309
  0
LINE
  5
18D
330
3E
100
AcDbEntity
  8
USP-GEO
100
AcDbLine
 10
12.56816264815568
 20
20.07321339820769
 30
7.505050750052014
 11
12.72853349506174
 21
20.15339882166073
 31
7.424865326598981
  0
LINE
  5
18E
330
3E
100
AcDbEntity
  8
USP-GEO
100
AcDbLine
 10
12.72853349506174
 20
20.15339882166073
 30
7.424865326598981
 11
12.77520016172841
 21
20.10673215499406
 31
7.331531993265648
  0
LINE
  5
18F
330
3E
100
AcDbEntity
  8
USP-GEO
100
AcDbLine
 10
12.86353349506174
 20
20.01839882166073
 30
7.154865326598979
 11
12.78649598148901
 21
19.97988006487435
 31
7.193384083385346
  0
LINE
  5
190
330
3E
100
AcDbEntity
  8
USP-GEO
100
AcDbLine
 10
12.79982931482235
 20
20.00654673154102
 30
7.206717416718678
 11
12.78649598148901
 21
19.97988006487435
 31
7.193384083385345
  0
LINE
  5
191
330
3E
100
AcDbEntity
  8
USP-GEO
100
AcDbLine
 10
12.79982931482235
 20
20.00654673154102
 30
7.206717416718678
 11
12.85020016172841
 21
20.03173215499406
 31
7.181531993265645
  0
LINE
  5
192
330
3E
100
AcDbEntity
  8
USP-GEO
100
AcDbLine
 10
12.65649598148901
 20
19.98488006487436
 30
7.328384083385346
 11
12.81686682839508
 21
20.06506548832739
 31
7.248198659932313
  0
LINE
  5
193
330
3E
100
AcDbEntity
  8
USP-GEO
100
AcDbLine
 10
12.81686682839508
 20
20.06506548832739
 30
7.248198659932313
 11
12.86353349506174
 21
20.01839882166073
 31
7.154865326598979
  0
LINE
  5
194
330
3E
100
AcDbEntity
  8
USP-GEO
100
AcDbLine
 10
12.95186682839508
 20
19.93006548832739
 30
6.978198659932314
 11
12.87482931482235
 21
19.89154673154102
 31
7.016717416718679
  0
LINE
  5
195
330
3E
100
AcDbEntity
  8
USP-GEO
100
AcDbLine
 10
12.88816264815568
 20
19.91821339820769
 30
7.03005075005201
 11
12.87482931482235
 21
19.89154673154102
 31
7.016717416718678
  0
LINE
  5
196
330
3E
100
AcDbEntity
  8
USP-GEO
100
AcDbLine
 10
12.88816264815568
 20
19.91821339820769
 30
7.030050750052012
 11
12.93853349506174
 21
19.94339882166072
 31
7.004865326598979
  0
LINE
  5
197
330
3E
100
AcDbEntity
  8
USP-GEO
100
AcDbLine
 10
12.74482931482235
 20
19.89654673154102
 30
7.151717416718679
 11
12.90520016172841
 21
19.97673215499405
 31
7.071531993265647
  0
LINE
  5
198
330
3E
100
AcDbEntity
  8
USP-GEO
100
AcDbLine
 10
12.90520016172841
 20
19.97673215499405
 30
7.071531993265646
 11
12.95186682839508
 21
19.93006548832739
 31
6.978198659932313
  0
LINE
  5
199
330
3E
100
AcDbEntity
  8
USP-GEO
100
AcDbLine
 10
13.04020016172841
 20
19.84173215499405
 30
6.801531993265644
 11
12.96316264815568
 21
19.80321339820768
 31
6.840050750052009
  0
LINE
  5
19A
330
3E
100
AcDbEntity
  8
USP-GEO
100
AcDbLine
 10
12.97649598148901
 20
19.82988006487435
 30
6.853384083385344
 11
12.96316264815568
 21
19.80321339820768
 31
6.840050750052009
  0
LINE
  5
19B
330
3E
100
AcDbEntity
  8
USP-GEO
100
AcDbLine
 10
12.97649598148901
 20
19.82988006487435
 30
6.853384083385344
 11
13.02686682839507
 21
19.85506548832739
 31
6.828198659932315
  0
LINE
  5
19C
330
3E
100
AcDbEntity
  8
USP-GEO
100
AcDbLine
 10
12.83316264815568
 20
19.80821339820769
 30
6.975050750052011
 11
12.99353349506175
 21
19.88839882166072
 31
6.894865326598978
  0
LINE
  5
19D
330
3E
100
AcDbEntity
  8
USP-GEO
100
AcDbLine
 10
12.99353349506174
 20
19.88839882166072
 30
6.894865326598976
 11
13.04020016172841
 21
19.84173215499405
 31
6.801531993265644
  0
LINE
  5
19E
330
3E
100
AcDbEntity
  8
USP-GEO
100
AcDbLine
 10
13.12853349506174
 20
19.75339882166071
 30
6.624865326598977
 11
13.05149598148901
 21
19.71488006487435
 31
6.663384083385343
  0
LINE
  5
19F
330
3E
100
AcDbEntity
  8
USP-GEO
100
AcDbLine
 10
13.06482931482234
 20
19.74154673154101
 30
6.676717416718675
 11
13.05149598148901
 21
19.71488006487435
 31
6.663384083385343
  0
LINE
  5
1A0
330
3E
100
AcDbEntity
  8
USP-GEO
100
AcDbLine
 10
13.06482931482234
 20
19.74154673154101
 30
6.676717416718675
 11
13.11520016172841
 21
19.76673215499405
 31
6.651531993265644
  0
LINE
  5
1A1
330
3E
100
AcDbEntity
  8
USP-GEO
100
AcDbLine
 10
12.92149598148901
 20
19.71988006487435
 30
6.798384083385343
 11
13.08186682839507
 21
19.80006548832738
 31
6.718198659932312
  0
LINE
  5
1A2
330
3E
100
AcDbEntity
  8
USP-GEO
100
AcDbLine
 10
13.08186682839507
 20
19.80006548832738
 30
6.718198659932311
 11
13.12853349506174
 21
19.75339882166071
 31
6.624865326598976
  0
LINE
  5
1A3
330
3E
100
AcDbEntity
  8
USP-GEO
100
AcDbLine
 10
12.59112513458295
 20
20.74719464142134
 30
8.156069506838383
 11
12.66816264815568
 21
20.7857133982077
 31
8.117550750052018
  0
LINE
  5
1A4
330
3E
100
AcDbEntity
  8
USP-GEO
100
AcDbLine
 10
12.64659349935412
 20
20.72492882380692
 30
8.078335324452798
 11
12.80286653227291
 21
20.80306534026632
 31
8.000198807993402
  0
LINE
  5
1A5
330
3E
100
AcDbEntity
  8
USP-GEO
100
AcDbLine
 10
12.79816264815568
 20
20.7807133982077
 30
7.982550750052018
 11
12.63779180124962
 21
20.70052797475467
 31
8.062736173505051
  0
ELLIPSE
  5
1A6
330
3E
100
AcDbEntity
  8
USP-GEO
100
AcDbEllipse
 10
13.35513486981219
 20
21.15294950903595
 30
7.797814639223762
 11
-0.7071067811865502
 21
-0.7071067811865449
 31
0.0000000000000055
210
0.577350269189626
220
-0.5773502691896258
230
0.5773502691896259
 40
0.5773502691896208
 41
5.645827290020688
 42
5.686403529957544
  0
LINE
  5
1A7
330
3E
100
AcDbEntity
  8
USP-GEO
100
AcDbLine
 10
12.63779180124962
 20
20.70052797475467
 30
8.062736173505049
 11
12.59112513458295
 21
20.74719464142134
 31
8.156069506838383
  0
LINE
  5
1A8
330
3E
100
AcDbEntity
  8
USP-GEO
100
AcDbLine
 10
12.91686682839508
 20
20.8400654883274
 30
7.923198659932317
 11
12.83982931482235
 21
20.80154673154103
 31
7.961717416718683
  0
LINE
  5
1A9
330
3E
100
AcDbEntity
  8
USP-GEO
100
AcDbLine
 10
12.85316264815568
 20
20.8282133982077
 30
7.975050750052018
 11
12.83982931482235
 21
20.80154673154103
 31
7.961717416718684
  0
LINE
  5
1AA
330
3E
100
AcDbEntity
  8
USP-GEO
100
AcDbLine
 10
12.85316264815568
 20
20.8282133982077
 30
7.975050750052016
 11
12.90353349506175
 21
20.85339882166073
 31
7.949865326598984
  0
LINE
  5
1AB
330
3E
100
AcDbEntity
  8
USP-GEO
100
AcDbLine
 10
12.70982931482235
 20
20.80654673154104
 30
8.096717416718684
 11
12.87020016172841
 21
20.88673215499406
 31
8.016531993265651
  0
LINE
  5
1AC
330
3E
100
AcDbEntity
  8
USP-GEO
100
AcDbLine
 10
12.87020016172841
 20
20.88673215499406
 30
8.016531993265651
 11
12.91686682839508
 21
20.8400654883274
 31
7.923198659932317
  0
LINE
  5
1AD
330
3E
100
AcDbEntity
  8
USP-GEO
100
AcDbLine
 10
12.67945846791629
 20
20.658861308088
 30
7.979402840171715
 11
12.75649598148902
 21
20.69738006487437
 31
7.94088408338535
  0
LINE
  5
1AE
330
3E
100
AcDbEntity
  8
USP-GEO
100
AcDbLine
 10
12.73492683268745
 20
20.63659549047359
 30
7.90166865778613
 11
12.89119986560624
 21
20.71473200693298
 31
7.823532141326737
  0
LINE
  5
1AF
330
3E
100
AcDbEntity
  8
USP-GEO
100
AcDbLine
 10
12.88649598148902
 20
20.69238006487437
 30
7.80588408338535
 11
12.72612513458295
 21
20.61219464142133
 31
7.886069506838382
  0
ELLIPSE
  5
1B0
330
3E
100
AcDbEntity
  8
USP-GEO
100
AcDbEllipse
 10
13.44346820314552
 20
21.06461617570262
 30
7.621147972557094
 11
-0.7071067811865502
 21
-0.7071067811865449
 31
0.0000000000000055
210
0.577350269189626
220
-0.5773502691896258
230
0.5773502691896259
 40
0.5773502691896208
 41
5.645827290020687
 42
5.686403529957547
  0
LINE
  5
1B1
330
3E
100
AcDbEntity
  8
USP-GEO
100
AcDbLine
 10
12.72612513458295
 20
20.61219464142133
 30
7.886069506838382
 11
12.67945846791629
 21
20.658861308088
 31
7.979402840171715
  0
LINE
  5
1B2
330
3E
100
AcDbEntity
  8
USP-GEO
100
AcDbLine
 10
13.00520016172842
 20
20.75173215499407
 30
7.74653199326565
 11
12.92816264815568
 21
20.7132133982077
 31
7.785050750052016
  0
LINE
  5
1B3
330
3E
100
AcDbEntity
  8
USP-GEO
100
AcDbLine
 10
12.94149598148902
 20
20.73988006487437
 30
7.79838408338535
 11
12.92816264815568
 21
20.7132133982077
 31
7.785050750052016
  0
LINE
  5
1B4
330
3E
100
AcDbEntity
  8
USP-GEO
100
AcDbLine
 10
12.94149598148902
 20
20.73988006487437
 30
7.79838408338535
 11
12.99186682839508
 21
20.7650654883274
 31
7.773198659932317
  0
LINE
  5
1B5
330
3E
100
AcDbEntity
  8
USP-GEO
100
AcDbLine
 10
12.79816264815569
 20
20.7182133982077
 30
7.920050750052016
 11
12.95853349506175
 21
20.79839882166073
 31
7.839865326598984
  0
LINE
  5
1B6
330
3E
100
AcDbEntity
  8
USP-GEO
100
AcDbLine
 10
12.95853349506175
 20
20.79839882166073
 30
7.839865326598984
 11
13.00520016172842
 21
20.75173215499407
 31
7.746531993265652
  0
LINE
  5
1B7
330
3E
100
AcDbEntity
  8
USP-GEO
100
AcDbLine
 10
12.76779180124962
 20
20.57052797475467
 30
7.802736173505049
 11
12.84482931482235
 21
20.60904673154103
 31
7.764217416718683
  0
LINE
  5
1B8
330
3E
100
AcDbEntity
  8
USP-GEO
100
AcDbLine
 10
12.82326016602079
 20
20.54826215714025
 30
7.725001991119464
 11
12.97953319893958
 21
20.62639867359965
 31
7.646865474660069
  0
LINE
  5
1B9
330
3E
100
AcDbEntity
  8
USP-GEO
100
AcDbLine
 10
12.97482931482235
 20
20.60404673154103
 30
7.629217416718681
 11
12.81445846791628
 21
20.523861308088
 31
7.709402840171714
  0
ELLIPSE
  5
1BA
330
3E
100
AcDbEntity
  8
USP-GEO
100
AcDbEllipse
 10
13.53180153647885
 20
20.97628284236928
 30
7.444481305890425
 11
-0.7071067811865502
 21
-0.7071067811865449
 31
0.0000000000000055
210
0.577350269189626
220
-0.5773502691896258
230
0.5773502691896259
 40
0.5773502691896208
 41
5.64582729002068
 42
5.686403529957546
  0
LINE
  5
1BB
330
3E
100
AcDbEntity
  8
USP-GEO
100
AcDbLine
 10
12.81445846791628
 20
20.523861308088
 30
7.709402840171713
 11
12.76779180124962
 21
20.57052797475466
 31
7.802736173505047
  0
LINE
  5
1BC
330
3E
100
AcDbEntity
  8
USP-GEO
100
AcDbLine
 10
13.09353349506175
 20
20.66339882166073
 30
7.569865326598982
 11
13.01649598148902
 21
20.62488006487436
 31
7.608384083385347
  0
LINE
  5
1BD
330
3E
100
AcDbEntity
  8
USP-GEO
100
AcDbLine
 10
13.02982931482235
 20
20.65154673154103
 30
7.621717416718682
 11
13.01649598148902
 21
20.62488006487436
 31
7.608384083385348
  0
LINE
  5
1BE
330
3E
100
AcDbEntity
  8
USP-GEO
100
AcDbLine
 10
13.02982931482235
 20
20.65154673154103
 30
7.621717416718682
 11
13.08020016172841
 21
20.67673215499406
 31
7.596531993265651
  0
LINE
  5
1BF
330
3E
100
AcDbEntity
  8
USP-GEO
100
AcDbLine
 10
12.88649598148902
 20
20.62988006487436
 30
7.743384083385348
 11
13.04686682839508
 21
20.71006548832739
 31
7.663198659932316
  0
LINE
  5
1C0
330
3E
100
AcDbEntity
  8
USP-GEO
100
AcDbLine
 10
13.04686682839508
 20
20.71006548832739
 30
7.663198659932316
 11
13.09353349506175
 21
20.66339882166073
 31
7.569865326598982
  0
LINE
  5
1C1
330
3E
100
AcDbEntity
  8
USP-GEO
100
AcDbLine
 10
12.85612513458295
 20
20.48219464142133
 30
7.62606950683838
 11
12.93316264815568
 21
20.5207133982077
 31
7.587550750052015
  0
LINE
  5
1C2
330
3E
100
AcDbEntity
  8
USP-GEO
100
AcDbLine
 10
12.91159349935412
 20
20.45992882380691
 30
7.548335324452796
 11
13.06786653227291
 21
20.53806534026631
 31
7.470198807993401
  0
LINE
  5
1C3
330
3E
100
AcDbEntity
  8
USP-GEO
100
AcDbLine
 10
13.06316264815568
 20
20.51571339820769
 30
7.452550750052015
 11
12.90279180124962
 21
20.43552797475467
 31
7.532736173505047
  0
ELLIPSE
  5
1C4
330
3E
100
AcDbEntity
  8
USP-GEO
100
AcDbEllipse
 10
13.62013486981219
 20
20.88794950903595
 30
7.26781463922376
 11
-0.7071067811865502
 21
-0.7071067811865449
 31
0.0000000000000055
210
0.577350269189626
220
-0.5773502691896258
230
0.5773502691896259
 40
0.5773502691896208
 41
5.645827290020687
 42
5.686403529957543
  0
LINE
  5
1C5
330
3E
100
AcDbEntity
  8
USP-GEO
100
AcDbLine
 10
12.90279180124962
 20
20.43552797475467
 30
7.532736173505047
 11
12.85612513458295
 21
20.48219464142133
 31
7.626069506838382
  0
LINE
  5
1C6
330
3E
100
AcDbEntity
  8
USP-GEO
100
AcDbLine
 10
13.18186682839508
 20
20.57506548832739
 30
7.393198659932316
 11
13.10482931482235
 21
20.53654673154103
 31
7.431717416718681
  0
LINE
  5
1C7
330
3E
100
AcDbEntity
  8
USP-GEO
100
AcDbLine
 10
13.11816264815568
 20
20.56321339820769
 30
7.445050750052015
 11
13.10482931482235
 21
20.53654673154103
 31
7.431717416718682
  0
LINE
  5
1C8
330
3E
100
AcDbEntity
  8
USP-GEO
100
AcDbLine
 10
13.11816264815568
 20
20.56321339820769
 30
7.445050750052015
 11
13.16853349506175
 21
20.58839882166072
 31
7.419865326598982
  0
LINE
  5
1C9
330
3E
100
AcDbEntity
  8
USP-GEO
100
AcDbLine
 10
12.97482931482235
 20
20.54154673154103
 30
7.566717416718683
 11
13.13520016172841
 21
20.62173215499406
 31
7.48653199326565
  0
LINE
  5
1CA
330
3E
100
AcDbEntity
  8
USP-GEO
100
AcDbLine
 10
13.13520016172841
 20
20.62173215499406
 30
7.48653199326565
 11
13.18186682839508
 21
20.57506548832739
 31
7.393198659932316
  0
LINE
  5
1CB
330
3E
100
AcDbEntity
  8
USP-GEO
100
AcDbLine
 10
12.94445846791628
 20
20.393861308088
 30
7.449402840171714
 11
13.02149598148902
 21
20.43238006487436
 31
7.410884083385348
  0
LINE
  5
1CC
330
3E
100
AcDbEntity
  8
USP-GEO
100
AcDbLine
 10
12.99992683268745
 20
20.37159549047358
 30
7.371668657786129
 11
13.15619986560624
 21
20.44973200693297
 31
7.293532141326735
  0
LINE
  5
1CD
330
3E
100
AcDbEntity
  8
USP-GEO
100
AcDbLine
 10
13.15149598148902
 20
20.42738006487436
 30
7.275884083385348
 11
12.99112513458295
 21
20.34719464142133
 31
7.35606950683838
  0
ELLIPSE
  5
1CE
330
3E
100
AcDbEntity
  8
USP-GEO
100
AcDbEllipse
 10
13.70846820314552
 20
20.79961617570262
 30
7.091147972557092
 11
-0.7071067811865502
 21
-0.7071067811865449
 31
0.0000000000000055
210
0.577350269189626
220
-0.5773502691896258
230
0.5773502691896259
 40
0.5773502691896208
 41
5.645827290020687
 42
5.686403529957546
  0
LINE
  5
1CF
330
3E
100
AcDbEntity
  8
USP-GEO
100
AcDbLine
 10
12.99112513458295
 20
20.34719464142133
 30
7.35606950683838
 11
12.94445846791628
 21
20.393861308088
 31
7.449402840171714
  0
LINE
  5
1D0
330
3E
100
AcDbEntity
  8
USP-GEO
100
AcDbLine
 10
13.27020016172841
 20
20.48673215499406
 30
7.216531993265649
 11
13.19316264815568
 21
20.44821339820769
 31
7.255050750052014
  0
LINE
  5
1D1
330
3E
100
AcDbEntity
  8
USP-GEO
100
AcDbLine
 10
13.20649598148901
 20
20.47488006487436
 30
7.268384083385348
 11
13.19316264815568
 21
20.44821339820769
 31
7.255050750052015
  0
LINE
  5
1D2
330
3E
100
AcDbEntity
  8
USP-GEO
100
AcDbLine
 10
13.20649598148901
 20
20.47488006487436
 30
7.268384083385348
 11
13.25686682839508
 21
20.50006548832739
 31
7.243198659932316
  0
LINE
  5
1D3
330
3E
100
AcDbEntity
  8
USP-GEO
100
AcDbLine
 10
13.06316264815568
 20
20.4532133982077
 30
7.390050750052015
 11
13.22353349506175
 21
20.53339882166072
 31
7.309865326598982
  0
LINE
  5
1D4
330
3E
100
AcDbEntity
  8
USP-GEO
100
AcDbLine
 10
13.22353349506175
 20
20.53339882166072
 30
7.309865326598982
 11
13.27020016172841
 21
20.48673215499406
 31
7.21653199326565
  0
LINE
  5
1D5
330
3E
100
AcDbEntity
  8
USP-GEO
100
AcDbLine
 10
13.03279180124962
 20
20.30552797475466
 30
7.272736173505046
 11
13.10982931482235
 21
20.34404673154103
 31
7.234217416718681
  0
LINE
  5
1D6
330
3E
100
AcDbEntity
  8
USP-GEO
100
AcDbLine
 10
13.08826016602078
 20
20.28326215714024
 30
7.195001991119459
 11
13.24453319893957
 21
20.36139867359964
 31
7.116865474660064
  0
LINE
  5
1D7
330
3E
100
AcDbEntity
  8
USP-GEO
100
AcDbLine
 10
13.23982931482235
 20
20.33904673154103
 30
7.099217416718681
 11
13.07945846791628
 21
20.258861308088
 31
7.179402840171714
  0
ELLIPSE
  5
1D8
330
3E
100
AcDbEntity
  8
USP-GEO
100
AcDbEllipse
 10
13.79680153647886
 20
20.71128284236928
 30
6.914481305890424
 11
-0.7071067811865502
 21
-0.7071067811865449
 31
0.0000000000000055
210
0.577350269189626
220
-0.5773502691896258
230
0.5773502691896259
 40
0.5773502691896208
 41
5.645827290020692
 42
5.686403529957546
  0
LINE
  5
1D9
330
3E
100
AcDbEntity
  8
USP-GEO
100
AcDbLine
 10
13.07945846791628
 20
20.258861308088
 30
7.179402840171714
 11
13.03279180124962
 21
20.30552797475466
 31
7.272736173505046
  0
LINE
  5
1DA
330
3E
100
AcDbEntity
  8
USP-GEO
100
AcDbLine
 10
13.35853349506175
 20
20.39839882166073
 30
7.039865326598983
 11
13.28149598148901
 21
20.35988006487436
 31
7.078384083385348
  0
LINE
  5
1DB
330
3E
100
AcDbEntity
  8
USP-GEO
100
AcDbLine
 10
13.29482931482235
 20
20.38654673154102
 30
7.091717416718678
 11
13.28149598148901
 21
20.35988006487436
 31
7.078384083385349
  0
LINE
  5
1DC
330
3E
100
AcDbEntity
  8
USP-GEO
100
AcDbLine
 10
13.29482931482235
 20
20.38654673154102
 30
7.091717416718678
 11
13.34520016172841
 21
20.41173215499406
 31
7.066531993265643
  0
LINE
  5
1DD
330
3E
100
AcDbEntity
  8
USP-GEO
100
AcDbLine
 10
13.15149598148902
 20
20.36488006487436
 30
7.213384083385347
 11
13.31186682839508
 21
20.44506548832739
 31
7.133198659932316
  0
LINE
  5
1DE
330
3E
100
AcDbEntity
  8
USP-GEO
100
AcDbLine
 10
13.31186682839508
 20
20.44506548832739
 30
7.133198659932315
 11
13.35853349506175
 21
20.39839882166073
 31
7.039865326598983
  0
LINE
  5
1DF
330
3E
100
AcDbEntity
  8
USP-GEO
100
AcDbLine
 10
13.12112513458295
 20
20.21719464142133
 30
7.096069506838381
 11
13.19816264815568
 21
20.25571339820769
 31
7.057550750052016
  0
LINE
  5
1E0
330
3E
100
AcDbEntity
  8
USP-GEO
100
AcDbLine
 10
13.17659349935411
 20
20.19492882380691
 30
7.018335324452793
 11
13.33286653227291
 21
20.2730653402663
 31
6.940198807993398
  0
LINE
  5
1E1
330
3E
100
AcDbEntity
  8
USP-GEO
100
AcDbLine
 10
13.32816264815568
 20
20.25071339820769
 30
6.922550750052011
 11
13.16779180124961
 21
20.17052797475466
 31
7.002736173505044
  0
ELLIPSE
  5
1E2
330
3E
100
AcDbEntity
  8
USP-GEO
100
AcDbEllipse
 10
13.88513486981219
 20
20.62294950903595
 30
6.737814639223756
 11
-0.7071067811865502
 21
-0.7071067811865449
 31
0.0000000000000055
210
0.577350269189626
220
-0.5773502691896258
230
0.5773502691896259
 40
0.5773502691896208
 41
5.645827290020684
 42
5.686403529957544
  0
LINE
  5
1E3
330
3E
100
AcDbEntity
  8
USP-GEO
100
AcDbLine
 10
13.16779180124961
 20
20.17052797475466
 30
7.002736173505044
 11
13.12112513458295
 21
20.21719464142133
 31
7.096069506838379
  0
LINE
  5
1E4
330
3E
100
AcDbEntity
  8
USP-GEO
100
AcDbLine
 10
13.44686682839508
 20
20.31006548832739
 30
6.863198659932313
 11
13.36982931482235
 21
20.27154673154102
 31
6.901717416718678
  0
LINE
  5
1E5
330
3E
100
AcDbEntity
  8
USP-GEO
100
AcDbLine
 10
13.38316264815568
 20
20.29821339820769
 30
6.915050750052012
 11
13.36982931482235
 21
20.27154673154102
 31
6.90171741671868
  0
LINE
  5
1E6
330
3E
100
AcDbEntity
  8
USP-GEO
100
AcDbLine
 10
13.38316264815568
 20
20.29821339820769
 30
6.915050750052011
 11
13.43353349506174
 21
20.32339882166072
 31
6.889865326598979
  0
LINE
  5
1E7
330
3E
100
AcDbEntity
  8
USP-GEO
100
AcDbLine
 10
13.23982931482235
 20
20.27654673154103
 30
7.03671741671868
 11
13.40020016172841
 21
20.35673215499405
 31
6.956531993265646
  0
LINE
  5
1E8
330
3E
100
AcDbEntity
  8
USP-GEO
100
AcDbLine
 10
13.40020016172841
 20
20.35673215499405
 30
6.956531993265647
 11
13.44686682839508
 21
20.31006548832739
 31
6.863198659932313
  0
LINE
  5
1E9
330
3E
100
AcDbEntity
  8
USP-GEO
100
AcDbLine
 10
13.20945846791628
 20
20.12886130808799
 30
6.919402840171711
 11
13.28649598148901
 21
20.16738006487436
 31
6.880884083385346
  0
LINE
  5
1EA
330
3E
100
AcDbEntity
  8
USP-GEO
100
AcDbLine
 10
13.26492683268745
 20
20.10659549047357
 30
6.841668657786127
 11
13.42119986560624
 21
20.18473200693297
 31
6.763532141326731
  0
LINE
  5
1EB
330
3E
100
AcDbEntity
  8
USP-GEO
100
AcDbLine
 10
13.41649598148901
 20
20.16238006487435
 30
6.745884083385345
 11
13.25612513458295
 21
20.08219464142133
 31
6.826069506838378
  0
ELLIPSE
  5
1EC
330
3E
100
AcDbEntity
  8
USP-GEO
100
AcDbEllipse
 10
13.97346820314552
 20
20.53461617570261
 30
6.56114797255709
 11
-0.7071067811865502
 21
-0.7071067811865449
 31
0.0000000000000055
210
0.577350269189626
220
-0.5773502691896258
230
0.5773502691896259
 40
0.5773502691896208
 41
5.645827290020684
 42
5.686403529957543
  0
LINE
  5
1ED
330
3E
100
AcDbEntity
  8
USP-GEO
100
AcDbLine
 10
13.25612513458295
 20
20.08219464142133
 30
6.826069506838377
 11
13.20945846791628
 21
20.12886130808799
 31
6.91940284017171
  0
LINE
  5
1EE
330
3E
100
AcDbEntity
  8
USP-GEO
100
AcDbLine
 10
13.53520016172841
 20
20.22173215499406
 30
6.686531993265647
 11
13.45816264815568
 21
20.18321339820769
 31
6.725050750052012
  0
LINE
  5
1EF
330
3E
100
AcDbEntity
  8
USP-GEO
100
AcDbLine
 10
13.47149598148901
 20
20.20988006487435
 30
6.738384083385344
 11
13.45816264815568
 21
20.18321339820769
 31
6.725050750052012
  0
LINE
  5
1F0
330
3E
100
AcDbEntity
  8
USP-GEO
100
AcDbLine
 10
13.47149598148901
 20
20.20988006487435
 30
6.738384083385345
 11
13.52186682839508
 21
20.23506548832739
 31
6.713198659932313
  0
LINE
  5
1F1
330
3E
100
AcDbEntity
  8
USP-GEO
100
AcDbLine
 10
13.32816264815568
 20
20.18821339820769
 30
6.860050750052013
 11
13.48853349506174
 21
20.26839882166072
 31
6.779865326598981
  0
LINE
  5
1F2
330
3E
100
AcDbEntity
  8
USP-GEO
100
AcDbLine
 10
13.48853349506174
 20
20.26839882166072
 30
6.779865326598979
 11
13.53520016172841
 21
20.22173215499406
 31
6.686531993265646
  0
LINE
  5
1F3
330
3E
100
AcDbEntity
  8
USP-GEO
100
AcDbLine
 10
13.29779180124961
 20
20.04052797475466
 30
6.742736173505043
 11
13.37482931482235
 21
20.07904673154103
 31
6.704217416718678
  0
LINE
  5
1F4
330
3E
100
AcDbEntity
  8
USP-GEO
100
AcDbLine
 10
13.35326016602078
 20
20.01826215714024
 30
6.66500199111946
 11
13.50953319893957
 21
20.09639867359964
 31
6.586865474660065
  0
LINE
  5
1F5
330
3E
100
AcDbEntity
  8
USP-GEO
100
AcDbLine
 10
13.50482931482234
 20
20.07404673154102
 30
6.569217416718677
 11
13.34445846791628
 21
19.99386130808798
 31
6.649402840171709
  0
ELLIPSE
  5
1F6
330
3E
100
AcDbEntity
  8
USP-GEO
100
AcDbEllipse
 10
14.06180153647885
 20
20.44628284236928
 30
6.384481305890419
 11
-0.7071067811865502
 21
-0.7071067811865449
 31
0.0000000000000055
210
0.577350269189626
220
-0.5773502691896258
230
0.5773502691896259
 40
0.5773502691896208
 41
5.64582729002068
 42
5.686403529957546
  0
LINE
  5
1F7
330
3E
100
AcDbEntity
  8
USP-GEO
100
AcDbLine
 10
13.34445846791628
 20
19.99386130808799
 30
6.64940284017171
 11
13.29779180124961
 21
20.04052797475466
 31
6.742736173505043
  0
LINE
  5
1F8
330
3E
100
AcDbEntity
  8
USP-GEO
100
AcDbLine
 10
13.62353349506174
 20
20.13339882166072
 30
6.509865326598978
 11
13.54649598148901
 21
20.09488006487435
 31
6.548384083385344
  0
LINE
  5
1F9
330
3E
100
AcDbEntity
  8
USP-GEO
100
AcDbLine
 10
13.55982931482235
 20
20.12154673154102
 30
6.561717416718678
 11
13.54649598148901
 21
20.09488006487435
 31
6.548384083385344
  0
LINE
  5
1FA
330
3E
100
AcDbEntity
  8
USP-GEO
100
AcDbLine
 10
13.55982931482234
 20
20.12154673154102
 30
6.561717416718678
 11
13.6102001617284
 21
20.14673215499406
 31
6.536531993265647
  0
LINE
  5
1FB
330
3E
100
AcDbEntity
  8
USP-GEO
100
AcDbLine
 10
13.41649598148901
 20
20.09988006487436
 30
6.683384083385345
 11
13.57686682839508
 21
20.18006548832739
 31
6.603198659932314
  0
LINE
  5
1FC
330
3E
100
AcDbEntity
  8
USP-GEO
100
AcDbLine
 10
13.57686682839507
 20
20.18006548832738
 30
6.60319865993231
 11
13.62353349506174
 21
20.13339882166071
 31
6.509865326598977
  0
LINE
  5
1FD
330
3E
100
AcDbEntity
  8
USP-GEO
100
AcDbLine
 10
13.38612513458295
 20
19.95219464142132
 30
6.566069506838374
 11
13.46316264815567
 21
19.99071339820768
 31
6.527550750052011
  0
LINE
  5
1FE
330
3E
100
AcDbEntity
  8
USP-GEO
100
AcDbLine
 10
13.44159349935411
 20
19.9299288238069
 30
6.488335324452791
 11
13.5978665322729
 21
20.0080653402663
 31
6.410198807993396
  0
LINE
  5
1FF
330
3E
100
AcDbEntity
  8
USP-GEO
100
AcDbLine
 10
13.59316264815568
 20
19.98571339820768
 30
6.392550750052009
 11
13.43279180124961
 21
19.90552797475465
 31
6.472736173505042
  0
ELLIPSE
  5
200
330
3E
100
AcDbEntity
  8
USP-GEO
100
AcDbEllipse
 10
14.15013486981218
 20
20.35794950903594
 30
6.207814639223753
 11
-0.7071067811865502
 21
-0.7071067811865449
 31
0.0000000000000055
210
0.577350269189626
220
-0.5773502691896258
230
0.5773502691896259
 40
0.5773502691896208
 41
5.645827290020688
 42
5.686403529957543
  0
LINE
  5
201
330
3E
100
AcDbEntity
  8
USP-GEO
100
AcDbLine
 10
13.43279180124962
 20
19.90552797475465
 30
6.472736173505041
 11
13.38612513458295
 21
19.95219464142132
 31
6.566069506838374
  0
LINE
  5
202
330
3E
100
AcDbEntity
  8
USP-GEO
100
AcDbLine
 10
13.71186682839508
 20
20.04506548832738
 30
6.333198659932311
 11
13.63482931482234
 21
20.00654673154102
 31
6.371717416718675
  0
LINE
  5
203
330
3E
100
AcDbEntity
  8
USP-GEO
100
AcDbLine
 10
13.64816264815568
 20
20.03321339820768
 30
6.385050750052009
 11
13.63482931482234
 21
20.00654673154102
 31
6.371717416718676
  0
LINE
  5
204
330
3E
100
AcDbEntity
  8
USP-GEO
100
AcDbLine
 10
13.64816264815568
 20
20.03321339820768
 30
6.38505075005201
 11
13.69853349506174
 21
20.05839882166072
 31
6.359865326598978
  0
LINE
  5
205
330
3E
100
AcDbEntity
  8
USP-GEO
100
AcDbLine
 10
13.50482931482234
 20
20.01154673154102
 30
6.506717416718677
 11
13.66520016172841
 21
20.09173215499405
 31
6.426531993265644
  0
LINE
  5
206
330
3E
100
AcDbEntity
  8
USP-GEO
100
AcDbLine
 10
13.66520016172841
 20
20.09173215499405
 30
6.426531993265644
 11
13.71186682839508
 21
20.04506548832738
 31
6.333198659932311
  0
LINE
  5
207
330
3E
100
AcDbEntity
  8
USP-GEO
100
AcDbLine
 10
13.17445846791629
 20
21.038861308088
 30
7.864402840171717
 11
13.25149598148902
 21
21.07738006487437
 31
7.825884083385352
  0
LINE
  5
208
330
3E
100
AcDbEntity
  8
USP-GEO
100
AcDbLine
 10
13.22992683268745
 20
21.01659549047358
 30
7.786668657786132
 11
13.38619986560624
 21
21.09473200693298
 31
7.708532141326736
  0
LINE
  5
209
330
3E
100
AcDbEntity
  8
USP-GEO
100
AcDbLine
 10
13.38149598148902
 20
21.07238006487436
 30
7.69088408338535
 11
13.22112513458295
 21
20.99219464142134
 31
7.771069506838383
  0
ELLIPSE
  5
20A
330
3E
100
AcDbEntity
  8
USP-GEO
100
AcDbEllipse
 10
13.93846820314552
 20
21.44461617570262
 30
7.506147972557096
 11
-0.7071067811865502
 21
-0.7071067811865449
 31
0.0000000000000055
210
0.577350269189626
220
-0.5773502691896258
230
0.5773502691896259
 40
0.5773502691896208
 41
5.645827290020688
 42
5.686403529957543
  0
LINE
  5
20B
330
3E
100
AcDbEntity
  8
USP-GEO
100
AcDbLine
 10
13.22112513458295
 20
20.99219464142134
 30
7.771069506838383
 11
13.17445846791629
 21
21.038861308088
 31
7.864402840171717
  0
LINE
  5
20C
330
3E
100
AcDbEntity
  8
USP-GEO
100
AcDbLine
 10
13.50020016172841
 20
21.13173215499406
 30
7.631531993265651
 11
13.42316264815568
 21
21.0932133982077
 31
7.670050750052016
  0
LINE
  5
20D
330
3E
100
AcDbEntity
  8
USP-GEO
100
AcDbLine
 10
13.43649598148902
 20
21.11988006487437
 30
7.683384083385351
 11
13.42316264815568
 21
21.0932133982077
 31
7.670050750052018
  0
LINE
  5
20E
330
3E
100
AcDbEntity
  8
USP-GEO
100
AcDbLine
 10
13.43649598148902
 20
21.11988006487437
 30
7.683384083385351
 11
13.48686682839508
 21
21.1450654883274
 31
7.658198659932319
  0
LINE
  5
20F
330
3E
100
AcDbEntity
  8
USP-GEO
100
AcDbLine
 10
13.29316264815568
 20
21.0982133982077
 30
7.805050750052018
 11
13.45353349506175
 21
21.17839882166073
 31
7.724865326598985
  0
LINE
  5
210
330
3E
100
AcDbEntity
  8
USP-GEO
100
AcDbLine
 10
13.45353349506175
 20
21.17839882166073
 30
7.724865326598985
 11
13.50020016172841
 21
21.13173215499406
 31
7.631531993265652
  0
LINE
  5
211
330
3E
100
AcDbEntity
  8
USP-GEO
100
AcDbLine
 10
13.26279180124962
 20
20.95052797475467
 30
7.687736173505049
 11
13.33982931482235
 21
20.98904673154103
 31
7.649217416718683
  0
LINE
  5
212
330
3E
100
AcDbEntity
  8
USP-GEO
100
AcDbLine
 10
13.31826016602079
 20
20.92826215714025
 30
7.610001991119464
 11
13.47453319893958
 21
21.00639867359965
 31
7.531865474660069
  0
LINE
  5
213
330
3E
100
AcDbEntity
  8
USP-GEO
100
AcDbLine
 10
13.46982931482235
 20
20.98404673154103
 30
7.514217416718684
 11
13.30945846791629
 21
20.903861308088
 31
7.594402840171716
  0
ELLIPSE
  5
214
330
3E
100
AcDbEntity
  8
USP-GEO
100
AcDbEllipse
 10
14.02680153647885
 20
21.35628284236929
 30
7.329481305890429
 11
-0.7071067811865502
 21
-0.7071067811865449
 31
0.0000000000000055
210
0.577350269189626
220
-0.5773502691896258
230
0.5773502691896259
 40
0.5773502691896208
 41
5.645827290020688
 42
5.686403529957543
  0
LINE
  5
215
330
3E
100
AcDbEntity
  8
USP-GEO
100
AcDbLine
 10
13.30945846791629
 20
20.903861308088
 30
7.594402840171716
 11
13.26279180124962
 21
20.95052797475467
 31
7.687736173505049
  0
LINE
  5
216
330
3E
100
AcDbEntity
  8
USP-GEO
100
AcDbLine
 10
13.58853349506175
 20
21.04339882166073
 30
7.454865326598985
 11
13.51149598148902
 21
21.00488006487437
 31
7.49338408338535
  0
LINE
  5
217
330
3E
100
AcDbEntity
  8
USP-GEO
100
AcDbLine
 10
13.52482931482235
 20
21.03154673154103
 30
7.506717416718684
 11
13.51149598148902
 21
21.00488006487437
 31
7.49338408338535
  0
LINE
  5
218
330
3E
100
AcDbEntity
  8
USP-GEO
100
AcDbLine
 10
13.52482931482235
 20
21.03154673154103
 30
7.506717416718684
 11
13.57520016172842
 21
21.05673215499407
 31
7.481531993265651
  0
LINE
  5
219
330
3E
100
AcDbEntity
  8
USP-GEO
100
AcDbLine
 10
13.38149598148902
 20
21.00988006487437
 30
7.62838408338535
 11
13.54186682839508
 21
21.0900654883274
 31
7.548198659932319
  0
LINE
  5
21A
330
3E
100
AcDbEntity
  8
USP-GEO
100
AcDbLine
 10
13.54186682839508
 20
21.0900654883274
 30
7.548198659932317
 11
13.58853349506175
 21
21.04339882166073
 31
7.454865326598985
  0
LINE
  5
21B
330
3E
100
AcDbEntity
  8
USP-GEO
100
AcDbLine
 10
13.35112513458295
 20
20.86219464142133
 30
7.511069506838381
 11
13.42816264815568
 21
20.9007133982077
 31
7.472550750052016
  0
LINE
  5
21C
330
3E
100
AcDbEntity
  8
USP-GEO
100
AcDbLine
 10
13.40659349935412
 20
20.83992882380692
 30
7.433335324452798
 11
13.56286653227291
 21
20.91806534026631
 31
7.355198807993402
  0
LINE
  5
21D
330
3E
100
AcDbEntity
  8
USP-GEO
100
AcDbLine
 10
13.55816264815568
 20
20.8957133982077
 30
7.337550750052015
 11
13.39779180124962
 21
20.81552797475466
 31
7.417736173505047
  0
ELLIPSE
  5
21E
330
3E
100
AcDbEntity
  8
USP-GEO
100
AcDbEllipse
 10
14.11513486981219
 20
21.26794950903595
 30
7.152814639223759
 11
-0.7071067811865502
 21
-0.7071067811865449
 31
0.0000000000000055
210
0.577350269189626
220
-0.5773502691896258
230
0.5773502691896259
 40
0.5773502691896208
 41
5.64582729002068
 42
5.686403529957543
  0
LINE
  5
21F
330
3E
100
AcDbEntity
  8
USP-GEO
100
AcDbLine
 10
13.39779180124962
 20
20.81552797475466
 30
7.417736173505047
 11
13.35112513458295
 21
20.86219464142133
 31
7.51106950683838
  0
LINE
  5
220
330
3E
100
AcDbEntity
  8
USP-GEO
100
AcDbLine
 10
13.67686682839508
 20
20.95506548832739
 30
7.278198659932316
 11
13.59982931482235
 21
20.91654673154103
 31
7.316717416718681
  0
LINE
  5
221
330
3E
100
AcDbEntity
  8
USP-GEO
100
AcDbLine
 10
13.61316264815568
 20
20.9432133982077
 30
7.330050750052016
 11
13.59982931482235
 21
20.91654673154103
 31
7.316717416718681
  0
LINE
  5
222
330
3E
100
AcDbEntity
  8
USP-GEO
100
AcDbLine
 10
13.61316264815568
 20
20.9432133982077
 30
7.330050750052016
 11
13.66353349506175
 21
20.96839882166073
 31
7.304865326598985
  0
LINE
  5
223
330
3E
100
AcDbEntity
  8
USP-GEO
100
AcDbLine
 10
13.46982931482235
 20
20.92154673154103
 30
7.451717416718683
 11
13.63020016172841
 21
21.00173215499407
 31
7.371531993265652
  0
LINE
  5
224
330
3E
100
AcDbEntity
  8
USP-GEO
100
AcDbLine
 10
13.63020016172841
 20
21.00173215499406
 30
7.37153199326565
 11
13.67686682839508
 21
20.95506548832739
 31
7.278198659932316
  0
LINE
  5
225
330
3E
100
AcDbEntity
  8
USP-GEO
100
AcDbLine
 10
13.43945846791628
 20
20.77386130808799
 30
7.334402840171715
 11
13.51649598148902
 21
20.81238006487436
 31
7.295884083385349
  0
LINE
  5
226
330
3E
100
AcDbEntity
  8
USP-GEO
100
AcDbLine
 10
13.49492683268745
 20
20.75159549047358
 30
7.25666865778613
 11
13.65119986560624
 21
20.82973200693297
 31
7.178532141326735
  0
LINE
  5
227
330
3E
100
AcDbEntity
  8
USP-GEO
100
AcDbLine
 10
13.64649598148902
 20
20.80738006487436
 30
7.160884083385349
 11
13.48612513458295
 21
20.72719464142133
 31
7.241069506838382
  0
ELLIPSE
  5
228
330
3E
100
AcDbEntity
  8
USP-GEO
100
AcDbEllipse
 10
14.20346820314552
 20
21.17961617570261
 30
6.976147972557094
 11
-0.7071067811865502
 21
-0.7071067811865449
 31
0.0000000000000055
210
0.577350269189626
220
-0.5773502691896258
230
0.5773502691896259
 40
0.5773502691896208
 41
5.645827290020684
 42
5.686403529957543
  0
LINE
  5
229
330
3E
100
AcDbEntity
  8
USP-GEO
100
AcDbLine
 10
13.48612513458295
 20
20.72719464142133
 30
7.241069506838382
 11
13.43945846791628
 21
20.77386130808799
 31
7.334402840171714
  0
LINE
  5
22A
330
3E
100
AcDbEntity
  8
USP-GEO
100
AcDbLine
 10
13.76520016172841
 20
20.86673215499406
 30
7.10153199326565
 11
13.68816264815568
 21
20.82821339820769
 31
7.140050750052016
  0
LINE
  5
22B
330
3E
100
AcDbEntity
  8
USP-GEO
100
AcDbLine
 10
13.70149598148902
 20
20.85488006487436
 30
7.153384083385349
 11
13.68816264815568
 21
20.82821339820769
 31
7.140050750052015
  0
LINE
  5
22C
330
3E
100
AcDbEntity
  8
USP-GEO
100
AcDbLine
 10
13.70149598148902
 20
20.85488006487436
 30
7.153384083385349
 11
13.75186682839508
 21
20.88006548832739
 31
7.128198659932316
  0
LINE
  5
22D
330
3E
100
AcDbEntity
  8
USP-GEO
100
AcDbLine
 10
13.55816264815568
 20
20.8332133982077
 30
7.275050750052015
 11
13.71853349506175
 21
20.91339882166073
 31
7.194865326598983
  0
LINE
  5
22E
330
3E
100
AcDbEntity
  8
USP-GEO
100
AcDbLine
 10
13.71853349506175
 20
20.91339882166073
 30
7.194865326598984
 11
13.76520016172841
 21
20.86673215499406
 31
7.10153199326565
  0
LINE
  5
22F
330
3E
100
AcDbEntity
  8
USP-GEO
100
AcDbLine
 10
13.52779180124962
 20
20.68552797475466
 30
7.157736173505048
 11
13.60482931482235
 21
20.72404673154103
 31
7.119217416718681
  0
LINE
  5
230
330
3E
100
AcDbEntity
  8
USP-GEO
100
AcDbLine
 10
13.58326016602078
 20
20.66326215714024
 30
7.080001991119463
 11
13.73953319893957
 21
20.74139867359964
 31
7.001865474660068
  0
LINE
  5
231
330
3E
100
AcDbEntity
  8
USP-GEO
100
AcDbLine
 10
13.73482931482235
 20
20.71904673154103
 30
6.984217416718682
 11
13.57445846791629
 21
20.638861308088
 31
7.064402840171715
  0
ELLIPSE
  5
232
330
3E
100
AcDbEntity
  8
USP-GEO
100
AcDbEllipse
 10
14.29180153647886
 20
21.09128284236928
 30
6.799481305890425
 11
-0.7071067811865502
 21
-0.7071067811865449
 31
0.0000000000000055
210
0.577350269189626
220
-0.5773502691896258
230
0.5773502691896259
 40
0.5773502691896208
 41
5.645827290020687
 42
5.686403529957543
  0
LINE
  5
233
330
3E
100
AcDbEntity
  8
USP-GEO
100
AcDbLine
 10
13.57445846791629
 20
20.638861308088
 30
7.064402840171714
 11
13.52779180124962
 21
20.68552797475466
 31
7.157736173505048
  0
LINE
  5
234
330
3E
100
AcDbEntity
  8
USP-GEO
100
AcDbLine
 10
13.85353349506175
 20
20.77839882166073
 30
6.924865326598983
 11
13.77649598148902
 21
20.73988006487436
 31
6.963384083385349
  0
LINE
  5
235
330
3E
100
AcDbEntity
  8
USP-GEO
100
AcDbLine
 10
13.78982931482235
 20
20.76654673154103
 30
6.976717416718681
 11
13.77649598148902
 21
20.73988006487436
 31
6.963384083385349
  0
LINE
  5
236
330
3E
100
AcDbEntity
  8
USP-GEO
100
AcDbLine
 10
13.78982931482235
 20
20.76654673154103
 30
6.976717416718681
 11
13.84020016172841
 21
20.79173215499406
 31
6.951531993265649
  0
LINE
  5
237
330
3E
100
AcDbEntity
  8
USP-GEO
100
AcDbLine
 10
13.64649598148901
 20
20.74488006487436
 30
7.098384083385349
 11
13.80686682839508
 21
20.82506548832739
 31
7.018198659932317
  0
LINE
  5
238
330
3E
100
AcDbEntity
  8
USP-GEO
100
AcDbLine
 10
13.80686682839508
 20
20.8250654883274
 30
7.018198659932315
 11
13.85353349506175
 21
20.77839882166073
 31
6.924865326598983
  0
LINE
  5
239
330
3E
100
AcDbEntity
  8
USP-GEO
100
AcDbLine
 10
13.61612513458295
 20
20.59719464142133
 30
6.98106950683838
 11
13.69316264815568
 21
20.6357133982077
 31
6.942550750052014
  0
LINE
  5
23A
330
3E
100
AcDbEntity
  8
USP-GEO
100
AcDbLine
 10
13.67159349935412
 20
20.57492882380691
 30
6.903335324452795
 11
13.82786653227291
 21
20.65306534026631
 31
6.8251988079934
  0
LINE
  5
23B
330
3E
100
AcDbEntity
  8
USP-GEO
100
AcDbLine
 10
13.82316264815568
 20
20.63071339820769
 30
6.807550750052015
 11
13.66279180124962
 21
20.55052797475466
 31
6.887736173505047
  0
ELLIPSE
  5
23C
330
3E
100
AcDbEntity
  8
USP-GEO
100
AcDbEllipse
 10
14.38013486981219
 20
21.00294950903595
 30
6.622814639223758
 11
-0.7071067811865502
 21
-0.7071067811865449
 31
0.0000000000000055
210
0.577350269189626
220
-0.5773502691896258
230
0.5773502691896259
 40
0.5773502691896208
 41
5.645827290020696
 42
5.686403529957546
  0
LINE
  5
23D
330
3E
100
AcDbEntity
  8
USP-GEO
100
AcDbLine
 10
13.66279180124962
 20
20.55052797475466
 30
6.887736173505047
 11
13.61612513458295
 21
20.59719464142133
 31
6.98106950683838
  0
LINE
  5
23E
330
3E
100
AcDbEntity
  8
USP-GEO
100
AcDbLine
 10
13.94186682839508
 20
20.6900654883274
 30
6.748198659932315
 11
13.86482931482235
 21
20.65154673154103
 31
6.786717416718682
  0
LINE
  5
23F
330
3E
100
AcDbEntity
  8
USP-GEO
100
AcDbLine
 10
13.87816264815568
 20
20.67821339820769
 30
6.800050750052014
 11
13.86482931482235
 21
20.65154673154103
 31
6.786717416718682
  0
LINE
  5
240
330
3E
100
AcDbEntity
  8
USP-GEO
100
AcDbLine
 10
13.87816264815568
 20
20.67821339820769
 30
6.800050750052012
 11
13.92853349506175
 21
20.70339882166072
 31
6.774865326598977
  0
LINE
  5
241
330
3E
100
AcDbEntity
  8
USP-GEO
100
AcDbLine
 10
13.73482931482235
 20
20.65654673154103
 30
6.921717416718681
 11
13.89520016172841
 21
20.73673215499406
 31
6.841531993265649
  0
LINE
  5
242
330
3E
100
AcDbEntity
  8
USP-GEO
100
AcDbLine
 10
13.89520016172842
 20
20.73673215499406
 30
6.841531993265649
 11
13.94186682839508
 21
20.6900654883274
 31
6.748198659932315
  0
LINE
  5
243
330
3E
100
AcDbEntity
  8
USP-GEO
100
AcDbLine
 10
13.70445846791628
 20
20.508861308088
 30
6.804402840171714
 11
13.78149598148901
 21
20.54738006487436
 31
6.765884083385349
  0
LINE
  5
244
330
3E
100
AcDbEntity
  8
USP-GEO
100
AcDbLine
 10
13.75992683268745
 20
20.48659549047358
 30
6.726668657786127
 11
13.91619986560624
 21
20.56473200693297
 31
6.648532141326732
  0
LINE
  5
245
330
3E
100
AcDbEntity
  8
USP-GEO
100
AcDbLine
 10
13.91149598148901
 20
20.54238006487436
 30
6.630884083385346
 11
13.75112513458295
 21
20.46219464142132
 31
6.711069506838379
  0
ELLIPSE
  5
246
330
3E
100
AcDbEntity
  8
USP-GEO
100
AcDbEllipse
 10
14.46846820314552
 20
20.91461617570261
 30
6.44614797255709
 11
-0.7071067811865502
 21
-0.7071067811865449
 31
0.0000000000000055
210
0.577350269189626
220
-0.5773502691896258
230
0.5773502691896259
 40
0.5773502691896208
 41
5.645827290020688
 42
5.686403529957544
  0
LINE
  5
247
330
3E
100
AcDbEntity
  8
USP-GEO
100
AcDbLine
 10
13.75112513458295
 20
20.46219464142132
 30
6.711069506838379
 11
13.70445846791628
 21
20.508861308088
 31
6.804402840171711
  0
LINE
  5
248
330
3E
100
AcDbEntity
  8
USP-GEO
100
AcDbLine
 10
14.03020016172841
 20
20.60173215499406
 30
6.571531993265646
 11
13.95316264815568
 21
20.56321339820769
 31
6.610050750052013
  0
LINE
  5
249
330
3E
100
AcDbEntity
  8
USP-GEO
100
AcDbLine
 10
13.96649598148901
 20
20.58988006487436
 30
6.623384083385346
 11
13.95316264815568
 21
20.56321339820769
 31
6.610050750052012
  0
LINE
  5
24A
330
3E
100
AcDbEntity
  8
USP-GEO
100
AcDbLine
 10
13.96649598148901
 20
20.58988006487436
 30
6.623384083385346
 11
14.01686682839508
 21
20.61506548832739
 31
6.598198659932313
  0
LINE
  5
24B
330
3E
100
AcDbEntity
  8
USP-GEO
100
AcDbLine
 10
13.82316264815568
 20
20.56821339820769
 30
6.745050750052012
 11
13.98353349506174
 21
20.64839882166072
 31
6.66486532659898
  0
LINE
  5
24C
330
3E
100
AcDbEntity
  8
USP-GEO
100
AcDbLine
 10
13.98353349506174
 20
20.64839882166072
 30
6.664865326598979
 11
14.03020016172841
 21
20.60173215499406
 31
6.571531993265645
  0
LINE
  5
24D
330
3E
100
AcDbEntity
  8
USP-GEO
100
AcDbLine
 10
13.79279180124961
 20
20.42052797475466
 30
6.627736173505045
 11
13.86982931482235
 21
20.45904673154102
 31
6.58921741671868
  0
LINE
  5
24E
330
3E
100
AcDbEntity
  8
USP-GEO
100
AcDbLine
 10
13.84826016602078
 20
20.39826215714024
 30
6.550001991119462
 11
14.00453319893957
 21
20.47639867359964
 31
6.471865474660066
  0
LINE
  5
24F
330
3E
100
AcDbEntity
  8
USP-GEO
100
AcDbLine
 10
13.99982931482234
 20
20.45404673154102
 30
6.454217416718679
 11
13.83945846791628
 21
20.37386130808799
 31
6.534402840171711
  0
ELLIPSE
  5
250
330
3E
100
AcDbEntity
  8
USP-GEO
100
AcDbEllipse
 10
14.55680153647885
 20
20.82628284236928
 30
6.269481305890423
 11
-0.7071067811865502
 21
-0.7071067811865449
 31
0.0000000000000055
210
0.577350269189626
220
-0.5773502691896258
230
0.5773502691896259
 40
0.5773502691896208
 41
5.645827290020684
 42
5.686403529957543
  0
LINE
  5
251
330
3E
100
AcDbEntity
  8
USP-GEO
100
AcDbLine
 10
13.83945846791628
 20
20.37386130808799
 30
6.534402840171711
 11
13.79279180124961
 21
20.42052797475466
 31
6.627736173505044
  0
LINE
  5
252
330
3E
100
AcDbEntity
  8
USP-GEO
100
AcDbLine
 10
14.11853349506175
 20
20.51339882166073
 30
6.39486532659898
 11
14.04149598148901
 21
20.47488006487436
 31
6.433384083385345
  0
LINE
  5
253
330
3E
100
AcDbEntity
  8
USP-GEO
100
AcDbLine
 10
14.05482931482235
 20
20.50154673154102
 30
6.446717416718678
 11
14.04149598148901
 21
20.47488006487435
 31
6.433384083385345
  0
LINE
  5
254
330
3E
100
AcDbEntity
  8
USP-GEO
100
AcDbLine
 10
14.05482931482234
 20
20.50154673154102
 30
6.446717416718678
 11
14.10520016172841
 21
20.52673215499406
 31
6.421531993265645
  0
LINE
  5
255
330
3E
100
AcDbEntity
  8
USP-GEO
100
AcDbLine
 10
13.91149598148901
 20
20.47988006487436
 30
6.568384083385346
 11
14.07186682839508
 21
20.56006548832739
 31
6.488198659932314
  0
LINE
  5
256
330
3E
100
AcDbEntity
  8
USP-GEO
100
AcDbLine
 10
14.07186682839508
 20
20.56006548832739
 30
6.488198659932312
 11
14.11853349506175
 21
20.51339882166072
 31
6.39486532659898
  0
LINE
  5
257
330
3E
100
AcDbEntity
  8
USP-GEO
100
AcDbLine
 10
13.88112513458295
 20
20.33219464142133
 30
6.451069506838377
 11
13.95816264815568
 21
20.37071339820769
 31
6.412550750052012
  0
LINE
  5
258
330
3E
100
AcDbEntity
  8
USP-GEO
100
AcDbLine
 10
13.93659349935411
 20
20.30992882380691
 30
6.373335324452793
 11
14.0928665322729
 21
20.3880653402663
 31
6.295198807993398
  0
LINE
  5
259
330
3E
100
AcDbEntity
  8
USP-GEO
100
AcDbLine
 10
14.08816264815568
 20
20.36571339820769
 30
6.277550750052012
 11
13.92779180124961
 21
20.28552797475466
 31
6.357736173505045
  0
ELLIPSE
  5
25A
330
3E
100
AcDbEntity
  8
USP-GEO
100
AcDbEllipse
 10
14.64513486981218
 20
20.73794950903594
 30
6.092814639223753
 11
-0.7071067811865502
 21
-0.7071067811865449
 31
0.0000000000000055
210
0.577350269189626
220
-0.5773502691896258
230
0.5773502691896259
 40
0.5773502691896208
 41
5.64582729002068
 42
5.686403529957543
  0
LINE
  5
25B
330
3E
100
AcDbEntity
  8
USP-GEO
100
AcDbLine
 10
13.92779180124962
 20
20.28552797475466
 30
6.357736173505042
 11
13.88112513458295
 21
20.33219464142133
 31
6.451069506838376
  0
LINE
  5
25C
330
3E
100
AcDbEntity
  8
USP-GEO
100
AcDbLine
 10
14.20686682839508
 20
20.42506548832738
 30
6.21819865993231
 11
14.12982931482234
 21
20.38654673154102
 31
6.256717416718677
  0
LINE
  5
25D
330
3E
100
AcDbEntity
  8
USP-GEO
100
AcDbLine
 10
14.14316264815568
 20
20.41321339820769
 30
6.270050750052011
 11
14.12982931482234
 21
20.38654673154102
 31
6.256717416718677
  0
LINE
  5
25E
330
3E
100
AcDbEntity
  8
USP-GEO
100
AcDbLine
 10
14.14316264815568
 20
20.41321339820769
 30
6.270050750052012
 11
14.19353349506174
 21
20.43839882166072
 31
6.244865326598979
  0
LINE
  5
25F
330
3E
100
AcDbEntity
  8
USP-GEO
100
AcDbLine
 10
13.99982931482234
 20
20.39154673154103
 30
6.391717416718678
 11
14.16020016172841
 21
20.47173215499406
 31
6.311531993265646
  0
LINE
  5
260
330
3E
100
AcDbEntity
  8
USP-GEO
100
AcDbLine
 10
14.16020016172841
 20
20.47173215499405
 30
6.311531993265644
 11
14.20686682839508
 21
20.42506548832738
 31
6.21819865993231
  0
LINE
  5
261
330
3E
100
AcDbEntity
  8
USP-GEO
100
AcDbLine
 10
13.96945846791628
 20
20.24386130808799
 30
6.27440284017171
 11
14.04649598148901
 21
20.28238006487435
 31
6.235884083385343
  0
LINE
  5
262
330
3E
100
AcDbEntity
  8
USP-GEO
100
AcDbLine
 10
14.02492683268745
 20
20.22159549047358
 30
6.196668657786126
 11
14.18119986560624
 21
20.29973200693297
 31
6.118532141326729
  0
LINE
  5
263
330
3E
100
AcDbEntity
  8
USP-GEO
100
AcDbLine
 10
14.17649598148901
 20
20.27738006487435
 30
6.100884083385343
 11
14.01612513458295
 21
20.19719464142132
 31
6.181069506838374
  0
ELLIPSE
  5
264
330
3E
100
AcDbEntity
  8
USP-GEO
100
AcDbEllipse
 10
14.73346820314552
 20
20.64961617570261
 30
5.916147972557087
 11
-0.7071067811865502
 21
-0.7071067811865449
 31
0.0000000000000055
210
0.577350269189626
220
-0.5773502691896258
230
0.5773502691896259
 40
0.5773502691896208
 41
5.645827290020688
 42
5.686403529957548
  0
LINE
  5
265
330
3E
100
AcDbEntity
  8
USP-GEO
100
AcDbLine
 10
14.01612513458295
 20
20.19719464142132
 30
6.181069506838376
 11
13.96945846791628
 21
20.24386130808799
 31
6.27440284017171
  0
LINE
  5
266
330
3E
100
AcDbEntity
  8
USP-GEO
100
AcDbLine
 10
14.29520016172841
 20
20.33673215499405
 30
6.041531993265644
 11
14.21816264815568
 21
20.29821339820768
 31
6.080050750052011
  0
LINE
  5
267
330
3E
100
AcDbEntity
  8
USP-GEO
100
AcDbLine
 10
14.23149598148901
 20
20.32488006487435
 30
6.093384083385343
 11
14.21816264815568
 21
20.29821339820768
 31
6.08005075005201
  0
LINE
  5
268
330
3E
100
AcDbEntity
  8
USP-GEO
100
AcDbLine
 10
14.23149598148901
 20
20.32488006487435
 30
6.093384083385343
 11
14.28186682839507
 21
20.35006548832738
 31
6.06819865993231
  0
LINE
  5
269
330
3E
100
AcDbEntity
  8
USP-GEO
100
AcDbLine
 10
14.08816264815567
 20
20.30321339820769
 30
6.215050750052011
 11
14.24853349506174
 21
20.38339882166072
 31
6.134865326598978
  0
LINE
  5
26A
330
3E
100
AcDbEntity
  8
USP-GEO
100
AcDbLine
 10
14.24853349506174
 20
20.38339882166072
 30
6.134865326598978
 11
14.29520016172841
 21
20.33673215499405
 31
6.041531993265644
  0
LINE
  5
26B
330
3E
100
AcDbEntity
  8
USP-GEO
100
AcDbLine
 10
13.75779180124962
 20
21.33052797475467
 30
7.572736173505049
 11
13.80346113604918
 21
21.35336264215445
 31
7.549901506105266
  0
LINE
  5
26C
330
3E
100
AcDbEntity
  8
USP-GEO
100
AcDbLine
 10
13.81326016602079
 20
21.30826215714025
 30
7.495001991119464
 11
13.83679446938252
 21
21.32002930882112
 31
7.483234839438599
  0
LINE
  5
26D
330
3E
100
AcDbEntity
  8
USP-GEO
100
AcDbLine
 10
13.85012780271585
 20
21.30669597548779
 30
7.456568172771932
 11
13.80445846791628
 21
21.28386130808801
 31
7.479402840171716
  0
ELLIPSE
  5
26E
330
3E
100
AcDbEntity
  8
USP-GEO
100
AcDbEllipse
 10
14.52180153647885
 20
21.73628284236929
 30
7.214481305890429
 11
-0.7071067811865502
 21
-0.7071067811865449
 31
0.0000000000000055
210
0.577350269189626
220
-0.5773502691896258
230
0.5773502691896259
 40
0.5773502691896208
 41
5.645827290020688
 42
5.686403529957547
  0
LINE
  5
26F
330
3E
100
AcDbEntity
  8
USP-GEO
100
AcDbLine
 10
13.80445846791628
 20
21.28386130808801
 30
7.479402840171716
 11
13.75779180124962
 21
21.33052797475467
 31
7.572736173505049
  0
LINE
  5
270
330
3E
100
AcDbEntity
  8
USP-GEO
100
AcDbLine
 10
13.84612513458295
 20
21.24219464142134
 30
7.396069506838383
 11
13.89179446938252
 21
21.26502930882112
 31
7.373234839438598
  0
LINE
  5
271
330
3E
100
AcDbEntity
  8
USP-GEO
100
AcDbLine
 10
13.90159349935412
 20
21.21992882380692
 30
7.318335324452798
 11
13.92512780271586
 21
21.23169597548779
 31
7.30656817277193
  0
LINE
  5
272
330
3E
100
AcDbEntity
  8
USP-GEO
100
AcDbLine
 10
13.93846113604919
 20
21.21836264215446
 30
7.279901506105263
 11
13.89279180124962
 21
21.19552797475467
 31
7.302736173505049
  0
ELLIPSE
  5
273
330
3E
100
AcDbEntity
  8
USP-GEO
100
AcDbEllipse
 10
14.61013486981219
 20
21.64794950903595
 30
7.037814639223762
 11
-0.7071067811865502
 21
-0.7071067811865449
 31
0.0000000000000055
210
0.577350269189626
220
-0.5773502691896258
230
0.5773502691896259
 40
0.5773502691896208
 41
5.645827290020688
 42
5.686403529957543
  0
LINE
  5
274
330
3E
100
AcDbEntity
  8
USP-GEO
100
AcDbLine
 10
13.89279180124962
 20
21.19552797475467
 30
7.302736173505048
 11
13.84612513458295
 21
21.24219464142134
 31
7.396069506838383
  0
LINE
  5
275
330
3E
100
AcDbEntity
  8
USP-GEO
100
AcDbLine
 10
13.93445846791629
 20
21.153861308088
 30
7.219402840171715
 11
13.98012780271586
 21
21.17669597548779
 31
7.19656817277193
  0
LINE
  5
276
330
3E
100
AcDbEntity
  8
USP-GEO
100
AcDbLine
 10
13.98992683268745
 20
21.13159549047358
 30
7.141668657786131
 11
14.01346113604919
 21
21.14336264215445
 31
7.129901506105261
  0
LINE
  5
277
330
3E
100
AcDbEntity
  8
USP-GEO
100
AcDbLine
 10
14.02679446938253
 20
21.13002930882112
 30
7.103234839438592
 11
13.98112513458295
 21
21.10719464142133
 31
7.12606950683838
  0
ELLIPSE
  5
278
330
3E
100
AcDbEntity
  8
USP-GEO
100
AcDbEllipse
 10
14.69846820314552
 20
21.55961617570262
 30
6.861147972557093
 11
-0.7071067811865502
 21
-0.7071067811865449
 31
0.0000000000000055
210
0.577350269189626
220
-0.5773502691896258
230
0.5773502691896259
 40
0.5773502691896208
 41
5.64582729002068
 42
5.686403529957543
  0
LINE
  5
279
330
3E
100
AcDbEntity
  8
USP-GEO
100
AcDbLine
 10
13.98112513458295
 20
21.10719464142133
 30
7.12606950683838
 11
13.93445846791628
 21
21.153861308088
 31
7.219402840171714
  0
LINE
  5
27A
330
3E
100
AcDbEntity
  8
USP-GEO
100
AcDbLine
 10
14.02279180124962
 20
21.06552797475466
 30
7.042736173505048
 11
14.06846113604919
 21
21.08836264215445
 31
7.01990150610526
  0
LINE
  5
27B
330
3E
100
AcDbEntity
  8
USP-GEO
100
AcDbLine
 10
14.07826016602079
 20
21.04326215714025
 30
6.965001991119462
 11
14.10179446938253
 21
21.05502930882112
 31
6.953234839438591
  0
LINE
  5
27C
330
3E
100
AcDbEntity
  8
USP-GEO
100
AcDbLine
 10
14.11512780271586
 20
21.04169597548779
 30
6.926568172771926
 11
14.06945846791628
 21
21.018861308088
 31
6.949402840171714
  0
ELLIPSE
  5
27D
330
3E
100
AcDbEntity
  8
USP-GEO
100
AcDbEllipse
 10
14.78680153647885
 20
21.47128284236928
 30
6.684481305890427
 11
-0.7071067811865502
 21
-0.7071067811865449
 31
0.0000000000000055
210
0.577350269189626
220
-0.5773502691896258
230
0.5773502691896259
 40
0.5773502691896208
 41
5.645827290020683
 42
5.686403529957543
  0
LINE
  5
27E
330
3E
100
AcDbEntity
  8
USP-GEO
100
AcDbLine
 10
14.06945846791628
 20
21.018861308088
 30
6.949402840171714
 11
14.02279180124962
 21
21.06552797475466
 31
7.042736173505048
  0
LINE
  5
27F
330
3E
100
AcDbEntity
  8
USP-GEO
100
AcDbLine
 10
14.11112513458295
 20
20.97719464142133
 30
6.86606950683838
 11
14.15679446938253
 21
21.00002930882112
 31
6.84323483943859
  0
LINE
  5
280
330
3E
100
AcDbEntity
  8
USP-GEO
100
AcDbLine
 10
14.16659349935412
 20
20.95492882380691
 30
6.788335324452797
 11
14.19012780271587
 21
20.96669597548779
 31
6.776568172771923
  0
LINE
  5
281
330
3E
100
AcDbEntity
  8
USP-GEO
100
AcDbLine
 10
14.2034611360492
 20
20.95336264215445
 30
6.749901506105256
 11
14.15779180124962
 21
20.93052797475466
 31
6.772736173505048
  0
ELLIPSE
  5
282
330
3E
100
AcDbEntity
  8
USP-GEO
100
AcDbEllipse
 10
14.87513486981219
 20
21.38294950903595
 30
6.507814639223759
 11
-0.7071067811865502
 21
-0.7071067811865449
 31
0.0000000000000055
210
0.577350269189626
220
-0.5773502691896258
230
0.5773502691896259
 40
0.5773502691896208
 41
5.645827290020687
 42
5.686403529957543
  0
LINE
  5
283
330
3E
100
AcDbEntity
  8
USP-GEO
100
AcDbLine
 10
14.15779180124962
 20
20.93052797475467
 30
6.772736173505047
 11
14.11112513458295
 21
20.97719464142133
 31
6.86606950683838
  0
LINE
  5
284
330
3E
100
AcDbEntity
  8
USP-GEO
100
AcDbLine
 10
14.19945846791628
 20
20.888861308088
 30
6.689402840171713
 11
14.24512780271587
 21
20.91169597548779
 31
6.666568172771922
  0
LINE
  5
285
330
3E
100
AcDbEntity
  8
USP-GEO
100
AcDbLine
 10
14.25492683268745
 20
20.86659549047358
 30
6.611668657786129
 11
14.2784611360492
 21
20.87836264215445
 31
6.599901506105255
  0
LINE
  5
286
330
3E
100
AcDbEntity
  8
USP-GEO
100
AcDbLine
 10
14.29179446938254
 20
20.86502930882112
 30
6.573234839438589
 11
14.24612513458295
 21
20.84219464142133
 31
6.596069506838381
  0
ELLIPSE
  5
287
330
3E
100
AcDbEntity
  8
USP-GEO
100
AcDbEllipse
 10
14.96346820314552
 20
21.29461617570262
 30
6.331147972557093
 11
-0.7071067811865502
 21
-0.7071067811865449
 31
0.0000000000000055
210
0.577350269189626
220
-0.5773502691896258
230
0.5773502691896259
 40
0.5773502691896208
 41
5.645827290020685
 42
5.686403529957546
  0
LINE
  5
288
330
3E
100
AcDbEntity
  8
USP-GEO
100
AcDbLine
 10
14.24612513458295
 20
20.84219464142133
 30
6.596069506838381
 11
14.19945846791628
 21
20.888861308088
 31
6.689402840171713
  0
LINE
  5
289
330
3E
100
AcDbEntity
  8
USP-GEO
100
AcDbLine
 10
14.28779180124961
 20
20.80052797475466
 30
6.512736173505044
 11
14.3334611360492
 21
20.82336264215445
 31
6.489901506105249
  0
LINE
  5
28A
330
3E
100
AcDbEntity
  8
USP-GEO
100
AcDbLine
 10
14.34326016602078
 20
20.77826215714024
 30
6.43500199111946
 11
14.36679446938254
 21
20.79002930882112
 31
6.423234839438582
  0
LINE
  5
28B
330
3E
100
AcDbEntity
  8
USP-GEO
100
AcDbLine
 10
14.38012780271587
 20
20.77669597548779
 30
6.396568172771916
 11
14.33445846791628
 21
20.75386130808799
 31
6.419402840171711
  0
ELLIPSE
  5
28C
330
3E
100
AcDbEntity
  8
USP-GEO
100
AcDbEllipse
 10
15.05180153647885
 20
21.20628284236928
 30
6.154481305890425
 11
-0.7071067811865502
 21
-0.7071067811865449
 31
0.0000000000000055
210
0.577350269189626
220
-0.5773502691896258
230
0.5773502691896259
 40
0.5773502691896208
 41
5.645827290020685
 42
5.686403529957545
  0
LINE
  5
28D
330
3E
100
AcDbEntity
  8
USP-GEO
100
AcDbLine
 10
14.33445846791628
 20
20.75386130808799
 30
6.419402840171712
 11
14.28779180124961
 21
20.80052797475466
 31
6.512736173505045
  0
LINE
  5
28E
330
3E
100
AcDbEntity
  8
USP-GEO
100
AcDbLine
 10
14.37612513458295
 20
20.71219464142133
 30
6.336069506838379
 11
14.42179446938254
 21
20.73502930882112
 31
6.313234839438584
  0
LINE
  5
28F
330
3E
100
AcDbEntity
  8
USP-GEO
100
AcDbLine
 10
14.43159349935412
 20
20.68992882380691
 30
6.258335324452794
 11
14.45512780271587
 21
20.70169597548779
 31
6.246568172771915
  0
LINE
  5
290
330
3E
100
AcDbEntity
  8
USP-GEO
100
AcDbLine
 10
14.46846113604921
 20
20.68836264215446
 30
6.219901506105248
 11
14.42279180124961
 21
20.66552797475466
 31
6.242736173505044
  0
ELLIPSE
  5
291
330
3E
100
AcDbEntity
  8
USP-GEO
100
AcDbEllipse
 10
15.14013486981219
 20
21.11794950903595
 30
5.977814639223757
 11
-0.7071067811865502
 21
-0.7071067811865449
 31
0.0000000000000055
210
0.577350269189626
220
-0.5773502691896258
230
0.5773502691896259
 40
0.5773502691896208
 41
5.645827290020688
 42
5.686403529957544
  0
LINE
  5
292
330
3E
100
AcDbEntity
  8
USP-GEO
100
AcDbLine
 10
14.42279180124961
 20
20.66552797475466
 30
6.242736173505045
 11
14.37612513458295
 21
20.71219464142133
 31
6.336069506838377
  0
LINE
  5
293
330
3E
100
AcDbEntity
  8
USP-GEO
100
AcDbLine
 10
14.46445846791628
 20
20.62386130808799
 30
6.159402840171711
 11
14.51012780271587
 21
20.64669597548779
 31
6.136568172771916
  0
LINE
  5
294
330
3E
100
AcDbEntity
  8
USP-GEO
100
AcDbLine
 10
14.51992683268745
 20
20.60159549047357
 30
6.081668657786126
 11
14.54346113604921
 21
20.61336264215446
 31
6.069901506105246
  0
LINE
  5
295
330
3E
100
AcDbEntity
  8
USP-GEO
100
AcDbLine
 10
14.55679446938254
 20
20.60002930882112
 30
6.043234839438582
 11
14.51112513458295
 21
20.57719464142133
 31
6.066069506838378
  0
ELLIPSE
  5
296
330
3E
100
AcDbEntity
  8
USP-GEO
100
AcDbEllipse
 10
15.22846820314552
 20
21.02961617570261
 30
5.801147972557091
 11
-0.7071067811865502
 21
-0.7071067811865449
 31
0.0000000000000055
210
0.577350269189626
220
-0.5773502691896258
230
0.5773502691896259
 40
0.5773502691896208
 41
5.645827290020688
 42
5.686403529957551
  0
LINE
  5
297
330
3E
100
AcDbEntity
  8
USP-GEO
100
AcDbLine
 10
14.51112513458295
 20
20.57719464142133
 30
6.066069506838378
 11
14.46445846791628
 21
20.62386130808799
 31
6.159402840171711
  0
LINE
  5
298
330
3E
100
AcDbEntity
  8
USP-GEO
100
AcDbLine
 10
14.55279180124961
 20
20.53552797475465
 30
5.982736173505043
 11
14.59846113604921
 21
20.55836264215445
 31
5.959901506105245
  0
LINE
  5
299
330
3E
100
AcDbEntity
  8
USP-GEO
100
AcDbLine
 10
14.60826016602078
 20
20.51326215714024
 30
5.90500199111946
 11
14.63179446938254
 21
20.52502930882112
 31
5.89323483943858
  0
LINE
  5
29A
330
3E
100
AcDbEntity
  8
USP-GEO
100
AcDbLine
 10
14.64512780271588
 20
20.51169597548779
 30
5.866568172771908
 11
14.59945846791628
 21
20.48886130808799
 31
5.889402840171708
  0
ELLIPSE
  5
29B
330
3E
100
AcDbEntity
  8
USP-GEO
100
AcDbEllipse
 10
15.31680153647885
 20
20.94128284236927
 30
5.624481305890421
 11
-0.7071067811865502
 21
-0.7071067811865449
 31
0.0000000000000055
210
0.577350269189626
220
-0.5773502691896258
230
0.5773502691896259
 40
0.5773502691896208
 41
5.645827290020679
 42
5.686403529957544
  0
LINE
  5
29C
330
3E
100
AcDbEntity
  8
USP-GEO
100
AcDbLine
 10
14.59945846791628
 20
20.48886130808799
 30
5.889402840171708
 11
14.55279180124961
 21
20.53552797475465
 31
5.982736173505042
  0
LINE
  5
29D
330
3E
100
AcDbEntity
  8
USP-GEO
100
AcDbLine
 10
11.42445846791629
 20
20.163861308088
 30
8.739402840171717
 11
11.50149598148902
 21
20.20238006487437
 31
8.70088408338535
  0
LINE
  5
29E
330
3E
100
AcDbEntity
  8
USP-GEO
100
AcDbLine
 10
11.47992683268745
 20
20.14159549047358
 30
8.66166865778613
 11
11.63619986560624
 21
20.21973200693298
 31
8.583532141326736
  0
LINE
  5
29F
330
3E
100
AcDbEntity
  8
USP-GEO
100
AcDbLine
 10
11.63149598148902
 20
20.19738006487437
 30
8.56588408338535
 11
11.47112513458295
 21
20.11719464142133
 31
8.646069506838383
  0
ELLIPSE
  5
2A0
330
3E
100
AcDbEntity
  8
USP-GEO
100
AcDbEllipse
 10
12.18846820314552
 20
20.56961617570262
 30
8.381147972557094
 11
-0.7071067811865502
 21
-0.7071067811865449
 31
0.0000000000000055
210
0.577350269189626
220
-0.5773502691896258
230
0.5773502691896259
 40
0.5773502691896208
 41
5.645827290020688
 42
5.686403529957546
  0
LINE
  5
2A1
330
3E
100
AcDbEntity
  8
USP-GEO
100
AcDbLine
 10
11.47112513458295
 20
20.11719464142133
 30
8.646069506838383
 11
11.42445846791629
 21
20.163861308088
 31
8.739402840171717
  0
LINE
  5
2A2
330
3E
100
AcDbEntity
  8
USP-GEO
100
AcDbLine
 10
11.75020016172841
 20
20.25673215499407
 30
8.506531993265653
 11
11.67316264815568
 21
20.2182133982077
 31
8.545050750052016
  0
LINE
  5
2A3
330
3E
100
AcDbEntity
  8
USP-GEO
100
AcDbLine
 10
11.68649598148902
 20
20.24488006487437
 30
8.55838408338535
 11
11.67316264815568
 21
20.2182133982077
 31
8.545050750052016
  0
LINE
  5
2A4
330
3E
100
AcDbEntity
  8
USP-GEO
100
AcDbLine
 10
11.68649598148902
 20
20.24488006487437
 30
8.558384083385348
 11
11.73686682839508
 21
20.2700654883274
 31
8.533198659932317
  0
LINE
  5
2A5
330
3E
100
AcDbEntity
  8
USP-GEO
100
AcDbLine
 10
11.54316264815568
 20
20.2232133982077
 30
8.680050750052018
 11
11.70353349506175
 21
20.30339882166073
 31
8.599865326598985
  0
LINE
  5
2A6
330
3E
100
AcDbEntity
  8
USP-GEO
100
AcDbLine
 10
11.70353349506175
 20
20.30339882166073
 30
8.599865326598985
 11
11.75020016172841
 21
20.25673215499407
 31
8.506531993265651
  0
LINE
  5
2A7
330
3E
100
AcDbEntity
  8
USP-GEO
100
AcDbLine
 10
11.51279180124962
 20
20.07552797475467
 30
8.562736173505049
 11
11.58982931482235
 21
20.11404673154103
 31
8.524217416718684
  0
LINE
  5
2A8
330
3E
100
AcDbEntity
  8
USP-GEO
100
AcDbLine
 10
11.56826016602079
 20
20.05326215714025
 30
8.485001991119464
 11
11.72453319893958
 21
20.13139867359964
 31
8.406865474660069
  0
LINE
  5
2A9
330
3E
100
AcDbEntity
  8
USP-GEO
100
AcDbLine
 10
11.71982931482235
 20
20.10904673154103
 30
8.389217416718683
 11
11.55945846791629
 21
20.028861308088
 31
8.469402840171714
  0
ELLIPSE
  5
2AA
330
3E
100
AcDbEntity
  8
USP-GEO
100
AcDbEllipse
 10
12.27680153647885
 20
20.48128284236928
 30
8.204481305890425
 11
-0.7071067811865502
 21
-0.7071067811865449
 31
0.0000000000000055
210
0.577350269189626
220
-0.5773502691896258
230
0.5773502691896259
 40
0.5773502691896208
 41
5.64582729002068
 42
5.686403529957543
  0
LINE
  5
2AB
330
3E
100
AcDbEntity
  8
USP-GEO
100
AcDbLine
 10
11.55945846791629
 20
20.028861308088
 30
8.469402840171714
 11
11.51279180124962
 21
20.07552797475467
 31
8.562736173505049
  0
LINE
  5
2AC
330
3E
100
AcDbEntity
  8
USP-GEO
100
AcDbLine
 10
11.83853349506175
 20
20.16839882166073
 30
8.329865326598985
 11
11.76149598148902
 21
20.12988006487437
 31
8.36838408338535
  0
LINE
  5
2AD
330
3E
100
AcDbEntity
  8
USP-GEO
100
AcDbLine
 10
11.77482931482235
 20
20.15654673154103
 30
8.381717416718682
 11
11.76149598148901
 21
20.12988006487436
 31
8.368384083385347
  0
LINE
  5
2AE
330
3E
100
AcDbEntity
  8
USP-GEO
100
AcDbLine
 10
11.77482931482235
 20
20.15654673154103
 30
8.381717416718682
 11
11.82520016172841
 21
20.18173215499406
 31
8.356531993265651
  0
LINE
  5
2AF
330
3E
100
AcDbEntity
  8
USP-GEO
100
AcDbLine
 10
11.63149598148902
 20
20.13488006487436
 30
8.50338408338535
 11
11.79186682839508
 21
20.2150654883274
 31
8.423198659932317
  0
LINE
  5
2B0
330
3E
100
AcDbEntity
  8
USP-GEO
100
AcDbLine
 10
11.79186682839508
 20
20.21506548832739
 30
8.423198659932314
 11
11.83853349506175
 21
20.16839882166073
 31
8.32986532659898
  0
LINE
  5
2B1
330
3E
100
AcDbEntity
  8
USP-GEO
100
AcDbLine
 10
11.60112513458295
 20
19.98719464142133
 30
8.38606950683838
 11
11.67816264815568
 21
20.02571339820769
 31
8.347550750052015
  0
LINE
  5
2B2
330
3E
100
AcDbEntity
  8
USP-GEO
100
AcDbLine
 10
11.65659349935412
 20
19.96492882380691
 30
8.308335324452796
 11
11.81286653227291
 21
20.04306534026631
 31
8.230198807993401
  0
LINE
  5
2B3
330
3E
100
AcDbEntity
  8
USP-GEO
100
AcDbLine
 10
11.80816264815568
 20
20.02071339820769
 30
8.212550750052015
 11
11.64779180124962
 21
19.94052797475466
 31
8.292736173505046
  0
ELLIPSE
  5
2B4
330
3E
100
AcDbEntity
  8
USP-GEO
100
AcDbEllipse
 10
12.36513486981219
 20
20.39294950903595
 30
8.027814639223757
 11
-0.7071067811865502
 21
-0.7071067811865449
 31
0.0000000000000055
210
0.577350269189626
220
-0.5773502691896258
230
0.5773502691896259
 40
0.5773502691896208
 41
5.645827290020679
 42
5.686403529957543
  0
LINE
  5
2B5
330
3E
100
AcDbEntity
  8
USP-GEO
100
AcDbLine
 10
11.64779180124962
 20
19.94052797475466
 30
8.292736173505046
 11
11.60112513458295
 21
19.98719464142133
 31
8.38606950683838
  0
LINE
  5
2B6
330
3E
100
AcDbEntity
  8
USP-GEO
100
AcDbLine
 10
11.92686682839508
 20
20.08006548832739
 30
8.153198659932314
 11
11.84982931482235
 21
20.04154673154102
 31
8.191717416718681
  0
LINE
  5
2B7
330
3E
100
AcDbEntity
  8
USP-GEO
100
AcDbLine
 10
11.86316264815568
 20
20.0682133982077
 30
8.205050750052015
 11
11.84982931482235
 21
20.04154673154102
 31
8.191717416718681
  0
LINE
  5
2B8
330
3E
100
AcDbEntity
  8
USP-GEO
100
AcDbLine
 10
11.86316264815568
 20
20.0682133982077
 30
8.205050750052015
 11
11.91353349506174
 21
20.09339882166073
 31
8.179865326598985
  0
LINE
  5
2B9
330
3E
100
AcDbEntity
  8
USP-GEO
100
AcDbLine
 10
11.71982931482235
 20
20.04654673154103
 30
8.326717416718683
 11
11.88020016172841
 21
20.12673215499406
 31
8.246531993265648
  0
LINE
  5
2BA
330
3E
100
AcDbEntity
  8
USP-GEO
100
AcDbLine
 10
11.88020016172841
 20
20.12673215499406
 30
8.246531993265648
 11
11.92686682839508
 21
20.08006548832739
 31
8.153198659932314
  0
LINE
  5
2BB
330
3E
100
AcDbEntity
  8
USP-GEO
100
AcDbLine
 10
11.68945846791628
 20
19.89886130808799
 30
8.209402840171714
 11
11.76649598148902
 21
19.93738006487436
 31
8.170884083385349
  0
LINE
  5
2BC
330
3E
100
AcDbEntity
  8
USP-GEO
100
AcDbLine
 10
11.74492683268745
 20
19.87659549047357
 30
8.13166865778613
 11
11.90119986560624
 21
19.95473200693297
 31
8.053532141326734
  0
LINE
  5
2BD
330
3E
100
AcDbEntity
  8
USP-GEO
100
AcDbLine
 10
11.89649598148902
 20
19.93238006487436
 30
8.035884083385347
 11
11.73612513458295
 21
19.85219464142133
 31
8.11606950683838
  0
ELLIPSE
  5
2BE
330
3E
100
AcDbEntity
  8
USP-GEO
100
AcDbEllipse
 10
12.45346820314552
 20
20.30461617570261
 30
7.851147972557093
 11
-0.7071067811865502
 21
-0.7071067811865449
 31
0.0000000000000055
210
0.577350269189626
220
-0.5773502691896258
230
0.5773502691896259
 40
0.5773502691896208
 41
5.645827290020686
 42
5.686403529957544
  0
LINE
  5
2BF
330
3E
100
AcDbEntity
  8
USP-GEO
100
AcDbLine
 10
11.73612513458295
 20
19.85219464142133
 30
8.11606950683838
 11
11.68945846791628
 21
19.89886130808799
 31
8.209402840171714
  0
LINE
  5
2C0
330
3E
100
AcDbEntity
  8
USP-GEO
100
AcDbLine
 10
12.01520016172841
 20
19.99173215499406
 30
7.976531993265649
 11
11.93816264815568
 21
19.95321339820769
 31
8.015050750052015
  0
LINE
  5
2C1
330
3E
100
AcDbEntity
  8
USP-GEO
100
AcDbLine
 10
11.95149598148901
 20
19.97988006487436
 30
8.028384083385347
 11
11.93816264815568
 21
19.95321339820769
 31
8.015050750052015
  0
LINE
  5
2C2
330
3E
100
AcDbEntity
  8
USP-GEO
100
AcDbLine
 10
11.95149598148901
 20
19.97988006487436
 30
8.028384083385347
 11
12.00186682839508
 21
20.00506548832739
 31
8.003198659932314
  0
LINE
  5
2C3
330
3E
100
AcDbEntity
  8
USP-GEO
100
AcDbLine
 10
11.80816264815568
 20
19.95821339820769
 30
8.150050750052015
 11
11.96853349506175
 21
20.03839882166073
 31
8.069865326598984
  0
LINE
  5
2C4
330
3E
100
AcDbEntity
  8
USP-GEO
100
AcDbLine
 10
11.96853349506175
 20
20.03839882166073
 30
8.069865326598982
 11
12.01520016172841
 21
19.99173215499406
 31
7.976531993265648
  0
LINE
  5
2C5
330
3E
100
AcDbEntity
  8
USP-GEO
100
AcDbLine
 10
11.77779180124962
 20
19.81052797475466
 30
8.032736173505046
 11
11.85482931482235
 21
19.84904673154102
 31
7.994217416718681
  0
LINE
  5
2C6
330
3E
100
AcDbEntity
  8
USP-GEO
100
AcDbLine
 10
11.83326016602078
 20
19.78826215714024
 30
7.955001991119463
 11
11.98953319893957
 21
19.86639867359964
 31
7.876865474660068
  0
LINE
  5
2C7
330
3E
100
AcDbEntity
  8
USP-GEO
100
AcDbLine
 10
11.98482931482235
 20
19.84404673154102
 30
7.859217416718681
 11
11.82445846791629
 21
19.76386130808799
 31
7.939402840171712
  0
ELLIPSE
  5
2C8
330
3E
100
AcDbEntity
  8
USP-GEO
100
AcDbEllipse
 10
12.54180153647886
 20
20.21628284236928
 30
7.674481305890425
 11
-0.7071067811865502
 21
-0.7071067811865449
 31
0.0000000000000055
210
0.577350269189626
220
-0.5773502691896258
230
0.5773502691896259
 40
0.5773502691896208
 41
5.645827290020686
 42
5.686403529957543
  0
LINE
  5
2C9
330
3E
100
AcDbEntity
  8
USP-GEO
100
AcDbLine
 10
11.82445846791629
 20
19.76386130808799
 30
7.939402840171714
 11
11.77779180124962
 21
19.81052797475466
 31
8.032736173505046
  0
LINE
  5
2CA
330
3E
100
AcDbEntity
  8
USP-GEO
100
AcDbLine
 10
12.10353349506175
 20
19.90339882166072
 30
7.799865326598983
 11
12.02649598148902
 21
19.86488006487436
 31
7.838384083385347
  0
LINE
  5
2CB
330
3E
100
AcDbEntity
  8
USP-GEO
100
AcDbLine
 10
12.03982931482235
 20
19.89154673154103
 30
7.851717416718681
 11
12.02649598148902
 21
19.86488006487436
 31
7.838384083385347
  0
LINE
  5
2CC
330
3E
100
AcDbEntity
  8
USP-GEO
100
AcDbLine
 10
12.03982931482235
 20
19.89154673154103
 30
7.851717416718681
 11
12.09020016172841
 21
19.91673215499406
 31
7.82653199326565
  0
LINE
  5
2CD
330
3E
100
AcDbEntity
  8
USP-GEO
100
AcDbLine
 10
11.89649598148902
 20
19.86988006487436
 30
7.973384083385348
 11
12.05686682839508
 21
19.95006548832739
 31
7.893198659932315
  0
LINE
  5
2CE
330
3E
100
AcDbEntity
  8
USP-GEO
100
AcDbLine
 10
12.05686682839508
 20
19.95006548832739
 30
7.893198659932315
 11
12.10353349506175
 21
19.90339882166072
 31
7.799865326598983
  0
LINE
  5
2CF
330
3E
100
AcDbEntity
  8
USP-GEO
100
AcDbLine
 10
11.86612513458295
 20
19.72219464142133
 30
7.856069506838379
 11
11.94316264815568
 21
19.76071339820769
 31
7.817550750052014
  0
LINE
  5
2D0
330
3E
100
AcDbEntity
  8
USP-GEO
100
AcDbLine
 10
11.92159349935412
 20
19.6999288238069
 30
7.778335324452792
 11
12.07786653227291
 21
19.7780653402663
 31
7.700198807993396
  0
LINE
  5
2D1
330
3E
100
AcDbEntity
  8
USP-GEO
100
AcDbLine
 10
12.07316264815568
 20
19.75571339820769
 30
7.682550750052015
 11
11.91279180124962
 21
19.67552797475466
 31
7.762736173505047
  0
ELLIPSE
  5
2D2
330
3E
100
AcDbEntity
  8
USP-GEO
100
AcDbEllipse
 10
12.63013486981219
 20
20.12794950903595
 30
7.497814639223757
 11
-0.7071067811865502
 21
-0.7071067811865449
 31
0.0000000000000055
210
0.577350269189626
220
-0.5773502691896258
230
0.5773502691896259
 40
0.5773502691896208
 41
5.645827290020696
 42
5.686403529957554
  0
LINE
  5
2D3
330
3E
100
AcDbEntity
  8
USP-GEO
100
AcDbLine
 10
11.91279180124962
 20
19.67552797475466
 30
7.762736173505047
 11
11.86612513458295
 21
19.72219464142133
 31
7.856069506838379
  0
LINE
  5
2D4
330
3E
100
AcDbEntity
  8
USP-GEO
100
AcDbLine
 10
12.19186682839508
 20
19.81506548832739
 30
7.623198659932316
 11
12.11482931482235
 21
19.77654673154103
 31
7.661717416718681
  0
LINE
  5
2D5
330
3E
100
AcDbEntity
  8
USP-GEO
100
AcDbLine
 10
12.12816264815568
 20
19.80321339820769
 30
7.675050750052011
 11
12.11482931482235
 21
19.77654673154103
 31
7.661717416718682
  0
LINE
  5
2D6
330
3E
100
AcDbEntity
  8
USP-GEO
100
AcDbLine
 10
12.12816264815568
 20
19.80321339820769
 30
7.67505075005201
 11
12.17853349506175
 21
19.82839882166072
 31
7.649865326598977
  0
LINE
  5
2D7
330
3E
100
AcDbEntity
  8
USP-GEO
100
AcDbLine
 10
11.98482931482235
 20
19.78154673154103
 30
7.796717416718681
 11
12.14520016172841
 21
19.86173215499406
 31
7.716531993265649
  0
LINE
  5
2D8
330
3E
100
AcDbEntity
  8
USP-GEO
100
AcDbLine
 10
12.14520016172841
 20
19.86173215499405
 30
7.716531993265645
 11
12.19186682839508
 21
19.81506548832738
 31
7.623198659932311
  0
LINE
  5
2D9
330
3E
100
AcDbEntity
  8
USP-GEO
100
AcDbLine
 10
11.95445846791628
 20
19.63386130808799
 30
7.679402840171711
 11
12.03149598148901
 21
19.67238006487436
 31
7.640884083385346
  0
LINE
  5
2DA
330
3E
100
AcDbEntity
  8
USP-GEO
100
AcDbLine
 10
12.00992683268745
 20
19.61159549047357
 30
7.601668657786126
 11
12.16619986560624
 21
19.68973200693297
 31
7.523532141326731
  0
LINE
  5
2DB
330
3E
100
AcDbEntity
  8
USP-GEO
100
AcDbLine
 10
12.16149598148901
 20
19.66738006487435
 30
7.505884083385345
 11
12.00112513458295
 21
19.58719464142133
 31
7.586069506838377
  0
ELLIPSE
  5
2DC
330
3E
100
AcDbEntity
  8
USP-GEO
100
AcDbEllipse
 10
12.71846820314552
 20
20.03961617570261
 30
7.321147972557089
 11
-0.7071067811865502
 21
-0.7071067811865449
 31
0.0000000000000055
210
0.577350269189626
220
-0.5773502691896258
230
0.5773502691896259
 40
0.5773502691896208
 41
5.645827290020687
 42
5.686403529957545
  0
LINE
  5
2DD
330
3E
100
AcDbEntity
  8
USP-GEO
100
AcDbLine
 10
12.00112513458295
 20
19.58719464142133
 30
7.586069506838376
 11
11.95445846791628
 21
19.63386130808799
 31
7.679402840171711
  0
LINE
  5
2DE
330
3E
100
AcDbEntity
  8
USP-GEO
100
AcDbLine
 10
12.28020016172841
 20
19.72673215499406
 30
7.446531993265647
 11
12.20316264815568
 21
19.68821339820769
 31
7.485050750052012
  0
LINE
  5
2DF
330
3E
100
AcDbEntity
  8
USP-GEO
100
AcDbLine
 10
12.21649598148901
 20
19.71488006487436
 30
7.498384083385344
 11
12.20316264815568
 21
19.68821339820769
 31
7.485050750052012
  0
LINE
  5
2E0
330
3E
100
AcDbEntity
  8
USP-GEO
100
AcDbLine
 10
12.21649598148901
 20
19.71488006487436
 30
7.498384083385344
 11
12.26686682839508
 21
19.74006548832739
 31
7.473198659932313
  0
LINE
  5
2E1
330
3E
100
AcDbEntity
  8
USP-GEO
100
AcDbLine
 10
12.07316264815568
 20
19.69321339820769
 30
7.620050750052012
 11
12.23353349506175
 21
19.77339882166072
 31
7.539865326598979
  0
LINE
  5
2E2
330
3E
100
AcDbEntity
  8
USP-GEO
100
AcDbLine
 10
12.23353349506174
 20
19.77339882166072
 30
7.539865326598979
 11
12.28020016172841
 21
19.72673215499406
 31
7.446531993265645
  0
LINE
  5
2E3
330
3E
100
AcDbEntity
  8
USP-GEO
100
AcDbLine
 10
12.04279180124961
 20
19.54552797475466
 30
7.502736173505045
 11
12.11982931482235
 21
19.58404673154102
 31
7.464217416718679
  0
LINE
  5
2E4
330
3E
100
AcDbEntity
  8
USP-GEO
100
AcDbLine
 10
12.09826016602078
 20
19.52326215714024
 30
7.42500199111946
 11
12.25453319893957
 21
19.60139867359963
 31
7.346865474660065
  0
LINE
  5
2E5
330
3E
100
AcDbEntity
  8
USP-GEO
100
AcDbLine
 10
12.24982931482235
 20
19.57904673154102
 30
7.329217416718678
 11
12.08945846791628
 21
19.49886130808799
 31
7.40940284017171
  0
ELLIPSE
  5
2E6
330
3E
100
AcDbEntity
  8
USP-GEO
100
AcDbEllipse
 10
12.80680153647886
 20
19.95128284236928
 30
7.144481305890423
 11
-0.7071067811865502
 21
-0.7071067811865449
 31
0.0000000000000055
210
0.577350269189626
220
-0.5773502691896258
230
0.5773502691896259
 40
0.5773502691896208
 41
5.645827290020687
 42
5.686403529957544
  0
LINE
  5
2E7
330
3E
100
AcDbEntity
  8
USP-GEO
100
AcDbLine
 10
12.08945846791628
 20
19.49886130808799
 30
7.40940284017171
 11
12.04279180124961
 21
19.54552797475465
 31
7.502736173505043
  0
LINE
  5
2E8
330
3E
100
AcDbEntity
  8
USP-GEO
100
AcDbLine
 10
12.36853349506174
 20
19.63839882166072
 30
7.26986532659898
 11
12.29149598148901
 21
19.59988006487435
 31
7.308384083385346
  0
LINE
  5
2E9
330
3E
100
AcDbEntity
  8
USP-GEO
100
AcDbLine
 10
12.30482931482234
 20
19.62654673154102
 30
7.321717416718676
 11
12.29149598148901
 21
19.59988006487435
 31
7.308384083385345
  0
LINE
  5
2EA
330
3E
100
AcDbEntity
  8
USP-GEO
100
AcDbLine
 10
12.30482931482234
 20
19.62654673154102
 30
7.321717416718678
 11
12.35520016172841
 21
19.65173215499405
 31
7.296531993265647
  0
LINE
  5
2EB
330
3E
100
AcDbEntity
  8
USP-GEO
100
AcDbLine
 10
12.16149598148901
 20
19.60488006487436
 30
7.443384083385346
 11
12.32186682839508
 21
19.68506548832739
 31
7.363198659932314
  0
LINE
  5
2EC
330
3E
100
AcDbEntity
  8
USP-GEO
100
AcDbLine
 10
12.32186682839508
 20
19.68506548832739
 30
7.363198659932312
 11
12.36853349506174
 21
19.63839882166072
 31
7.26986532659898
  0
LINE
  5
2ED
330
3E
100
AcDbEntity
  8
USP-GEO
100
AcDbLine
 10
12.13112513458295
 20
19.45719464142132
 30
7.326069506838377
 11
12.20816264815568
 21
19.49571339820769
 31
7.287550750052012
  0
LINE
  5
2EE
330
3E
100
AcDbEntity
  8
USP-GEO
100
AcDbLine
 10
12.18659349935412
 20
19.43492882380691
 30
7.248335324452793
 11
12.34286653227291
 21
19.5130653402663
 31
7.170198807993398
  0
LINE
  5
2EF
330
3E
100
AcDbEntity
  8
USP-GEO
100
AcDbLine
 10
12.33816264815568
 20
19.49071339820768
 30
7.152550750052011
 11
12.17779180124962
 21
19.41052797475465
 31
7.232736173505041
  0
ELLIPSE
  5
2F0
330
3E
100
AcDbEntity
  8
USP-GEO
100
AcDbEllipse
 10
12.89513486981219
 20
19.86294950903594
 30
6.967814639223753
 11
-0.7071067811865502
 21
-0.7071067811865449
 31
0.0000000000000055
210
0.577350269189626
220
-0.5773502691896258
230
0.5773502691896259
 40
0.5773502691896208
 41
5.645827290020682
 42
5.686403529957544
  0
LINE
  5
2F1
330
3E
100
AcDbEntity
  8
USP-GEO
100
AcDbLine
 10
12.17779180124961
 20
19.41052797475465
 30
7.23273617350504
 11
12.13112513458295
 21
19.45719464142132
 31
7.326069506838374
  0
LINE
  5
2F2
330
3E
100
AcDbEntity
  8
USP-GEO
100
AcDbLine
 10
12.45686682839508
 20
19.55006548832738
 30
7.093198659932312
 11
12.37982931482234
 21
19.51154673154102
 31
7.131717416718677
  0
LINE
  5
2F3
330
3E
100
AcDbEntity
  8
USP-GEO
100
AcDbLine
 10
12.39316264815568
 20
19.53821339820769
 30
7.14505075005201
 11
12.37982931482234
 21
19.51154673154102
 31
7.131717416718675
  0
LINE
  5
2F4
330
3E
100
AcDbEntity
  8
USP-GEO
100
AcDbLine
 10
12.39316264815568
 20
19.53821339820769
 30
7.145050750052011
 11
12.44353349506174
 21
19.56339882166072
 31
7.119865326598981
  0
LINE
  5
2F5
330
3E
100
AcDbEntity
  8
USP-GEO
100
AcDbLine
 10
12.24982931482235
 20
19.51654673154102
 30
7.266717416718678
 11
12.41020016172841
 21
19.59673215499406
 31
7.186531993265644
  0
LINE
  5
2F6
330
3E
100
AcDbEntity
  8
USP-GEO
100
AcDbLine
 10
12.41020016172841
 20
19.59673215499405
 30
7.186531993265642
 11
12.45686682839508
 21
19.55006548832738
 31
7.09319865993231
  0
LINE
  5
2F7
330
3E
100
AcDbEntity
  8
USP-GEO
100
AcDbLine
 10
12.21945846791628
 20
19.36886130808798
 30
7.149402840171709
 11
12.29649598148901
 21
19.40738006487435
 31
7.110884083385344
  0
LINE
  5
2F8
330
3E
100
AcDbEntity
  8
USP-GEO
100
AcDbLine
 10
12.27492683268745
 20
19.34659549047356
 30
7.071668657786124
 11
12.43119986560624
 21
19.42473200693296
 31
6.993532141326729
  0
LINE
  5
2F9
330
3E
100
AcDbEntity
  8
USP-GEO
100
AcDbLine
 10
12.42649598148901
 20
19.40238006487435
 30
6.975884083385343
 11
12.26612513458295
 21
19.32219464142132
 31
7.056069506838376
  0
ELLIPSE
  5
2FA
330
3E
100
AcDbEntity
  8
USP-GEO
100
AcDbEllipse
 10
12.98346820314552
 20
19.77461617570261
 30
6.791147972557086
 11
-0.7071067811865502
 21
-0.7071067811865449
 31
0.0000000000000055
210
0.577350269189626
220
-0.5773502691896258
230
0.5773502691896259
 40
0.5773502691896208
 41
5.645827290020688
 42
5.686403529957546
  0
LINE
  5
2FB
330
3E
100
AcDbEntity
  8
USP-GEO
100
AcDbLine
 10
12.26612513458295
 20
19.32219464142132
 30
7.056069506838372
 11
12.21945846791628
 21
19.36886130808798
 31
7.149402840171706
  0
LINE
  5
2FC
330
3E
100
AcDbEntity
  8
USP-GEO
100
AcDbLine
 10
12.54520016172841
 20
19.46173215499405
 30
6.916531993265645
 11
12.46816264815568
 21
19.42321339820768
 31
6.95505075005201
  0
LINE
  5
2FD
330
3E
100
AcDbEntity
  8
USP-GEO
100
AcDbLine
 10
12.48149598148901
 20
19.44988006487435
 30
6.968384083385341
 11
12.46816264815568
 21
19.42321339820768
 31
6.955050750052009
  0
LINE
  5
2FE
330
3E
100
AcDbEntity
  8
USP-GEO
100
AcDbLine
 10
12.48149598148901
 20
19.44988006487435
 30
6.968384083385341
 11
12.53186682839508
 21
19.47506548832738
 31
6.94319865993231
  0
LINE
  5
2FF
330
3E
100
AcDbEntity
  8
USP-GEO
100
AcDbLine
 10
12.33816264815568
 20
19.42821339820768
 30
7.090050750052011
 11
12.49853349506174
 21
19.50839882166071
 31
7.009865326598978
  0
LINE
  5
300
330
3E
100
AcDbEntity
  8
USP-GEO
100
AcDbLine
 10
12.49853349506174
 20
19.50839882166071
 30
7.009865326598977
 11
12.54520016172841
 21
19.46173215499405
 31
6.916531993265644
  0
LINE
  5
301
330
3E
100
AcDbEntity
  8
USP-GEO
100
AcDbLine
 10
12.00779180124962
 20
20.45552797475467
 30
8.447736173505049
 11
12.08482931482235
 21
20.49404673154104
 31
8.409217416718684
  0
LINE
  5
302
330
3E
100
AcDbEntity
  8
USP-GEO
100
AcDbLine
 10
12.06326016602079
 20
20.43326215714025
 30
8.370001991119465
 11
12.21953319893958
 21
20.51139867359965
 31
8.29186547466007
  0
LINE
  5
303
330
3E
100
AcDbEntity
  8
USP-GEO
100
AcDbLine
 10
12.21482931482235
 20
20.48904673154103
 30
8.274217416718684
 11
12.05445846791629
 21
20.408861308088
 31
8.354402840171715
  0
ELLIPSE
  5
304
330
3E
100
AcDbEntity
  8
USP-GEO
100
AcDbEllipse
 10
12.77180153647886
 20
20.86128284236929
 30
8.089481305890428
 11
-0.7071067811865502
 21
-0.7071067811865449
 31
0.0000000000000055
210
0.577350269189626
220
-0.5773502691896258
230
0.5773502691896259
 40
0.5773502691896208
 41
5.645827290020688
 42
5.686403529957548
  0
LINE
  5
305
330
3E
100
AcDbEntity
  8
USP-GEO
100
AcDbLine
 10
12.05445846791629
 20
20.408861308088
 30
8.354402840171715
 11
12.00779180124962
 21
20.45552797475467
 31
8.447736173505051
  0
LINE
  5
306
330
3E
100
AcDbEntity
  8
USP-GEO
100
AcDbLine
 10
12.09612513458295
 20
20.36719464142134
 30
8.271069506838383
 11
12.17316264815569
 21
20.4057133982077
 31
8.232550750052016
  0
LINE
  5
307
330
3E
100
AcDbEntity
  8
USP-GEO
100
AcDbLine
 10
12.15159349935412
 20
20.34492882380692
 30
8.193335324452798
 11
12.30786653227291
 21
20.42306534026631
 31
8.115198807993403
  0
LINE
  5
308
330
3E
100
AcDbEntity
  8
USP-GEO
100
AcDbLine
 10
12.30316264815568
 20
20.4007133982077
 30
8.097550750052015
 11
12.14279180124962
 21
20.32052797475467
 31
8.177736173505048
  0
ELLIPSE
  5
309
330
3E
100
AcDbEntity
  8
USP-GEO
100
AcDbEllipse
 10
12.86013486981219
 20
20.77294950903595
 30
7.91281463922376
 11
-0.7071067811865502
 21
-0.7071067811865449
 31
0.0000000000000055
210
0.577350269189626
220
-0.5773502691896258
230
0.5773502691896259
 40
0.5773502691896208
 41
5.645827290020678
 42
5.686403529957543
  0
LINE
  5
30A
330
3E
100
AcDbEntity
  8
USP-GEO
100
AcDbLine
 10
12.14279180124962
 20
20.32052797475467
 30
8.177736173505049
 11
12.09612513458295
 21
20.36719464142134
 31
8.271069506838383
  0
LINE
  5
30B
330
3E
100
AcDbEntity
  8
USP-GEO
100
AcDbLine
 10
12.18445846791629
 20
20.278861308088
 30
8.094402840171714
 11
12.26149598148901
 21
20.31738006487436
 31
8.055884083385347
  0
LINE
  5
30C
330
3E
100
AcDbEntity
  8
USP-GEO
100
AcDbLine
 10
12.23992683268745
 20
20.25659549047358
 30
8.01666865778613
 11
12.39619986560624
 21
20.33473200693298
 31
7.938532141326735
  0
LINE
  5
30D
330
3E
100
AcDbEntity
  8
USP-GEO
100
AcDbLine
 10
12.39149598148902
 20
20.31238006487436
 30
7.920884083385346
 11
12.23112513458295
 21
20.23219464142133
 31
8.00106950683838
  0
ELLIPSE
  5
30E
330
3E
100
AcDbEntity
  8
USP-GEO
100
AcDbEllipse
 10
12.94846820314552
 20
20.68461617570262
 30
7.736147972557091
 11
-0.7071067811865502
 21
-0.7071067811865449
 31
0.0000000000000055
210
0.577350269189626
220
-0.5773502691896258
230
0.5773502691896259
 40
0.5773502691896208
 41
5.64582729002068
 42
5.686403529957546
  0
LINE
  5
30F
330
3E
100
AcDbEntity
  8
USP-GEO
100
AcDbLine
 10
12.23112513458295
 20
20.23219464142133
 30
8.00106950683838
 11
12.18445846791629
 21
20.278861308088
 31
8.094402840171714
  0
LINE
  5
310
330
3E
100
AcDbEntity
  8
USP-GEO
100
AcDbLine
 10
12.27279180124962
 20
20.19052797475466
 30
7.917736173505047
 11
12.34982931482235
 21
20.22904673154103
 31
7.879217416718682
  0
LINE
  5
311
330
3E
100
AcDbEntity
  8
USP-GEO
100
AcDbLine
 10
12.32826016602079
 20
20.16826215714024
 30
7.840001991119462
 11
12.48453319893958
 21
20.24639867359964
 31
7.761865474660068
  0
LINE
  5
312
330
3E
100
AcDbEntity
  8
USP-GEO
100
AcDbLine
 10
12.47982931482235
 20
20.22404673154103
 30
7.744217416718681
 11
12.31945846791628
 21
20.143861308088
 31
7.824402840171714
  0
ELLIPSE
  5
313
330
3E
100
AcDbEntity
  8
USP-GEO
100
AcDbEllipse
 10
13.03680153647885
 20
20.59628284236928
 30
7.559481305890427
 11
-0.7071067811865502
 21
-0.7071067811865449
 31
0.0000000000000055
210
0.577350269189626
220
-0.5773502691896258
230
0.5773502691896259
 40
0.5773502691896208
 41
5.645827290020684
 42
5.686403529957544
  0
LINE
  5
314
330
3E
100
AcDbEntity
  8
USP-GEO
100
AcDbLine
 10
12.31945846791628
 20
20.143861308088
 30
7.824402840171714
 11
12.27279180124962
 21
20.19052797475466
 31
7.917736173505048
  0
LINE
  5
315
330
3E
100
AcDbEntity
  8
USP-GEO
100
AcDbLine
 10
12.36112513458295
 20
20.10219464142133
 30
7.74106950683838
 11
12.43816264815568
 21
20.1407133982077
 31
7.702550750052014
  0
LINE
  5
316
330
3E
100
AcDbEntity
  8
USP-GEO
100
AcDbLine
 10
12.41659349935412
 20
20.07992882380691
 30
7.663335324452795
 11
12.57286653227291
 21
20.15806534026631
 31
7.5851988079934
  0
LINE
  5
317
330
3E
100
AcDbEntity
  8
USP-GEO
100
AcDbLine
 10
12.56816264815568
 20
20.13571339820769
 30
7.567550750052014
 11
12.40779180124962
 21
20.05552797475466
 31
7.647736173505047
  0
ELLIPSE
  5
318
330
3E
100
AcDbEntity
  8
USP-GEO
100
AcDbEllipse
 10
13.12513486981219
 20
20.50794950903595
 30
7.382814639223759
 11
-0.7071067811865502
 21
-0.7071067811865449
 31
0.0000000000000055
210
0.577350269189626
220
-0.5773502691896258
230
0.5773502691896259
 40
0.5773502691896208
 41
5.645827290020687
 42
5.686403529957546
  0
LINE
  5
319
330
3E
100
AcDbEntity
  8
USP-GEO
100
AcDbLine
 10
12.40779180124962
 20
20.05552797475466
 30
7.647736173505047
 11
12.36112513458295
 21
20.10219464142133
 31
7.74106950683838
  0
LINE
  5
31A
330
3E
100
AcDbEntity
  8
USP-GEO
100
AcDbLine
 10
12.44945846791629
 20
20.013861308088
 30
7.564402840171712
 11
12.52649598148902
 21
20.05238006487436
 31
7.525884083385347
  0
LINE
  5
31B
330
3E
100
AcDbEntity
  8
USP-GEO
100
AcDbLine
 10
12.50492683268745
 20
19.99159549047358
 30
7.486668657786128
 11
12.66119986560624
 21
20.06973200693297
 31
7.408532141326733
  0
LINE
  5
31C
330
3E
100
AcDbEntity
  8
USP-GEO
100
AcDbLine
 10
12.65649598148901
 20
20.04738006487436
 30
7.390884083385348
 11
12.49612513458295
 21
19.96719464142133
 31
7.471069506838379
  0
ELLIPSE
  5
31D
330
3E
100
AcDbEntity
  8
USP-GEO
100
AcDbEllipse
 10
13.21346820314552
 20
20.41961617570262
 30
7.206147972557093
 11
-0.7071067811865502
 21
-0.7071067811865449
 31
0.0000000000000055
210
0.577350269189626
220
-0.5773502691896258
230
0.5773502691896259
 40
0.5773502691896208
 41
5.645827290020694
 42
5.686403529957554
  0
LINE
  5
31E
330
3E
100
AcDbEntity
  8
USP-GEO
100
AcDbLine
 10
12.49612513458295
 20
19.96719464142133
 30
7.471069506838379
 11
12.44945846791629
 21
20.013861308088
 31
7.564402840171712
  0
LINE
  5
31F
330
3E
100
AcDbEntity
  8
USP-GEO
100
AcDbLine
 10
12.53779180124962
 20
19.92552797475466
 30
7.387736173505043
 11
12.61482931482235
 21
19.96404673154102
 31
7.349217416718679
  0
LINE
  5
320
330
3E
100
AcDbEntity
  8
USP-GEO
100
AcDbLine
 10
12.59326016602078
 20
19.90326215714024
 30
7.31000199111946
 11
12.74953319893957
 21
19.98139867359963
 31
7.231865474660065
  0
LINE
  5
321
330
3E
100
AcDbEntity
  8
USP-GEO
100
AcDbLine
 10
12.74482931482235
 20
19.95904673154102
 30
7.214217416718678
 11
12.58445846791628
 21
19.87886130808799
 31
7.294402840171711
  0
ELLIPSE
  5
322
330
3E
100
AcDbEntity
  8
USP-GEO
100
AcDbEllipse
 10
13.30180153647885
 20
20.33128284236928
 30
7.029481305890424
 11
-0.7071067811865502
 21
-0.7071067811865449
 31
0.0000000000000055
210
0.577350269189626
220
-0.5773502691896258
230
0.5773502691896259
 40
0.5773502691896208
 41
5.645827290020688
 42
5.686403529957543
  0
LINE
  5
323
330
3E
100
AcDbEntity
  8
USP-GEO
100
AcDbLine
 10
12.58445846791628
 20
19.87886130808799
 30
7.294402840171709
 11
12.53779180124962
 21
19.92552797475466
 31
7.387736173505043
  0
LINE
  5
324
330
3E
100
AcDbEntity
  8
USP-GEO
100
AcDbLine
 10
12.62612513458295
 20
19.83719464142133
 30
7.211069506838377
 11
12.70316264815568
 21
19.87571339820769
 31
7.172550750052012
  0
LINE
  5
325
330
3E
100
AcDbEntity
  8
USP-GEO
100
AcDbLine
 10
12.68159349935412
 20
19.81492882380691
 30
7.133335324452793
 11
12.83786653227291
 21
19.8930653402663
 31
7.055198807993398
  0
LINE
  5
326
330
3E
100
AcDbEntity
  8
USP-GEO
100
AcDbLine
 10
12.83316264815568
 20
19.87071339820769
 30
7.037550750052012
 11
12.67279180124961
 21
19.79052797475466
 31
7.117736173505045
  0
ELLIPSE
  5
327
330
3E
100
AcDbEntity
  8
USP-GEO
100
AcDbEllipse
 10
13.39013486981218
 20
20.24294950903595
 30
6.852814639223757
 11
-0.7071067811865502
 21
-0.7071067811865449
 31
0.0000000000000055
210
0.577350269189626
220
-0.5773502691896258
230
0.5773502691896259
 40
0.5773502691896208
 41
5.645827290020688
 42
5.686403529957547
  0
LINE
  5
328
330
3E
100
AcDbEntity
  8
USP-GEO
100
AcDbLine
 10
12.67279180124962
 20
19.79052797475466
 30
7.117736173505043
 11
12.62612513458295
 21
19.83719464142133
 31
7.211069506838376
  0
LINE
  5
329
330
3E
100
AcDbEntity
  8
USP-GEO
100
AcDbLine
 10
12.71445846791628
 20
19.74886130808799
 30
7.034402840171709
 11
12.79149598148901
 21
19.78738006487435
 31
6.995884083385345
  0
LINE
  5
32A
330
3E
100
AcDbEntity
  8
USP-GEO
100
AcDbLine
 10
12.76992683268745
 20
19.72659549047357
 30
6.956668657786126
 11
12.92619986560624
 21
19.80473200693297
 31
6.878532141326731
  0
LINE
  5
32B
330
3E
100
AcDbEntity
  8
USP-GEO
100
AcDbLine
 10
12.92149598148901
 20
19.78238006487435
 30
6.860884083385343
 11
12.76112513458295
 21
19.70219464142132
 31
6.941069506838377
  0
ELLIPSE
  5
32C
330
3E
100
AcDbEntity
  8
USP-GEO
100
AcDbEllipse
 10
13.47846820314552
 20
20.15461617570261
 30
6.676147972557087
 11
-0.7071067811865502
 21
-0.7071067811865449
 31
0.0000000000000055
210
0.577350269189626
220
-0.5773502691896258
230
0.5773502691896259
 40
0.5773502691896208
 41
5.645827290020682
 42
5.686403529957546
  0
LINE
  5
32D
330
3E
100
AcDbEntity
  8
USP-GEO
100
AcDbLine
 10
12.76112513458295
 20
19.70219464142132
 30
6.941069506838372
 11
12.71445846791628
 21
19.74886130808799
 31
7.034402840171706
  0
LINE
  5
32E
330
3E
100
AcDbEntity
  8
USP-GEO
100
AcDbLine
 10
12.80279180124962
 20
19.66052797475465
 30
6.857736173505042
 11
12.87982931482234
 21
19.69904673154102
 31
6.819217416718677
  0
LINE
  5
32F
330
3E
100
AcDbEntity
  8
USP-GEO
100
AcDbLine
 10
12.85826016602078
 20
19.63826215714023
 30
6.780001991119458
 11
13.01453319893957
 21
19.71639867359963
 31
6.701865474660062
  0
LINE
  5
330
330
3E
100
AcDbEntity
  8
USP-GEO
100
AcDbLine
 10
13.00982931482234
 20
19.69404673154102
 30
6.684217416718675
 11
12.84945846791628
 21
19.61386130808799
 31
6.764402840171708
  0
ELLIPSE
  5
331
330
3E
100
AcDbEntity
  8
USP-GEO
100
AcDbEllipse
 10
13.56680153647885
 20
20.06628284236927
 30
6.499481305890419
 11
-0.7071067811865502
 21
-0.7071067811865449
 31
0.0000000000000055
210
0.577350269189626
220
-0.5773502691896258
230
0.5773502691896259
 40
0.5773502691896208
 41
5.645827290020686
 42
5.686403529957543
  0
LINE
  5
332
330
3E
100
AcDbEntity
  8
USP-GEO
100
AcDbLine
 10
12.84945846791628
 20
19.61386130808799
 30
6.764402840171706
 11
12.80279180124962
 21
19.66052797475465
 31
6.857736173505041
  0
ELLIPSE
  5
333
330
3E
100
AcDbEntity
  8
USP-GEO
100
AcDbEllipse
 10
14.75533879409208
 20
20.58431061485812
 30
5.82897182076603
 11
0.0893431600721996
 21
0.0
 31
-0.0893431600721996
210
0.5773502691896258
220
-0.5773502691896259
230
0.577350269189626
 40
0.5773502691896261
 41
2.280816312883914
 42
4.64587010308896
  0
ELLIPSE
  5
334
330
3E
100
AcDbEntity
  8
USP-GEO
100
AcDbEllipse
 10
14.772185501916
 20
20.61800403050595
 30
5.845818528589946
 11
0.0893431600721996
 21
0.0
 31
-0.0893431600721996
210
0.5773502691896258
220
-0.5773502691896259
230
0.577350269189626
 40
0.5773502691896261
 41
2.483885294720951
 42
3.141592653589783
  0
ELLIPSE
  5
335
330
3E
100
AcDbEntity
  8
USP-GEO
100
AcDbEllipse
 10
14.40117212742541
 20
20.93847728152478
 30
6.537305154099364
 11
0.0893431600721996
 21
0.0
 31
-0.0893431600721996
210
0.5773502691896258
220
-0.5773502691896259
230
0.577350269189626
 40
0.5773502691896261
 41
0.0
 42
6.283185307179586
  0
ELLIPSE
  5
336
330
3E
100
AcDbEntity
  8
USP-GEO
100
AcDbEllipse
 10
14.41801883524933
 20
20.97217069717261
 30
6.55415186192328
 11
0.0893431600721996
 21
0.0
 31
-0.0893431600721996
210
0.5773502691896258
220
-0.5773502691896259
230
0.577350269189626
 40
0.5773502691896261
 41
0.0000000000000104
 42
0.7853981633974413
  0
ELLIPSE
  5
337
330
3E
100
AcDbEntity
  8
USP-GEO
100
AcDbEllipse
 10
14.41801883524933
 20
20.97217069717261
 30
6.55415186192328
 11
0.0893431600721996
 21
0.0
 31
-0.0893431600721996
210
0.5773502691896258
220
-0.5773502691896259
230
0.577350269189626
 40
0.5773502691896261
 41
0.7853981633974413
 42
3.141592653589793
  0
ELLIPSE
  5
338
330
3E
100
AcDbEntity
  8
USP-GEO
100
AcDbEllipse
 10
14.04700546075876
 20
21.29264394819146
 30
7.245638487432701
 11
0.0893431600721996
 21
0.0
 31
-0.0893431600721996
210
0.5773502691896258
220
-0.5773502691896259
230
0.577350269189626
 40
0.5773502691896261
 41
0.0
 42
6.283185307179586
  0
ELLIPSE
  5
339
330
3E
100
AcDbEntity
  8
USP-GEO
100
AcDbEllipse
 10
14.06385216858267
 20
21.3263373638393
 30
7.262485195256617
 11
0.0893431600721996
 21
0.0
 31
-0.0893431600721996
210
0.5773502691896258
220
-0.5773502691896259
230
0.577350269189626
 40
0.5773502691896261
 41
0.0000000000000055
 42
0.7853981633974413
  0
ELLIPSE
  5
33A
330
3E
100
AcDbEntity
  8
USP-GEO
100
AcDbEllipse
 10
14.06385216858267
 20
21.3263373638393
 30
7.262485195256617
 11
0.0893431600721996
 21
0.0
 31
-0.0893431600721996
210
0.5773502691896258
220
-0.5773502691896259
230
0.577350269189626
 40
0.5773502691896261
 41
0.7853981633974413
 42
3.141592653589818
  0
ELLIPSE
  5
33B
330
3E
100
AcDbEntity
  8
USP-GEO
100
AcDbEllipse
 10
13.69283879409208
 20
21.64681061485811
 30
7.953971820766033
 11
0.0893431600721996
 21
0.0
 31
-0.0893431600721996
210
0.5773502691896258
220
-0.5773502691896259
230
0.577350269189626
 40
0.5773502691896261
 41
0.0
 42
6.283185307179586
  0
ELLIPSE
  5
33C
330
3E
100
AcDbEntity
  8
USP-GEO
100
AcDbEllipse
 10
13.709685501916
 20
21.68050403050595
 30
7.970818528589949
 11
0.0893431600721996
 21
0.0
 31
-0.0893431600721996
210
0.5773502691896258
220
-0.5773502691896259
230
0.577350269189626
 40
0.5773502691896261
 41
0.0000000000000004
 42
0.7853981633974343
  0
ELLIPSE
  5
33D
330
3E
100
AcDbEntity
  8
USP-GEO
100
AcDbEllipse
 10
13.709685501916
 20
21.68050403050595
 30
7.970818528589949
 11
0.0893431600721996
 21
0.0
 31
-0.0893431600721996
210
0.5773502691896258
220
-0.5773502691896259
230
0.577350269189626
 40
0.5773502691896261
 41
0.7853981633974343
 42
3.141592653589783
  0
LINE
  5
33E
330
3E
100
AcDbEntity
  8
USP-GEO
100
AcDbLine
 10
15.93972487598197
 20
19.88892111323995
 30
3.949196237257983
 11
15.9734182916298
 21
19.90576782106387
 31
3.932349529434065
  0
LINE
  5
33F
330
3E
100
AcDbEntity
  8
USP-GEO
100
AcDbLine
 10
15.93972487598197
 20
20.06760743338436
 30
4.127882557402383
 11
15.9734182916298
 21
20.08445414120827
 31
4.111035849578465
  0
LINE
  5
340
330
3E
100
AcDbEntity
  8
USP-GEO
100
AcDbLine
 10
16.81276604848697
 20
20.01148628864563
 30
3.198720240158656
 11
16.84645946413481
 21
20.02833299646955
 31
3.181873532334739
  0
LINE
  5
341
330
3E
100
AcDbEntity
  8
USP-GEO
100
AcDbLine
 10
16.81276604848697
 20
20.19017260879003
 30
3.377406560303055
 11
16.84645946413481
 21
20.20701931661395
 31
3.360559852479138
  0
LINE
  5
342
330
3E
100
AcDbEntity
  8
USP-GEO
100
AcDbLine
 10
17.17006358384326
 20
20.34805285024238
 30
3.177989266399121
 11
17.20375699949109
 21
20.3648995580663
 31
3.161142558575204
  0
LINE
  5
343
330
3E
100
AcDbEntity
  8
USP-GEO
100
AcDbLine
 10
17.17006358384326
 20
20.52673917038678
 30
3.356675586543522
 11
17.20375699949109
 21
20.5435858782107
 31
3.339828878719605
  0
LINE
  5
344
330
3E
100
AcDbEntity
  8
USP-GEO
100
AcDbLine
 10
15.79539691717657
 20
19.22271951690902
 30
3.427322599732451
 11
15.82909033282441
 21
19.23956622473294
 31
3.410475891908534
  0
LINE
  5
345
330
3E
100
AcDbEntity
  8
USP-GEO
100
AcDbLine
 10
15.79539691717657
 20
19.40140583705342
 30
3.606008919876851
 11
15.82909033282441
 21
19.41825254487734
 31
3.589162212052933
  0
LINE
  5
346
330
3E
100
AcDbEntity
  8
USP-GEO
100
AcDbLine
 10
11.64012543070512
 20
20.13919478948242
 30
8.499069358777296
 11
11.63275973506777
 21
20.1244633982077
 31
8.491703663139936
  0
LINE
  5
347
330
3E
100
AcDbEntity
  8
USP-GEO
100
AcDbLine
 10
11.73189889457694
 20
20.14613006487437
 30
8.41423117029743
 11
11.7185655612436
 21
20.1194633982077
 31
8.400897836964094
  0
LINE
  5
348
330
3E
100
AcDbEntity
  8
USP-GEO
100
AcDbLine
 10
11.72845876403846
 20
20.05086145614908
 30
8.322402692110628
 11
11.72109306840109
 21
20.03613006487436
 31
8.315036996473269
  0
LINE
  5
349
330
3E
100
AcDbEntity
  8
USP-GEO
100
AcDbLine
 10
11.82023222791027
 20
20.05779673154103
 30
8.237564503630762
 11
11.80689889457694
 21
20.03113006487436
 31
8.224231170297427
  0
LINE
  5
34A
330
3E
100
AcDbEntity
  8
USP-GEO
100
AcDbLine
 10
11.81679209737179
 20
19.96252812281575
 30
8.145736025443962
 11
11.80942640173443
 21
19.94779673154102
 31
8.138370329806603
  0
LINE
  5
34B
330
3E
100
AcDbEntity
  8
USP-GEO
100
AcDbLine
 10
11.9085655612436
 20
19.96946339820769
 30
8.060897836964095
 11
11.89523222791027
 21
19.94279673154102
 31
8.047564503630761
  0
LINE
  5
34C
330
3E
100
AcDbEntity
  8
USP-GEO
100
AcDbLine
 10
11.55179209737179
 20
20.22752812281575
 30
8.675736025443963
 11
11.54442640173443
 21
20.21279673154103
 31
8.668370329806604
  0
LINE
  5
34D
330
3E
100
AcDbEntity
  8
USP-GEO
100
AcDbLine
 10
11.6435655612436
 20
20.2344633982077
 30
8.590897836964096
 11
11.63023222791027
 21
20.20779673154103
 31
8.577564503630764
  0
LINE
  5
34E
330
3E
100
AcDbEntity
  8
USP-GEO
100
AcDbLine
 10
12.17012543070512
 20
19.60919478948241
 30
7.43906935877729
 11
12.16275973506776
 21
19.59446339820769
 31
7.431703663139932
  0
LINE
  5
34F
330
3E
100
AcDbEntity
  8
USP-GEO
100
AcDbLine
 10
12.26189889457693
 20
19.61613006487435
 30
7.354231170297423
 11
12.2485655612436
 21
19.58946339820769
 31
7.340897836964092
  0
LINE
  5
350
330
3E
100
AcDbEntity
  8
USP-GEO
100
AcDbLine
 10
12.25845876403845
 20
19.52086145614907
 30
7.262402692110623
 11
12.25109306840109
 21
19.50613006487435
 31
7.255036996473263
  0
LINE
  5
351
330
3E
100
AcDbEntity
  8
USP-GEO
100
AcDbLine
 10
12.35023222791027
 20
19.52779673154102
 30
7.177564503630756
 11
12.33689889457693
 21
19.50113006487435
 31
7.164231170297423
  0
LINE
  5
352
330
3E
100
AcDbEntity
  8
USP-GEO
100
AcDbLine
 10
11.99345876403846
 20
19.78586145614908
 30
7.792402692110627
 11
11.9860930684011
 21
19.77113006487436
 31
7.785036996473269
  0
LINE
  5
353
330
3E
100
AcDbEntity
  8
USP-GEO
100
AcDbLine
 10
12.08523222791027
 20
19.79279673154102
 30
7.707564503630757
 11
12.07189889457694
 21
19.76613006487436
 31
7.694231170297424
  0
LINE
  5
354
330
3E
100
AcDbEntity
  8
USP-GEO
100
AcDbLine
 10
12.08179209737178
 20
19.69752812281574
 30
7.615736025443958
 11
12.07442640173443
 21
19.68279673154102
 31
7.608370329806598
  0
LINE
  5
355
330
3E
100
AcDbEntity
  8
USP-GEO
100
AcDbLine
 10
12.1735655612436
 20
19.70446339820769
 30
7.53089783696409
 11
12.16023222791027
 21
19.67779673154102
 31
7.517564503630758
  0
LINE
  5
356
330
3E
100
AcDbEntity
  8
USP-GEO
100
AcDbLine
 10
11.90512543070512
 20
19.87419478948241
 30
7.969069358777295
 11
11.89775973506776
 21
19.85946339820769
 31
7.961703663139935
  0
LINE
  5
357
330
3E
100
AcDbEntity
  8
USP-GEO
100
AcDbLine
 10
11.99689889457693
 20
19.88113006487436
 30
7.884231170297427
 11
11.9835655612436
 21
19.85446339820769
 31
7.870897836964095
  0
LINE
  5
358
330
3E
100
AcDbEntity
  8
USP-GEO
100
AcDbLine
 10
12.34679209737178
 20
19.43252812281574
 30
7.085736025443956
 11
12.33942640173442
 21
19.41779673154101
 31
7.078370329806597
  0
LINE
  5
359
330
3E
100
AcDbEntity
  8
USP-GEO
100
AcDbLine
 10
12.4385655612436
 20
19.43946339820768
 30
7.000897836964089
 11
12.42523222791026
 21
19.41279673154102
 31
6.987564503630755
  0
LINE
  5
35A
330
3E
100
AcDbEntity
  8
USP-GEO
100
AcDbLine
 10
12.71845876403846
 20
20.81086145614909
 30
8.092402692110631
 11
12.7110930684011
 21
20.79613006487437
 31
8.08503699647327
  0
LINE
  5
35B
330
3E
100
AcDbEntity
  8
USP-GEO
100
AcDbLine
 10
12.81023222791027
 20
20.81779673154104
 30
8.007564503630764
 11
12.79689889457694
 21
20.79113006487437
 31
7.99423117029743
  0
LINE
  5
35C
330
3E
100
AcDbEntity
  8
USP-GEO
100
AcDbLine
 10
12.80679209737179
 20
20.72252812281575
 30
7.915736025443964
 11
12.79942640173443
 21
20.70779673154103
 31
7.908370329806603
  0
LINE
  5
35D
330
3E
100
AcDbEntity
  8
USP-GEO
100
AcDbLine
 10
12.8985655612436
 20
20.7294633982077
 30
7.830897836964096
 11
12.88523222791027
 21
20.70279673154103
 31
7.817564503630761
  0
LINE
  5
35E
330
3E
100
AcDbEntity
  8
USP-GEO
100
AcDbLine
 10
12.89512543070512
 20
20.63419478948242
 30
7.739069358777294
 11
12.88775973506776
 21
20.6194633982077
 31
7.731703663139935
  0
LINE
  5
35F
330
3E
100
AcDbEntity
  8
USP-GEO
100
AcDbLine
 10
12.98689889457694
 20
20.64113006487437
 30
7.654231170297428
 11
12.9735655612436
 21
20.61446339820769
 31
7.640897836964094
  0
LINE
  5
360
330
3E
100
AcDbEntity
  8
USP-GEO
100
AcDbLine
 10
12.98345876403846
 20
20.54586145614909
 30
7.562402692110628
 11
12.97609306840109
 21
20.53113006487436
 31
7.555036996473269
  0
LINE
  5
361
330
3E
100
AcDbEntity
  8
USP-GEO
100
AcDbLine
 10
13.07523222791027
 20
20.55279673154103
 30
7.477564503630761
 11
13.06189889457694
 21
20.52613006487436
 31
7.464231170297429
  0
LINE
  5
362
330
3E
100
AcDbEntity
  8
USP-GEO
100
AcDbLine
 10
13.16012543070512
 20
20.36919478948242
 30
7.209069358777292
 11
13.15275973506776
 21
20.3544633982077
 31
7.201703663139934
  0
LINE
  5
363
330
3E
100
AcDbEntity
  8
USP-GEO
100
AcDbLine
 10
13.25189889457694
 20
20.37613006487436
 30
7.124231170297427
 11
13.2385655612436
 21
20.34946339820769
 31
7.110897836964095
  0
LINE
  5
364
330
3E
100
AcDbEntity
  8
USP-GEO
100
AcDbLine
 10
13.24845876403845
 20
20.28086145614908
 30
7.032402692110627
 11
13.24109306840109
 21
20.26613006487436
 31
7.025036996473266
  0
LINE
  5
365
330
3E
100
AcDbEntity
  8
USP-GEO
100
AcDbLine
 10
13.34023222791026
 20
20.28779673154102
 30
6.947564503630758
 11
13.32689889457693
 21
20.26113006487436
 31
6.934231170297426
  0
LINE
  5
366
330
3E
100
AcDbEntity
  8
USP-GEO
100
AcDbLine
 10
13.33679209737179
 20
20.19252812281575
 30
6.85573602544396
 11
13.32942640173442
 21
20.17779673154102
 31
6.848370329806599
  0
LINE
  5
367
330
3E
100
AcDbEntity
  8
USP-GEO
100
AcDbLine
 10
13.4285655612436
 20
20.19946339820769
 30
6.770897836964091
 11
13.41523222791027
 21
20.17279673154102
 31
6.757564503630758
  0
LINE
  5
368
330
3E
100
AcDbEntity
  8
USP-GEO
100
AcDbLine
 10
13.42512543070512
 20
20.10419478948241
 30
6.679069358777291
 11
13.41775973506776
 21
20.08946339820769
 31
6.671703663139931
  0
LINE
  5
369
330
3E
100
AcDbEntity
  8
USP-GEO
100
AcDbLine
 10
13.51689889457693
 20
20.11113006487436
 30
6.594231170297424
 11
13.5035655612436
 21
20.08446339820769
 31
6.580897836964089
  0
LINE
  5
36A
330
3E
100
AcDbEntity
  8
USP-GEO
100
AcDbLine
 10
13.07179209737179
 20
20.45752812281575
 30
7.385736025443961
 11
13.06442640173443
 21
20.44279673154103
 31
7.378370329806601
  0
LINE
  5
36B
330
3E
100
AcDbEntity
  8
USP-GEO
100
AcDbLine
 10
13.1635655612436
 20
20.4644633982077
 30
7.300897836964095
 11
13.15023222791027
 21
20.43779673154103
 31
7.287564503630761
  0
LINE
  5
36C
330
3E
100
AcDbEntity
  8
USP-GEO
100
AcDbLine
 10
13.30179209737179
 20
21.10252812281575
 30
7.800736025443963
 11
13.29442640173443
 21
21.08779673154103
 31
7.793370329806603
  0
LINE
  5
36D
330
3E
100
AcDbEntity
  8
USP-GEO
100
AcDbLine
 10
13.3935655612436
 20
21.1094633982077
 30
7.715897836964098
 11
13.38023222791027
 21
21.08279673154104
 31
7.702564503630764
  0
LINE
  5
36E
330
3E
100
AcDbEntity
  8
USP-GEO
100
AcDbLine
 10
13.39012543070512
 20
21.01419478948242
 30
7.624069358777298
 11
13.38275973506776
 21
20.9994633982077
 31
7.616703663139936
  0
LINE
  5
36F
330
3E
100
AcDbEntity
  8
USP-GEO
100
AcDbLine
 10
13.48189889457694
 20
21.02113006487437
 30
7.539231170297429
 11
13.4685655612436
 21
20.9944633982077
 31
7.525897836964097
  0
LINE
  5
370
330
3E
100
AcDbEntity
  8
USP-GEO
100
AcDbLine
 10
13.47845876403846
 20
20.92586145614909
 30
7.44740269211063
 11
13.47109306840109
 21
20.91113006487436
 31
7.440036996473268
  0
LINE
  5
371
330
3E
100
AcDbEntity
  8
USP-GEO
100
AcDbLine
 10
13.57023222791027
 20
20.93279673154103
 30
7.362564503630762
 11
13.55689889457694
 21
20.90613006487436
 31
7.349231170297429
  0
LINE
  5
372
330
3E
100
AcDbEntity
  8
USP-GEO
100
AcDbLine
 10
13.56679209737179
 20
20.83752812281575
 30
7.270736025443962
 11
13.55942640173443
 21
20.82279673154103
 31
7.263370329806603
  0
LINE
  5
373
330
3E
100
AcDbEntity
  8
USP-GEO
100
AcDbLine
 10
13.6585655612436
 20
20.84446339820769
 30
7.185897836964095
 11
13.64523222791027
 21
20.81779673154103
 31
7.172564503630762
  0
LINE
  5
374
330
3E
100
AcDbEntity
  8
USP-GEO
100
AcDbLine
 10
13.65512543070512
 20
20.74919478948242
 30
7.094069358777295
 11
13.64775973506776
 21
20.73446339820769
 31
7.086703663139935
  0
LINE
  5
375
330
3E
100
AcDbEntity
  8
USP-GEO
100
AcDbLine
 10
13.74689889457693
 20
20.75613006487436
 30
7.009231170297429
 11
13.7335655612436
 21
20.7294633982077
 31
6.995897836964095
  0
LINE
  5
376
330
3E
100
AcDbEntity
  8
USP-GEO
100
AcDbLine
 10
13.74345876403845
 20
20.66086145614908
 30
6.917402692110627
 11
13.7360930684011
 21
20.64613006487436
 31
6.910036996473268
  0
LINE
  5
377
330
3E
100
AcDbEntity
  8
USP-GEO
100
AcDbLine
 10
13.83523222791027
 20
20.66779673154103
 30
6.832564503630758
 11
13.82189889457693
 21
20.64113006487436
 31
6.819231170297427
  0
LINE
  5
378
330
3E
100
AcDbEntity
  8
USP-GEO
100
AcDbLine
 10
13.83179209737178
 20
20.57252812281574
 30
6.740736025443958
 11
13.82442640173443
 21
20.55779673154102
 31
6.7333703298066
  0
LINE
  5
379
330
3E
100
AcDbEntity
  8
USP-GEO
100
AcDbLine
 10
13.9235655612436
 20
20.57946339820769
 30
6.655897836964092
 11
13.91023222791027
 21
20.55279673154102
 31
6.64256450363076
  0
LINE
  5
37A
330
3E
100
AcDbEntity
  8
USP-GEO
100
AcDbLine
 10
13.92012543070512
 20
20.48419478948241
 30
6.564069358777292
 11
13.91275973506776
 21
20.46946339820769
 31
6.556703663139932
  0
LINE
  5
37B
330
3E
100
AcDbEntity
  8
USP-GEO
100
AcDbLine
 10
14.01189889457693
 20
20.49113006487436
 30
6.479231170297425
 11
13.9985655612436
 21
20.46446339820769
 31
6.465897836964092
  0
LINE
  5
37C
330
3E
100
AcDbEntity
  8
USP-GEO
100
AcDbLine
 10
14.00845876403845
 20
20.39586145614908
 30
6.387402692110624
 11
14.00109306840109
 21
20.38113006487435
 31
6.380036996473263
  0
LINE
  5
37D
330
3E
100
AcDbEntity
  8
USP-GEO
100
AcDbLine
 10
14.10023222791027
 20
20.40279673154103
 30
6.302564503630757
 11
14.08689889457693
 21
20.37613006487435
 31
6.289231170297423
  0
LINE
  5
37E
330
3E
100
AcDbEntity
  8
USP-GEO
100
AcDbLine
 10
13.51345876403845
 20
20.01586145614907
 30
6.502402692110623
 11
13.50609306840109
 21
20.00113006487435
 31
6.495036996473263
  0
LINE
  5
37F
330
3E
100
AcDbEntity
  8
USP-GEO
100
AcDbLine
 10
13.60523222791026
 20
20.02279673154102
 30
6.417564503630755
 11
13.59189889457693
 21
19.99613006487435
 31
6.404231170297423
  0
LINE
  5
380
330
3E
100
AcDbEntity
  8
USP-GEO
100
AcDbLine
 10
14.09679209737178
 20
20.30752812281574
 30
6.210736025443958
 11
14.08942640173442
 21
20.29279673154102
 31
6.203370329806597
  0
LINE
  5
381
330
3E
100
AcDbEntity
  8
USP-GEO
100
AcDbLine
 10
14.1885655612436
 20
20.31446339820769
 30
6.125897836964089
 11
14.17523222791026
 21
20.28779673154102
 31
6.112564503630755
  0
LINE
  5
382
330
3E
100
AcDbEntity
  8
USP-GEO
100
AcDbLine
 10
12.13512543070512
 20
20.51919478948242
 30
8.384069358777297
 11
12.12775973506776
 21
20.5044633982077
 31
8.376703663139938
  0
LINE
  5
383
330
3E
100
AcDbEntity
  8
USP-GEO
100
AcDbLine
 10
12.22689889457694
 20
20.52613006487437
 30
8.29923117029743
 11
12.2135655612436
 21
20.4994633982077
 31
8.285897836964096
  0
LINE
  5
384
330
3E
100
AcDbEntity
  8
USP-GEO
100
AcDbLine
 10
12.22345876403846
 20
20.43086145614909
 30
8.207402692110632
 11
12.2160930684011
 21
20.41613006487437
 31
8.20003699647327
  0
LINE
  5
385
330
3E
100
AcDbEntity
  8
USP-GEO
100
AcDbLine
 10
12.31523222791027
 20
20.43779673154103
 30
8.122564503630762
 11
12.30189889457694
 21
20.41113006487436
 31
8.109231170297428
  0
LINE
  5
386
330
3E
100
AcDbEntity
  8
USP-GEO
100
AcDbLine
 10
12.31179209737179
 20
20.34252812281575
 30
8.03073602544396
 11
12.30442640173443
 21
20.32779673154103
 31
8.023370329806601
  0
LINE
  5
387
330
3E
100
AcDbEntity
  8
USP-GEO
100
AcDbLine
 10
12.40356556124361
 20
20.3494633982077
 30
7.945897836964095
 11
12.39023222791027
 21
20.32279673154103
 31
7.932564503630761
  0
LINE
  5
388
330
3E
100
AcDbEntity
  8
USP-GEO
100
AcDbLine
 10
12.40012543070512
 20
20.25419478948241
 30
7.854069358777295
 11
12.39275973506776
 21
20.23946339820769
 31
7.846703663139935
  0
LINE
  5
389
330
3E
100
AcDbEntity
  8
USP-GEO
100
AcDbLine
 10
12.49189889457694
 20
20.26113006487436
 30
7.769231170297427
 11
12.4785655612436
 21
20.2344633982077
 31
7.755897836964095
  0
LINE
  5
38A
330
3E
100
AcDbEntity
  8
USP-GEO
100
AcDbLine
 10
12.48845876403846
 20
20.16586145614908
 30
7.677402692110629
 11
12.4810930684011
 21
20.15113006487436
 31
7.670036996473268
  0
LINE
  5
38B
330
3E
100
AcDbEntity
  8
USP-GEO
100
AcDbLine
 10
12.58023222791027
 20
20.17279673154103
 30
7.592564503630761
 11
12.56689889457694
 21
20.14613006487436
 31
7.579231170297429
  0
LINE
  5
38C
330
3E
100
AcDbEntity
  8
USP-GEO
100
AcDbLine
 10
12.57679209737179
 20
20.07752812281575
 30
7.500736025443962
 11
12.56942640173443
 21
20.06279673154103
 31
7.493370329806602
  0
LINE
  5
38D
330
3E
100
AcDbEntity
  8
USP-GEO
100
AcDbLine
 10
12.6685655612436
 20
20.08446339820769
 30
7.415897836964091
 11
12.65523222791027
 21
20.05779673154103
 31
7.402564503630758
  0
LINE
  5
38E
330
3E
100
AcDbEntity
  8
USP-GEO
100
AcDbLine
 10
12.66512543070512
 20
19.98919478948241
 30
7.324069358777294
 11
12.65775973506776
 21
19.97446339820769
 31
7.316703663139934
  0
LINE
  5
38F
330
3E
100
AcDbEntity
  8
USP-GEO
100
AcDbLine
 10
12.75689889457693
 20
19.99613006487436
 30
7.239231170297425
 11
12.7435655612436
 21
19.96946339820769
 31
7.225897836964092
  0
LINE
  5
390
330
3E
100
AcDbEntity
  8
USP-GEO
100
AcDbLine
 10
12.75345876403845
 20
19.90086145614908
 30
7.147402692110625
 11
12.74609306840109
 21
19.88613006487436
 31
7.140036996473266
  0
LINE
  5
391
330
3E
100
AcDbEntity
  8
USP-GEO
100
AcDbLine
 10
12.84523222791027
 20
19.90779673154102
 30
7.062564503630758
 11
12.83189889457693
 21
19.88113006487435
 31
7.049231170297425
  0
LINE
  5
392
330
3E
100
AcDbEntity
  8
USP-GEO
100
AcDbLine
 10
12.84179209737179
 20
19.81252812281574
 30
6.97073602544396
 11
12.83442640173442
 21
19.79779673154102
 31
6.963370329806596
  0
LINE
  5
393
330
3E
100
AcDbEntity
  8
USP-GEO
100
AcDbLine
 10
12.9335655612436
 20
19.81946339820769
 30
6.88589783696409
 11
12.92023222791026
 21
19.79279673154102
 31
6.872564503630755
  0
LINE
  5
394
330
3E
100
AcDbEntity
  8
USP-GEO
100
AcDbLine
 10
12.93012543070512
 20
19.7241947894824
 30
6.79406935877729
 11
12.92275973506776
 21
19.70946339820768
 31
6.78670366313993
  0
LINE
  5
395
330
3E
100
AcDbEntity
  8
USP-GEO
100
AcDbLine
 10
13.02189889457693
 20
19.73113006487435
 30
6.709231170297423
 11
13.0085655612436
 21
19.70446339820768
 31
6.695897836964089
  0
LINE
  5
396
330
3E
100
AcDbEntity
  8
USP-GEO
100
AcDbLine
 10
14.66599563401989
 20
20.58431061485812
 30
5.91831498083823
 11
14.6828423418438
 21
20.61800403050595
 31
5.935161688662146
  0
LINE
  5
397
330
3E
100
AcDbEntity
  8
USP-GEO
100
AcDbLine
 10
14.49051528749762
 20
20.93847728152478
 30
6.447961994027165
 11
14.50736199532153
 21
20.97217069717261
 31
6.464808701851081
  0
LINE
  5
398
330
3E
100
AcDbEntity
  8
USP-GEO
100
AcDbLine
 10
14.31182896735322
 20
20.93847728152478
 30
6.626648314171564
 11
14.32867567517713
 21
20.97217069717261
 31
6.64349502199548
  0
LINE
  5
399
330
3E
100
AcDbEntity
  8
USP-GEO
100
AcDbLine
 10
14.13634862083096
 20
21.29264394819146
 30
7.156295327360503
 11
14.15319532865487
 21
21.3263373638393
 31
7.173142035184418
  0
LINE
  5
39A
330
3E
100
AcDbEntity
  8
USP-GEO
100
AcDbLine
 10
13.95766230068656
 20
21.29264394819146
 30
7.334981647504903
 11
13.97450900851047
 21
21.32633736383929
 31
7.351828355328819
  0
LINE
  5
39B
330
3E
100
AcDbEntity
  8
USP-GEO
100
AcDbLine
 10
13.78218195416428
 20
21.64681061485811
 30
7.864628660693833
 11
13.79902866198819
 21
21.68050403050595
 31
7.881475368517749
  0
LINE
  5
39C
330
3E
100
AcDbEntity
  8
USP-GEO
100
AcDbLine
 10
13.60349563401988
 20
21.64681061485811
 30
8.043314980838234
 11
13.6203423418438
 21
21.68050403050595
 31
8.06016168866215
  0
ENDBLK
  5
39E
330
3E
100
AcDbEntity
  8
0
100
AcDbBlockEnd
  0
BLOCK
  5
39F
330
3C
100
AcDbEntity
  8
0
100
AcDbBlockBegin
  2
A$C69F01EBB
 70
     0
 10
0.0
 20
0.0
 30
0.0
  3
A$C69F01EBB
  1

  0
INSERT
  5
3D
330
3C
100
AcDbEntity
  8
USP-GEO
100
AcDbBlockReference
  2
*U1
 10
25.93122156087949
 20
-0.6719511216224897
 30
0.9502823894503352
 50
134.9999999999999
210
0.0
220
0.816496580927726
230
0.5773502691896259
  0
ENDBLK
  5
3A0
330
3C
100
AcDbEntity
  8
0
100
AcDbBlockEnd
  0
ENDSEC
  0
SECTION
  2
ENTITIES
  0
INSERT
  5
3B
330
2
100
AcDbEntity
  8
USP
100
AcDbBlockReference
  2
A$C69F01EBB
 10
2.353383697891139
 20
0.6259376395678001
 30
0.0
 41
0.09
 42
0.09
 43
0.09
  0
TEXT
  5
3C9
330
2
100
AcDbEntity
  8
0
100
AcDbText
 10
2.096332940514336
 20
0.1713207273690482
 30
0.0
 40
0.125
  1
USP  RT16-2
100
AcDbText
  0
TEXT
  5
3CF
330
2
100
AcDbEntity
  8
0
100
AcDbText
 10
1.64383469912487
 20
-0.0847089836403168
 30
0.0
 40
0.125
  1
SIMPSON  H10-2
100
AcDbText
  0
ENDSEC
  0
SECTION
  2
OBJECTS
  0
DICTIONARY
  5
3B9
330
0
100
AcDbDictionary
281
     1
  3
ACAD_COLOR
350
3C2
  3
ACAD_GROUP
350
3B7
  3
ACAD_LAYOUT
350
3C3
  3
ACAD_MATERIAL
350
3C1
  3
ACAD_MLINESTYLE
350
3B8
  3
ACAD_PLOTSETTINGS
350
3C4
  3
ACAD_PLOTSTYLENAME
350
3BF
  0
DICTIONARY
  5
3A1
330
2
100
AcDbDictionary
280
     1
281
     1
  3
ACAD_LAYOUTSELFREF
360
3A2
  0
DICTIONARY
  5
3A6
330
3A5
100
AcDbDictionary
280
     1
281
     1
  3
ACAD_LAYOUTSELFREF
360
3A7
  0
DICTIONARY
  5
34
330
1A
100
AcDbDictionary
280
     1
281
     1
  3
ACAD_SORTENTS
360
35
  0
DICTIONARY
  5
3C2
102
{ACAD_REACTORS
330
3B9
102
}
330
3B9
100
AcDbDictionary
281
     1
  0
DICTIONARY
  5
3B7
102
{ACAD_REACTORS
330
3B9
102
}
330
3B9
100
AcDbDictionary
281
     1
  0
DICTIONARY
  5
3C3
102
{ACAD_REACTORS
330
3B9
102
}
330
3B9
100
AcDbDictionary
281
     1
  3
Layout1
350
3C6
  3
Model
350
3C5
  0
DICTIONARY
  5
3C1
102
{ACAD_REACTORS
330
3B9
102
}
330
3B9
100
AcDbDictionary
281
     1
  0
DICTIONARY
  5
3B8
102
{ACAD_REACTORS
330
3B9
102
}
330
3B9
100
AcDbDictionary
281
     1
  3
STANDARD
350
3BC
  0
DICTIONARY
  5
3C4
102
{ACAD_REACTORS
330
3B9
102
}
330
3B9
100
AcDbDictionary
281
     1
  0
ACDBDICTIONARYWDFLT
  5
3BF
102
{ACAD_REACTORS
330
3B9
102
}
330
3B9
100
AcDbDictionary
281
     1
  3
Normal
350
3C0
100
AcDbDictionaryWithDefault
340
3C0
  0
XRECORD
  5
3A2
102
{ACAD_REACTORS
330
3A1
102
}
330
3A1
100
AcDbXrecord
280
     1
340
2
  0
XRECORD
  5
3A7
102
{ACAD_REACTORS
330
3A6
102
}
330
3A6
100
AcDbXrecord
280
     1
340
39C
  0
SORTENTSTABLE
  5
35
102
{ACAD_REACTORS
330
34
102
}
330
34
100
AcDbSortentsTable
330
1A
  0
LAYOUT
  5
3C6
102
{ACAD_REACTORS
330
3C3
102
}
330
3C3
100
AcDbPlotSettings
  1

  2
Send To OneNote 2010
  4

  6

 40
0.0
 41
0.0
 42
0.0
 43
0.0
 44
0.0
 45
0.0
 46
0.0
 47
0.0
 48
0.0
 49
0.0
140
0.0
141
0.0
142
1.0
143
1.0
 70
   688
 72
     0
 73
     0
 74
     5
  7

 75
    16
147
1.0
 76
     0
 77
     2
 78
   300
148
0.0
149
0.0
100
AcDbLayout
  1
Layout1
 70
     0
 71
     1
 10
0.0
 20
0.0
 11
12.0
 21
9.0
 12
0.0
 22
0.0
 32
0.0
 14
1.049999952316284
 24
0.7999999523162842
 34
0.0
 15
9.449999570846555
 25
7.199999570846556
 35
0.0
146
0.0
 13
0.0
 23
0.0
 33
0.0
 16
1.0
 26
0.0
 36
0.0
 17
0.0
 27
1.0
 37
0.0
 76
     0
330
3A5
  0
LAYOUT
  5
3C5
102
{ACAD_REACTORS
330
3C3
102
}
330
3C3
100
AcDbPlotSettings
  1

  2
Send To OneNote 2010
  4

  6

 40
0.0
 41
0.0
 42
0.0
 43
0.0
 44
0.0
 45
0.0
 46
0.0
 47
0.0
 48
0.0
 49
0.0
140
0.0
141
0.0
142
1.0
143
1.0
 70
  1712
 72
     0
 73
     0
 74
     0
  7

 75
     0
147
1.0
 76
     0
 77
     2
 78
   300
148
0.0
149
0.0
100
AcDbLayout
  1
Model
 70
     1
 71
     0
 10
0.0
 20
0.0
 11
12.0
 21
9.0
 12
0.0
 22
0.0
 32
0.0
 14
0.0
 24
0.0
 34
0.0
 15
0.0
 25
0.0
 35
0.0
146
0.0
 13
0.0
 23
0.0
 33
0.0
 16
1.0
 26
0.0
 36
0.0
 17
0.0
 27
1.0
 37
0.0
 76
     0
330
2
  0
MLINESTYLE
  5
3BC
102
{ACAD_REACTORS
330
3B8
102
}
330
3B8
100
AcDbMlineStyle
  2
STANDARD
 70
     0
  3

 62
     0
 51
90.0
 52
90.0
 71
     2
 49
0.5
 62
   256
  6
BYLAYER
 49
-0.5
 62
   256
  6
BYLAYER
  0
ACDBPLACEHOLDER
  5
3C0
102
{ACAD_REACTORS
330
3BF
102
}
330
3BF
  0
ENDSEC
  0
EOF
