  0
SECTION
  2
HEADER
  9
$ACADVER
  1
AC1015
  9
$ACADMAINTVER
 70
    20
  9
$DWGCODEPAGE
  3
ANSI_1252
  9
$INSBASE
 10
0.0
 20
0.0
 30
0.0
  9
$EXTMIN
 10
0.2500000000039853
 20
0.8604006399498532
 30
0.0
  9
$EXTMAX
 10
9.293315618389135
 20
10.75636776389939
 30
0.0
  9
$LIMMIN
 10
0.0
 20
0.0
  9
$LIMMAX
 10
8.5
 20
11.0
  9
$ORTHOMODE
 70
     0
  9
$REGENMODE
 70
     1
  9
$FILLMODE
 70
     1
  9
$QTEXTMODE
 70
     0
  9
$MIRRTEXT
 70
     1
  9
$LTSCALE
 40
1.0
  9
$ATTMODE
 70
     1
  9
$TEXTSIZE
 40
0.25
  9
$TRACEWID
 40
0.05
  9
$TEXTSTYLE
  7
Standard
  9
$CLAYER
  8
0
  9
$CELTYPE
  6
ByLayer
  9
$CECOLOR
 62
   256
  9
$CELTSCALE
 40
1.0
  9
$DISPSILH
 70
     0
  9
$DIMSCALE
 40
1.0
  9
$DIMASZ
 40
0.13
  9
$DIMEXO
 40
0.05
  9
$DIMDLI
 40
0.38
  9
$DIMRND
 40
0.0
  9
$DIMDLE
 40
0.0
  9
$DIMEXE
 40
0.125
  9
$DIMTP
 40
0.0
  9
$DIMTM
 40
0.0
  9
$DIMTXT
 40
0.125
  9
$DIMCEN
 40
0.09
  9
$DIMTSZ
 40
0.0
  9
$DIMTOL
 70
     0
  9
$DIMLIM
 70
     0
  9
$DIMTIH
 70
     1
  9
$DIMTOH
 70
     1
  9
$DIMSE1
 70
     0
  9
$DIMSE2
 70
     0
  9
$DIMTAD
 70
     0
  9
$DIMZIN
 70
     0
  9
$DIMBLK
  1

  9
$DIMASO
 70
     1
  9
$DIMSHO
 70
     1
  9
$DIMPOST
  1

  9
$DIMAPOST
  1

  9
$DIMALT
 70
     0
  9
$DIMALTD
 70
     2
  9
$DIMALTF
 40
25.4
  9
$DIMLFAC
 40
8.0
  9
$DIMTOFL
 70
     0
  9
$DIMTVP
 40
0.0
  9
$DIMTIX
 70
     0
  9
$DIMSOXD
 70
     0
  9
$DIMSAH
 70
     0
  9
$DIMBLK1
  1

  9
$DIMBLK2
  1

  9
$DIMSTYLE
  2
Standard
  9
$DIMCLRD
 70
     0
  9
$DIMCLRE
 70
     0
  9
$DIMCLRT
 70
     0
  9
$DIMTFAC
 40
1.0
  9
$DIMGAP
 40
0.06
  9
$DIMJUST
 70
     0
  9
$DIMSD1
 70
     0
  9
$DIMSD2
 70
     0
  9
$DIMTOLJ
 70
     1
  9
$DIMTZIN
 70
     0
  9
$DIMALTZ
 70
     0
  9
$DIMALTTZ
 70
     0
  9
$DIMUPT
 70
     0
  9
$DIMDEC
 70
     2
  9
$DIMTDEC
 70
     2
  9
$DIMALTU
 70
     2
  9
$DIMALTTD
 70
     2
  9
$DIMTXSTY
  7
Standard
  9
$DIMAUNIT
 70
     0
  9
$DIMADEC
 70
     0
  9
$DIMALTRND
 40
0.0
  9
$DIMAZIN
 70
     0
  9
$DIMDSEP
 70
    46
  9
$DIMATFIT
 70
     3
  9
$DIMFRAC
 70
     0
  9
$DIMLDRBLK
  1

  9
$DIMLUNIT
 70
     2
  9
$DIMLWD
 70
    -2
  9
$DIMLWE
 70
    -2
  9
$DIMTMOVE
 70
     0
  9
$LUNITS
 70
     2
  9
$LUPREC
 70
     2
  9
$SKETCHINC
 40
0.1
  9
$FILLETRAD
 40
0.5
  9
$AUNITS
 70
     0
  9
$AUPREC
 70
     2
  9
$MENU
  1
.
  9
$ELEVATION
 40
0.0
  9
$PELEVATION
 40
0.0
  9
$THICKNESS
 40
0.0
  9
$LIMCHECK
 70
     0
  9
$CHAMFERA
 40
0.0
  9
$CHAMFERB
 40
0.0
  9
$CHAMFERC
 40
0.0
  9
$CHAMFERD
 40
0.0
  9
$SKPOLY
 70
     0
  9
$TDCREATE
 40
2456701.537235856
  9
$TDUCREATE
 40
2456701.787235857
  9
$TDUPDATE
 40
2456701.538020729
  9
$TDUUPDATE
 40
2456701.788020729
  9
$TDINDWG
 40
0.0007039931
  9
$TDUSRTIMER
 40
0.0007039931
  9
$USRTIMER
 70
     1
  9
$ANGBASE
 50
0.0
  9
$ANGDIR
 70
     0
  9
$PDMODE
 70
     0
  9
$PDSIZE
 40
-1.0
  9
$PLINEWID
 40
0.0
  9
$SPLFRAME
 70
     0
  9
$SPLINETYPE
 70
     6
  9
$SPLINESEGS
 70
     8
  9
$HANDSEED
  5
1C1
  9
$SURFTAB1
 70
     6
  9
$SURFTAB2
 70
     6
  9
$SURFTYPE
 70
     6
  9
$SURFU
 70
     6
  9
$SURFV
 70
     6
  9
$UCSBASE
  2

  9
$UCSNAME
  2

  9
$UCSORG
 10
0.0
 20
0.0
 30
0.0
  9
$UCSXDIR
 10
1.0
 20
0.0
 30
0.0
  9
$UCSYDIR
 10
0.0
 20
1.0
 30
0.0
  9
$UCSORTHOREF
  2

  9
$UCSORTHOVIEW
 70
     0
  9
$UCSORGTOP
 10
0.0
 20
0.0
 30
0.0
  9
$UCSORGBOTTOM
 10
0.0
 20
0.0
 30
0.0
  9
$UCSORGLEFT
 10
0.0
 20
0.0
 30
0.0
  9
$UCSORGRIGHT
 10
0.0
 20
0.0
 30
0.0
  9
$UCSORGFRONT
 10
0.0
 20
0.0
 30
0.0
  9
$UCSORGBACK
 10
0.0
 20
0.0
 30
0.0
  9
$PUCSBASE
  2

  9
$PUCSNAME
  2

  9
$PUCSORG
 10
0.0
 20
0.0
 30
0.0
  9
$PUCSXDIR
 10
1.0
 20
0.0
 30
0.0
  9
$PUCSYDIR
 10
0.0
 20
1.0
 30
0.0
  9
$PUCSORTHOREF
  2

  9
$PUCSORTHOVIEW
 70
     0
  9
$PUCSORGTOP
 10
0.0
 20
0.0
 30
0.0
  9
$PUCSORGBOTTOM
 10
0.0
 20
0.0
 30
0.0
  9
$PUCSORGLEFT
 10
0.0
 20
0.0
 30
0.0
  9
$PUCSORGRIGHT
 10
0.0
 20
0.0
 30
0.0
  9
$PUCSORGFRONT
 10
0.0
 20
0.0
 30
0.0
  9
$PUCSORGBACK
 10
0.0
 20
0.0
 30
0.0
  9
$USERI1
 70
     0
  9
$USERI2
 70
     0
  9
$USERI3
 70
     0
  9
$USERI4
 70
     0
  9
$USERI5
 70
     0
  9
$USERR1
 40
0.0
  9
$USERR2
 40
0.0
  9
$USERR3
 40
0.0
  9
$USERR4
 40
0.0
  9
$USERR5
 40
0.0
  9
$WORLDVIEW
 70
     1
  9
$SHADEDGE
 70
     3
  9
$SHADEDIF
 70
    70
  9
$TILEMODE
 70
     1
  9
$MAXACTVP
 70
    64
  9
$PINSBASE
 10
0.0
 20
0.0
 30
0.0
  9
$PLIMCHECK
 70
     0
  9
$PEXTMIN
 10
1.000000000000000E+20
 20
1.000000000000000E+20
 30
1.000000000000000E+20
  9
$PEXTMAX
 10
-1.000000000000000E+20
 20
-1.000000000000000E+20
 30
-1.000000000000000E+20
  9
$PLIMMIN
 10
0.0
 20
0.0
  9
$PLIMMAX
 10
12.0
 20
9.0
  9
$UNITMODE
 70
     0
  9
$VISRETAIN
 70
     1
  9
$PLINEGEN
 70
     0
  9
$PSLTSCALE
 70
     1
  9
$TREEDEPTH
 70
  3020
  9
$CMLSTYLE
  2
Standard
  9
$CMLJUST
 70
     0
  9
$CMLSCALE
 40
1.0
  9
$PROXYGRAPHICS
 70
     1
  9
$MEASUREMENT
 70
     0
  9
$CELWEIGHT
370
    -1
  9
$ENDCAPS
280
     0
  9
$JOINSTYLE
280
     0
  9
$LWDISPLAY
290
     1
  9
$INSUNITS
 70
     1
  9
$HYPERLINKBASE
  1

  9
$STYLESHEET
  1

  9
$XEDIT
290
     1
  9
$CEPSNTYPE
380
     0
  9
$PSTYLEMODE
290
     1
  9
$FINGERPRINTGUID
  2
{DE76990E-F6DE-4F0D-ABA4-6A304D554603}
  9
$VERSIONGUID
  2
{E81D1043-0D7D-488E-A4AD-711652895EEF}
  9
$EXTNAMES
290
     1
  9
$PSVPSCALE
 40
0.0
  9
$OLESTARTUP
290
     0
  0
ENDSEC
  0
SECTION
  2
CLASSES
  0
CLASS
  1
ACDBDICTIONARYWDFLT
  2
AcDbDictionaryWithDefault
  3
ObjectDBX Classes
 90
        0
280
     0
281
     0
  0
CLASS
  1
VISUALSTYLE
  2
AcDbVisualStyle
  3
ObjectDBX Classes
 90
    36863
280
     0
281
     0
  0
CLASS
  1
MATERIAL
  2
AcDbMaterial
  3
ObjectDBX Classes
 90
    32768
280
     0
281
     0
  0
CLASS
  1
SCALE
  2
AcDbScale
  3
ObjectDBX Classes
 90
     1153
280
     0
281
     0
  0
CLASS
  1
SUN
  2
AcDbSun
  3
SCENEOE
 90
     1153
280
     0
281
     0
  0
CLASS
  1
ACDBPLACEHOLDER
  2
AcDbPlaceHolder
  3
ObjectDBX Classes
 90
        0
280
     0
281
     0
  0
CLASS
  1
LAYOUT
  2
AcDbLayout
  3
ObjectDBX Classes
 90
        0
280
     0
281
     0
  0
CLASS
  1
DICTIONARYVAR
  2
AcDbDictionaryVar
  3
ObjectDBX Classes
 90
        0
280
     0
281
     0
  0
ENDSEC
  0
SECTION
  2
TABLES
  0
TABLE
  2
VPORT
  5
8
330
0
100
AcDbSymbolTable
 70
     2
  0
VPORT
  5
1B7
330
8
100
AcDbSymbolTableRecord
100
AcDbViewportTableRecord
  2
*Active
 70
     0
 10
0.0
 20
0.0
 11
1.0
 21
1.0
 12
8.433274149621141
 22
5.744367219502448
 13
0.0
 23
0.0
 14
0.5
 24
0.5
 15
0.5
 25
0.5
 16
0.0
 26
0.0
 36
1.0
 17
0.0
 27
0.0
 37
0.0
 40
9.733103904624602
 41
2.144353899883585
 42
50.0
 43
0.0
 44
0.0
 50
0.0
 51
0.0
 71
     0
 72
  2000
 73
     1
 74
     3
 75
     0
 76
     0
 77
     0
 78
     0
281
     0
 65
     1
110
0.0
120
0.0
130
0.0
111
1.0
121
0.0
131
0.0
112
0.0
122
1.0
132
0.0
 79
     0
146
0.0
  0
ENDTAB
  0
TABLE
  2
LTYPE
  5
5
330
0
100
AcDbSymbolTable
 70
     6
  0
LTYPE
  5
14
330
5
100
AcDbSymbolTableRecord
100
AcDbLinetypeTableRecord
  2
ByBlock
 70
     0
  3

 72
    65
 73
     0
 40
0.0
  0
LTYPE
  5
15
330
5
100
AcDbSymbolTableRecord
100
AcDbLinetypeTableRecord
  2
ByLayer
 70
     0
  3

 72
    65
 73
     0
 40
0.0
  0
LTYPE
  5
16
330
5
100
AcDbSymbolTableRecord
100
AcDbLinetypeTableRecord
  2
Continuous
 70
     0
  3
Solid line
 72
    65
 73
     0
 40
0.0
  0
LTYPE
  5
6A
330
5
100
AcDbSymbolTableRecord
100
AcDbLinetypeTableRecord
  2
HIDDEN
 70
     0
  3
Hidden __ __ __ __ __ __ __ __ __ __ __ __ __ __
 72
    65
 73
     2
 40
0.075
 49
0.05
 74
     0
 49
-0.025
 74
     0
  0
LTYPE
  5
6B
330
5
100
AcDbSymbolTableRecord
100
AcDbLinetypeTableRecord
  2
PHANTOM
 70
     0
  3
Phantom ______  __  __  ______  __  __  ______
 72
    65
 73
     6
 40
0.5
 49
0.25
 74
     0
 49
-0.05
 74
     0
 49
0.05
 74
     0
 49
-0.05
 74
     0
 49
0.05
 74
     0
 49
-0.05
 74
     0
  0
LTYPE
  5
6C
330
5
100
AcDbSymbolTableRecord
100
AcDbLinetypeTableRecord
  2
CENTER
 70
     0
  3
Center ____ _ ____ _ ____ _ ____ _ ____ _ ____
 72
    65
 73
     4
 40
0.4
 49
0.25
 74
     0
 49
-0.05
 74
     0
 49
0.05
 74
     0
 49
-0.05
 74
     0
  0
LTYPE
  5
6D
330
5
100
AcDbSymbolTableRecord
100
AcDbLinetypeTableRecord
  2
CENTERX2
 70
     0
  3
Center (2x) ________  __  ________  __  _____
 72
    65
 73
     4
 40
0.8
 49
0.5
 74
     0
 49
-0.1
 74
     0
 49
0.1
 74
     0
 49
-0.1
 74
     0
  0
LTYPE
  5
6E
330
5
100
AcDbSymbolTableRecord
100
AcDbLinetypeTableRecord
  2
DOT2
 70
     0
  3
Dot (.5x) ........................................
 72
    65
 73
     2
 40
0.025
 49
0.0
 74
     0
 49
-0.025
 74
     0
  0
ENDTAB
  0
TABLE
  2
LAYER
  5
2
330
0
100
AcDbSymbolTable
 70
    20
  0
LAYER
  5
10
330
2
100
AcDbSymbolTableRecord
100
AcDbLayerTableRecord
  2
0
 70
     0
 62
     7
  6
Continuous
370
    -3
390
F
  0
LAYER
  5
6F
330
2
100
AcDbSymbolTableRecord
100
AcDbLayerTableRecord
  2
FORMAT
 70
     0
 62
     7
  6
Continuous
370
    -3
390
F
  0
LAYER
  5
70
330
2
100
AcDbSymbolTableRecord
100
AcDbLayerTableRecord
  2
SLD-0
 70
     0
 62
   179
  6
Continuous
370
    -3
390
F
  0
LAYER
  5
71
330
2
100
AcDbSymbolTableRecord
100
AcDbLayerTableRecord
  2
SLD-DEFPOINTS
 70
     0
 62
   179
  6
Continuous
370
    -3
390
F
  0
LAYER
  5
72
330
2
100
AcDbSymbolTableRecord
100
AcDbLayerTableRecord
  2
OBJ
 70
     0
 62
   179
  6
Continuous
370
    -3
390
F
  0
LAYER
  5
73
330
2
100
AcDbSymbolTableRecord
100
AcDbLayerTableRecord
  2
REV-1
 70
     0
 62
    -7
  6
Continuous
370
    -3
390
F
  0
LAYER
  5
74
330
2
100
AcDbSymbolTableRecord
100
AcDbLayerTableRecord
  2
REV-2
 70
     0
 62
    -7
  6
Continuous
370
    -3
390
F
  0
LAYER
  5
75
330
2
100
AcDbSymbolTableRecord
100
AcDbLayerTableRecord
  2
REV-3
 70
     0
 62
    -7
  6
Continuous
370
    -3
390
F
  0
LAYER
  5
76
330
2
100
AcDbSymbolTableRecord
100
AcDbLayerTableRecord
  2
PAINT
 70
     0
 62
    -7
  6
Continuous
370
    -3
390
F
  0
LAYER
  5
77
330
2
100
AcDbSymbolTableRecord
100
AcDbLayerTableRecord
  2
STAMP-AREA
 70
     0
 62
    -7
  6
Continuous
370
    -3
390
F
  0
LAYER
  5
78
330
2
100
AcDbSymbolTableRecord
100
AcDbLayerTableRecord
  2
TOLERANCES
 70
     0
 62
     7
  6
Continuous
370
    -3
390
F
  0
LAYER
  5
79
330
2
100
AcDbSymbolTableRecord
100
AcDbLayerTableRecord
  2
BLANK-SIZE-1
 70
     0
 62
    -7
  6
Continuous
370
    -3
390
F
  0
LAYER
  5
7A
330
2
100
AcDbSymbolTableRecord
100
AcDbLayerTableRecord
  2
BLANK-SIZE-2
 70
     0
 62
    -7
  6
Continuous
370
    -3
390
F
  0
LAYER
  5
7B
330
2
100
AcDbSymbolTableRecord
100
AcDbLayerTableRecord
  2
BLANK-SIZE-3
 70
     0
 62
    -7
  6
Continuous
370
    -3
390
F
  0
LAYER
  5
7C
330
2
100
AcDbSymbolTableRecord
100
AcDbLayerTableRecord
  2
BLANK-SIZE-4
 70
     0
 62
    -7
  6
Continuous
370
    -3
390
F
  0
LAYER
  5
7D
330
2
100
AcDbSymbolTableRecord
100
AcDbLayerTableRecord
  2
BLANK-SIZE-5
 70
     0
 62
    -7
  6
Continuous
370
    -3
390
F
  0
LAYER
  5
7E
330
2
100
AcDbSymbolTableRecord
100
AcDbLayerTableRecord
  2
HDG
 70
     0
 62
    -7
  6
Continuous
370
    -3
390
F
  0
LAYER
  5
7F
330
2
100
AcDbSymbolTableRecord
100
AcDbLayerTableRecord
  2
FAX-NOTE
 70
     0
 62
    -7
  6
Continuous
370
    -3
390
F
  0
LAYER
  5
80
330
2
100
AcDbSymbolTableRecord
100
AcDbLayerTableRecord
  2
TOP_MOUNT_PAINT
 70
     0
 62
    -7
  6
Continuous
370
    -3
390
F
  0
LAYER
  5
81
330
2
100
AcDbSymbolTableRecord
100
AcDbLayerTableRecord
  2
QTY-BLANK-SIZE-1
 70
     0
 62
     7
  6
Continuous
370
    -3
390
F
  0
ENDTAB
  0
TABLE
  2
STYLE
  5
3
330
0
100
AcDbSymbolTable
 70
     2
  0
STYLE
  5
11
330
3
100
AcDbSymbolTableRecord
100
AcDbTextStyleTableRecord
  2
Standard
 70
     0
 40
0.0
 41
1.0
 50
0.0
 71
     0
 42
0.25
  3
txt
  4

  0
STYLE
  5
AA
330
3
100
AcDbSymbolTableRecord
100
AcDbTextStyleTableRecord
  2
SLDTEXTSTYLE0
 70
     0
 40
0.0
 41
0.7
 50
0.0
 71
     0
 42
0.1388888888888889
  3
TXT
  4

  0
ENDTAB
  0
TABLE
  2
VIEW
  5
6
330
0
100
AcDbSymbolTable
 70
     0
  0
ENDTAB
  0
TABLE
  2
UCS
  5
7
330
0
100
AcDbSymbolTable
 70
     0
  0
ENDTAB
  0
TABLE
  2
APPID
  5
9
330
0
100
AcDbSymbolTable
 70
     1
  0
APPID
  5
12
330
9
100
AcDbSymbolTableRecord
100
AcDbRegAppTableRecord
  2
ACAD
 70
     0
  0
ENDTAB
  0
TABLE
  2
DIMSTYLE
  5
A
330
0
100
AcDbSymbolTable
 70
     1
100
AcDbDimStyleTable
 71
     0
  0
DIMSTYLE
105
27
330
A
100
AcDbSymbolTableRecord
100
AcDbDimStyleTableRecord
  2
Standard
 70
     0
340
11
  0
ENDTAB
  0
TABLE
  2
BLOCK_RECORD
  5
1
330
0
100
AcDbSymbolTable
 70
     3
  0
BLOCK_RECORD
  5
1F
330
1
100
AcDbSymbolTableRecord
100
AcDbBlockTableRecord
  2
*Model_Space
340
22
  0
BLOCK_RECORD
  5
1B
330
1
100
AcDbSymbolTableRecord
100
AcDbBlockTableRecord
  2
*Paper_Space
340
1E
  0
BLOCK_RECORD
  5
23
330
1
100
AcDbSymbolTableRecord
100
AcDbBlockTableRecord
  2
*Paper_Space0
340
26
  0
BLOCK_RECORD
  5
AE
330
1
100
AcDbSymbolTableRecord
100
AcDbBlockTableRecord
  2
SW_NOTE_0
340
0
102
{BLKREFS
331
B3
102
}
  0
BLOCK_RECORD
  5
B5
330
1
100
AcDbSymbolTableRecord
100
AcDbBlockTableRecord
  2
SW_NOTE_1
340
0
102
{BLKREFS
331
BC
102
}
  0
ENDTAB
  0
ENDSEC
  0
SECTION
  2
BLOCKS
  0
BLOCK
  5
20
330
1F
100
AcDbEntity
  8
0
100
AcDbBlockBegin
  2
*Model_Space
 70
     0
 10
0.0
 20
0.0
 30
0.0
  3
*Model_Space
  1

  0
ENDBLK
  5
21
330
1F
100
AcDbEntity
  8
0
100
AcDbBlockEnd
  0
BLOCK
  5
1C
330
1B
100
AcDbEntity
 67
     1
  8
0
100
AcDbBlockBegin
  2
*Paper_Space
 70
     0
 10
0.0
 20
0.0
 30
0.0
  3
*Paper_Space
  1

  0
ENDBLK
  5
1D
330
1B
100
AcDbEntity
 67
     1
  8
0
100
AcDbBlockEnd
  0
BLOCK
  5
24
330
23
100
AcDbEntity
  8
0
100
AcDbBlockBegin
  2
*Paper_Space0
 70
     0
 10
0.0
 20
0.0
 30
0.0
  3
*Paper_Space0
  1

  0
ENDBLK
  5
25
330
23
100
AcDbEntity
  8
0
100
AcDbBlockEnd
  0
BLOCK
  5
AF
330
AE
100
AcDbEntity
  8
0
100
AcDbBlockBegin
  2
SW_NOTE_0
 70
     0
 10
0.0
 20
0.0
 30
0.0
  3
SW_NOTE_0
  1

  0
MTEXT
  5
B1
330
AE
100
AcDbEntity
  8
PAINT
 62
     0
100
AcDbMText
 10
0.0
 20
0.1342778895595794
 30
0.0
 40
0.1041666666666667
 41
0.0
 71
     1
 72
     1
  1
NOTE:
  7
SLDTEXTSTYLE0
 73
     1
 44
1.0
1001
ACAD
1000
MTEXTBEGIN
1070
    73
1070
     1
1070
    44
1040
1.0
1070
    74
1070
     0
1000
MTEXTEND
  0
MTEXT
  5
B2
330
AE
100
AcDbEntity
  8
PAINT
 62
     0
100
AcDbMText
 10
0.0
 20
-0.0046109976508103
 30
0.0
 40
0.1041666666666667
 41
0.0
 71
     1
 72
     1
  1
PAINT WITH PRIMER AFTER FABRICATION.
  7
SLDTEXTSTYLE0
 73
     1
 44
1.0
1001
ACAD
1000
MTEXTBEGIN
1070
    73
1070
     1
1070
    44
1040
1.0
1070
    74
1070
     0
1000
MTEXTEND
  0
ENDBLK
  5
B0
330
AE
100
AcDbEntity
  8
0
100
AcDbBlockEnd
  0
BLOCK
  5
B6
330
B5
100
AcDbEntity
  8
0
100
AcDbBlockBegin
  2
SW_NOTE_1
 70
     0
 10
0.0
 20
0.0
 30
0.0
  3
SW_NOTE_1
  1

  0
MTEXT
  5
B8
330
B5
100
AcDbEntity
  8
TOP_MOUNT_PAINT
 62
     0
100
AcDbMText
 10
0.0
 20
0.1342778895595794
 30
0.0
 40
0.1041666666666667
 41
0.0
 71
     1
 72
     1
  1
NOTE:
  7
SLDTEXTSTYLE0
 73
     1
 44
1.0
1001
ACAD
1000
MTEXTBEGIN
1070
    73
1070
     1
1070
    44
1040
1.0
1070
    74
1070
     0
1000
MTEXTEND
  0
MTEXT
  5
B9
330
B5
100
AcDbEntity
  8
TOP_MOUNT_PAINT
 62
     0
100
AcDbMText
 10
0.0
 20
-0.0046109976508103
 30
0.0
 40
0.1041666666666667
 41
0.0
 71
     1
 72
     1
  1
DIMENSIONS IN BRACKETS ARE FOR INFORMATIONAL
  7
SLDTEXTSTYLE0
 73
     1
 44
1.0
1001
ACAD
1000
MTEXTBEGIN
1070
    73
1070
     1
1070
    44
1040
1.0
1070
    74
1070
     0
1000
MTEXTEND
  0
MTEXT
  5
BA
330
B5
100
AcDbEntity
  8
TOP_MOUNT_PAINT
 62
     0
100
AcDbMText
 10
0.1562500000000003
 20
-0.1434998848612001
 30
0.0
 40
0.1041666666666667
 41
0.0
 71
     1
 72
     1
  1
PURPOSES ONLY. NOT A PRODUCT SPECIFICATION
  7
SLDTEXTSTYLE0
 73
     1
 44
1.0
1001
ACAD
1000
MTEXTBEGIN
1070
    73
1070
     1
1070
    44
1040
1.0
1070
    74
1070
     0
1000
MTEXTEND
  0
MTEXT
  5
BB
330
B5
100
AcDbEntity
  8
TOP_MOUNT_PAINT
 62
     0
100
AcDbMText
 10
0.0
 20
-0.2823887720715896
 30
0.0
 40
0.1041666666666667
 41
0.0
 71
     1
 72
     1
  1
PAINT PER USP SPECIFICATION AFTER FAGRICATION
  7
SLDTEXTSTYLE0
 73
     1
 44
1.0
1001
ACAD
1000
MTEXTBEGIN
1070
    73
1070
     1
1070
    44
1040
1.0
1070
    74
1070
     0
1000
MTEXTEND
  0
ENDBLK
  5
B7
330
B5
100
AcDbEntity
  8
0
100
AcDbBlockEnd
  0
ENDSEC
  0
SECTION
  2
ENTITIES
  0
LINE
  5
82
330
1F
100
AcDbEntity
  8
REV-1
 62
     7
100
AcDbLine
 10
4.20200000000004
 20
2.401805066185815
 30
0.0
 11
0.2500000000039954
 21
2.401805066185815
 31
0.0
  0
LINE
  5
83
330
1F
100
AcDbEntity
  8
REV-1
100
AcDbLine
 10
0.5412821291398489
 20
2.214305066185815
 30
0.0
 11
0.5412821291398492
 21
2.401805066185815
 31
0.0
  0
LINE
  5
84
330
1F
100
AcDbEntity
  8
REV-1
100
AcDbLine
 10
1.102000000003129
 20
2.214305066185815
 30
0.0
 11
1.102000000003129
 21
2.401805066185815
 31
0.0
  0
LINE
  5
85
330
1F
100
AcDbEntity
  8
REV-1
100
AcDbLine
 10
1.702000000002528
 20
2.214305066185815
 30
0.0
 11
1.702000000002529
 21
2.401805066185815
 31
0.0
  0
LINE
  5
86
330
1F
100
AcDbEntity
  8
REV-1
100
AcDbLine
 10
3.754000000000474
 20
2.214305066185815
 30
0.0
 11
3.754000000000474
 21
2.401805066185815
 31
0.0
  0
LINE
  5
87
330
1F
100
AcDbEntity
  8
REV-1
100
AcDbLine
 10
4.20200000000004
 20
2.401805066185815
 30
0.0
 11
4.20200000000004
 21
2.297445540486282
 31
0.0
  0
LINE
  5
88
330
1F
100
AcDbEntity
  8
REV-2
 62
     7
100
AcDbLine
 10
4.202000000000033
 20
2.582962363383948
 30
0.0
 11
0.2500000000039883
 21
2.582962363383948
 31
0.0
  0
LINE
  5
89
330
1F
100
AcDbEntity
  8
REV-2
100
AcDbLine
 10
3.754000000000467
 20
2.395462363383948
 30
0.0
 11
3.754000000000467
 21
2.582962363383948
 31
0.0
  0
LINE
  5
8A
330
1F
100
AcDbEntity
  8
STAMP-AREA
100
AcDbLine
 10
0.2500000000039865
 20
9.153817415119126
 30
0.0
 11
4.507433697227471
 21
9.153817415119126
 31
0.0
  0
LINE
  5
8B
330
1F
100
AcDbEntity
  8
REV-2
100
AcDbLine
 10
1.702000000002521
 20
2.395462363383948
 30
0.0
 11
1.702000000002522
 21
2.582962363383948
 31
0.0
  0
LINE
  5
8C
330
1F
100
AcDbEntity
  8
REV-2
100
AcDbLine
 10
0.5412821291398418
 20
2.395462363383948
 30
0.0
 11
0.5412821291398421
 21
2.582962363383948
 31
0.0
  0
LINE
  5
8D
330
1F
100
AcDbEntity
  8
REV-2
100
AcDbLine
 10
1.102000000003122
 20
2.395462363383948
 30
0.0
 11
1.102000000003122
 21
2.582962363383948
 31
0.0
  0
LINE
  5
8E
330
1F
100
AcDbEntity
  8
STAMP-AREA
100
AcDbLine
 10
4.507433697227471
 20
9.153817415119126
 30
0.0
 11
4.507433697227471
 21
10.75636776389939
 31
0.0
  0
LINE
  5
8F
330
1F
100
AcDbEntity
  8
REV-3
100
AcDbLine
 10
3.75400000000046
 20
2.576619660582081
 30
0.0
 11
3.75400000000046
 21
2.764119660582081
 31
0.0
  0
LINE
  5
90
330
1F
100
AcDbEntity
  8
REV-3
100
AcDbLine
 10
0.5412821291398347
 20
2.576619660582081
 30
0.0
 11
0.541282129139835
 21
2.764119660582081
 31
0.0
  0
LINE
  5
91
330
1F
100
AcDbEntity
  8
REV-3
100
AcDbLine
 10
1.102000000003114
 20
2.576619660582081
 30
0.0
 11
1.102000000003115
 21
2.764119660582081
 31
0.0
  0
LINE
  5
92
330
1F
100
AcDbEntity
  8
REV-3
100
AcDbLine
 10
0.2500000000039853
 20
2.764119660582081
 30
0.0
 11
4.202000000000033
 21
2.764119660582081
 31
0.0
  0
LINE
  5
93
330
1F
100
AcDbEntity
  8
REV-3
100
AcDbLine
 10
1.702000000002514
 20
2.576619660582081
 30
0.0
 11
1.702000000002515
 21
2.764119660582081
 31
0.0
  0
LINE
  5
94
330
1F
100
AcDbEntity
  8
REV-2
100
AcDbLine
 10
4.20200000000004
 20
2.401805066185815
 30
0.0
 11
4.202000000000033
 21
2.582962363383948
 31
0.0
  0
LINE
  5
95
330
1F
100
AcDbEntity
  8
REV-3
100
AcDbLine
 10
4.202000000000033
 20
2.764119660582081
 30
0.0
 11
4.202000000000033
 21
2.582962363383948
 31
0.0
  0
LINE
  5
96
330
1F
100
AcDbEntity
  8
BLANK-SIZE-1
100
AcDbLine
 10
0.2500000000039867
 20
10.52494462524623
 30
0.0
 11
1.980274032124935
 21
10.52494462524623
 31
0.0
  0
LINE
  5
97
330
1F
100
AcDbEntity
  8
BLANK-SIZE-1
100
AcDbLine
 10
1.980274032124935
 20
10.52494462524623
 30
0.0
 11
1.980274032124935
 21
10.75636776389939
 31
0.0
  0
LINE
  5
98
330
1F
100
AcDbEntity
  8
BLANK-SIZE-1
100
AcDbLine
 10
1.980274032124935
 20
10.52494462524623
 30
0.0
 11
2.290622804470809
 21
10.52494462524623
 31
0.0
  0
LINE
  5
99
330
1F
100
AcDbEntity
  8
BLANK-SIZE-1
100
AcDbLine
 10
2.290622804470809
 20
10.52494462524623
 30
0.0
 11
2.290622804470809
 21
10.75636776389939
 31
0.0
  0
LINE
  5
9A
330
1F
100
AcDbEntity
  8
BLANK-SIZE-2
100
AcDbLine
 10
0.2500000000039864
 20
10.29352148659306
 30
0.0
 11
1.980274032124934
 21
10.29352148659306
 31
0.0
  0
LINE
  5
9B
330
1F
100
AcDbEntity
  8
BLANK-SIZE-2
100
AcDbLine
 10
1.980274032124934
 20
10.29352148659306
 30
0.0
 11
1.980274032124934
 21
10.52494462524623
 31
0.0
  0
LINE
  5
9C
330
1F
100
AcDbEntity
  8
BLANK-SIZE-2
100
AcDbLine
 10
1.980274032124934
 20
10.29352148659306
 30
0.0
 11
2.290622804470809
 21
10.29352148659306
 31
0.0
  0
LINE
  5
9D
330
1F
100
AcDbEntity
  8
BLANK-SIZE-2
100
AcDbLine
 10
2.290622804470809
 20
10.29352148659306
 30
0.0
 11
2.290622804470809
 21
10.52494462524623
 31
0.0
  0
LINE
  5
9E
330
1F
100
AcDbEntity
  8
BLANK-SIZE-3
100
AcDbLine
 10
0.2500000000039864
 20
10.06209834793989
 30
0.0
 11
1.980274032124934
 21
10.06209834793989
 31
0.0
  0
LINE
  5
9F
330
1F
100
AcDbEntity
  8
BLANK-SIZE-3
100
AcDbLine
 10
1.980274032124934
 20
10.06209834793989
 30
0.0
 11
1.980274032124934
 21
10.29352148659306
 31
0.0
  0
LINE
  5
A0
330
1F
100
AcDbEntity
  8
BLANK-SIZE-3
100
AcDbLine
 10
1.980274032124934
 20
10.06209834793989
 30
0.0
 11
2.290622804470809
 21
10.06209834793989
 31
0.0
  0
LINE
  5
A1
330
1F
100
AcDbEntity
  8
BLANK-SIZE-3
100
AcDbLine
 10
2.290622804470809
 20
10.06209834793989
 30
0.0
 11
2.290622804470809
 21
10.29352148659306
 31
0.0
  0
LINE
  5
A2
330
1F
100
AcDbEntity
  8
BLANK-SIZE-4
100
AcDbLine
 10
0.2500000000039864
 20
9.830675209286724
 30
0.0
 11
1.980274032124934
 21
9.830675209286724
 31
0.0
  0
LINE
  5
A3
330
1F
100
AcDbEntity
  8
BLANK-SIZE-4
100
AcDbLine
 10
1.980274032124934
 20
9.830675209286724
 30
0.0
 11
1.980274032124934
 21
10.06209834793989
 31
0.0
  0
LINE
  5
A4
330
1F
100
AcDbEntity
  8
BLANK-SIZE-4
100
AcDbLine
 10
1.980274032124934
 20
9.830675209286724
 30
0.0
 11
2.290622804470809
 21
9.830675209286724
 31
0.0
  0
LINE
  5
A5
330
1F
100
AcDbEntity
  8
BLANK-SIZE-4
100
AcDbLine
 10
2.290622804470809
 20
9.830675209286724
 30
0.0
 11
2.290622804470809
 21
10.06209834793989
 31
0.0
  0
LINE
  5
A6
330
1F
100
AcDbEntity
  8
BLANK-SIZE-5
100
AcDbLine
 10
0.2500000000039864
 20
9.599252070633557
 30
0.0
 11
1.980274032124934
 21
9.599252070633557
 31
0.0
  0
LINE
  5
A7
330
1F
100
AcDbEntity
  8
BLANK-SIZE-5
100
AcDbLine
 10
1.980274032124934
 20
9.599252070633557
 30
0.0
 11
1.980274032124934
 21
9.830675209286724
 31
0.0
  0
LINE
  5
A8
330
1F
100
AcDbEntity
  8
BLANK-SIZE-5
100
AcDbLine
 10
1.980274032124934
 20
9.599252070633557
 30
0.0
 11
2.290622804470809
 21
9.599252070633557
 31
0.0
  0
LINE
  5
A9
330
1F
100
AcDbEntity
  8
BLANK-SIZE-5
100
AcDbLine
 10
2.290622804470809
 20
9.599252070633557
 30
0.0
 11
2.290622804470809
 21
9.830675209286724
 31
0.0
  0
MTEXT
  5
AB
330
1F
100
AcDbEntity
  8
REV-1
100
AcDbMText
 10
0.3976847054683001
 20
2.345321091744749
 30
0.0
 40
0.071999999999928
 41
0.0
 71
     2
 72
     1
  1
A
  7
SLDTEXTSTYLE0
 73
     1
 44
1.0
1001
ACAD
1000
MTEXTBEGIN
1070
    73
1070
     1
1070
    44
1040
1.0
1070
    74
1070
     0
1000
MTEXTEND
  0
MTEXT
  5
AC
330
1F
100
AcDbEntity
  8
REV-2
100
AcDbMText
 10
0.3984784562988157
 20
2.526478388942882
 30
0.0
 40
0.071999999999928
 41
0.0
 71
     2
 72
     1
  1
B
  7
SLDTEXTSTYLE0
 73
     1
 44
1.0
1001
ACAD
1000
MTEXTBEGIN
1070
    73
1070
     1
1070
    44
1040
1.0
1070
    74
1070
     0
1000
MTEXTEND
  0
MTEXT
  5
AD
330
1F
100
AcDbEntity
  8
REV-3
100
AcDbMText
 10
0.3977972055775314
 20
2.707635686141014
 30
0.0
 40
0.071999999999928
 41
0.0
 71
     2
 72
     1
  1
C
  7
SLDTEXTSTYLE0
 73
     1
 44
1.0
1001
ACAD
1000
MTEXTBEGIN
1070
    73
1070
     1
1070
    44
1040
1.0
1070
    74
1070
     0
1000
MTEXTEND
  0
INSERT
  5
B3
330
1F
100
AcDbEntity
  8
PAINT
100
AcDbBlockReference
  2
SW_NOTE_0
 10
0.3726190492669557
 20
2.952499556508746
 30
0.0
  0
MTEXT
  5
B4
330
1F
100
AcDbEntity
  8
STAMP-AREA
100
AcDbMText
 10
1.137361720352755
 20
10.11302559596205
 30
0.0
 40
0.1666666666666666
 41
0.0
 71
     1
 72
     1
  1
STAMP DETAIL AREA
  7
SLDTEXTSTYLE0
 73
     1
 44
1.0
1001
ACAD
1000
MTEXTBEGIN
1070
    73
1070
     1
1070
    44
1040
1.0
1070
    74
1070
     0
1000
MTEXTEND
  0
INSERT
  5
BC
330
1F
100
AcDbEntity
  8
TOP_MOUNT_PAINT
100
AcDbBlockReference
  2
SW_NOTE_1
 10
4.355598574320564
 20
2.654636621380011
 30
0.0
  0
MTEXT
  5
BD
330
1F
100
AcDbEntity
  8
BLANK-SIZE-1
100
AcDbMText
 10
0.3378807907583502
 20
10.69464564061513
 30
0.0
 40
0.1041666666666667
 41
0.0
 71
     1
 72
     1
  1
--
  7
SLDTEXTSTYLE0
 73
     1
 44
1.0
1001
ACAD
1000
MTEXTBEGIN
1070
    73
1070
     1
1070
    44
1040
1.0
1070
    74
1070
     0
1000
MTEXTEND
  0
MTEXT
  5
BE
330
1F
100
AcDbEntity
  8
BLANK-SIZE-1
100
AcDbMText
 10
2.097147970615131
 20
10.69464564061513
 30
0.0
 40
0.1041666666666667
 41
0.0
 71
     1
 72
     1
  1
--
  7
SLDTEXTSTYLE0
 73
     1
 44
1.0
1001
ACAD
1000
MTEXTBEGIN
1070
    73
1070
     1
1070
    44
1040
1.0
1070
    74
1070
     0
1000
MTEXTEND
  0
MTEXT
  5
BF
330
1F
100
AcDbEntity
  8
BLANK-SIZE-2
100
AcDbMText
 10
2.097147970615131
 20
10.46322250196197
 30
0.0
 40
0.1041666666666667
 41
0.0
 71
     1
 72
     1
  1
--
  7
SLDTEXTSTYLE0
 73
     1
 44
1.0
1001
ACAD
1000
MTEXTBEGIN
1070
    73
1070
     1
1070
    44
1040
1.0
1070
    74
1070
     0
1000
MTEXTEND
  0
MTEXT
  5
C0
330
1F
100
AcDbEntity
  8
BLANK-SIZE-2
100
AcDbMText
 10
0.3378807907583502
 20
10.46322250196197
 30
0.0
 40
0.1041666666666667
 41
0.0
 71
     1
 72
     1
  1
--
  7
SLDTEXTSTYLE0
 73
     1
 44
1.0
1001
ACAD
1000
MTEXTBEGIN
1070
    73
1070
     1
1070
    44
1040
1.0
1070
    74
1070
     0
1000
MTEXTEND
  0
MTEXT
  5
C1
330
1F
100
AcDbEntity
  8
BLANK-SIZE-3
100
AcDbMText
 10
0.3378807907583499
 20
10.2317993633088
 30
0.0
 40
0.1041666666666667
 41
0.0
 71
     1
 72
     1
  1
--
  7
SLDTEXTSTYLE0
 73
     1
 44
1.0
1001
ACAD
1000
MTEXTBEGIN
1070
    73
1070
     1
1070
    44
1040
1.0
1070
    74
1070
     0
1000
MTEXTEND
  0
MTEXT
  5
C2
330
1F
100
AcDbEntity
  8
BLANK-SIZE-3
100
AcDbMText
 10
2.09714797061513
 20
10.2317993633088
 30
0.0
 40
0.1041666666666667
 41
0.0
 71
     1
 72
     1
  1
--
  7
SLDTEXTSTYLE0
 73
     1
 44
1.0
1001
ACAD
1000
MTEXTBEGIN
1070
    73
1070
     1
1070
    44
1040
1.0
1070
    74
1070
     0
1000
MTEXTEND
  0
MTEXT
  5
C3
330
1F
100
AcDbEntity
  8
BLANK-SIZE-4
100
AcDbMText
 10
2.09714797061513
 20
10.00037622465563
 30
0.0
 40
0.1041666666666667
 41
0.0
 71
     1
 72
     1
  1
--
  7
SLDTEXTSTYLE0
 73
     1
 44
1.0
1001
ACAD
1000
MTEXTBEGIN
1070
    73
1070
     1
1070
    44
1040
1.0
1070
    74
1070
     0
1000
MTEXTEND
  0
MTEXT
  5
C4
330
1F
100
AcDbEntity
  8
BLANK-SIZE-4
100
AcDbMText
 10
0.3378807907583498
 20
10.00037622465563
 30
0.0
 40
0.1041666666666667
 41
0.0
 71
     1
 72
     1
  1
--
  7
SLDTEXTSTYLE0
 73
     1
 44
1.0
1001
ACAD
1000
MTEXTBEGIN
1070
    73
1070
     1
1070
    44
1040
1.0
1070
    74
1070
     0
1000
MTEXTEND
  0
MTEXT
  5
C5
330
1F
100
AcDbEntity
  8
BLANK-SIZE-5
100
AcDbMText
 10
0.3378807907583498
 20
9.768953086002465
 30
0.0
 40
0.1041666666666667
 41
0.0
 71
     1
 72
     1
  1
--
  7
SLDTEXTSTYLE0
 73
     1
 44
1.0
1001
ACAD
1000
MTEXTBEGIN
1070
    73
1070
     1
1070
    44
1040
1.0
1070
    74
1070
     0
1000
MTEXTEND
  0
MTEXT
  5
C6
330
1F
100
AcDbEntity
  8
BLANK-SIZE-5
100
AcDbMText
 10
2.09714797061513
 20
9.768953086002467
 30
0.0
 40
0.1041666666666667
 41
0.0
 71
     1
 72
     1
  1
--
  7
SLDTEXTSTYLE0
 73
     1
 44
1.0
1001
ACAD
1000
MTEXTBEGIN
1070
    73
1070
     1
1070
    44
1040
1.0
1070
    74
1070
     0
1000
MTEXTEND
  0
MTEXT
  5
C7
330
1F
100
AcDbEntity
  8
BLANK-SIZE-2
100
AcDbMText
 10
0.7735977297276487
 20
0.9124839732831866
 30
0.0
 40
0.1041666666666667
 41
0.0
 71
     1
 72
     1
  1
--
  7
SLDTEXTSTYLE0
 73
     1
 44
1.0
1001
ACAD
1000
MTEXTBEGIN
1070
    73
1070
     1
1070
    44
1040
1.0
1070
    74
1070
     0
1000
MTEXTEND
  0
LINE
  5
C8
330
1F
100
AcDbEntity
  8
0
  6
Continuous
 62
     7
370
    15
100
AcDbLine
 10
4.590958180187125
 20
6.074990420485277
 30
0.0
 11
4.596166488210988
 21
6.072655581865412
 31
0.0
  0
LINE
  5
C9
330
1F
100
AcDbEntity
  8
0
  6
Continuous
 62
     7
370
    15
100
AcDbLine
 10
4.638777467786026
 20
6.167708264284732
 30
0.0
 11
4.633569073381747
 21
6.170043091047699
 31
0.0
  0
LINE
  5
CA
330
1F
100
AcDbEntity
  8
0
  6
Continuous
 62
     7
370
    15
100
AcDbLine
 10
4.728228472399393
 20
7.465280886172969
 30
0.0
 11
4.73343669509923
 21
7.462946129600545
 31
0.0
  0
LINE
  5
CB
330
1F
100
AcDbEntity
  8
0
  6
Continuous
 62
     7
370
    15
100
AcDbLine
 10
4.776047673617877
 20
7.557998718115529
 30
0.0
 11
4.770839278157204
 21
7.560333450974159
 31
0.0
  0
LINE
  5
CC
330
1F
100
AcDbEntity
  8
0
  6
Continuous
 62
     7
370
    15
100
AcDbLine
 10
4.600761321981861
 20
7.364500262755467
 30
0.0
 11
4.60596962894933
 21
7.362165330231267
 31
0.0
  0
LINE
  5
CD
330
1F
100
AcDbEntity
  8
0
  6
Continuous
 62
     7
370
    15
100
AcDbLine
 10
4.648580609580761
 20
7.457218106554924
 30
0.0
 11
4.643372214120089
 21
7.459552839413555
 31
0.0
  0
LINE
  5
CE
330
1F
100
AcDbEntity
  8
0
  6
Continuous
 62
     7
370
    15
100
AcDbLine
 10
5.147578359015721
 20
6.042820030590858
 30
0.0
 11
5.152786580659167
 21
6.040485180114098
 31
0.0
  0
LINE
  5
CF
330
1F
100
AcDbEntity
  8
0
  6
Continuous
 62
     7
370
    15
100
AcDbLine
 10
5.195397560234205
 20
6.135537862533418
 30
0.0
 11
5.190189165829925
 21
6.137872689296385
 31
0.0
  0
LINE
  5
D0
330
1F
100
AcDbEntity
  8
0
  6
Continuous
 62
     7
370
    15
100
AcDbLine
 10
5.196758933565785
 20
7.378844351024662
 30
0.0
 11
5.201967340476296
 21
7.376509612033829
 31
0.0
  0
LINE
  5
D1
330
1F
100
AcDbEntity
  8
0
  6
Continuous
 62
     7
370
    15
100
AcDbLine
 10
5.244578146234108
 20
7.471562176835019
 30
0.0
 11
5.239369914197218
 21
7.473897127348319
 31
0.0
  0
LINE
  5
D2
330
1F
100
AcDbEntity
  8
0
  6
Continuous
 62
     7
370
    15
100
AcDbLine
 10
5.125141694003793
 20
7.528441660631441
 30
0.0
 11
5.130350089464466
 21
7.52610692777281
 31
0.0
  0
LINE
  5
D3
330
1F
100
AcDbEntity
  8
0
  6
Continuous
 62
     7
370
    15
100
AcDbLine
 10
5.172960906672114
 20
7.621159486441798
 30
0.0
 11
5.16775267252244
 21
7.623494249146425
 31
0.0
  0
LINE
  5
D4
330
1F
100
AcDbEntity
  8
0
  6
Continuous
 62
     7
370
    15
100
AcDbLine
 10
4.997674629966679
 20
7.427661049070838
 30
0.0
 11
5.002883023314566
 21
7.425326128403534
 31
0.0
  0
LINE
  5
D5
330
1F
100
AcDbEntity
  8
0
  6
Continuous
 62
     7
370
    15
100
AcDbLine
 10
5.045493842635001
 20
7.520378874881194
 30
0.0
 11
5.040285608485325
 21
7.522713637585821
 31
0.0
  0
LINE
  5
D6
330
1F
100
AcDbEntity
  8
0
  6
Continuous
 62
     7
370
    15
100
AcDbLine
 10
4.799845539200549
 20
7.315683552852395
 30
0.0
 11
4.805053934661223
 21
7.313348819993763
 31
0.0
  0
LINE
  5
D7
330
1F
100
AcDbEntity
  8
0
  6
Continuous
 62
     7
370
    15
100
AcDbLine
 10
4.847664913179868
 20
7.408401408508749
 30
0.0
 11
4.842456519831981
 21
7.410736329176052
 31
0.0
  0
LINE
  5
D8
330
1F
100
AcDbEntity
  8
0
  6
Continuous
 62
     7
370
    15
100
AcDbLine
 10
4.987871488171943
 20
6.138151206800646
 30
0.0
 11
4.993079721265226
 21
6.135816350191682
 31
0.0
  0
LINE
  5
D9
330
1F
100
AcDbEntity
  8
0
  6
Continuous
 62
     7
370
    15
100
AcDbLine
 10
5.035690700840265
 20
6.230869032611002
 30
0.0
 11
5.030482467746982
 21
6.233203889219966
 31
0.0
  0
LINE
  5
DA
330
1F
100
AcDbEntity
  8
0
  6
Continuous
 62
     7
370
    15
100
AcDbLine
 10
4.828164628778003
 20
6.233482376878231
 30
0.0
 11
4.833373023182282
 21
6.231147550115264
 31
0.0
  0
LINE
  5
DB
330
1F
100
AcDbEntity
  8
0
  6
Continuous
 62
     7
370
    15
100
AcDbLine
 10
4.875984002757322
 20
6.326200232534584
 30
0.0
 11
4.870775607296649
 21
6.328534965393215
 31
0.0
  0
LINE
  5
DC
330
1F
100
AcDbEntity
  8
0
  6
Continuous
 62
     7
370
    15
100
AcDbLine
 10
4.668457844314642
 20
6.328813564944915
 30
0.0
 11
4.673666163788341
 21
6.326478720192849
 31
0.0
  0
LINE
  5
DD
330
1F
100
AcDbEntity
  8
0
  6
Continuous
 62
     7
370
    15
100
AcDbLine
 10
4.716277142306988
 20
6.421531308707832
 30
0.0
 11
4.711068736452871
 21
6.423866141603003
 31
0.0
  0
LINE
  5
DE
330
1F
100
AcDbEntity
  8
0
  6
Continuous
 62
     7
370
    15
100
AcDbLine
 10
5.06537115229946
 20
6.391974351260285
 30
0.0
 11
5.070579558153577
 21
6.389639518365116
 31
0.0
  0
LINE
  5
DF
330
1F
100
AcDbEntity
  8
0
  6
Continuous
 62
     7
370
    15
100
AcDbLine
 10
5.113190363911389
 20
6.484692083166304
 30
0.0
 11
5.107982142267943
 21
6.487026933643066
 31
0.0
  0
LINE
  5
E0
330
1F
100
AcDbEntity
  8
0
  6
Continuous
 62
     7
370
    15
100
AcDbLine
 10
5.225078023143238
 20
6.296643175050497
 30
0.0
 11
5.230286244786684
 21
6.294308324573736
 31
0.0
  0
LINE
  5
E1
330
1F
100
AcDbEntity
  8
0
  6
Continuous
 62
     7
370
    15
100
AcDbLine
 10
5.272897224361722
 20
6.389361006993056
 30
0.0
 11
5.267688829957442
 21
6.391695833756024
 31
0.0
  0
LINE
  5
E2
330
1F
100
AcDbEntity
  8
0
  6
Continuous
 62
     7
370
    15
100
AcDbLine
 10
4.750664964650486
 20
5.979659232418592
 30
0.0
 11
4.755873359054765
 21
5.977324405655625
 31
0.0
  0
LINE
  5
E3
330
1F
100
AcDbEntity
  8
0
  6
Continuous
 62
     7
370
    15
100
AcDbLine
 10
4.79848416586897
 20
6.072377064361152
 30
0.0
 11
4.793275944225524
 21
6.074711914837912
 31
0.0
  0
LINE
  5
E4
330
1F
100
AcDbEntity
  8
0
  6
Continuous
 62
     7
370
    15
100
AcDbLine
 10
4.598643462090781
 20
6.07165251615282
 30
0.0
 11
4.596166488210988
 21
6.072655581865412
 31
0.0
  0
LWPOLYLINE
  5
E5
330
1F
100
AcDbEntity
  8
0
  6
Continuous
 62
     7
370
    15
100
AcDbPolyline
 90
       12
 70
   128
 43
0.0
 10
4.638777467786026
 20
6.167708264284732
 10
4.642199032462427
 20
6.165952212215008
 10
4.652219758996483
 20
6.157451089478064
 10
4.65915294910855
 20
6.145638407255988
 10
4.662382589578066
 20
6.131563886398796
 10
4.661621777482349
 20
6.116478064025729
 10
4.65693805340641
 20
6.101721227942372
 10
4.648747532202152
 20
6.088604745546349
 10
4.637778148165384
 20
6.078294049946102
 10
4.625004397702652
 20
6.071705312284577
 10
4.611561345475005
 20
6.069423826245014
 10
4.598643462090781
 20
6.07165251615282
  0
LWPOLYLINE
  5
E6
330
1F
100
AcDbEntity
  8
0
  6
Continuous
 62
     7
370
    15
100
AcDbPolyline
 90
       20
 70
   128
 43
0.0
 10
4.603130479869961
 20
6.075338047361201
 10
4.616026506601883
 20
6.073357453311318
 10
4.629361351161098
 20
6.076324491774466
 10
4.641689930459484
 20
6.083917674585741
 10
4.651676420206455
 20
6.095314181533308
 10
4.65823848441281
 20
6.109278928561282
 10
4.660665032673703
 20
6.124298637652762
 10
4.658693157869749
 20
6.138745820593317
 10
4.652536537589363
 20
6.15105474841654
 10
4.64286236375171
 20
6.159891671071176
 10
4.63071892836993
 20
6.164298897105624
 10
4.617422121174727
 20
6.163798812473647
 10
4.604412989309425
 20
6.158445682477069
 10
4.593101193341677
 20
6.148819621989943
 10
4.584712579307986
 20
6.135963655055959
 10
4.580156027730596
 20
6.12127100904808
 10
4.579925557335916
 20
6.106333791225614
 10
4.584045988943276
 20
6.092770798362663
 10
4.592070861247476
 20
6.082051654536621
 10
4.603130479869961
 20
6.075338047361201
  0
LWPOLYLINE
  5
E7
330
1F
100
AcDbEntity
  8
0
  6
Continuous
 62
     7
370
    15
100
AcDbPolyline
 90
       12
 70
   128
 43
0.0
 10
4.633569073381747
 20
6.170043091047699
 10
4.62477289181209
 20
6.172721164195444
 10
4.611443545720977
 20
6.172694490637756
 10
4.598187164373523
 20
6.168209305005307
 10
4.586181418188536
 20
6.1596641254292
 10
4.576493260597853
 20
6.147818212432374
 10
4.569983486975476
 20
6.133724243836306
 10
4.567230461990407
 20
6.1186342895335
 10
4.568478811693466
 20
6.10388938094365
 10
4.573617637636714
 20
6.090799666009652
 10
4.58219029490823
 20
6.080528015558743
 10
4.590958180187125
 20
6.074990420485277
  0
LINE
  5
E8
330
1F
100
AcDbEntity
  8
0
  6
Continuous
 62
     7
370
    15
100
AcDbLine
 10
4.735913755359442
 20
7.461943075744849
 30
0.0
 11
4.73343669509923
 21
7.462946129600545
 31
0.0
  0
LWPOLYLINE
  5
E9
330
1F
100
AcDbEntity
  8
0
  6
Continuous
 62
     7
370
    15
100
AcDbPolyline
 90
       12
 70
   128
 43
0.0
 10
4.776047673617877
 20
7.557998718115529
 10
4.779469324674694
 20
7.556242677902701
 10
4.78949005120875
 20
7.547741555165756
 10
4.796423143490563
 20
7.535928867218986
 10
4.799652783960079
 20
7.521854346361793
 10
4.798892069694617
 20
7.506768529713421
 10
4.794208259238259
 20
7.492011681773166
 10
4.786017739090395
 20
7.478895293281479
 10
4.775048355053628
 20
7.468584597681235
 10
4.76227467740869
 20
7.461995690200136
 10
4.748831626237435
 20
7.459714298064908
 10
4.735913755359442
 20
7.461943075744849
  0
LWPOLYLINE
  5
EA
330
1F
100
AcDbEntity
  8
0
  6
Continuous
 62
     7
370
    15
100
AcDbPolyline
 90
       20
 70
   128
 43
0.0
 10
4.740400685701811
 20
7.465628501191996
 10
4.753296712433733
 20
7.463647907142114
 10
4.766631470612531
 20
7.466614933748365
 10
4.778960125897889
 20
7.474208228453075
 10
4.788946624981913
 20
7.485604541459768
 10
4.795508602807849
 20
7.499569276630844
 10
4.797935324885971
 20
7.514589103340455
 10
4.795963451138409
 20
7.529036380185346
 10
4.78980682980163
 20
7.541345214104231
 10
4.780132657020371
 20
7.550182230663206
 10
4.767989220582197
 20
7.554589362793317
 10
4.754692414443388
 20
7.554089372065674
 10
4.741683196197667
 20
7.548736230212201
 10
4.730371484497552
 20
7.539109993773298
 10
4.721982688365974
 20
7.526254197066394
 10
4.717426319942863
 20
7.511561474735772
 10
4.717195850604577
 20
7.496624350817643
 10
4.721316194775126
 20
7.483061252193458
 10
4.729341153459744
 20
7.472342120224314
 10
4.740400685701811
 20
7.465628501191996
  0
LWPOLYLINE
  5
EB
330
1F
100
AcDbEntity
  8
0
  6
Continuous
 62
     7
370
    15
100
AcDbPolyline
 90
       12
 70
   128
 43
0.0
 10
4.770839278157204
 20
7.560333450974159
 10
4.762043098700334
 20
7.563011711930577
 10
4.74871375260922
 20
7.562985038372889
 10
4.73545745658579
 20
7.558499770692999
 10
4.723451624020387
 20
7.549954579259996
 10
4.713763552810121
 20
7.538108678120067
 10
4.707253778131351
 20
7.524014615619661
 10
4.704500667822258
 20
7.508924743364294
 10
4.705748932201291
 20
7.494179916821885
 10
4.710887928792589
 20
7.481090037793006
 10
4.719460587120497
 20
7.470818481246435
 10
4.728228472399393
 20
7.465280886172969
  0
LINE
  5
EC
330
1F
100
AcDbEntity
  8
0
  6
Continuous
 62
     7
370
    15
100
AcDbLine
 10
4.608446677759705
 20
7.361162282507775
 30
0.0
 11
4.60596962894933
 21
7.362165330231267
 31
0.0
  0
LWPOLYLINE
  5
ED
330
1F
100
AcDbEntity
  8
0
  6
Continuous
 62
     7
370
    15
100
AcDbPolyline
 90
       12
 70
   128
 43
0.0
 10
4.648580609580761
 20
7.457218106554924
 10
4.652002172144376
 20
7.455461866676527
 10
4.662022900791218
 20
7.446960931748255
 10
4.668956079453448
 20
7.435148255658381
 10
4.672185719922963
 20
7.421073734801189
 10
4.671424917164299
 20
7.405987718487247
 10
4.666741195201145
 20
7.391231070212564
 10
4.658550672940494
 20
7.378114493912202
 10
4.647581277453889
 20
7.36780380444416
 10
4.634807526991157
 20
7.361215066782635
 10
4.621364475819903
 20
7.358933674647407
 10
4.608446677759705
 20
7.361162282507775
  0
LWPOLYLINE
  5
EE
330
1F
100
AcDbEntity
  8
0
  6
Continuous
 62
     7
370
    15
100
AcDbPolyline
 90
       20
 70
   128
 43
0.0
 10
4.612933621664697
 20
7.364847889631391
 10
4.625829648396619
 20
7.36286729558151
 10
4.639164492955834
 20
7.365834334044658
 10
4.651493059747989
 20
7.373427429083799
 10
4.661479560944798
 20
7.384823929899163
 10
4.668041625151152
 20
7.398788676927138
 10
4.670468174468438
 20
7.413808479922953
 10
4.668496287158253
 20
7.428255575091375
 10
4.662339679384098
 20
7.440564590686731
 10
4.652665493040215
 20
7.449401425569233
 10
4.640522070164665
 20
7.453808739375815
 10
4.62722526191307
 20
7.4533085608395
 10
4.614216130047767
 20
7.447955430842923
 10
4.60290433408002
 20
7.438329370355797
 10
4.594515708596491
 20
7.425473409554014
 10
4.589959169525331
 20
7.410780851318272
 10
4.589728698074258
 20
7.395843539591469
 10
4.593849130738011
 20
7.382280640632855
 10
4.601873991592374
 20
7.371561502939015
 10
4.612933621664697
 20
7.364847889631391
  0
LWPOLYLINE
  5
EF
330
1F
100
AcDbEntity
  8
0
  6
Continuous
 62
     7
370
    15
100
AcDbPolyline
 90
       12
 70
   128
 43
0.0
 10
4.643372214120089
 20
7.459552839413555
 10
4.634576032550433
 20
7.462230912561299
 10
4.621246772839737
 20
7.462204250860509
 10
4.607990306168257
 20
7.457719147275499
 10
4.595984559983271
 20
7.44917396769939
 10
4.586296402392589
 20
7.437328054702565
 10
4.579786616263981
 20
7.423233998334364
 10
4.577033603785142
 20
7.40814413180369
 10
4.578281952431808
 20
7.393399129309505
 10
4.583420766925219
 20
7.380309420507709
 10
4.591993436702964
 20
7.370037857828934
 10
4.600761321981861
 20
7.364500262755467
  0
LINE
  5
F0
330
1F
100
AcDbEntity
  8
0
  6
Continuous
 62
     7
370
    15
100
AcDbLine
 10
5.155263640919378
 20
6.039482126258403
 30
0.0
 11
5.152786580659167
 21
6.040485180114098
 31
0.0
  0
LWPOLYLINE
  5
F1
330
1F
100
AcDbEntity
  8
0
  6
Continuous
 62
     7
370
    15
100
AcDbPolyline
 90
       12
 70
   128
 43
0.0
 10
5.195397560234205
 20
6.135537862533418
 10
5.198819211291024
 20
6.13378182232059
 10
5.208839765064245
 20
6.125280675869852
 10
5.215773031163284
 20
6.113468105541212
 10
5.219002670576408
 20
6.099393490779683
 10
5.218241956310945
 20
6.084307674131311
 10
5.213558145854589
 20
6.069550826191057
 10
5.205367625706723
 20
6.05643443769937
 10
5.194398241669957
 20
6.046123742099124
 10
5.181624392320577
 20
6.039534904808569
 10
5.168181513910156
 20
6.037253536387135
 10
5.155263640919378
 20
6.039482126258403
  0
LWPOLYLINE
  5
F2
330
1F
100
AcDbEntity
  8
0
  6
Continuous
 62
     7
370
    15
100
AcDbPolyline
 90
       20
 70
   128
 43
0.0
 10
5.159750572318141
 20
6.043167645609886
 10
5.172646599050063
 20
6.041187051560005
 10
5.18598135722886
 20
6.044154078166255
 10
5.198310011457826
 20
6.05174727896663
 10
5.208296512654635
 20
6.063143779781994
 10
5.214858490480571
 20
6.07710851495307
 10
5.217285212558693
 20
6.092128341662681
 10
5.215313336698345
 20
6.106575430698899
 10
5.209156716417959
 20
6.118884358522122
 10
5.199482542580307
 20
6.127721281176758
 10
5.187339107198527
 20
6.132128507211207
 10
5.174042300003324
 20
6.131628422579228
 10
5.161033081757604
 20
6.126275280725754
 10
5.149721372170273
 20
6.116649232095524
 10
5.14133257392591
 20
6.103793247579949
 10
5.136776206559193
 20
6.089100619153663
 10
5.136545736164512
 20
6.074163401331195
 10
5.140666081391455
 20
6.060600396611349
 10
5.148691040076073
 20
6.049881264642204
 10
5.159750572318141
 20
6.043167645609886
  0
LWPOLYLINE
  5
F3
330
1F
100
AcDbEntity
  8
0
  6
Continuous
 62
     7
370
    15
100
AcDbPolyline
 90
       12
 70
   128
 43
0.0
 10
5.190189165829925
 20
6.137872689296385
 10
5.181392985316662
 20
6.140550856348466
 10
5.168063639225549
 20
6.140524182790779
 10
5.154807171497677
 20
6.136038985301431
 10
5.142801510636715
 20
6.127493723677885
 10
5.133113440482842
 20
6.115647916442293
 10
5.126603493043237
 20
6.101553830228095
 10
5.123850555494979
 20
6.086463981686521
 10
5.125098818817621
 20
6.071719061239776
 10
5.130237643704476
 20
6.05862925240144
 10
5.138810474793219
 20
6.048357719568661
 10
5.147578359015721
 20
6.042820030590858
  0
LINE
  5
F4
330
1F
100
AcDbEntity
  8
0
  6
Continuous
 62
     7
370
    15
100
AcDbLine
 10
5.204444216525835
 20
7.375506540596542
 30
0.0
 11
5.201967340476296
 21
7.376509612033829
 31
0.0
  0
LWPOLYLINE
  5
F5
330
1F
100
AcDbEntity
  8
0
  6
Continuous
 62
     7
370
    15
100
AcDbPolyline
 90
       12
 70
   128
 43
0.0
 10
5.244578146234108
 20
7.471562176835019
 10
5.247999785841086
 20
7.469806142754393
 10
5.258020512375144
 20
7.461305020017449
 10
5.264953618219579
 20
7.449492513747149
 10
5.268183429337143
 20
7.435417828795077
 10
5.26742253086101
 20
7.420331994565114
 10
5.262738720404652
 20
7.405575146624859
 10
5.254548373017622
 20
7.392458781846966
 10
5.243578816220019
 20
7.382148062532928
 10
5.230805152137705
 20
7.375559336728298
 10
5.217362098853665
 20
7.373277756784399
 10
5.204444216525835
 20
7.375506540596542
  0
LWPOLYLINE
  5
F6
330
1F
100
AcDbEntity
  8
0
  6
Continuous
 62
     7
370
    15
100
AcDbPolyline
 90
       20
 70
   128
 43
0.0
 10
5.208931331078877
 20
7.379191983625281
 10
5.221827173600127
 20
7.377211371993807
 10
5.235162104539758
 20
7.380178422313852
 10
5.247490771274955
 20
7.38777171088636
 10
5.257477099710929
 20
7.399168187987931
 10
5.264039238847863
 20
7.413132953005003
 10
5.266465786052363
 20
7.428152568192147
 10
5.264493912304802
 20
7.442599845037038
 10
5.258337290968023
 20
7.454908678955924
 10
5.248663118186763
 20
7.463745695514897
 10
5.23651968174859
 20
7.46815282764501
 10
5.22322287560978
 20
7.467652836917367
 10
5.210213830124895
 20
7.462299718777686
 10
5.198901959226568
 20
7.452673640301461
 10
5.190513333743039
 20
7.439817679499679
 10
5.185956792559093
 20
7.425124933455263
 10
5.185726323220807
 20
7.410187809537132
 10
5.189846655941519
 20
7.396624717045152
 10
5.197871614626137
 20
7.385905585076006
 10
5.208931331078877
 20
7.379191983625281
  0
LWPOLYLINE
  5
F7
330
1F
100
AcDbEntity
  8
0
  6
Continuous
 62
     7
370
    15
100
AcDbPolyline
 90
       12
 70
   128
 43
0.0
 10
5.239369914197218
 20
7.473897127348319
 10
5.230573732627562
 20
7.476575200496062
 10
5.217244386536448
 20
7.476548526938374
 10
5.203987917752183
 20
7.472063235544692
 10
5.191982257947614
 20
7.463518067825482
 10
5.182294013976513
 20
7.45167214297176
 10
5.175784241410529
 20
7.437578268280026
 10
5.173031131101436
 20
7.422488396024661
 10
5.174279566128519
 20
7.407743405387372
 10
5.179418392071767
 20
7.394653690453373
 10
5.18799104828689
 20
7.384381946098128
 10
5.196758933565785
 20
7.378844351024662
  0
LINE
  5
F8
330
1F
100
AcDbEntity
  8
0
  6
Continuous
 62
     7
370
    15
100
AcDbLine
 10
5.132826976963843
 20
7.525103850203323
 30
0.0
 11
5.130350089464466
 21
7.52610692777281
 31
0.0
  0
LWPOLYLINE
  5
F9
330
1F
100
AcDbEntity
  8
0
  6
Continuous
 62
     7
370
    15
100
AcDbPolyline
 90
       12
 70
   128
 43
0.0
 10
5.172960906672114
 20
7.621159486441798
 10
5.176382546279095
 20
7.619403452361173
 10
5.186403272813151
 20
7.610902329624229
 10
5.193336549305636
 20
7.599089659259051
 10
5.196566189775151
 20
7.585015138401857
 10
5.195805291299017
 20
7.569929304171894
 10
5.19112148084266
 20
7.555172456231639
 10
5.182931133455631
 20
7.542056091453747
 10
5.171961576658029
 20
7.531745372139707
 10
5.159187910462928
 20
7.525156458526406
 10
5.145744859291673
 20
7.522875066391179
 10
5.132826976963843
 20
7.525103850203323
  0
LWPOLYLINE
  5
FA
330
1F
100
AcDbEntity
  8
0
  6
Continuous
 62
     7
370
    15
100
AcDbPolyline
 90
       20
 70
   128
 43
0.0
 10
5.137314091516884
 20
7.528789293232061
 10
5.15021010679897
 20
7.526808705314381
 10
5.163544864977767
 20
7.529775731920632
 10
5.175873531712963
 20
7.53736902049314
 10
5.185859858036151
 20
7.548765309786037
 10
5.192421999285872
 20
7.562730262611784
 10
5.194848546490372
 20
7.577749877798927
 10
5.19287667274281
 20
7.592197154643819
 10
5.186720051406031
 20
7.604505988562705
 10
5.177045878624772
 20
7.613343005121678
 10
5.164902442186598
 20
7.61775013725179
 10
5.151605636047788
 20
7.617250146524147
 10
5.138596590562904
 20
7.611897028384467
 10
5.127284717551789
 20
7.602270762099569
 10
5.118896094181047
 20
7.589414989106459
 10
5.114339541547265
 20
7.574722249194246
 10
5.114109072208976
 20
7.559785125276115
 10
5.118229589140362
 20
7.546222050365726
 10
5.126254375064145
 20
7.535502894682786
 10
5.137314091516884
 20
7.528789293232061
  0
LWPOLYLINE
  5
FB
330
1F
100
AcDbEntity
  8
0
  6
Continuous
 62
     7
370
    15
100
AcDbPolyline
 90
       12
 70
   128
 43
0.0
 10
5.16775267252244
 20
7.623494249146425
 10
5.158956493065569
 20
7.626172510102843
 10
5.145627146974455
 20
7.626145836545155
 10
5.132370678190191
 20
7.621660545151472
 10
5.120365018385622
 20
7.613115377432262
 10
5.110676774414522
 20
7.60126945257854
 10
5.104166999735751
 20
7.587175390078134
 10
5.101413889426658
 20
7.572085517822767
 10
5.102662326566527
 20
7.557340714994152
 10
5.107801150396991
 20
7.544250812251479
 10
5.116373808724897
 20
7.533979255704908
 10
5.125141694003793
 20
7.528441660631441
  0
LINE
  5
FC
330
1F
100
AcDbEntity
  8
0
  6
Continuous
 62
     7
370
    15
100
AcDbLine
 10
5.005359910813942
 20
7.424323050834045
 30
0.0
 11
5.002883023314566
 21
7.425326128403534
 31
0.0
  0
LWPOLYLINE
  5
FD
330
1F
100
AcDbEntity
  8
0
  6
Continuous
 62
     7
370
    15
100
AcDbPolyline
 90
       12
 70
   128
 43
0.0
 10
5.045493842635001
 20
7.520378874881194
 10
5.048915480129195
 20
7.518622652991896
 10
5.058936208776037
 20
7.510121718063624
 10
5.065869312507686
 20
7.498309023984652
 10
5.069099125738037
 20
7.484234526841254
 10
5.068338225149116
 20
7.469148504802618
 10
5.063654416805546
 20
7.454391844671036
 10
5.055464067305731
 20
7.441275292084469
 10
5.044494510508128
 20
7.430964572770429
 10
5.031720846425813
 20
7.424375846965801
 10
5.018277795254558
 20
7.422094454830575
 10
5.005359910813942
 20
7.424323050834045
  0
LWPOLYLINE
  5
FE
330
1F
100
AcDbEntity
  8
0
  6
Continuous
 62
     7
370
    15
100
AcDbPolyline
 90
       20
 70
   128
 43
0.0
 10
5.009847016029933
 20
7.428008687803659
 10
5.02274287000102
 20
7.426028070039983
 10
5.036077800940652
 20
7.428995120360027
 10
5.048406465563062
 20
7.436588221123863
 10
5.058392782549199
 20
7.447984704357637
 10
5.064954933135972
 20
7.461949463242507
 10
5.067381482453257
 20
7.476969266238323
 10
5.065409606592909
 20
7.491416355274542
 10
5.059252987368918
 20
7.5037253770021
 10
5.049578812474871
 20
7.5125622057524
 10
5.037435378149483
 20
7.516969525691186
 10
5.024138569897888
 20
7.51646934715487
 10
5.011129524413003
 20
7.511116229015189
 10
4.999817642064837
 20
7.501490156671167
 10
4.991429028031147
 20
7.488634189737182
 10
4.986872477510149
 20
7.473941637633641
 10
4.986642006059077
 20
7.459004325906838
 10
4.990762352342413
 20
7.445441415091328
 10
4.99878731102703
 20
7.434722283122182
 10
5.009847016029933
 20
7.428008687803659
  0
LWPOLYLINE
  5
FF
330
1F
100
AcDbEntity
  8
0
  6
Continuous
 62
     7
370
    15
100
AcDbPolyline
 90
       12
 70
   128
 43
0.0
 10
5.040285608485325
 20
7.522713637585821
 10
5.031489426915669
 20
7.525391710733565
 10
5.018160080824555
 20
7.525365037175878
 10
5.004903614153076
 20
7.520879933590868
 10
4.992897954348508
 20
7.512334765871657
 10
4.983209710377407
 20
7.500488841017936
 10
4.976699935698637
 20
7.48639477851753
 10
4.973946825389544
 20
7.471304906262163
 10
4.975195260416626
 20
7.456559915624875
 10
4.980334086359875
 20
7.443470200690875
 10
4.988906744687783
 20
7.433198644144304
 10
4.997674629966679
 20
7.427661049070838
  0
LINE
  5
100
330
1F
100
AcDbEntity
  8
0
  6
Continuous
 62
     7
370
    15
100
AcDbLine
 10
4.807530994921433
 20
7.312345766138069
 30
0.0
 11
4.805053934661223
 21
7.313348819993763
 31
0.0
  0
LWPOLYLINE
  5
101
330
1F
100
AcDbEntity
  8
0
  6
Continuous
 62
     7
370
    15
100
AcDbPolyline
 90
       12
 70
   128
 43
0.0
 10
4.847664913179868
 20
7.408401408508749
 10
4.851086564236686
 20
7.406645368295921
 10
4.861107118009907
 20
7.398144221845182
 10
4.868040396615177
 20
7.386331739288677
 10
4.87127002352207
 20
7.372257036755014
 10
4.870509309256608
 20
7.357171220106641
 10
4.865825498800251
 20
7.342414372166386
 10
4.857634978652387
 20
7.329297983674699
 10
4.846665594615619
 20
7.318987288074454
 10
4.833891746322632
 20
7.312398544688234
 10
4.820448877249264
 20
7.310116982325926
 10
4.807530994921433
 20
7.312345766138069
  0
LWPOLYLINE
  5
102
330
1F
100
AcDbEntity
  8
0
  6
Continuous
 62
     7
370
    15
100
AcDbPolyline
 90
       20
 70
   128
 43
0.0
 10
4.812017925263804
 20
7.316031191585217
 10
4.824913951995726
 20
7.314050597535334
 10
4.838248710174523
 20
7.317017624141585
 10
4.850577365459881
 20
7.324610918846295
 10
4.86056386665669
 20
7.33600741966166
 10
4.867125844482628
 20
7.349972154832737
 10
4.869552564447962
 20
7.364991793733675
 10
4.867580690700401
 20
7.379439070578566
 10
4.861424069363622
 20
7.391747904497451
 10
4.851749896582362
 20
7.400584921056425
 10
4.839606287383354
 20
7.404992029472743
 10
4.826309654005379
 20
7.404492062458896
 10
4.813300435759659
 20
7.39913892060542
 10
4.801988553411494
 20
7.389512848261397
 10
4.793599927927965
 20
7.376656887459616
 10
4.789043559504855
 20
7.361964165128994
 10
4.788813090166568
 20
7.347027041210862
 10
4.792933434337117
 20
7.333463942586678
 10
4.8009582202609
 20
7.32274478690374
 10
4.812017925263804
 20
7.316031191585217
  0
LWPOLYLINE
  5
103
330
1F
100
AcDbEntity
  8
0
  6
Continuous
 62
     7
370
    15
100
AcDbPolyline
 90
       12
 70
   128
 43
0.0
 10
4.842456519831981
 20
7.410736329176052
 10
4.833660338262325
 20
7.413414402323796
 10
4.820330992171212
 20
7.413387728766108
 10
4.807074523386947
 20
7.408902437372426
 10
4.795068863582377
 20
7.400357269653215
 10
4.785380792372112
 20
7.388511368513287
 10
4.778870847045293
 20
7.37441747010776
 10
4.776117909497035
 20
7.359327621566188
 10
4.777366171763283
 20
7.344582607215106
 10
4.782504997706531
 20
7.331492892281107
 10
4.791077826682489
 20
7.321221171639654
 10
4.799845539200549
 20
7.315683552852395
  0
LINE
  5
104
330
1F
100
AcDbEntity
  8
0
  6
Continuous
 62
     7
370
    15
100
AcDbLine
 10
4.9955567700756
 20
6.134813302468191
 30
0.0
 11
4.993079721265226
 21
6.135816350191682
 31
0.0
  0
LWPOLYLINE
  5
105
330
1F
100
AcDbEntity
  8
0
  6
Continuous
 62
     7
370
    15
100
AcDbPolyline
 90
       12
 70
   128
 43
0.0
 10
5.035690700840265
 20
6.230869032611002
 10
5.039112340447244
 20
6.229112998530378
 10
5.049133066981302
 20
6.220611875793433
 10
5.056066171769344
 20
6.208799275618797
 10
5.059295983943301
 20
6.194724684571061
 10
5.058535085467167
 20
6.179638850341099
 10
5.053851275010811
 20
6.164882002400845
 10
5.045660926567388
 20
6.151765543718615
 10
5.034691369769785
 20
6.141454824404575
 10
5.021917705687471
 20
6.134866098599946
 10
5.008474653459823
 20
6.132584612560383
 10
4.9955567700756
 20
6.134813302468191
  0
LWPOLYLINE
  5
106
330
1F
100
AcDbEntity
  8
0
  6
Continuous
 62
     7
370
    15
100
AcDbPolyline
 90
       20
 70
   128
 43
0.0
 10
5.000043885685036
 20
6.138498839401266
 10
5.012939728206284
 20
6.136518227769792
 10
5.026274670595753
 20
6.139485271957633
 10
5.03860332482472
 20
6.147078472758008
 10
5.048589653260694
 20
6.158474949859579
 10
5.055151792397629
 20
6.172439714876651
 10
5.057578340658522
 20
6.187459423968132
 10
5.055606465854567
 20
6.201906606908687
 10
5.049449845574181
 20
6.214215534731908
 10
5.039775671736529
 20
6.223052457386546
 10
5.027632236354748
 20
6.227459683420994
 10
5.014335440609383
 20
6.226959592656813
 10
5.00132638367466
 20
6.221606480649334
 10
4.990014512776333
 20
6.211980402173109
 10
4.981625887292804
 20
6.199124441371328
 10
4.977069347165252
 20
6.184431789231248
 10
4.976838876770572
 20
6.169494571408781
 10
4.980959210547677
 20
6.155931572821137
 10
4.988984169232294
 20
6.145212440851991
 10
5.000043885685036
 20
6.138498839401266
  0
LWPOLYLINE
  5
107
330
1F
100
AcDbEntity
  8
0
  6
Continuous
 62
     7
370
    15
100
AcDbPolyline
 90
       12
 70
   128
 43
0.0
 10
5.030482467746982
 20
6.233203889219966
 10
5.021686114472885
 20
6.235882032558254
 10
5.00835695153605
 20
6.235855282677821
 10
4.99510047235834
 20
6.231370091320677
 10
4.983094812553772
 20
6.222824923601466
 10
4.973406568582672
 20
6.210978998747744
 10
4.966896794960295
 20
6.196885030151674
 10
4.964143684651201
 20
6.181795157896308
 10
4.965392132184514
 20
6.167050255031155
 10
4.970530945621533
 20
6.15396045232502
 10
4.979103602893048
 20
6.143688801874113
 10
4.987871488171943
 20
6.138151206800646
  0
LINE
  5
108
330
1F
100
AcDbEntity
  8
0
  6
Continuous
 62
     7
370
    15
100
AcDbLine
 10
4.835850071992656
 20
6.23014450239177
 30
0.0
 11
4.833373023182282
 21
6.231147550115264
 31
0.0
  0
LWPOLYLINE
  5
109
330
1F
100
AcDbEntity
  8
0
  6
Continuous
 62
     7
370
    15
100
AcDbPolyline
 90
       12
 70
   128
 43
0.0
 10
4.875984002757322
 20
6.326200232534584
 10
4.879405479996911
 20
6.324444074703627
 10
4.88942620758736
 20
6.315943045871017
 10
4.896359472630008
 20
6.304130381638041
 10
4.899589113099523
 20
6.290055860780849
 10
4.898828225016833
 20
6.274969926514347
 10
4.894144588377704
 20
6.260213196192222
 10
4.885954067173447
 20
6.247096713796199
 10
4.874984671686842
 20
6.236786024328156
 10
4.862210834843692
 20
6.230197274809734
 10
4.848767782616045
 20
6.227915788770171
 10
4.835850071992656
 20
6.23014450239177
  0
LWPOLYLINE
  5
10A
330
1F
100
AcDbEntity
  8
0
  6
Continuous
 62
     7
370
    15
100
AcDbPolyline
 90
       20
 70
   128
 43
0.0
 10
4.840337014841257
 20
6.233830015611052
 10
4.853233041573179
 20
6.231849421561169
 10
4.866567799751976
 20
6.23481644816742
 10
4.878896453980941
 20
6.242409648967796
 10
4.888882954121357
 20
6.253806055878824
 10
4.895444933003688
 20
6.267770884954236
 10
4.89787148126458
 20
6.282790594045716
 10
4.895899595010789
 20
6.297237783118474
 10
4.88974298618024
 20
6.309546704809495
 10
4.88006880089275
 20
6.318383633596333
 10
4.867925376960807
 20
6.32279085349858
 10
4.854628569765604
 20
6.322290768866601
 10
4.841619512830883
 20
6.316937656859122
 10
4.830307641932554
 20
6.307311578382897
 10
4.821919016449026
 20
6.294455617581115
 10
4.817362476321473
 20
6.279762965441036
 10
4.817132005926794
 20
6.264825747618568
 10
4.821252523914571
 20
6.251262766612514
 10
4.829277298388516
 20
6.240543617061779
 10
4.840337014841257
 20
6.233830015611052
  0
LWPOLYLINE
  5
10B
330
1F
100
AcDbEntity
  8
0
  6
Continuous
 62
     7
370
    15
100
AcDbPolyline
 90
       12
 70
   128
 43
0.0
 10
4.870775607296649
 20
6.328534965393215
 10
4.861979415333548
 20
6.331213138577497
 10
4.848650080692272
 20
6.331186458887608
 10
4.835393612964399
 20
6.326701261398262
 10
4.823387953159831
 20
6.318156093679051
 10
4.813699709188731
 20
6.306310168825329
 10
4.807189923060123
 20
6.292216112457126
 10
4.804436996961703
 20
6.277126257783351
 10
4.805685260284343
 20
6.262381337336605
 10
4.810824074777754
 20
6.249291628534809
 10
4.819396743499107
 20
6.239019971951698
 10
4.828164628778003
 20
6.233482376878231
  0
LINE
  5
10C
330
1F
100
AcDbEntity
  8
0
  6
Continuous
 62
     7
370
    15
100
AcDbLine
 10
4.676143212598716
 20
6.325475672469357
 30
0.0
 11
4.673666163788341
 21
6.326478720192849
 31
0.0
  0
LWPOLYLINE
  5
10D
330
1F
100
AcDbEntity
  8
0
  6
Continuous
 62
     7
370
    15
100
AcDbPolyline
 90
       12
 70
   128
 43
0.0
 10
4.716277142306988
 20
6.421531308707832
 10
4.719698781913968
 20
6.419775274627207
 10
4.729719509504417
 20
6.411274245794599
 10
4.736652613236067
 20
6.399461551715627
 10
4.739882253705582
 20
6.385387030858434
 10
4.73912152693389
 20
6.370301126437929
 10
4.734437717533927
 20
6.35554437240201
 10
4.726247196329668
 20
6.342427890005987
 10
4.715277812292901
 20
6.332117194405741
 10
4.702503974393358
 20
6.325528350982983
 10
4.689061095982939
 20
6.323246982561549
 10
4.676143212598716
 20
6.325475672469357
  0
LWPOLYLINE
  5
10E
330
1F
100
AcDbEntity
  8
0
  6
Continuous
 62
     7
370
    15
100
AcDbPolyline
 90
       20
 70
   128
 43
0.0
 10
4.680630241827733
 20
6.329161197545533
 10
4.6935261707294
 20
6.327180597770957
 10
4.706860928908198
 20
6.330147624377208
 10
4.719189594587001
 20
6.337740819045381
 10
4.729176094727416
 20
6.349137225956408
 10
4.735738061103517
 20
6.363101967259687
 10
4.738164783181638
 20
6.378121793969298
 10
4.73619290732129
 20
6.392568883005516
 10
4.730036288097297
 20
6.404877904733075
 10
4.720362113203251
 20
6.413714733483375
 10
4.708218677821471
 20
6.418121959517823
 10
4.694921871682661
 20
6.417621968790182
 10
4.681912653436942
 20
6.412268826936707
 10
4.670600867862638
 20
6.402642666413043
 10
4.662212242379109
 20
6.38978670561126
 10
4.657655777182137
 20
6.37509407146028
 10
4.657425221463433
 20
6.360156935685252
 10
4.6615456520144
 20
6.346593848917966
 10
4.669570525374993
 20
6.33587479899626
 10
4.680630241827733
 20
6.329161197545533
  0
LWPOLYLINE
  5
10F
330
1F
100
AcDbEntity
  8
0
  6
Continuous
 62
     7
370
    15
100
AcDbPolyline
 90
       12
 70
   128
 43
0.0
 10
4.711068736452871
 20
6.423866141603003
 10
4.702272555939607
 20
6.426544308655083
 10
4.688943209848494
 20
6.426517635097395
 10
4.67568682850104
 20
6.422032449464945
 10
4.66368116869647
 20
6.413487281745736
 10
4.65399292472537
 20
6.401641356892014
 10
4.6474831500466
 20
6.387547294391607
 10
4.644730126117924
 20
6.372457433993139
 10
4.645978475820983
 20
6.35771252540329
 10
4.651117300707838
 20
6.344622716564953
 10
4.659689959035747
 20
6.334351160018383
 10
4.668457844314642
 20
6.328813564944915
  0
LINE
  5
110
330
1F
100
AcDbEntity
  8
0
  6
Continuous
 62
     7
370
    15
100
AcDbLine
 10
5.073056434203117
 20
6.388636446927829
 30
0.0
 11
5.070579558153577
 21
6.389639518365116
 31
0.0
  0
LWPOLYLINE
  5
111
330
1F
100
AcDbEntity
  8
0
  6
Continuous
 62
     7
370
    15
100
AcDbPolyline
 90
       12
 70
   128
 43
0.0
 10
5.113190363911389
 20
6.484692083166304
 10
5.116612003518369
 20
6.48293604908568
 10
5.126632742558656
 20
6.47443501412087
 10
5.133566007601303
 20
6.462622349887894
 10
5.136795648070819
 20
6.4485478290307
 10
5.136034748538291
 20
6.433461900896401
 10
5.131350939138327
 20
6.418705146860483
 10
5.123160590694905
 20
6.405588688178253
 10
5.112191033897302
 20
6.395277968864214
 10
5.099417368758595
 20
6.388689149155249
 10
5.08597431758734
 20
6.386407757020022
 10
5.073056434203117
 20
6.388636446927829
  0
LWPOLYLINE
  5
112
330
1F
100
AcDbEntity
  8
0
  6
Continuous
 62
     7
370
    15
100
AcDbPolyline
 90
       20
 70
   128
 43
0.0
 10
5.077543549812553
 20
6.392321983860904
 10
5.090439392333801
 20
6.39034137222943
 10
5.10377433472327
 20
6.393308416417272
 10
5.116102988952237
 20
6.400901617217646
 10
5.126089316331817
 20
6.412298000414882
 10
5.132651455468752
 20
6.426262765431954
 10
5.135078016235875
 20
6.441282562295567
 10
5.133106129982084
 20
6.455729751368326
 10
5.126949509701698
 20
6.468038679191548
 10
5.117275334807653
 20
6.476875507941849
 10
5.105131899425873
 20
6.481282733976296
 10
5.091835104736899
 20
6.480782737116451
 10
5.078826047802177
 20
6.475429625108974
 10
5.067514175847457
 20
6.465803452728412
 10
5.059125551420321
 20
6.452947585830966
 10
5.054569010236375
 20
6.43825483978655
 10
5.054338540898088
 20
6.42331771586842
 10
5.058459046379636
 20
6.409754647090232
 10
5.066483833359813
 20
6.399035585311629
 10
5.077543549812553
 20
6.392321983860904
  0
LWPOLYLINE
  5
113
330
1F
100
AcDbEntity
  8
0
  6
Continuous
 62
     7
370
    15
100
AcDbPolyline
 90
       12
 70
   128
 43
0.0
 10
5.107982142267943
 20
6.487026933643066
 10
5.099185950304844
 20
6.489705106827349
 10
5.085856615663567
 20
6.48967842713746
 10
5.072600136485857
 20
6.485193235780315
 10
5.060594488131127
 20
6.476648061928903
 10
5.050906244160026
 20
6.46480213707518
 10
5.044396458031419
 20
6.450708080706977
 10
5.041643347722325
 20
6.43561820845161
 10
5.042891795255638
 20
6.420873305586456
 10
5.048030608692657
 20
6.407783502880324
 10
5.056603267020565
 20
6.397511946333751
 10
5.06537115229946
 20
6.391974351260285
  0
LINE
  5
114
330
1F
100
AcDbEntity
  8
0
  6
Continuous
 62
     7
370
    15
100
AcDbLine
 10
5.270420175551348
 20
6.390364054716549
 30
0.0
 11
5.272897224361722
 21
6.389361006993056
 31
0.0
  0
LWPOLYLINE
  5
115
330
1F
100
AcDbEntity
  8
0
  6
Continuous
 62
     7
370
    15
100
AcDbPolyline
 90
       12
 70
   128
 43
0.0
 10
5.230286244786684
 20
6.294308324573736
 10
5.226864605179704
 20
6.296064358654361
 10
5.216844051406482
 20
6.3045655051051
 10
5.209910773857605
 20
6.316378081565942
 10
5.206681134444482
 20
6.330452696327472
 10
5.207442032920615
 20
6.345538530557434
 10
5.212125670616138
 20
6.360295354783895
 10
5.220316191820396
 20
6.373411837179919
 10
5.231285575857163
 20
6.383722532780164
 10
5.244059412700313
 20
6.390311282298586
 10
5.257502463871567
 20
6.392592674433814
 10
5.270420175551348
 20
6.390364054716549
  0
LWPOLYLINE
  5
116
330
1F
100
AcDbEntity
  8
0
  6
Continuous
 62
     7
370
    15
100
AcDbPolyline
 90
       20
 70
   128
 43
0.0
 10
5.271141465796032
 20
6.384343684888305
 10
5.258245611824944
 20
6.386324302651981
 10
5.244910680885311
 20
6.383357252331936
 10
5.232582026656347
 20
6.375764051531561
 10
5.222595698220373
 20
6.36436757442999
 10
5.216033547633599
 20
6.350402815545121
 10
5.213606999372706
 20
6.33538310645364
 10
5.215578885626499
 20
6.320935917380883
 10
5.221735494457048
 20
6.308626995689864
 10
5.231409679744538
 20
6.299790066903024
 10
5.243553103676481
 20
6.295382847000778
 10
5.256849910871683
 20
6.295882931632756
 10
5.269859129117403
 20
6.30123607348623
 10
5.281170838704733
 20
6.31086212211646
 10
5.289559464188263
 20
6.323718082918242
 10
5.294116004315815
 20
6.338410735058322
 10
5.294346474710495
 20
6.353347952880789
 10
5.290226129483552
 20
6.366910957600637
 10
5.282201182248771
 20
6.377630083437578
 10
5.271141465796032
 20
6.384343684888305
  0
LWPOLYLINE
  5
117
330
1F
100
AcDbEntity
  8
0
  6
Continuous
 62
     7
370
    15
100
AcDbPolyline
 90
       13
 70
   128
 43
0.0
 10
5.267688829957442
 20
6.391695833756024
 10
5.265211953907904
 20
6.392698905193309
 10
5.252294069467287
 20
6.394927501196781
 10
5.238851018296033
 20
6.392646109061553
 10
5.226077353157325
 20
6.386057289352589
 10
5.215107785966278
 20
6.375746670075088
 10
5.206917437522855
 20
6.362630211392859
 10
5.202233627066497
 20
6.347873363452604
 10
5.201472740040201
 20
6.332787523090438
 10
5.204702379453324
 20
6.318712908328909
 10
5.211635645552364
 20
6.30690033800027
 10
5.221656383536259
 20
6.298399209131122
 10
5.225078023143238
 20
6.296643175050497
  0
LINE
  5
118
330
1F
100
AcDbEntity
  8
0
  6
Continuous
 62
     7
370
    15
100
AcDbLine
 10
4.758350235104304
 20
5.976321334218338
 30
0.0
 11
4.755873359054765
 21
5.977324405655625
 31
0.0
  0
LWPOLYLINE
  5
119
330
1F
100
AcDbEntity
  8
0
  6
Continuous
 62
     7
370
    15
100
AcDbPolyline
 90
       12
 70
   128
 43
0.0
 10
4.79848416586897
 20
6.072377064361152
 10
4.80190580547595
 20
6.070621030280527
 10
4.811926543459843
 20
6.062119901411379
 10
4.818859809558883
 20
6.05030733108274
 10
4.822089448972007
 20
6.036232716321211
 10
4.821328561945709
 20
6.021146875959044
 10
4.816644924250187
 20
6.006390051732584
 10
4.80845440304593
 20
5.993273569336561
 10
4.79748483479849
 20
5.982962856154723
 10
4.784711170716176
 20
5.976374130350095
 10
4.771268119544921
 20
5.974092738214869
 10
4.758350235104304
 20
5.976321334218338
  0
LWPOLYLINE
  5
11A
330
1F
100
AcDbEntity
  8
0
  6
Continuous
 62
     7
370
    15
100
AcDbPolyline
 90
       20
 70
   128
 43
0.0
 10
4.76283735071374
 20
5.980006871151413
 10
4.775733377445662
 20
5.978026277101531
 10
4.789068135624459
 20
5.980993303707782
 10
4.801396789853424
 20
5.988586504508157
 10
4.811383118289398
 20
5.999982981609728
 10
4.817945268876171
 20
6.013947740494598
 10
4.820371818193456
 20
6.028967543490414
 10
4.818399930883272
 20
6.043414638658836
 10
4.812243310602886
 20
6.055723566482058
 10
4.802569136765233
 20
6.064560489136694
 10
4.79042571283329
 20
6.068967709038941
 10
4.777128905638087
 20
6.068467624406962
 10
4.764119848703366
 20
6.063114512399484
 10
4.752807977805037
 20
6.053488433923258
 10
4.744419352321509
 20
6.040632473121476
 10
4.739862812193956
 20
6.025939820981397
 10
4.739632341799277
 20
6.011002603158929
 10
4.743752848337217
 20
5.997439628285078
 10
4.751777634260999
 20
5.98672047260214
 10
4.76283735071374
 20
5.980006871151413
  0
LWPOLYLINE
  5
11B
330
1F
100
AcDbEntity
  8
0
  6
Continuous
 62
     7
370
    15
100
AcDbPolyline
 90
       12
 70
   128
 43
0.0
 10
4.793275944225524
 20
6.074711914837912
 10
4.784479752262424
 20
6.077390088022196
 10
4.771150417621148
 20
6.077363408332306
 10
4.757893949893276
 20
6.072878210842959
 10
4.745888289032314
 20
6.064332949219412
 10
4.736200046117607
 20
6.052487118270026
 10
4.729690259988999
 20
6.038393061901824
 10
4.726937149679906
 20
6.023303189646457
 10
4.72818559721322
 20
6.008558286781303
 10
4.733324410650237
 20
5.99546848407517
 10
4.741897080427984
 20
5.985196921396395
 10
4.750664964650486
 20
5.979659232418592
  0
LINE
  5
11C
330
1F
100
AcDbEntity
  8
0
  6
Continuous
 62
     7
370
    15
100
AcDbLine
 10
7.226575712470722
 20
7.571713232078143
 30
0.0
 11
5.31605963897839
 21
7.267692894217906
 31
0.0
  0
LINE
  5
11D
330
1F
100
AcDbEntity
  8
0
  6
Continuous
 62
     7
370
    15
100
AcDbLine
 10
4.513607489594732
 20
7.139998668449591
 30
0.0
 11
2.594466008646872
 21
6.834605886111898
 31
0.0
  0
LINE
  5
11E
330
1F
100
AcDbEntity
  8
0
  6
Continuous
 62
     7
370
    15
100
AcDbLine
 10
2.594466008646872
 20
6.834605886111898
 30
0.0
 11
2.122437944156164
 21
7.046210195648222
 31
0.0
  0
LINE
  5
11F
330
1F
100
AcDbEntity
  8
0
  6
Continuous
 62
     7
370
    15
100
AcDbLine
 10
2.122000489860774
 20
7.102248059694335
 30
0.0
 11
1.798889219399423
 21
7.117943094548596
 31
0.0
  0
LINE
  5
120
330
1F
100
AcDbEntity
  8
0
  6
Continuous
 62
     7
370
    15
100
AcDbLine
 10
1.798314917925082
 20
7.191510631889367
 30
0.0
 11
1.38613269988501
 21
7.376286840357519
 31
0.0
  0
LINE
  5
121
330
1F
100
AcDbEntity
  8
0
  6
Continuous
 62
     7
370
    15
100
AcDbLine
 10
2.594466008646872
 20
6.834605886111898
 30
0.0
 11
2.59823196154054
 21
6.352223905177099
 31
0.0
  0
LINE
  5
122
330
1F
100
AcDbEntity
  8
0
  6
Continuous
 62
     7
370
    15
100
AcDbLine
 10
7.226575712470722
 20
7.571713232078143
 30
0.0
 11
7.230341530068846
 21
7.089331236424101
 31
0.0
  0
LINE
  5
123
330
1F
100
AcDbEntity
  8
0
  6
Continuous
 62
     7
370
    15
100
AcDbLine
 10
7.230341530068846
 20
7.089331236424101
 30
0.0
 11
5.319825629337348
 21
6.785310922277658
 31
0.0
  0
LINE
  5
124
330
1F
100
AcDbEntity
  8
0
  6
Continuous
 62
     7
370
    15
100
AcDbLine
 10
4.517373482066476
 20
6.657616884318016
 30
0.0
 11
2.59823196154054
 21
6.352223905177099
 31
0.0
  0
LINE
  5
125
330
1F
100
AcDbEntity
  8
0
  6
Continuous
 62
     7
370
    15
100
AcDbLine
 10
2.126203892381307
 20
6.56382831168386
 30
0.0
 11
2.59823196154054
 21
6.352223905177099
 31
0.0
  0
LINE
  5
126
330
1F
100
AcDbEntity
  8
0
  6
Continuous
 62
     7
370
    15
100
AcDbLine
 10
2.122437944156164
 20
7.046210195648222
 30
0.0
 11
2.126203892381307
 21
6.56382831168386
 31
0.0
  0
LINE
  5
127
330
1F
100
AcDbEntity
  8
0
  6
Continuous
 62
     7
370
    15
100
AcDbLine
 10
1.798889219399423
 20
7.117943094548596
 30
0.0
 11
1.802655209758382
 21
6.635561122608346
 31
0.0
  0
LINE
  5
128
330
1F
100
AcDbEntity
  8
0
  6
Continuous
 62
     7
370
    15
100
AcDbLine
 10
1.802655209758382
 20
6.635561122608346
 30
0.0
 11
2.125766437029524
 21
6.619866081825638
 31
0.0
  0
LINE
  5
129
330
1F
100
AcDbEntity
  8
0
  6
Continuous
 62
     7
370
    15
100
AcDbLine
 10
1.38613269988501
 20
7.376286840357519
 30
0.0
 11
1.389898604919943
 21
6.893904950464711
 31
0.0
  0
LINE
  5
12A
330
1F
100
AcDbEntity
  8
0
  6
Continuous
 62
     7
370
    15
100
AcDbLine
 10
1.389898604919943
 20
6.893904950464711
 30
0.0
 11
1.802080865093832
 21
6.70912865402067
 31
0.0
  0
LINE
  5
12B
330
1F
100
AcDbEntity
  8
0
  6
Continuous
 62
     7
370
    15
100
AcDbLine
 10
6.668615531455912
 20
8.375843610203682
 30
0.0
 11
6.55266377067474
 21
8.281203231479377
 31
0.0
  0
LINE
  5
12C
330
1F
100
AcDbEntity
  8
0
  6
Continuous
 62
     7
370
    15
100
AcDbLine
 10
6.55266377067474
 20
8.281203231479377
 30
0.0
 11
6.750781761176231
 21
8.26569951621331
 31
0.0
  0
LINE
  5
12D
330
1F
100
AcDbEntity
  8
0
  6
Continuous
 62
     7
370
    15
100
AcDbLine
 10
6.750781761176231
 20
8.26569951621331
 30
0.0
 11
7.222809547238143
 21
8.054094992495926
 31
0.0
  0
LINE
  5
12E
330
1F
100
AcDbEntity
  8
0
  6
Continuous
 62
     7
370
    15
100
AcDbLine
 10
7.222809547238143
 20
8.054094992495926
 30
0.0
 11
5.291323699785059
 21
7.746737911970794
 31
0.0
  0
LINE
  5
12F
330
1F
100
AcDbEntity
  8
0
  6
Continuous
 62
     7
370
    15
100
AcDbLine
 10
5.213460536072217
 20
7.734347442884937
 30
0.0
 11
4.605746102978199
 21
7.637641868661517
 31
0.0
  0
LINE
  5
130
330
1F
100
AcDbEntity
  8
0
  6
Continuous
 62
     7
370
    15
100
AcDbLine
 10
4.527883114138978
 20
7.625251611098126
 30
0.0
 11
2.590700059365336
 21
7.316987676171923
 31
0.0
  0
LINE
  5
131
330
1F
100
AcDbEntity
  8
0
  6
Continuous
 62
     7
370
    15
100
AcDbLine
 10
2.590700059365336
 20
7.316987676171923
 30
0.0
 11
2.118671996987415
 21
7.528592173516918
 31
0.0
  0
LINE
  5
132
330
1F
100
AcDbEntity
  8
0
  6
Continuous
 62
     7
370
    15
100
AcDbLine
 10
2.118671996987415
 20
7.528592173516918
 30
0.0
 11
2.161936895452509
 21
7.582507076314502
 31
0.0
  0
LINE
  5
133
330
1F
100
AcDbEntity
  8
0
  6
Continuous
 62
     7
370
    15
100
AcDbLine
 10
2.161936895452509
 20
7.582507076314502
 30
0.0
 11
1.795123267508747
 21
7.600324915065878
 31
0.0
  0
LINE
  5
134
330
1F
100
AcDbEntity
  8
0
  6
Continuous
 62
     7
370
    15
100
AcDbLine
 10
1.795123267508747
 20
7.600324915065878
 30
0.0
 11
1.838388168086627
 21
7.654240005672137
 31
0.0
  0
LINE
  5
135
330
1F
100
AcDbEntity
  8
0
  6
Continuous
 62
     7
370
    15
100
AcDbLine
 10
1.838388168086627
 20
7.654240005672137
 30
0.0
 11
1.382366709526051
 21
7.858668812297768
 31
0.0
  0
LINE
  5
136
330
1F
100
AcDbEntity
  8
0
  6
Continuous
 62
     7
370
    15
100
AcDbLine
 10
1.382366709526051
 20
7.858668812297768
 30
0.0
 11
6.014476214573614
 21
8.595776119423469
 31
0.0
  0
LINE
  5
137
330
1F
100
AcDbEntity
  8
0
  6
Continuous
 62
     7
370
    15
100
AcDbLine
 10
6.014476214573614
 20
8.595776119423469
 30
0.0
 11
6.470497932275442
 21
8.391347348368526
 31
0.0
  0
LINE
  5
138
330
1F
100
AcDbEntity
  8
0
  6
Continuous
 62
     7
370
    15
100
AcDbLine
 10
6.470497932275442
 20
8.391347348368526
 30
0.0
 11
6.668615531455912
 21
8.375843610203682
 31
0.0
  0
LINE
  5
139
330
1F
100
AcDbEntity
  8
0
  6
Continuous
 62
     7
370
    15
100
AcDbLine
 10
2.590700059365336
 20
7.316987676171923
 30
0.0
 11
2.594466008646872
 21
6.834605886111898
 31
0.0
  0
LINE
  5
13A
330
1F
100
AcDbEntity
  8
0
  6
Continuous
 62
     7
370
    15
100
AcDbLine
 10
7.222809547238143
 20
8.054094992495926
 30
0.0
 11
7.226575712470722
 21
7.571713232078143
 31
0.0
  0
LINE
  5
13B
330
1F
100
AcDbEntity
  8
0
  6
Continuous
 62
     7
370
    15
100
AcDbLine
 10
2.118671996987415
 20
7.528592173516918
 30
0.0
 11
2.122437944156164
 21
7.046210195648222
 31
0.0
  0
LINE
  5
13C
330
1F
100
AcDbEntity
  8
0
  6
Continuous
 62
     7
370
    15
100
AcDbLine
 10
1.795123267508747
 20
7.600324915065878
 30
0.0
 11
1.798889219399423
 21
7.117943094548596
 31
0.0
  0
LINE
  5
13D
330
1F
100
AcDbEntity
  8
0
  6
Continuous
 62
     7
370
    15
100
AcDbLine
 10
1.382366709526051
 20
7.858668812297768
 30
0.0
 11
1.38613269988501
 21
7.376286840357519
 31
0.0
  0
LINE
  5
13E
330
1F
100
AcDbEntity
  8
0
  6
Continuous
 62
     7
370
    15
100
AcDbLine
 10
6.668615531455912
 20
8.375843610203682
 30
0.0
 11
6.669425923068609
 21
8.272066084586839
 31
0.0
  0
LINE
  5
13F
330
1F
100
AcDbEntity
  8
0
  6
Continuous
 62
     7
370
    15
100
AcDbLine
 10
4.481290413571065
 20
6.651874972747441
 30
0.0
 11
4.517373482066476
 21
6.657616884318016
 31
0.0
  0
LINE
  5
140
330
1F
100
AcDbEntity
  8
0
  6
Continuous
 62
     7
370
    15
100
AcDbLine
 10
4.941962335714193
 20
3.175800319481581
 30
0.0
 11
4.920447393230193
 21
5.931649279015253
 31
0.0
  0
LINE
  5
141
330
1F
100
AcDbEntity
  8
0
  6
Continuous
 62
     7
370
    15
100
AcDbLine
 10
4.941962335714193
 20
3.175800319481581
 30
0.0
 11
4.508965959233962
 21
3.106897621595638
 31
0.0
  0
LINE
  5
142
330
1F
100
AcDbEntity
  8
0
  6
Continuous
 62
     7
370
    15
100
AcDbLine
 10
4.508965959233962
 20
3.106897621595638
 30
0.0
 11
4.481290413571065
 21
6.651874972747441
 31
0.0
  0
LINE
  5
143
330
1F
100
AcDbEntity
  8
0
  6
Continuous
 62
     7
370
    15
100
AcDbLine
 10
3.486026683469663
 20
6.493498593458394
 30
0.0
 11
3.508965916489433
 21
3.555185454916439
 31
0.0
  0
LINE
  5
144
330
1F
100
AcDbEntity
  8
0
  6
Continuous
 62
     7
370
    15
100
AcDbLine
 10
4.508965959233962
 20
3.106897621595638
 30
0.0
 11
4.157111227345278
 21
3.264629890245234
 31
0.0
  0
LINE
  5
145
330
1F
100
AcDbEntity
  8
0
  6
Continuous
 62
     7
370
    15
100
AcDbLine
 10
4.157111227345278
 20
3.264629890245234
 30
0.0
 11
4.080734386914116
 21
3.164882312983071
 31
0.0
  0
LINE
  5
146
330
1F
100
AcDbEntity
  8
0
  6
Continuous
 62
     7
370
    15
100
AcDbLine
 10
4.080734386914116
 20
3.164882312983071
 30
0.0
 11
3.953204152495235
 21
3.490025287805716
 31
0.0
  0
LINE
  5
147
330
1F
100
AcDbEntity
  8
0
  6
Continuous
 62
     7
370
    15
100
AcDbLine
 10
3.953204152495235
 20
3.490025287805716
 30
0.0
 11
3.876827312064073
 21
3.390277710543554
 31
0.0
  0
LINE
  5
148
330
1F
100
AcDbEntity
  8
0
  6
Continuous
 62
     7
370
    15
100
AcDbLine
 10
3.876827312064073
 20
3.390277710543554
 30
0.0
 11
3.508965916489433
 21
3.555185454916439
 31
0.0
  0
LINE
  5
149
330
1F
100
AcDbEntity
  8
0
  6
Continuous
 62
     7
370
    15
100
AcDbLine
 10
4.301317959307121
 20
3.199983725322184
 30
0.0
 11
4.080734386914116
 21
3.164882312983071
 31
0.0
  0
LINE
  5
14A
330
1F
100
AcDbEntity
  8
0
  6
Continuous
 62
     7
370
    15
100
AcDbLine
 10
3.985542465213963
 20
3.407577465414131
 30
0.0
 11
3.876827312064073
 21
3.390277710543554
 31
0.0
  0
LINE
  5
14B
330
1F
100
AcDbEntity
  8
0
  6
Continuous
 62
     7
370
    15
100
AcDbLine
 10
5.319825629337348
 20
6.785310922277658
 30
0.0
 11
5.34728299377069
 21
6.789680344805536
 31
0.0
  0
LINE
  5
14C
330
1F
100
AcDbEntity
  8
0
  6
Continuous
 62
     7
370
    15
100
AcDbLine
 10
5.374958625814005
 20
3.244703005510629
 30
0.0
 11
5.34728299377069
 21
6.789680344805536
 31
0.0
  0
LINE
  5
14D
330
1F
100
AcDbEntity
  8
0
  6
Continuous
 62
     7
370
    15
100
AcDbLine
 10
5.374958625814005
 20
3.244703005510629
 30
0.0
 11
4.941962335714193
 21
3.175800319481581
 31
0.0
  0
LINE
  5
14E
330
1F
100
AcDbEntity
  8
0
  6
Continuous
 62
     7
370
    15
100
AcDbLine
 10
4.722900481675806
 20
6.88977274943527
 30
0.0
 11
4.75608453368463
 21
6.932392774235546
 31
0.0
  0
LINE
  5
14F
330
1F
100
AcDbEntity
  8
0
  6
Continuous
 62
     7
370
    15
100
AcDbLine
 10
4.75608453368463
 20
6.932392774235546
 30
0.0
 11
4.722318199938249
 21
6.964359102204059
 31
0.0
  0
LINE
  5
150
330
1F
100
AcDbEntity
  8
0
  6
Continuous
 62
     7
370
    15
100
AcDbLine
 10
4.722318199938249
 20
6.964359102204059
 30
0.0
 11
4.68913432069026
 21
6.921739101117577
 31
0.0
  0
LINE
  5
151
330
1F
100
AcDbEntity
  8
0
  6
Continuous
 62
     7
370
    15
100
AcDbLine
 10
4.68913432069026
 20
6.921739101117577
 30
0.0
 11
4.722900481675806
 21
6.88977274943527
 31
0.0
  0
LINE
  5
152
330
1F
100
AcDbEntity
  8
0
  6
Continuous
 62
     7
370
    15
100
AcDbLine
 10
5.08604754229466
 20
6.98489987557605
 30
0.0
 11
5.119813878153827
 21
6.952933735416211
 31
0.0
  0
LINE
  5
153
330
1F
100
AcDbEntity
  8
0
  6
Continuous
 62
     7
370
    15
100
AcDbLine
 10
5.119813878153827
 20
6.952933735416211
 30
0.0
 11
5.152997755289031
 21
6.995553548694019
 31
0.0
  0
LINE
  5
154
330
1F
100
AcDbEntity
  8
0
  6
Continuous
 62
     7
370
    15
100
AcDbLine
 10
5.152997755289031
 20
6.995553548694019
 30
0.0
 11
5.119231594303484
 21
7.027519900376325
 31
0.0
  0
LINE
  5
155
330
1F
100
AcDbEntity
  8
0
  6
Continuous
 62
     7
370
    15
100
AcDbLine
 10
5.119231594303484
 20
7.027519900376325
 30
0.0
 11
5.08604754229466
 21
6.98489987557605
 31
0.0
  0
LINE
  5
156
330
1F
100
AcDbEntity
  8
0
  6
Continuous
 62
     7
370
    15
100
AcDbLine
 10
4.608872737405521
 20
7.612750849391381
 30
0.0
 11
4.608828761638753
 21
7.618378623689312
 31
0.0
  0
LINE
  5
157
330
1F
100
AcDbEntity
  8
0
  6
Continuous
 62
     7
370
    15
100
AcDbLine
 10
5.222284197221556
 20
7.710363069559509
 30
0.0
 11
4.608872737405521
 21
7.612750849391381
 31
0.0
  0
LINE
  5
158
330
1F
100
AcDbEntity
  8
0
  6
Continuous
 62
     7
370
    15
100
AcDbLine
 10
5.222240307835208
 20
7.715990855714337
 30
0.0
 11
5.222284197221556
 21
7.710363069559509
 31
0.0
  0
LINE
  5
159
330
1F
100
AcDbEntity
  8
0
  6
Continuous
 62
     7
370
    15
100
AcDbLine
 10
5.222240307835208
 20
7.715990855714337
 30
0.0
 11
5.295408981542686
 21
7.727634113320756
 31
0.0
  0
ARC
  5
15A
330
1F
100
AcDbEntity
  8
0
  6
Continuous
 62
     7
370
    15
100
AcDbCircle
 10
5.302404687371963
 20
7.730952745064445
 30
0.0
 40
0.0077429462544954
100
AcDbArc
 50
205.3787861691566
 51
279.5361154127339
  0
LINE
  5
15B
330
1F
100
AcDbEntity
  8
0
  6
Continuous
 62
     7
370
    15
100
AcDbLine
 10
5.31249177635475
 20
7.724717839695151
 30
0.0
 11
5.303687455557906
 21
7.723316795714093
 31
0.0
  0
LINE
  5
15C
330
1F
100
AcDbEntity
  8
0
  6
Continuous
 62
     7
370
    15
100
AcDbLine
 10
5.325653517107571
 20
6.03881952686698
 30
0.0
 11
5.31249177635475
 21
7.724717839695151
 31
0.0
  0
LINE
  5
15D
330
1F
100
AcDbEntity
  8
0
  6
Continuous
 62
     7
370
    15
100
AcDbLine
 10
5.287714481563045
 20
5.990092404641482
 30
0.0
 11
5.325653517107571
 21
6.03881952686698
 31
0.0
  0
LINE
  5
15E
330
1F
100
AcDbEntity
  8
0
  6
Continuous
 62
     7
370
    15
100
AcDbLine
 10
4.570431578935732
 20
5.875951205509026
 30
0.0
 11
5.287714481563045
 21
5.990092404641482
 31
0.0
  0
LINE
  5
15F
330
1F
100
AcDbEntity
  8
0
  6
Continuous
 62
     7
370
    15
100
AcDbLine
 10
4.531826889688097
 20
5.912497960368443
 30
0.0
 11
4.570431578935732
 21
5.875951205509026
 31
0.0
  0
LINE
  5
160
330
1F
100
AcDbEntity
  8
0
  6
Continuous
 62
     7
370
    15
100
AcDbLine
 10
4.518665148935276
 20
7.598396273196614
 30
0.0
 11
4.531826889688097
 21
5.912497960368443
 31
0.0
  0
LINE
  5
161
330
1F
100
AcDbEntity
  8
0
  6
Continuous
 62
     7
370
    15
100
AcDbLine
 10
4.527469383351704
 20
7.599797305320775
 30
0.0
 11
4.518665148935276
 21
7.598396273196614
 31
0.0
  0
ARC
  5
162
330
1F
100
AcDbEntity
  8
0
  6
Continuous
 62
     7
370
    15
100
AcDbCircle
 10
4.525232136319559
 20
7.610742121057159
 30
0.0
 40
0.0111711353848327
100
AcDbArc
 50
281.5527679612639
 51
338.981408796549
  0
LINE
  5
163
330
1F
100
AcDbEntity
  8
0
  6
Continuous
 62
     7
370
    15
100
AcDbLine
 10
4.535659990101019
 20
7.606735360358198
 30
0.0
 11
4.608828761638753
 21
7.618378623689312
 31
0.0
  0
LINE
  5
164
330
1F
100
AcDbEntity
  8
0
  6
Continuous
 62
     7
370
    15
100
AcDbLine
 10
4.928909922662669
 20
5.953925054785981
 30
0.0
 11
4.946679550844099
 21
5.991608931694203
 31
0.0
  0
LINE
  5
165
330
1F
100
AcDbEntity
  8
0
  6
Continuous
 62
     7
370
    15
100
AcDbLine
 10
4.946679550844099
 20
5.991608931694203
 30
0.0
 11
4.942910848849666
 21
5.993424069644252
 31
0.0
  0
LINE
  5
166
330
1F
100
AcDbEntity
  8
0
  6
Continuous
 62
     7
370
    15
100
AcDbLine
 10
4.942910848849666
 20
5.993424069644252
 30
0.0
 11
4.93096687190592
 21
5.968094792916246
 31
0.0
  0
LINE
  5
167
330
1F
100
AcDbEntity
  8
0
  6
Continuous
 62
     7
370
    15
100
AcDbLine
 10
4.93096687190592
 20
5.968094792916246
 30
0.0
 11
4.92856421051395
 21
6.275857539354863
 31
0.0
  0
LINE
  5
168
330
1F
100
AcDbEntity
  8
0
  6
Continuous
 62
     7
370
    15
100
AcDbLine
 10
4.92856421051395
 20
6.275857539354863
 30
0.0
 11
4.924234244239603
 21
6.275168437127369
 31
0.0
  0
LINE
  5
169
330
1F
100
AcDbEntity
  8
0
  6
Continuous
 62
     7
370
    15
100
AcDbLine
 10
4.924234244239603
 20
6.275168437127369
 30
0.0
 11
4.926636905631573
 21
5.967405690688752
 31
0.0
  0
LINE
  5
16A
330
1F
100
AcDbEntity
  8
0
  6
Continuous
 62
     7
370
    15
100
AcDbLine
 10
4.926636905631573
 20
5.967405690688752
 30
0.0
 11
4.914327570657306
 21
5.988875628299076
 31
0.0
  0
LINE
  5
16B
330
1F
100
AcDbEntity
  8
0
  6
Continuous
 62
     7
370
    15
100
AcDbLine
 10
4.914327570657306
 20
5.988875628299076
 30
0.0
 11
4.910596655109523
 21
5.985867043837422
 31
0.0
  0
LINE
  5
16C
330
1F
100
AcDbEntity
  8
0
  6
Continuous
 62
     7
370
    15
100
AcDbLine
 10
4.910596655109523
 20
5.985867043837422
 30
0.0
 11
4.928909922662669
 21
5.953925054785981
 31
0.0
  0
LINE
  5
16D
330
1F
100
AcDbEntity
  8
0
  6
Continuous
 62
     7
370
    15
100
AcDbLine
 10
4.536099860604186
 20
7.61483784674762
 30
0.0
 11
4.535659990101019
 21
7.606735360358198
 31
0.0
  0
ARC
  5
16E
330
1F
100
AcDbEntity
  8
0
  6
Continuous
 62
     7
370
    15
100
AcDbCircle
 10
4.496298500596162
 20
7.613523031288965
 30
0.0
 40
0.0398230711796397
100
AcDbArc
 50
1.892045684275675
 51
53.02177342022409
  0
LINE
  5
16F
330
1F
100
AcDbEntity
  8
0
  6
Continuous
 62
     7
370
    15
100
AcDbLine
 10
4.520252535236352
 20
7.645336255310355
 30
0.0
 11
4.592418585846758
 21
7.656820066594608
 31
0.0
  0
ARC
  5
170
330
1F
100
AcDbEntity
  8
0
  6
Continuous
 62
     7
370
    15
100
AcDbCircle
 10
4.564201870950992
 20
7.622051328696618
 30
0.0
 40
0.0447777638401926
100
AcDbArc
 50
355.2952729858827
 51
50.93879831390571
  0
LINE
  5
171
330
1F
100
AcDbEntity
  8
0
  6
Continuous
 62
     7
370
    15
100
AcDbLine
 10
4.527469383351704
 20
7.599797305320775
 30
0.0
 11
4.51880273151791
 21
7.603682395708163
 31
0.0
  0
LINE
  5
172
330
1F
100
AcDbEntity
  8
0
  6
Continuous
 62
     7
370
    15
100
AcDbLine
 10
4.518665148935276
 20
7.598396273196614
 30
0.0
 11
4.509998497101482
 21
7.602281363584002
 31
0.0
  0
LINE
  5
173
330
1F
100
AcDbEntity
  8
0
  6
Continuous
 62
     7
370
    15
100
AcDbLine
 10
4.51880273151791
 20
7.603682395708163
 30
0.0
 11
4.509998497101482
 21
7.602281363584002
 31
0.0
  0
LINE
  5
174
330
1F
100
AcDbEntity
  8
0
  6
Continuous
 62
     7
370
    15
100
AcDbLine
 10
4.531826889688097
 20
5.912497960368443
 30
0.0
 11
4.523160238910696
 21
5.916383144660167
 31
0.0
  0
LINE
  5
175
330
1F
100
AcDbEntity
  8
0
  6
Continuous
 62
     7
370
    15
100
AcDbLine
 10
4.509998497101482
 20
7.602281363584002
 30
0.0
 11
4.523160238910696
 21
5.916383144660167
 31
0.0
  0
LINE
  5
176
330
1F
100
AcDbEntity
  8
0
  6
Continuous
 62
     7
370
    15
100
AcDbLine
 10
4.52773498209781
 20
7.614464981237087
 30
0.0
 11
4.536099860604186
 21
7.61483784674762
 31
0.0
  0
LINE
  5
177
330
1F
100
AcDbEntity
  8
0
  6
Continuous
 62
     7
370
    15
100
AcDbLine
 10
4.520252535236352
 20
7.645336255310355
 30
0.0
 11
4.520383105818734
 21
7.628613706186844
 31
0.0
  0
ARC
  5
178
330
1F
100
AcDbEntity
  8
0
  6
Continuous
 62
     7
370
    15
100
AcDbCircle
 10
4.516565230389557
 20
7.614627511413647
 30
0.0
 40
0.0111714801662901
100
AcDbArc
 50
281.5537366469726
 51
338.9804401108369
  0
LINE
  5
179
330
1F
100
AcDbEntity
  8
0
  6
Continuous
 62
     7
370
    15
100
AcDbLine
 10
4.535659990101019
 20
7.606735360358198
 30
0.0
 11
4.526993338267225
 21
7.610620450745586
 31
0.0
  0
LINE
  5
17A
330
1F
100
AcDbEntity
  8
0
  6
Continuous
 62
     7
370
    15
100
AcDbLine
 10
4.52773498209781
 20
7.614464981237087
 30
0.0
 11
4.526993338267225
 21
7.610620450745586
 31
0.0
  0
LINE
  5
17B
330
1F
100
AcDbEntity
  8
0
  6
Continuous
 62
     7
370
    15
100
AcDbLine
 10
4.49681745797244
 20
7.639177907385067
 30
0.0
 11
4.520383105818734
 21
7.628613706186844
 31
0.0
  0
LINE
  5
17C
330
1F
100
AcDbEntity
  8
0
  6
Continuous
 62
     7
370
    15
100
AcDbLine
 10
4.496686887390058
 20
7.655900456508578
 30
0.0
 11
4.49681745797244
 21
7.639177907385067
 31
0.0
  0
LINE
  5
17D
330
1F
100
AcDbEntity
  8
0
  6
Continuous
 62
     7
370
    15
100
AcDbLine
 10
4.496686887390058
 20
7.655900456508578
 30
0.0
 11
4.520252535236352
 21
7.645336255310355
 31
0.0
  0
LINE
  5
17E
330
1F
100
AcDbEntity
  8
0
  6
Continuous
 62
     7
370
    15
100
AcDbLine
 10
4.568852938000464
 20
7.667384267792831
 30
0.0
 11
4.496686887390058
 21
7.655900456508578
 31
0.0
  0
LINE
  5
17F
330
1F
100
AcDbEntity
  8
0
  6
Continuous
 62
     7
370
    15
100
AcDbLine
 10
4.592418585846758
 20
7.656820066594608
 30
0.0
 11
4.568852938000464
 21
7.667384267792831
 31
0.0
  0
LINE
  5
180
330
1F
100
AcDbEntity
  8
0
  6
Continuous
 62
     7
370
    15
100
AcDbLine
 10
5.222284197221556
 20
7.710363069559509
 30
0.0
 11
5.213617459007346
 21
7.71424814809
 31
0.0
  0
LINE
  5
181
330
1F
100
AcDbEntity
  8
0
  6
Continuous
 62
     7
370
    15
100
AcDbLine
 10
5.213617459007346
 20
7.71424814809
 30
0.0
 11
4.608831705366164
 21
7.61800860477324
 31
0.0
  0
LINE
  5
182
330
1F
100
AcDbEntity
  8
0
  6
Continuous
 62
     7
370
    15
100
AcDbLine
 10
4.75608453368463
 20
6.932392774235546
 30
0.0
 11
4.747417797583204
 21
6.936278040574711
 31
0.0
  0
LINE
  5
183
330
1F
100
AcDbEntity
  8
0
  6
Continuous
 62
     7
370
    15
100
AcDbLine
 10
4.747417797583204
 20
6.936278040574711
 30
0.0
 11
4.720382221884799
 21
6.961872396945994
 31
0.0
  0
LINE
  5
184
330
1F
100
AcDbEntity
  8
0
  6
Continuous
 62
     7
370
    15
100
AcDbLine
 10
4.716170043030644
 20
6.896144628747649
 30
0.0
 11
4.747417797583204
 21
6.936278040574711
 31
0.0
  0
ARC
  5
185
330
1F
100
AcDbEntity
  8
0
  6
Continuous
 62
     7
370
    15
100
AcDbCircle
 10
5.17761224625349
 20
7.719662912618498
 30
0.0
 40
0.0447788776372189
100
AcDbArc
 50
355.2962223398671
 51
50.93831009163983
  0
LINE
  5
186
330
1F
100
AcDbEntity
  8
0
  6
Continuous
 62
     7
370
    15
100
AcDbLine
 10
5.205829959282377
 20
7.754432274905839
 30
0.0
 11
5.277996094160414
 21
7.765915910238317
 31
0.0
  0
ARC
  5
187
330
1F
100
AcDbEntity
  8
0
  6
Continuous
 62
     7
370
    15
100
AcDbCircle
 10
5.254042143556423
 20
7.734102631320943
 30
0.0
 40
0.0398230644854589
100
AcDbArc
 50
1.892150923691174
 51
53.02191751776383
  0
LINE
  5
188
330
1F
100
AcDbEntity
  8
0
  6
Continuous
 62
     7
370
    15
100
AcDbLine
 10
5.295408981542686
 20
7.727634113320756
 30
0.0
 11
5.29384349445883
 21
7.735417519664681
 31
0.0
  0
LINE
  5
189
330
1F
100
AcDbEntity
  8
0
  6
Continuous
 62
     7
370
    15
100
AcDbLine
 10
5.222240307835208
 20
7.715990855714337
 30
0.0
 11
5.213573569620995
 21
7.719875934244828
 31
0.0
  0
LINE
  5
18A
330
1F
100
AcDbEntity
  8
0
  6
Continuous
 62
     7
370
    15
100
AcDbLine
 10
5.205829959282377
 20
7.754432274905839
 30
0.0
 11
5.20596061413239
 21
7.737709549830554
 31
0.0
  0
LINE
  5
18B
330
1F
100
AcDbEntity
  8
0
  6
Continuous
 62
     7
370
    15
100
AcDbLine
 10
5.213573569620995
 20
7.719875934244828
 30
0.0
 11
5.213617459007346
 21
7.71424814809
 31
0.0
  0
LINE
  5
18C
330
1F
100
AcDbEntity
  8
0
  6
Continuous
 62
     7
370
    15
100
AcDbLine
 10
5.254430532694539
 20
7.776480123293436
 30
0.0
 11
5.182264395703715
 21
7.764996300152287
 31
0.0
  0
LINE
  5
18D
330
1F
100
AcDbEntity
  8
0
  6
Continuous
 62
     7
370
    15
100
AcDbLine
 10
5.277996094160414
 20
7.765915910238317
 30
0.0
 11
5.254430532694539
 21
7.776480123293436
 31
0.0
  0
LINE
  5
18E
330
1F
100
AcDbEntity
  8
0
  6
Continuous
 62
     7
370
    15
100
AcDbLine
 10
5.182264395703715
 20
7.764996300152287
 30
0.0
 11
5.205829959282377
 21
7.754432274905839
 31
0.0
  0
LINE
  5
18F
330
1F
100
AcDbEntity
  8
0
  6
Continuous
 62
     7
370
    15
100
AcDbLine
 10
5.182394879905679
 20
7.748273739171879
 30
0.0
 11
5.20596061413239
 21
7.737709549830554
 31
0.0
  0
LINE
  5
190
330
1F
100
AcDbEntity
  8
0
  6
Continuous
 62
     7
370
    15
100
AcDbLine
 10
5.182264395703715
 20
7.764996300152287
 30
0.0
 11
5.182394879905679
 21
7.748273739171879
 31
0.0
  0
LINE
  5
191
330
1F
100
AcDbEntity
  8
0
  6
Continuous
 62
     7
370
    15
100
AcDbLine
 10
5.31249177635475
 20
7.724717839695151
 30
0.0
 11
5.303825038140538
 21
7.728602918225642
 31
0.0
  0
LINE
  5
192
330
1F
100
AcDbEntity
  8
0
  6
Continuous
 62
     7
370
    15
100
AcDbLine
 10
5.303825038140538
 20
7.728602918225642
 30
0.0
 11
5.295589269198286
 21
7.72729245922519
 31
0.0
  0
LINE
  5
193
330
1F
100
AcDbEntity
  8
0
  6
Continuous
 62
     7
370
    15
100
AcDbLine
 10
4.570431578935732
 20
5.875951205509026
 30
0.0
 11
4.56176492815833
 21
5.87983638980075
 31
0.0
  0
LINE
  5
194
330
1F
100
AcDbEntity
  8
0
  6
Continuous
 62
     7
370
    15
100
AcDbLine
 10
4.523160238910696
 20
5.916383144660167
 30
0.0
 11
4.56176492815833
 21
5.87983638980075
 31
0.0
  0
LINE
  5
195
330
1F
100
AcDbEntity
  8
0
  6
Continuous
 62
     7
370
    15
100
AcDbLine
 10
5.152997755289031
 20
6.995553548694019
 30
0.0
 11
5.144331191948441
 21
6.999438838746977
 31
0.0
  0
LINE
  5
196
330
1F
100
AcDbEntity
  8
0
  6
Continuous
 62
     7
370
    15
100
AcDbLine
 10
5.144331191948441
 20
6.999438838746977
 30
0.0
 11
5.117295454939037
 21
7.025033165272265
 31
0.0
  0
LINE
  5
197
330
1F
100
AcDbEntity
  8
0
  6
Continuous
 62
     7
370
    15
100
AcDbLine
 10
5.113083264635045
 20
6.959305403206123
 30
0.0
 11
5.144331191948441
 21
6.999438838746977
 31
0.0
  0
LINE
  5
198
330
1F
100
AcDbEntity
  8
0
  6
Continuous
 62
     7
370
    15
100
AcDbLine
 10
4.924136993759451
 20
5.968526461467378
 30
0.0
 11
4.91305744856592
 21
5.987851392972104
 31
0.0
  0
LINE
  5
199
330
1F
100
AcDbEntity
  8
0
  6
Continuous
 62
     7
370
    15
100
AcDbLine
 10
4.928466958977404
 20
5.969215469790536
 30
0.0
 11
4.926076162552385
 21
6.275461580383319
 31
0.0
  0
LINE
  5
19A
330
1F
100
AcDbEntity
  8
0
  6
Continuous
 62
     7
370
    15
100
AcDbLine
 10
4.944179637915584
 20
5.992729608568494
 30
0.0
 11
4.942878828398507
 21
5.993356109014702
 31
0.0
  0
LINE
  5
19B
330
1F
100
AcDbEntity
  8
0
  6
Continuous
 62
     7
370
    15
100
AcDbLine
 10
4.927248170192181
 20
5.95682347313284
 30
0.0
 11
4.944179637915584
 21
5.992729608568494
 31
0.0
  0
LINE
  5
19C
330
1F
100
AcDbEntity
  8
0
  6
Continuous
 62
     7
370
    15
100
AcDbLine
 10
4.928466958977404
 20
5.969215469790536
 30
0.0
 11
4.93096687190592
 21
5.968094792916246
 31
0.0
  0
LINE
  5
19D
330
1F
100
AcDbEntity
  8
0
  6
Continuous
 62
     7
370
    15
100
AcDbLine
 10
4.924136993759451
 20
5.968526461467378
 30
0.0
 11
4.926636905631573
 21
5.967405690688752
 31
0.0
  0
LINE
  5
19E
330
1F
100
AcDbEntity
  8
0
  6
Continuous
 62
     7
370
    15
100
AcDbLine
 10
4.944179637915584
 20
5.992729608568494
 30
0.0
 11
4.946679550844099
 21
5.991608931694203
 31
0.0
  0
LWPOLYLINE
  5
19F
330
1F
100
AcDbEntity
  8
0
  6
Continuous
 62
     8
370
    15
100
AcDbPolyline
 90
       12
 70
   128
 43
0.0
 10
4.596166488210988
 20
6.072655581865412
 10
4.587398602932092
 20
6.07819317693888
 10
4.578825945660577
 20
6.088464827389787
 10
4.573687132223558
 20
6.101554630095921
 10
4.572438771070663
 20
6.116299544817971
 10
4.575191794999339
 20
6.131389405216441
 10
4.581701580071553
 20
6.145483367680308
 10
4.591389824042654
 20
6.15732929253403
 10
4.603395472397386
 20
6.165874466385442
 10
4.616651951575094
 20
6.170359657742586
 10
4.629981199835953
 20
6.17038632557558
 10
4.638777467786026
 20
6.167708264284732
  0
LWPOLYLINE
  5
1A0
330
1F
100
AcDbEntity
  8
0
  6
Continuous
 62
     8
370
    15
100
AcDbPolyline
 90
       12
 70
   128
 43
0.0
 10
4.73343669509923
 20
7.462946129600545
 10
4.724668809820335
 20
7.468483724674012
 10
4.716096151492426
 20
7.478755281220583
 10
4.710957336999015
 20
7.49184499002238
 10
4.709709063282931
 20
7.506590010505664
 10
4.712462000831188
 20
7.521679859047236
 10
4.718971775509959
 20
7.535773921547643
 10
4.728660019481059
 20
7.547619846401365
 10
4.740665679285628
 20
7.556165014120574
 10
4.753922145957107
 20
7.560650117705584
 10
4.767251492048221
 20
7.560676791263272
 10
4.776047673617877
 20
7.557998718115529
  0
LWPOLYLINE
  5
1A1
330
1F
100
AcDbEntity
  8
0
  6
Continuous
 62
     8
370
    15
100
AcDbPolyline
 90
       12
 70
   128
 43
0.0
 10
4.60596962894933
 20
7.362165330231267
 10
4.597201830050852
 20
7.367702937161631
 10
4.588629087455312
 20
7.377974669659978
 10
4.583490261512063
 20
7.391064384593978
 10
4.582241910752612
 20
7.405809199279491
 10
4.584994936794074
 20
7.420899247486633
 10
4.591504795740476
 20
7.434993134035263
 10
4.601192953331159
 20
7.446839047032088
 10
4.613198613135728
 20
7.455384214751298
 10
4.626455081919992
 20
7.459869506144981
 10
4.639784341630689
 20
7.459896167845771
 10
4.648580609580761
 20
7.457218106554924
  0
LWPOLYLINE
  5
1A2
330
1F
100
AcDbEntity
  8
0
  6
Continuous
 62
     8
370
    15
100
AcDbPolyline
 90
       12
 70
   128
 43
0.0
 10
5.152786580659167
 20
6.040485180114098
 10
5.144018696436664
 20
6.046022869091901
 10
5.135446038108756
 20
6.056294425638472
 10
5.130307224671737
 20
6.069384228344605
 10
5.129058777138424
 20
6.08412913120976
 10
5.131811887447518
 20
6.099219003465127
 10
5.138321662126289
 20
6.113313065965532
 10
5.148009906097389
 20
6.125158990819255
 10
5.160015565901956
 20
6.133704158538465
 10
5.173272033629829
 20
6.138189356027812
 10
5.186601379720944
 20
6.138216029585498
 10
5.195397560234205
 20
6.135537862533418
  0
LWPOLYLINE
  5
1A3
330
1F
100
AcDbEntity
  8
0
  6
Continuous
 62
     8
370
    15
100
AcDbPolyline
 90
       12
 70
   128
 43
0.0
 10
5.201967340476296
 20
7.376509612033829
 10
5.1931994551974
 20
7.382047207107294
 10
5.18462661265882
 20
7.392318746072276
 10
5.179487800278193
 20
7.405408642682745
 10
5.178239524449323
 20
7.420153475357356
 10
5.180992461997582
 20
7.435243323898929
 10
5.187502420887023
 20
7.449337403980926
 10
5.19719049209729
 20
7.461183305120854
 10
5.209196151901858
 20
7.469728472840064
 10
5.222452620686123
 20
7.474213764233748
 10
5.235781955327399
 20
7.474240443923638
 10
5.244578146234108
 20
7.471562176835019
  0
LWPOLYLINE
  5
1A4
330
1F
100
AcDbEntity
  8
0
  6
Continuous
 62
     8
370
    15
100
AcDbPolyline
 90
       12
 70
   128
 43
0.0
 10
5.130350089464466
 20
7.52610692777281
 10
5.12158220418557
 20
7.531644522846278
 10
5.113009545857662
 20
7.541916079392849
 10
5.107870558603416
 20
7.555005764480852
 10
5.106622284887332
 20
7.569750784964137
 10
5.109375395196424
 20
7.584840657219504
 10
5.115885181325032
 20
7.598934713587706
 10
5.125573252535298
 20
7.610780614727636
 10
5.137579073650864
 20
7.619325812292841
 10
5.150835379011345
 20
7.623810886031855
 10
5.164164713652621
 20
7.623837565721745
 10
5.172960906672114
 20
7.621159486441798
  0
LWPOLYLINE
  5
1A5
330
1F
100
AcDbEntity
  8
0
  6
Continuous
 62
     8
370
    15
100
AcDbPolyline
 90
       12
 70
   128
 43
0.0
 10
5.002883023314566
 20
7.425326128403534
 10
4.99411513803567
 20
7.430863723477001
 10
4.985542309059713
 20
7.441135444118451
 10
4.980403494566302
 20
7.454225152920249
 10
4.979155218737432
 20
7.468969985594859
 10
4.981908158398475
 20
7.484060021945105
 10
4.988418115175131
 20
7.49815391421843
 10
4.998106186385396
 20
7.509999815358358
 10
5.010111834740129
 20
7.518544989209771
 10
5.023368314974232
 20
7.523030274471251
 10
5.036697649615507
 20
7.523056954161141
 10
5.045493842635001
 20
7.520378874881194
  0
LWPOLYLINE
  5
1A6
330
1F
100
AcDbEntity
  8
0
  6
Continuous
 62
     8
370
    15
100
AcDbPolyline
 90
       12
 70
   128
 43
0.0
 10
4.805053934661223
 20
7.313348819993763
 10
4.796286049382326
 20
7.318886415067232
 10
4.787713391054419
 20
7.329157971613803
 10
4.782574578673793
 20
7.342247868224273
 10
4.781326130084087
 20
7.35699267718509
 10
4.784079240393181
 20
7.372082549440456
 10
4.79058901507195
 20
7.386176611940863
 10
4.800277259043051
 20
7.398022536794584
 10
4.81228291884762
 20
7.406567704513795
 10
4.825539396968936
 20
7.411052801966603
 10
4.838868733722998
 20
7.411079669465165
 10
4.847664913179868
 20
7.408401408508749
  0
LWPOLYLINE
  5
1A7
330
1F
100
AcDbEntity
  8
0
  6
Continuous
 62
     8
370
    15
100
AcDbPolyline
 90
       12
 70
   128
 43
0.0
 10
4.993079721265226
 20
6.135816350191682
 10
4.984312008747165
 20
6.141353968978943
 10
4.975739167264978
 20
6.15162560184826
 10
4.970600353827959
 20
6.164715404554393
 10
4.969352090505318
 20
6.179460325001138
 10
4.972105016603738
 20
6.194550179674914
 10
4.978614975493181
 20
6.208644259756911
 10
4.988303045647054
 20
6.220490066992503
 10
5.000308705451623
 20
6.229035234711713
 10
5.013565173179495
 20
6.23352043220106
 10
5.026894508877164
 20
6.233547205795286
 10
5.035690700840265
 20
6.230869032611002
  0
LWPOLYLINE
  5
1A8
330
1F
100
AcDbEntity
  8
0
  6
Continuous
 62
     8
370
    15
100
AcDbPolyline
 90
       12
 70
   128
 43
0.0
 10
4.833373023182282
 20
6.231147550115264
 10
4.824605137903387
 20
6.23668514518873
 10
4.816032480631872
 20
6.246956795639638
 10
4.810893654688623
 20
6.260046510573638
 10
4.809645218605147
 20
6.274791407306589
 10
4.812398329970633
 20
6.289881373466293
 10
4.818908103593011
 20
6.303975342062362
 10
4.828596347564111
 20
6.315821266916083
 10
4.84060200736868
 20
6.324366434635294
 10
4.853858475096552
 20
6.328851632124641
 10
4.86718764842683
 20
6.328878281968535
 10
4.875984002757322
 20
6.326200232534584
  0
LWPOLYLINE
  5
1A9
330
1F
100
AcDbEntity
  8
0
  6
Continuous
 62
     8
370
    15
100
AcDbPolyline
 90
       12
 70
   128
 43
0.0
 10
4.673666163788341
 20
6.326478720192849
 10
4.664898364889864
 20
6.332016327123212
 10
4.656325608731701
 20
6.34228787794509
 10
4.651186795294682
 20
6.355377680651223
 10
4.649938434141787
 20
6.370122595373273
 10
4.652691458070463
 20
6.385212455771744
 10
4.659201330579488
 20
6.399306523996844
 10
4.668889488170171
 20
6.41115243699367
 10
4.680895147974739
 20
6.419697604712879
 10
4.694151615702611
 20
6.424182802202226
 10
4.707480950343888
 20
6.424209481892115
 10
4.716277142306988
 20
6.421531308707832
  0
LWPOLYLINE
  5
1AA
330
1F
100
AcDbEntity
  8
0
  6
Continuous
 62
     8
370
    15
100
AcDbPolyline
 90
       12
 70
   128
 43
0.0
 10
5.070579558153577
 20
6.389639518365116
 10
5.061811672874682
 20
6.395177113438582
 10
5.053239003096937
 20
6.405448676117356
 10
5.048100016899083
 20
6.418538455109696
 10
5.046851753576443
 20
6.433283375556441
 10
5.049604863885535
 20
6.448373247811807
 10
5.056114638564306
 20
6.462467310312214
 10
5.065802709774571
 20
6.474313211452142
 10
5.077808542339975
 20
6.482858402885145
 10
5.091064837307012
 20
6.487343576660698
 10
5.104394183398126
 20
6.487370250218385
 10
5.113190363911389
 20
6.484692083166304
  0
LWPOLYLINE
  5
1AB
330
1F
100
AcDbEntity
  8
0
  6
Continuous
 62
     8
370
    15
100
AcDbPolyline
 90
       12
 70
   128
 43
0.0
 10
4.755873359054765
 20
5.977324405655625
 10
4.747105474832263
 20
5.982862094633428
 10
4.738532816504355
 20
5.993133651179999
 10
4.733393991617499
 20
6.006223460018336
 10
4.732145555534024
 20
6.020968356751287
 10
4.734898665843117
 20
6.036058229006654
 10
4.741408440521887
 20
6.050152291507059
 10
4.751096510675759
 20
6.061998098742651
 10
4.763102344297556
 20
6.070543384079992
 10
4.776358812025428
 20
6.075028581569339
 10
4.789687985355707
 20
6.075055231413232
 10
4.79848416586897
 20
6.072377064361152
  0
LINE
  5
1AC
330
1F
100
AcDbEntity
  8
0
  6
Continuous
 62
     8
370
    15
100
AcDbLine
 10
5.303687455557906
 20
7.723316795714093
 30
0.0
 11
5.295871048557748
 21
7.726820821328685
 31
0.0
  0
TEXT
  5
1B2
330
1F
100
AcDbEntity
  8
0
100
AcDbText
 10
6.192253373819838
 20
5.387429202103454
 30
0.0
 40
0.25
  1
USP: RSTP6-2
100
AcDbText
  0
TEXT
  5
1B3
330
1F
100
AcDbEntity
  8
0
100
AcDbText
 10
6.192253373819838
 20
4.970762535436787
 30
0.0
 40
0.25
  1
SIMPSON: DSP
100
AcDbText
  0
ENDSEC
  0
SECTION
  2
OBJECTS
  0
DICTIONARY
  5
C
330
0
100
AcDbDictionary
281
     1
  3
ACAD_COLOR
350
1AF
  3
ACAD_GROUP
350
D
  3
ACAD_LAYOUT
350
1A
  3
ACAD_MATERIAL
350
1AE
  3
ACAD_MLINESTYLE
350
17
  3
ACAD_PLOTSETTINGS
350
19
  3
ACAD_PLOTSTYLENAME
350
E
  3
ACAD_SCALELIST
350
47
  3
ACDBHEADERROUNDTRIPXREC
350
1B8
  3
AcDbVariableDictionary
350
1B4
  0
DICTIONARY
  5
1AF
102
{ACAD_REACTORS
330
C
102
}
330
C
100
AcDbDictionary
281
     1
  0
DICTIONARY
  5
D
102
{ACAD_REACTORS
330
C
102
}
330
C
100
AcDbDictionary
281
     1
  0
DICTIONARY
  5
1A
102
{ACAD_REACTORS
330
C
102
}
330
C
100
AcDbDictionary
281
     1
  3
Layout1
350
1E
  3
Layout2
350
26
  3
Model
350
22
  0
DICTIONARY
  5
1AE
102
{ACAD_REACTORS
330
C
102
}
330
C
100
AcDbDictionary
281
     1
  0
DICTIONARY
  5
17
102
{ACAD_REACTORS
330
C
102
}
330
C
100
AcDbDictionary
281
     1
  3
Standard
350
18
  0
DICTIONARY
  5
19
102
{ACAD_REACTORS
330
C
102
}
330
C
100
AcDbDictionary
281
     1
  0
ACDBDICTIONARYWDFLT
  5
E
102
{ACAD_REACTORS
330
C
102
}
330
C
100
AcDbDictionary
281
     1
  3
Normal
350
F
100
AcDbDictionaryWithDefault
340
F
  0
DICTIONARY
  5
47
102
{ACAD_REACTORS
330
C
102
}
330
C
100
AcDbDictionary
281
     1
  3
A0
350
48
  3
A1
350
49
  3
A2
350
4A
  3
A3
350
4B
  3
A4
350
4C
  3
A5
350
4D
  3
A6
350
4E
  3
A7
350
4F
  3
A8
350
50
  3
A9
350
51
  3
B0
350
52
  3
B1
350
53
  3
B2
350
54
  3
B3
350
55
  3
B4
350
56
  3
B5
350
57
  3
B6
350
58
  3
B7
350
59
  3
B8
350
5A
  3
B9
350
5B
  3
C0
350
5C
  3
C1
350
5D
  3
C2
350
5E
  3
C3
350
5F
  3
C4
350
60
  3
C5
350
61
  3
C6
350
62
  3
C7
350
63
  3
C8
350
64
  3
C9
350
65
  3
D0
350
66
  3
D1
350
67
  3
D2
350
68
  0
DICTIONARY
  5
1B8
102
{ACAD_REACTORS
330
C
102
}
330
C
100
AcDbDictionary
281
     1
  3
COLORDICT
350
1BA
  3
MATERIALDICT
350
1B9
  0
DICTIONARY
  5
1B4
102
{ACAD_REACTORS
330
C
102
}
330
C
100
AcDbDictionary
281
     1
  3
DIMASSOC
350
1B5
  3
PROJECTNAME
350
1B6
  0
LAYOUT
  5
1E
102
{ACAD_XDICTIONARY
360
1BB
102
}
102
{ACAD_REACTORS
330
1A
102
}
330
1A
100
AcDbPlotSettings
  1

  2
none_device
  4

  6

 40
0.0
 41
0.0
 42
0.0
 43
0.0
 44
0.0
 45
0.0
 46
0.0
 47
0.0
 48
0.0
 49
0.0
140
0.0
141
0.0
142
1.0
143
1.0
 70
   688
 72
     0
 73
     0
 74
     5
  7

 75
    16
147
1.0
148
0.0
149
0.0
100
AcDbLayout
  1
Layout1
 70
     1
 71
     1
 10
0.0
 20
0.0
 11
12.0
 21
9.0
 12
0.0
 22
0.0
 32
0.0
 14
1.000000000000000E+20
 24
1.000000000000000E+20
 34
1.000000000000000E+20
 15
-1.000000000000000E+20
 25
-1.000000000000000E+20
 35
-1.000000000000000E+20
146
0.0
 13
0.0
 23
0.0
 33
0.0
 16
1.0
 26
0.0
 36
0.0
 17
0.0
 27
1.0
 37
0.0
 76
     0
330
1B
  0
LAYOUT
  5
26
102
{ACAD_XDICTIONARY
360
1BF
102
}
102
{ACAD_REACTORS
330
1A
102
}
330
1A
100
AcDbPlotSettings
  1

  2
none_device
  4

  6

 40
0.0
 41
0.0
 42
0.0
 43
0.0
 44
0.0
 45
0.0
 46
0.0
 47
0.0
 48
0.0
 49
0.0
140
0.0
141
0.0
142
1.0
143
1.0
 70
   688
 72
     0
 73
     0
 74
     5
  7

 75
    16
147
1.0
148
0.0
149
0.0
100
AcDbLayout
  1
Layout2
 70
     1
 71
     2
 10
0.0
 20
0.0
 11
0.0
 21
0.0
 12
0.0
 22
0.0
 32
0.0
 14
0.0
 24
0.0
 34
0.0
 15
0.0
 25
0.0
 35
0.0
146
0.0
 13
0.0
 23
0.0
 33
0.0
 16
1.0
 26
0.0
 36
0.0
 17
0.0
 27
1.0
 37
0.0
 76
     0
330
23
  0
LAYOUT
  5
22
102
{ACAD_XDICTIONARY
360
1BD
102
}
102
{ACAD_REACTORS
330
1A
102
}
330
1A
100
AcDbPlotSettings
  1

  2
none_device
  4
Letter_(8.50_x_11.00_Inches)
  6

 40
6.349999999999999
 41
6.349999999999999
 42
6.350005079999999
 43
6.350005079999999
 44
215.9
 45
279.4
 46
0.0
 47
0.0
 48
0.0
 49
0.0
140
0.0
141
0.0
142
1.0
143
1.0
 70
  1712
 72
     0
 73
     0
 74
     0
  7

 75
     0
147
1.0
148
0.0
149
0.0
100
AcDbLayout
  1
Model
 70
     1
 71
     0
 10
0.0
 20
0.0
 11
8.5
 21
11.0
 12
0.0
 22
0.0
 32
0.0
 14
0.0
 24
0.0
 34
0.0
 15
8.5
 25
11.0
 35
0.0
146
0.0
 13
0.0
 23
0.0
 33
0.0
 16
1.0
 26
0.0
 36
0.0
 17
0.0
 27
1.0
 37
0.0
 76
     0
330
1F
  0
MLINESTYLE
  5
18
102
{ACAD_REACTORS
330
17
102
}
330
17
100
AcDbMlineStyle
  2
STANDARD
 70
     0
  3

 62
   256
 51
90.0
 52
90.0
 71
     2
 49
0.5
 62
   256
  6
BYLAYER
 49
-0.5
 62
   256
  6
BYLAYER
  0
ACDBPLACEHOLDER
  5
F
102
{ACAD_REACTORS
330
E
102
}
330
E
  0
ACAD_PROXY_OBJECT
  5
48
102
{ACAD_REACTORS
330
47
102
}
330
47
100
AcDbProxyObject
 90
      499
 91
      503
 95
   393239
 70
     0
 93
       41
310
903313A31580
 94
        0
1001
ACAD
1000
AcRTDxfName
1000
SCALE
  0
ACAD_PROXY_OBJECT
  5
49
102
{ACAD_REACTORS
330
47
102
}
330
47
100
AcDbProxyObject
 90
      499
 91
      503
 95
   393239
 70
     0
 93
      105
310
903313A324000000000000004000
 94
        0
1001
ACAD
1000
AcRTDxfName
1000
SCALE
  0
ACAD_PROXY_OBJECT
  5
4A
102
{ACAD_REACTORS
330
47
102
}
330
47
100
AcDbProxyObject
 90
      499
 91
      503
 95
   393239
 70
     0
 93
      105
310
903313A344000000000000104000
 94
        0
1001
ACAD
1000
AcRTDxfName
1000
SCALE
  0
ACAD_PROXY_OBJECT
  5
4B
102
{ACAD_REACTORS
330
47
102
}
330
47
100
AcDbProxyObject
 90
      499
 91
      503
 95
   393239
 70
     0
 93
      105
310
903313A354000000000000144000
 94
        0
1001
ACAD
1000
AcRTDxfName
1000
SCALE
  0
ACAD_PROXY_OBJECT
  5
4C
102
{ACAD_REACTORS
330
47
102
}
330
47
100
AcDbProxyObject
 90
      499
 91
      503
 95
   393239
 70
     0
 93
      105
310
903313A384000000000000204000
 94
        0
1001
ACAD
1000
AcRTDxfName
1000
SCALE
  0
ACAD_PROXY_OBJECT
  5
4D
102
{ACAD_REACTORS
330
47
102
}
330
47
100
AcDbProxyObject
 90
      499
 91
      503
 95
   393239
 70
     0
 93
      113
310
904313A31304000000000000244000
 94
        0
1001
ACAD
1000
AcRTDxfName
1000
SCALE
  0
ACAD_PROXY_OBJECT
  5
4E
102
{ACAD_REACTORS
330
47
102
}
330
47
100
AcDbProxyObject
 90
      499
 91
      503
 95
   393239
 70
     0
 93
      113
310
904313A31364000000000000304000
 94
        0
1001
ACAD
1000
AcRTDxfName
1000
SCALE
  0
ACAD_PROXY_OBJECT
  5
4F
102
{ACAD_REACTORS
330
47
102
}
330
47
100
AcDbProxyObject
 90
      499
 91
      503
 95
   393239
 70
     0
 93
      113
310
904313A32304000000000000344000
 94
        0
1001
ACAD
1000
AcRTDxfName
1000
SCALE
  0
ACAD_PROXY_OBJECT
  5
50
102
{ACAD_REACTORS
330
47
102
}
330
47
100
AcDbProxyObject
 90
      499
 91
      503
 95
   393239
 70
     0
 93
      113
310
904313A333040000000000003E4000
 94
        0
1001
ACAD
1000
AcRTDxfName
1000
SCALE
  0
ACAD_PROXY_OBJECT
  5
51
102
{ACAD_REACTORS
330
47
102
}
330
47
100
AcDbProxyObject
 90
      499
 91
      503
 95
   393239
 70
     0
 93
      113
310
904313A34304000000000000444000
 94
        0
1001
ACAD
1000
AcRTDxfName
1000
SCALE
  0
ACAD_PROXY_OBJECT
  5
52
102
{ACAD_REACTORS
330
47
102
}
330
47
100
AcDbProxyObject
 90
      499
 91
      503
 95
   393239
 70
     0
 93
      113
310
904313A35304000000000000494000
 94
        0
1001
ACAD
1000
AcRTDxfName
1000
SCALE
  0
ACAD_PROXY_OBJECT
  5
53
102
{ACAD_REACTORS
330
47
102
}
330
47
100
AcDbProxyObject
 90
      499
 91
      503
 95
   393239
 70
     0
 93
      121
310
905313A3130304000000000000594000
 94
        0
1001
ACAD
1000
AcRTDxfName
1000
SCALE
  0
ACAD_PROXY_OBJECT
  5
54
102
{ACAD_REACTORS
330
47
102
}
330
47
100
AcDbProxyObject
 90
      499
 91
      503
 95
   393239
 70
     0
 93
      105
310
903323A310000000000000010140
 94
        0
1001
ACAD
1000
AcRTDxfName
1000
SCALE
  0
ACAD_PROXY_OBJECT
  5
55
102
{ACAD_REACTORS
330
47
102
}
330
47
100
AcDbProxyObject
 90
      499
 91
      503
 95
   393239
 70
     0
 93
      105
310
903343A310000000000000410159
 94
        0
1001
ACAD
1000
AcRTDxfName
1000
SCALE
  0
ACAD_PROXY_OBJECT
  5
56
102
{ACAD_REACTORS
330
47
102
}
330
47
100
AcDbProxyObject
 90
      499
 91
      503
 95
   393239
 70
     0
 93
      105
310
903383A310000000000000810140
 94
        0
1001
ACAD
1000
AcRTDxfName
1000
SCALE
  0
ACAD_PROXY_OBJECT
  5
57
102
{ACAD_REACTORS
330
47
102
}
330
47
100
AcDbProxyObject
 90
      499
 91
      503
 95
   393239
 70
     0
 93
      113
310
90431303A310000000000000910140
 94
        0
1001
ACAD
1000
AcRTDxfName
1000
SCALE
  0
ACAD_PROXY_OBJECT
  5
58
102
{ACAD_REACTORS
330
47
102
}
330
47
100
AcDbProxyObject
 90
      499
 91
      503
 95
   393239
 70
     0
 93
      121
310
9053130303A310000000000001650100
 94
        0
1001
ACAD
1000
AcRTDxfName
1000
SCALE
  0
ACAD_PROXY_OBJECT
  5
59
102
{ACAD_REACTORS
330
47
102
}
330
47
100
AcDbProxyObject
 90
      499
 91
      503
 95
   393239
 70
     0
 93
      257
310
90E312F31323822203D2031272D3022000000000000200FC000000000000284000
 94
        0
1001
ACAD
1000
AcRTDxfName
1000
SCALE
  0
ACAD_PROXY_OBJECT
  5
5A
102
{ACAD_REACTORS
330
47
102
}
330
47
100
AcDbProxyObject
 90
      499
 91
      503
 95
   393239
 70
     0
 93
      249
310
90D312F363422203D2031272D3022000000000000240FC000000000000284000
 94
        0
1001
ACAD
1000
AcRTDxfName
1000
SCALE
  0
ACAD_PROXY_OBJECT
  5
5B
102
{ACAD_REACTORS
330
47
102
}
330
47
100
AcDbProxyObject
 90
      499
 91
      503
 95
   393239
 70
     0
 93
      249
310
90D312F333222203D2031272D3022000000000000280FC000000000000284040
 94
        0
1001
ACAD
1000
AcRTDxfName
1000
SCALE
  0
ACAD_PROXY_OBJECT
  5
5C
102
{ACAD_REACTORS
330
47
102
}
330
47
100
AcDbProxyObject
 90
      499
 91
      503
 95
   393239
 70
     0
 93
      249
310
90D312F313622203D2031272D30220000000000002C0FC000000000000284000
 94
        0
1001
ACAD
1000
AcRTDxfName
1000
SCALE
  0
ACAD_PROXY_OBJECT
  5
5D
102
{ACAD_REACTORS
330
47
102
}
330
47
100
AcDbProxyObject
 90
      499
 91
      503
 95
   393239
 70
     0
 93
      249
310
90D332F333222203D2031272D30220000000000002E0FC000000000000284040
 94
        0
1001
ACAD
1000
AcRTDxfName
1000
SCALE
  0
ACAD_PROXY_OBJECT
  5
5E
102
{ACAD_REACTORS
330
47
102
}
330
47
100
AcDbProxyObject
 90
      499
 91
      503
 95
   393239
 70
     0
 93
      241
310
90C312F3822203D2031272D3022000000000000300FC000000000000284040
 94
        0
1001
ACAD
1000
AcRTDxfName
1000
SCALE
  0
ACAD_PROXY_OBJECT
  5
5F
102
{ACAD_REACTORS
330
47
102
}
330
47
100
AcDbProxyObject
 90
      499
 91
      503
 95
   393239
 70
     0
 93
      249
310
90D332F313622203D2031272D3022000000000000320FC000000000000284040
 94
        0
1001
ACAD
1000
AcRTDxfName
1000
SCALE
  0
ACAD_PROXY_OBJECT
  5
60
102
{ACAD_REACTORS
330
47
102
}
330
47
100
AcDbProxyObject
 90
      499
 91
      503
 95
   393239
 70
     0
 93
      241
310
90C312F3422203D2031272D3022000000000000340FC000000000000284040
 94
        0
1001
ACAD
1000
AcRTDxfName
1000
SCALE
  0
ACAD_PROXY_OBJECT
  5
61
102
{ACAD_REACTORS
330
47
102
}
330
47
100
AcDbProxyObject
 90
      499
 91
      503
 95
   393239
 70
     0
 93
      241
310
90C332F3822203D2031272D3022000000000000360FC000000000000284040
 94
        0
1001
ACAD
1000
AcRTDxfName
1000
SCALE
  0
ACAD_PROXY_OBJECT
  5
62
102
{ACAD_REACTORS
330
47
102
}
330
47
100
AcDbProxyObject
 90
      499
 91
      503
 95
   393239
 70
     0
 93
      241
310
90C312F3222203D2031272D3022000000000000380FC000000000000284040
 94
        0
1001
ACAD
1000
AcRTDxfName
1000
SCALE
  0
ACAD_PROXY_OBJECT
  5
63
102
{ACAD_REACTORS
330
47
102
}
330
47
100
AcDbProxyObject
 90
      499
 91
      503
 95
   393239
 70
     0
 93
      241
310
90C332F3422203D2031272D30220000000000003A0FC000000000000284040
 94
        0
1001
ACAD
1000
AcRTDxfName
1000
SCALE
  0
ACAD_PROXY_OBJECT
  5
64
102
{ACAD_REACTORS
330
47
102
}
330
47
100
AcDbProxyObject
 90
      499
 91
      503
 95
   393239
 70
     0
 93
      161
310
90A3122203D2031272D30224000000000000284000
 94
        0
1001
ACAD
1000
AcRTDxfName
1000
SCALE
  0
ACAD_PROXY_OBJECT
  5
65
102
{ACAD_REACTORS
330
47
102
}
330
47
100
AcDbProxyObject
 90
      499
 91
      503
 95
   393239
 70
     0
 93
      257
310
90E312D312F3222203D2031272D30220000000000003E0FC000000000000284000
 94
        0
1001
ACAD
1000
AcRTDxfName
1000
SCALE
  0
ACAD_PROXY_OBJECT
  5
66
102
{ACAD_REACTORS
330
47
102
}
330
47
100
AcDbProxyObject
 90
      499
 91
      503
 95
   393239
 70
     0
 93
      225
310
90A3322203D2031272D302200000000000002100000000000000284028
 94
        0
1001
ACAD
1000
AcRTDxfName
1000
SCALE
  0
ACAD_PROXY_OBJECT
  5
67
102
{ACAD_REACTORS
330
47
102
}
330
47
100
AcDbProxyObject
 90
      499
 91
      503
 95
   393239
 70
     0
 93
      225
310
90A3622203D2031272D302200000000000006100000000000000284000
 94
        0
1001
ACAD
1000
AcRTDxfName
1000
SCALE
  0
ACAD_PROXY_OBJECT
  5
68
102
{ACAD_REACTORS
330
47
102
}
330
47
100
AcDbProxyObject
 90
      499
 91
      503
 95
   393239
 70
     0
 93
      249
310
90D31272D3022203D2031272D30220000000000000A100000000000000284000
 94
        0
1001
ACAD
1000
AcRTDxfName
1000
SCALE
  0
XRECORD
  5
1BA
102
{ACAD_REACTORS
330
1B8
102
}
330
1B8
100
AcDbXrecord
280
     1
340
1AF
  0
XRECORD
  5
1B9
102
{ACAD_REACTORS
330
1B8
102
}
330
1B8
100
AcDbXrecord
280
     1
340
1AE
  0
DICTIONARYVAR
  5
1B5
102
{ACAD_REACTORS
330
1B4
102
}
330
1B4
100
DictionaryVariables
280
     0
  1
1
  0
DICTIONARYVAR
  5
1B6
102
{ACAD_REACTORS
330
1B4
102
}
330
1B4
100
DictionaryVariables
280
     0
  1

  0
DICTIONARY
  5
1BB
330
1E
100
AcDbDictionary
280
     1
281
     1
  3
ACAD_XREC_ROUNDTRIP
360
1BC
  0
DICTIONARY
  5
1BF
330
26
100
AcDbDictionary
280
     1
281
     1
  3
ACAD_XREC_ROUNDTRIP
360
1C0
  0
DICTIONARY
  5
1BD
330
22
100
AcDbDictionary
280
     1
281
     1
  3
ACAD_XREC_ROUNDTRIP
360
1BE
  0
XRECORD
  5
1BC
102
{ACAD_REACTORS
330
1BB
102
}
330
1BB
100
AcDbXrecord
280
     1
102
SHADEPLOT
 70
     0
102
SHADEPLOTRESLEVEL
 70
     2
102
SHADEPLOTCUSTOMDPI
 70
   300
  0
XRECORD
  5
1C0
102
{ACAD_REACTORS
330
1BF
102
}
330
1BF
100
AcDbXrecord
280
     1
102
SHADEPLOT
 70
     0
102
SHADEPLOTRESLEVEL
 70
     2
102
SHADEPLOTCUSTOMDPI
 70
   300
  0
XRECORD
  5
1BE
102
{ACAD_REACTORS
330
1BD
102
}
330
1BD
100
AcDbXrecord
280
     1
102
SHADEPLOT
 70
     0
102
SHADEPLOTRESLEVEL
 70
     2
102
SHADEPLOTCUSTOMDPI
 70
   300
  0
ENDSEC
  0
EOF
