  0
SECTION
  2
HEADER
  9
$ACADVER
  1
AC1018
  9
$ACADMAINTVER
 70
     0
  9
$DWGCODEPAGE
  3
ANSI_1252
  9
$INSBASE
 10
0.0
 20
0.0
 30
0.0
  9
$EXTMIN
 10
1.952687597732048
 20
1.587005534809449
 30
0.0
  9
$EXTMAX
 10
11.54513743875628
 20
10.26717782388325
 30
0.0
  9
$LIMMIN
 10
0.0
 20
0.0
  9
$LIMMAX
 10
8.5
 20
11.0
  9
$ORTHOMODE
 70
     0
  9
$REGENMODE
 70
     1
  9
$FILLMODE
 70
     1
  9
$QTEXTMODE
 70
     0
  9
$MIRRTEXT
 70
     1
  9
$LTSCALE
 40
1.0
  9
$ATTMODE
 70
     1
  9
$TEXTSIZE
 40
0.25
  9
$TRACEWID
 40
0.05
  9
$TEXTSTYLE
  7
Standard
  9
$CLAYER
  8
0
  9
$CELTYPE
  6
ByLayer
  9
$CECOLOR
 62
   256
  9
$CELTSCALE
 40
1.0
  9
$DISPSILH
 70
     0
  9
$DIMSCALE
 40
1.0
  9
$DIMASZ
 40
0.156
  9
$DIMEXO
 40
0.05
  9
$DIMDLI
 40
0.38
  9
$DIMRND
 40
0.0
  9
$DIMDLE
 40
0.0
  9
$DIMEXE
 40
0.125
  9
$DIMTP
 40
0.0
  9
$DIMTM
 40
0.0
  9
$DIMTXT
 40
0.125
  9
$DIMCEN
 40
0.09
  9
$DIMTSZ
 40
0.0
  9
$DIMTOL
 70
     0
  9
$DIMLIM
 70
     0
  9
$DIMTIH
 70
     1
  9
$DIMTOH
 70
     1
  9
$DIMSE1
 70
     0
  9
$DIMSE2
 70
     0
  9
$DIMTAD
 70
     0
  9
$DIMZIN
 70
     0
  9
$DIMBLK
  1

  9
$DIMASO
 70
     1
  9
$DIMSHO
 70
     1
  9
$DIMPOST
  1

  9
$DIMAPOST
  1

  9
$DIMALT
 70
     0
  9
$DIMALTD
 70
     2
  9
$DIMALTF
 40
25.4
  9
$DIMLFAC
 40
4.0
  9
$DIMTOFL
 70
     0
  9
$DIMTVP
 40
0.0
  9
$DIMTIX
 70
     0
  9
$DIMSOXD
 70
     0
  9
$DIMSAH
 70
     0
  9
$DIMBLK1
  1

  9
$DIMBLK2
  1

  9
$DIMSTYLE
  2
Standard
  9
$DIMCLRD
 70
     0
  9
$DIMCLRE
 70
     0
  9
$DIMCLRT
 70
     0
  9
$DIMTFAC
 40
1.0
  9
$DIMGAP
 40
0.06
  9
$DIMJUST
 70
     0
  9
$DIMSD1
 70
     0
  9
$DIMSD2
 70
     0
  9
$DIMTOLJ
 70
     1
  9
$DIMTZIN
 70
     0
  9
$DIMALTZ
 70
     0
  9
$DIMALTTZ
 70
     0
  9
$DIMUPT
 70
     0
  9
$DIMDEC
 70
     3
  9
$DIMTDEC
 70
     3
  9
$DIMALTU
 70
     2
  9
$DIMALTTD
 70
     2
  9
$DIMTXSTY
  7
Standard
  9
$DIMAUNIT
 70
     0
  9
$DIMADEC
 70
     0
  9
$DIMALTRND
 40
0.0
  9
$DIMAZIN
 70
     0
  9
$DIMDSEP
 70
    46
  9
$DIMATFIT
 70
     3
  9
$DIMFRAC
 70
     0
  9
$DIMLDRBLK
  1

  9
$DIMLUNIT
 70
     2
  9
$DIMLWD
 70
    -2
  9
$DIMLWE
 70
    -2
  9
$DIMTMOVE
 70
     0
  9
$LUNITS
 70
     2
  9
$LUPREC
 70
     3
  9
$SKETCHINC
 40
0.1
  9
$FILLETRAD
 40
0.5
  9
$AUNITS
 70
     0
  9
$AUPREC
 70
     0
  9
$MENU
  1
.
  9
$ELEVATION
 40
0.0
  9
$PELEVATION
 40
0.0
  9
$THICKNESS
 40
0.0
  9
$LIMCHECK
 70
     0
  9
$CHAMFERA
 40
0.5
  9
$CHAMFERB
 40
0.5
  9
$CHAMFERC
 40
1.0
  9
$CHAMFERD
 40
0.0
  9
$SKPOLY
 70
     0
  9
$TDCREATE
 40
2456511.430464769
  9
$TDUCREATE
 40
2456511.638798102
  9
$TDUPDATE
 40
2456573.346431887
  9
$TDUUPDATE
 40
2456573.554765220
  9
$TDINDWG
 40
0.0017405208
  9
$TDUSRTIMER
 40
0.0017405208
  9
$USRTIMER
 70
     1
  9
$ANGBASE
 50
0.0
  9
$ANGDIR
 70
     0
  9
$PDMODE
 70
     0
  9
$PDSIZE
 40
-1.0
  9
$PLINEWID
 40
0.0
  9
$SPLFRAME
 70
     0
  9
$SPLINETYPE
 70
     6
  9
$SPLINESEGS
 70
     8
  9
$HANDSEED
  5
283
  9
$SURFTAB1
 70
     6
  9
$SURFTAB2
 70
     6
  9
$SURFTYPE
 70
     6
  9
$SURFU
 70
     6
  9
$SURFV
 70
     6
  9
$UCSBASE
  2

  9
$UCSNAME
  2

  9
$UCSORG
 10
0.0
 20
0.0
 30
0.0
  9
$UCSXDIR
 10
1.0
 20
0.0
 30
0.0
  9
$UCSYDIR
 10
0.0
 20
1.0
 30
0.0
  9
$UCSORTHOREF
  2

  9
$UCSORTHOVIEW
 70
     0
  9
$UCSORGTOP
 10
0.0
 20
0.0
 30
0.0
  9
$UCSORGBOTTOM
 10
0.0
 20
0.0
 30
0.0
  9
$UCSORGLEFT
 10
0.0
 20
0.0
 30
0.0
  9
$UCSORGRIGHT
 10
0.0
 20
0.0
 30
0.0
  9
$UCSORGFRONT
 10
0.0
 20
0.0
 30
0.0
  9
$UCSORGBACK
 10
0.0
 20
0.0
 30
0.0
  9
$PUCSBASE
  2

  9
$PUCSNAME
  2

  9
$PUCSORG
 10
0.0
 20
0.0
 30
0.0
  9
$PUCSXDIR
 10
1.0
 20
0.0
 30
0.0
  9
$PUCSYDIR
 10
0.0
 20
1.0
 30
0.0
  9
$PUCSORTHOREF
  2

  9
$PUCSORTHOVIEW
 70
     0
  9
$PUCSORGTOP
 10
0.0
 20
0.0
 30
0.0
  9
$PUCSORGBOTTOM
 10
0.0
 20
0.0
 30
0.0
  9
$PUCSORGLEFT
 10
0.0
 20
0.0
 30
0.0
  9
$PUCSORGRIGHT
 10
0.0
 20
0.0
 30
0.0
  9
$PUCSORGFRONT
 10
0.0
 20
0.0
 30
0.0
  9
$PUCSORGBACK
 10
0.0
 20
0.0
 30
0.0
  9
$USERI1
 70
     0
  9
$USERI2
 70
     0
  9
$USERI3
 70
     0
  9
$USERI4
 70
     0
  9
$USERI5
 70
     0
  9
$USERR1
 40
0.0
  9
$USERR2
 40
0.0
  9
$USERR3
 40
0.0
  9
$USERR4
 40
0.0
  9
$USERR5
 40
0.0
  9
$WORLDVIEW
 70
     1
  9
$SHADEDGE
 70
     3
  9
$SHADEDIF
 70
    70
  9
$TILEMODE
 70
     1
  9
$MAXACTVP
 70
    64
  9
$PINSBASE
 10
0.0
 20
0.0
 30
0.0
  9
$PLIMCHECK
 70
     0
  9
$PEXTMIN
 10
1.000000000000000E+20
 20
1.000000000000000E+20
 30
1.000000000000000E+20
  9
$PEXTMAX
 10
-1.000000000000000E+20
 20
-1.000000000000000E+20
 30
-1.000000000000000E+20
  9
$PLIMMIN
 10
0.0
 20
0.0
  9
$PLIMMAX
 10
12.0
 20
9.0
  9
$UNITMODE
 70
     0
  9
$VISRETAIN
 70
     1
  9
$PLINEGEN
 70
     0
  9
$PSLTSCALE
 70
     1
  9
$TREEDEPTH
 70
  3020
  9
$CMLSTYLE
  2
Standard
  9
$CMLJUST
 70
     0
  9
$CMLSCALE
 40
1.0
  9
$PROXYGRAPHICS
 70
     1
  9
$MEASUREMENT
 70
     0
  9
$CELWEIGHT
370
    -1
  9
$ENDCAPS
280
     0
  9
$JOINSTYLE
280
     0
  9
$LWDISPLAY
290
     1
  9
$INSUNITS
 70
     1
  9
$HYPERLINKBASE
  1

  9
$STYLESHEET
  1

  9
$XEDIT
290
     1
  9
$CEPSNTYPE
380
     0
  9
$PSTYLEMODE
290
     1
  9
$FINGERPRINTGUID
  2
{68B5E283-A9F9-4169-95F4-F1EE58868D53}
  9
$VERSIONGUID
  2
{7BE505DF-6059-423B-AF04-2E61AF63EF05}
  9
$EXTNAMES
290
     1
  9
$PSVPSCALE
 40
0.0
  9
$OLESTARTUP
290
     0
  9
$SORTENTS
280
   127
  9
$INDEXCTL
280
     0
  9
$HIDETEXT
280
     0
  9
$XCLIPFRAME
290
     0
  9
$HALOGAP
280
     0
  9
$OBSCOLOR
 70
   257
  9
$OBSLTYPE
280
     0
  9
$INTERSECTIONDISPLAY
280
     0
  9
$INTERSECTIONCOLOR
 70
   257
  9
$DIMASSOC
280
     1
  9
$PROJECTNAME
  1

  0
ENDSEC
  0
SECTION
  2
CLASSES
  0
CLASS
  1
ACDBDICTIONARYWDFLT
  2
AcDbDictionaryWithDefault
  3
ObjectDBX Classes
 90
        0
 91
        1
280
     0
281
     0
  0
CLASS
  1
VISUALSTYLE
  2
AcDbVisualStyle
  3
ObjectDBX Classes
 90
     4095
 91
        0
280
     0
281
     0
  0
CLASS
  1
MATERIAL
  2
AcDbMaterial
  3
ObjectDBX Classes
 90
        0
 91
        0
280
     0
281
     0
  0
ENDSEC
  0
SECTION
  2
TABLES
  0
TABLE
  2
VPORT
  5
8
330
0
100
AcDbSymbolTable
 70
     3
  0
VPORT
  5
282
330
8
100
AcDbSymbolTableRecord
100
AcDbViewportTableRecord
  2
*Active
 70
     0
 10
0.0
 20
0.0
 11
1.0
 21
1.0
 12
6.162749888780606
 22
6.038558730221749
 13
0.0
 23
0.0
 14
0.5
 24
0.5
 15
0.5
 25
0.5
 16
0.0
 26
0.0
 36
1.0
 17
0.0
 27
0.0
 37
0.0
 40
9.531012430256378
 41
2.144329896907216
 42
50.0
 43
0.0
 44
0.0
 50
0.0
 51
0.0
 71
     0
 72
  2000
 73
     1
 74
     3
 75
     0
 76
     0
 77
     0
 78
     0
281
     0
 65
     1
110
0.0
120
0.0
130
0.0
111
1.0
121
0.0
131
0.0
112
0.0
122
1.0
132
0.0
 79
     0
146
0.0
  0
ENDTAB
  0
TABLE
  2
LTYPE
  5
5
330
0
100
AcDbSymbolTable
 70
     6
  0
LTYPE
  5
14
330
5
100
AcDbSymbolTableRecord
100
AcDbLinetypeTableRecord
  2
ByBlock
 70
     0
  3

 72
    65
 73
     0
 40
0.0
  0
LTYPE
  5
15
330
5
100
AcDbSymbolTableRecord
100
AcDbLinetypeTableRecord
  2
ByLayer
 70
     0
  3

 72
    65
 73
     0
 40
0.0
  0
LTYPE
  5
16
330
5
100
AcDbSymbolTableRecord
100
AcDbLinetypeTableRecord
  2
Continuous
 70
     0
  3
Solid line
 72
    65
 73
     0
 40
0.0
  0
LTYPE
  5
3F
330
5
100
AcDbSymbolTableRecord
100
AcDbLinetypeTableRecord
  2
HIDDEN
 70
     0
  3
Hidden __ __ __ __ __ __ __ __ __ __ __ __ __ __
 72
    65
 73
     2
 40
0.075
 49
0.05
 74
     0
 49
-0.025
 74
     0
  0
LTYPE
  5
40
330
5
100
AcDbSymbolTableRecord
100
AcDbLinetypeTableRecord
  2
PHANTOM
 70
     0
  3
Phantom ______  __  __  ______  __  __  ______
 72
    65
 73
     6
 40
0.5
 49
0.25
 74
     0
 49
-0.05
 74
     0
 49
0.05
 74
     0
 49
-0.05
 74
     0
 49
0.05
 74
     0
 49
-0.05
 74
     0
  0
LTYPE
  5
41
330
5
100
AcDbSymbolTableRecord
100
AcDbLinetypeTableRecord
  2
CENTER
 70
     0
  3
Center ____ _ ____ _ ____ _ ____ _ ____ _ ____
 72
    65
 73
     4
 40
0.4
 49
0.25
 74
     0
 49
-0.05
 74
     0
 49
0.05
 74
     0
 49
-0.05
 74
     0
  0
LTYPE
  5
42
330
5
100
AcDbSymbolTableRecord
100
AcDbLinetypeTableRecord
  2
CENTERX2
 70
     0
  3
Center (2x) ________  __  ________  __  _____
 72
    65
 73
     4
 40
0.8
 49
0.5
 74
     0
 49
-0.1
 74
     0
 49
0.1
 74
     0
 49
-0.1
 74
     0
  0
LTYPE
  5
43
330
5
100
AcDbSymbolTableRecord
100
AcDbLinetypeTableRecord
  2
DOT2
 70
     0
  3
Dot (.5x) ........................................
 72
    65
 73
     2
 40
0.025
 49
0.0
 74
     0
 49
-0.025
 74
     0
  0
ENDTAB
  0
TABLE
  2
LAYER
  5
2
330
0
100
AcDbSymbolTable
 70
     7
  0
LAYER
  5
10
330
2
100
AcDbSymbolTableRecord
100
AcDbLayerTableRecord
  2
0
 70
     0
 62
     7
  6
Continuous
370
    -3
390
F
  0
LAYER
  5
44
330
2
100
AcDbSymbolTableRecord
100
AcDbLayerTableRecord
  2
SLD-0
 70
     0
 62
   179
  6
Continuous
370
    -3
390
F
  0
LAYER
  5
45
330
2
100
AcDbSymbolTableRecord
100
AcDbLayerTableRecord
  2
SLD-DEFPOINTS
 70
     0
 62
   179
  6
Continuous
370
    -3
390
F
  0
LAYER
  5
46
330
2
100
AcDbSymbolTableRecord
100
AcDbLayerTableRecord
  2
OBJ
 70
     0
 62
   179
  6
Continuous
370
    -3
390
F
  0
LAYER
  5
47
330
2
100
AcDbSymbolTableRecord
100
AcDbLayerTableRecord
  2
FORMAT
 70
     0
 62
     7
  6
Continuous
370
    -3
390
F
  0
LAYER
  5
48
330
2
100
AcDbSymbolTableRecord
100
AcDbLayerTableRecord
  2
TOLERANCES
 70
     0
 62
     7
  6
Continuous
370
    -3
390
F
  0
LAYER
  5
49
330
2
100
AcDbSymbolTableRecord
100
AcDbLayerTableRecord
  2
QTY-BLANK-SIZE-1
 70
     0
 62
     7
  6
Continuous
370
    -3
390
F
  0
ENDTAB
  0
TABLE
  2
STYLE
  5
3
330
0
100
AcDbSymbolTable
 70
     2
  0
STYLE
  5
11
330
3
100
AcDbSymbolTableRecord
100
AcDbTextStyleTableRecord
  2
Standard
 70
     0
 40
0.0
 41
1.0
 50
0.0
 71
     0
 42
0.25
  3
txt
  4

  0
STYLE
  5
F1
330
3
100
AcDbSymbolTableRecord
100
AcDbTextStyleTableRecord
  2
SLDTEXTSTYLE0
 70
     0
 40
0.0
 41
0.7
 50
0.0
 71
     0
 42
0.2
  3
TXT
  4

  0
ENDTAB
  0
TABLE
  2
VIEW
  5
6
330
0
100
AcDbSymbolTable
 70
     0
  0
ENDTAB
  0
TABLE
  2
UCS
  5
7
330
0
100
AcDbSymbolTable
 70
     0
  0
ENDTAB
  0
TABLE
  2
APPID
  5
9
330
0
100
AcDbSymbolTable
 70
     1
  0
APPID
  5
12
330
9
100
AcDbSymbolTableRecord
100
AcDbRegAppTableRecord
  2
ACAD
 70
     0
  0
ENDTAB
  0
TABLE
  2
DIMSTYLE
  5
A
330
0
100
AcDbSymbolTable
 70
     1
100
AcDbDimStyleTable
 71
     0
  0
DIMSTYLE
105
27
330
A
100
AcDbSymbolTableRecord
100
AcDbDimStyleTableRecord
  2
Standard
 70
     0
340
11
  0
ENDTAB
  0
TABLE
  2
BLOCK_RECORD
  5
1
330
0
100
AcDbSymbolTable
 70
     3
  0
BLOCK_RECORD
  5
1F
330
1
100
AcDbSymbolTableRecord
100
AcDbBlockTableRecord
  2
*Model_Space
340
22
  0
BLOCK_RECORD
  5
1B
330
1
100
AcDbSymbolTableRecord
100
AcDbBlockTableRecord
  2
*Paper_Space
340
1E
  0
BLOCK_RECORD
  5
23
330
1
100
AcDbSymbolTableRecord
100
AcDbBlockTableRecord
  2
*Paper_Space0
340
26
  0
BLOCK_RECORD
  5
EE
330
1
100
AcDbSymbolTableRecord
100
AcDbBlockTableRecord
  2
SW_NOTE_0
340
0
  0
ENDTAB
  0
ENDSEC
  0
SECTION
  2
BLOCKS
  0
BLOCK
  5
20
330
1F
100
AcDbEntity
  8
0
100
AcDbBlockBegin
  2
*Model_Space
 70
     0
 10
0.0
 20
0.0
 30
0.0
  3
*Model_Space
  1

  0
ENDBLK
  5
21
330
1F
100
AcDbEntity
  8
0
100
AcDbBlockEnd
  0
BLOCK
  5
1C
330
1B
100
AcDbEntity
 67
     1
  8
0
100
AcDbBlockBegin
  2
*Paper_Space
 70
     0
 10
0.0
 20
0.0
 30
0.0
  3
*Paper_Space
  1

  0
ENDBLK
  5
1D
330
1B
100
AcDbEntity
 67
     1
  8
0
100
AcDbBlockEnd
  0
BLOCK
  5
24
330
23
100
AcDbEntity
  8
0
100
AcDbBlockBegin
  2
*Paper_Space0
 70
     0
 10
0.0
 20
0.0
 30
0.0
  3
*Paper_Space0
  1

  0
ENDBLK
  5
25
330
23
100
AcDbEntity
  8
0
100
AcDbBlockEnd
  0
BLOCK
  5
EF
330
EE
100
AcDbEntity
  8
0
100
AcDbBlockBegin
  2
SW_NOTE_0
 70
     0
 10
0.0
 20
0.0
 30
0.0
  3
SW_NOTE_0
  1

  0
MTEXT
  5
F2
330
EE
100
AcDbEntity
  8
OBJ
 62
     0
100
AcDbMText
 10
0.609375
 20
0.3222669349429915
 30
0.0
 40
0.25
 41
0.0
 71
     2
 72
     1
  1
RSPT4
  7
SLDTEXTSTYLE0
 73
     1
 44
1.0
  0
MTEXT
  5
F3
330
EE
100
AcDbEntity
  8
OBJ
 62
     0
100
AcDbMText
 10
0.6412038695937375
 20
-0.0073775962412962
 30
0.0
 40
0.1666666666666666
 41
0.0
 71
     2
 72
     1
  1
(DOUBLE PLATE INSTALLATION)
  7
SLDTEXTSTYLE0
 73
     1
 44
1.0
  0
ENDBLK
  5
F0
330
EE
100
AcDbEntity
  8
0
100
AcDbBlockEnd
  0
ENDSEC
  0
SECTION
  2
ENTITIES
  0
LINE
  5
4A
330
1F
100
AcDbEntity
  8
0
  6
Continuous
 62
     7
370
    15
100
AcDbLine
 10
4.009736481404683
 20
8.63364346063723
 30
0.0
 11
3.99488726723218
 21
8.629665192048886
 31
0.0
  0
LINE
  5
4B
330
1F
100
AcDbEntity
  8
0
  6
Continuous
 62
     7
370
    15
100
AcDbLine
 10
4.027235346812359
 20
8.508923341678174
 30
0.0
 11
4.042084560984861
 21
8.512901610266521
 31
0.0
  0
LINE
  5
4C
330
1F
100
AcDbEntity
  8
0
  6
Continuous
 62
     7
370
    15
100
AcDbLine
 10
3.868315126876478
 20
8.575187447633686
 30
0.0
 11
3.853465912703975
 21
8.571209179045339
 31
0.0
  0
LINE
  5
4D
330
1F
100
AcDbEntity
  8
0
  6
Continuous
 62
     7
370
    15
100
AcDbLine
 10
3.885813994876849
 20
8.450467327980017
 30
0.0
 11
3.900663209049351
 21
8.454445596568362
 31
0.0
  0
LINE
  5
4E
330
1F
100
AcDbEntity
  8
0
  6
Continuous
 62
     7
370
    15
100
AcDbLine
 10
4.109433617434424
 20
8.462416989038752
 30
0.0
 11
4.094584403261921
 21
8.458438720450406
 31
0.0
  0
LINE
  5
4F
330
1F
100
AcDbEntity
  8
0
  6
Continuous
 62
     7
370
    15
100
AcDbLine
 10
4.126932482842099
 20
8.337696813558322
 30
0.0
 11
4.141781697014602
 21
8.341675082146666
 31
0.0
  0
LINE
  5
50
330
1F
100
AcDbEntity
  8
0
  6
Continuous
 62
     7
370
    15
100
AcDbLine
 10
3.767518148922948
 20
7.343047323786257
 30
0.0
 11
3.752668934750445
 21
7.339069055197912
 31
0.0
  0
LINE
  5
51
330
1F
100
AcDbEntity
  8
0
  6
Continuous
 62
     7
370
    15
100
AcDbLine
 10
3.785017014330624
 20
7.218327204827201
 30
0.0
 11
3.799866228503126
 21
7.222305473415547
 31
0.0
  0
LINE
  5
52
330
1F
100
AcDbEntity
  8
0
  6
Continuous
 62
     7
370
    15
100
AcDbLine
 10
3.967227407487449
 20
7.486336528267021
 30
0.0
 11
3.952378193314946
 21
7.482358259678675
 31
0.0
  0
LINE
  5
53
330
1F
100
AcDbEntity
  8
0
  6
Continuous
 62
     7
370
    15
100
AcDbLine
 10
3.984726278080515
 20
7.361616407918742
 30
0.0
 11
3.999575492253018
 21
7.365594676507088
 31
0.0
  0
LINE
  5
54
330
1F
100
AcDbEntity
  8
0
  6
Continuous
 62
     7
370
    15
100
AcDbLine
 10
3.726893761977494
 20
8.757592357798214
 30
0.0
 11
3.712044547804991
 21
8.753614089209868
 31
0.0
  0
LINE
  5
55
330
1F
100
AcDbEntity
  8
0
  6
Continuous
 62
     7
370
    15
100
AcDbLine
 10
3.744392637755949
 20
8.632872179539337
 30
0.0
 11
3.759241851928452
 21
8.636850448127685
 31
0.0
  0
LINE
  5
56
330
1F
100
AcDbEntity
  8
0
  6
Continuous
 62
     7
370
    15
100
AcDbLine
 10
4.027428295167808
 20
7.280082519237708
 30
0.0
 11
4.012579080995306
 21
7.276104250649362
 31
0.0
  0
LINE
  5
57
330
1F
100
AcDbEntity
  8
0
  6
Continuous
 62
     7
370
    15
100
AcDbLine
 10
4.044927160575483
 20
7.155362400278653
 30
0.0
 11
4.059776374747986
 21
7.159340668866998
 31
0.0
  0
LINE
  5
58
330
1F
100
AcDbEntity
  8
0
  6
Continuous
 62
     7
370
    15
100
AcDbLine
 10
3.844282716955749
 20
7.479747563704834
 30
0.0
 11
3.829433502783246
 21
7.475769295116489
 31
0.0
  0
LINE
  5
59
330
1F
100
AcDbEntity
  8
0
  6
Continuous
 62
     7
370
    15
100
AcDbLine
 10
3.861781587548815
 20
7.355027443356555
 30
0.0
 11
3.876630801721318
 21
7.359005711944901
 31
0.0
  0
ARC
  5
5A
330
1F
100
AcDbEntity
  8
0
  6
Continuous
 62
     7
370
    15
100
AcDbCircle
 10
4.032985632096283
 20
8.337336038836884
 30
0.0
 40
0.0659999999995895
100
AcDbArc
 50
124.3372094322764
 51
180.0
  0
LINE
  5
5B
330
1F
100
AcDbEntity
  8
0
  6
Continuous
 62
     7
370
    15
100
AcDbLine
 10
3.966985643872172
 20
8.337336054903792
 30
0.0
 11
3.966985643872172
 21
7.518408936883332
 31
0.0
  0
ARC
  5
5C
330
1F
100
AcDbEntity
  8
0
  6
Continuous
 62
     7
370
    15
100
AcDbCircle
 10
3.832163276008166
 20
8.391368569220388
 30
0.0
 40
0.06599999999959
100
AcDbArc
 50
124.3372094322771
 51
180.0
  0
LINE
  5
5D
330
1F
100
AcDbEntity
  8
0
  6
Continuous
 62
     7
370
    15
100
AcDbLine
 10
3.766163289527485
 20
8.39136856856772
 30
0.0
 11
3.766163289527485
 21
7.572441478807946
 31
0.0
  0
ARC
  5
5E
330
1F
100
AcDbEntity
  8
0
  6
Continuous
 62
     7
370
    15
100
AcDbCircle
 10
4.032985632096284
 20
7.518408935647624
 30
0.0
 40
0.0659999999995904
100
AcDbArc
 50
180.0
 51
231.8390633910762
  0
LWPOLYLINE
  5
5F
330
1F
100
AcDbEntity
  8
0
  6
Continuous
 62
     7
370
    15
100
AcDbPolyline
 90
        3
 70
   128
 43
0.0
 10
4.004473487033902
 20
7.458885342576428
 10
4.015849485617405
 20
7.454672357824448
 10
4.0279896343581
 20
7.452598316900815
  0
ARC
  5
60
330
1F
100
AcDbEntity
  8
0
  6
Continuous
 62
     7
370
    15
100
AcDbCircle
 10
3.832163276008166
 20
7.572441466031129
 30
0.0
 40
0.0659999999995895
100
AcDbArc
 50
180.0
 51
265.6587127158748
  0
LINE
  5
61
330
1F
100
AcDbEntity
  8
0
  6
Continuous
 62
     7
370
    15
100
AcDbLine
 10
3.71025353490043
 20
7.529881177947852
 30
0.0
 11
3.71025353490043
 21
7.220712622047144
 31
0.0
  0
LWPOLYLINE
  5
62
330
1F
100
AcDbEntity
  8
0
  6
Continuous
 62
     7
370
    15
100
AcDbPolyline
 90
       12
 70
   128
 43
0.0
 10
3.99488726723218
 20
8.629665192048886
 10
4.003641273449845
 20
8.630642619082175
 10
4.016812464362109
 20
8.627456657085957
 10
4.029472645477738
 20
8.619102673608431
 10
4.040496898327742
 20
8.606323026504316
 10
4.048905671661529
 20
8.590253234052571
 10
4.05395181302976
 20
8.57232111090756
 10
4.055186931403346
 20
8.55412001560982
 10
4.052501303933556
 20
8.537267255620459
 10
4.046133551889431
 20
8.523260248115542
 10
4.036649473896514
 20
8.513343543863516
 10
4.027235346812359
 20
8.508923341678174
  0
LWPOLYLINE
  5
63
330
1F
100
AcDbEntity
  8
0
  6
Continuous
 62
     7
370
    15
100
AcDbPolyline
 90
       21
 70
   128
 43
0.0
 10
3.970130017594535
 20
8.557175129817757
 10
3.977127929322732
 20
8.53975484262694
 10
3.987309037786925
 20
8.525188978808628
 10
3.999676742174772
 20
8.514903339956269
 10
4.01302041989423
 20
8.509904760839901
 10
4.026033891989527
 20
8.510682619468562
 10
4.037443294854293
 20
8.517160674586989
 10
4.046131819969228
 20
8.528704794081974
 10
4.051248959694965
 20
8.54418508188977
 10
4.052293815745033
 20
8.562086101358852
 10
4.049164111490489
 20
8.580655621528611
 10
4.042166210133071
 20
8.59807590594098
 10
4.031985101668879
 20
8.612641826280666
 10
4.019617386910252
 20
8.622927411390097
 10
4.006273709190794
 20
8.627925990506469
 10
3.993260247466277
 20
8.627148185620734
 10
3.98185083423073
 20
8.620670133280754
 10
3.973162314301185
 20
8.609125955875171
 10
3.968045169390059
 20
8.593645725977973
 10
3.967000313339992
 20
8.575744649987514
 10
3.970130017594535
 20
8.557175129817757
  0
LWPOLYLINE
  5
64
330
1F
100
AcDbEntity
  8
0
  6
Continuous
 62
     7
370
    15
100
AcDbPolyline
 90
       12
 70
   128
 43
0.0
 10
4.042084560984861
 20
8.512901610266521
 10
4.051498688069017
 20
8.517321812451861
 10
4.060982766061933
 20
8.527238516703887
 10
4.067350518106058
 20
8.541245524208806
 10
4.070036145575849
 20
8.558098284198166
 10
4.068801027202263
 20
8.576299379495907
 10
4.063754885834032
 20
8.594231502640917
 10
4.055346112500244
 20
8.610301295092662
 10
4.044321859650241
 20
8.623080942196775
 10
4.031661678534612
 20
8.631434925674302
 10
4.018490487622347
 20
8.634620887670521
 10
4.009736481404683
 20
8.63364346063723
  0
LWPOLYLINE
  5
65
330
1F
100
AcDbEntity
  8
0
  6
Continuous
 62
     7
370
    15
100
AcDbPolyline
 90
       12
 70
   128
 43
0.0
 10
3.853465912703975
 20
8.571209179045339
 10
3.86221991373625
 20
8.572186607467854
 10
3.875391109833904
 20
8.569000644082411
 10
3.888051292245881
 20
8.56064666025758
 10
3.899075547040406
 20
8.547867012632506
 10
3.907484319077846
 20
8.531797220528067
 10
3.912530453316166
 20
8.513865099293239
 10
3.913765578171489
 20
8.495664002258967
 10
3.911079948109003
 20
8.478811242964221
 10
3.904712192337879
 20
8.464804236457807
 10
3.895228114182919
 20
8.454887532249193
 10
3.885813994876849
 20
8.450467327980017
  0
LWPOLYLINE
  5
66
330
1F
100
AcDbEntity
  8
0
  6
Continuous
 62
     7
370
    15
100
AcDbPolyline
 90
       21
 70
   128
 43
0.0
 10
3.82870866306633
 20
8.498719116814211
 10
3.835706569609138
 20
8.481298831012621
 10
3.84588767807333
 20
8.466732967194307
 10
3.858255387646567
 20
8.456447326952723
 10
3.871599065366025
 20
8.451448747836355
 10
3.884612532275932
 20
8.452226551332865
 10
3.896021942918784
 20
8.458704604367458
 10
3.904710465603066
 20
8.470248781035015
 10
3.909827605814935
 20
8.485729068712572
 10
3.910872463161349
 20
8.503630087834348
 10
3.907742758582718
 20
8.522199608090934
 10
3.900744850419476
 20
8.539619894326659
 10
3.890563741955284
 20
8.554185814666347
 10
3.878196032382047
 20
8.564471398386551
 10
3.864852357255284
 20
8.56946997680831
 10
3.851838887752682
 20
8.568692174006413
 10
3.840429479702525
 20
8.562214120277207
 10
3.831740954587591
 20
8.55066994426085
 10
3.826623814861854
 20
8.535189656453052
 10
3.825578958811787
 20
8.51728863698397
 10
3.82870866306633
 20
8.498719116814211
  0
LWPOLYLINE
  5
67
330
1F
100
AcDbEntity
  8
0
  6
Continuous
 62
     7
370
    15
100
AcDbPolyline
 90
       12
 70
   128
 43
0.0
 10
3.900663209049351
 20
8.454445596568362
 10
3.910077328355422
 20
8.458865800837539
 10
3.919561406510382
 20
8.468782505046153
 10
3.925929162281506
 20
8.482789511552567
 10
3.928614792343992
 20
8.499642270847314
 10
3.927379667488668
 20
8.517843367881585
 10
3.922333533250348
 20
8.535775489116414
 10
3.913924761212908
 20
8.551845281220852
 10
3.902900506418384
 20
8.564624928845924
 10
3.890240324006407
 20
8.572978912670757
 10
3.877069127908753
 20
8.5761648760562
 10
3.868315126876478
 20
8.575187447633686
  0
LWPOLYLINE
  5
68
330
1F
100
AcDbEntity
  8
0
  6
Continuous
 62
     7
370
    15
100
AcDbPolyline
 90
       12
 70
   128
 43
0.0
 10
4.094584403261921
 20
8.458438720450406
 10
4.103338399108806
 20
8.459416150262143
 10
4.11650960039185
 20
8.456230128966103
 10
4.129169791878259
 20
8.447876199231505
 10
4.140194034357483
 20
8.435096554905838
 10
4.14860280769127
 20
8.419026705932719
 10
4.153648938688721
 20
8.401094585566154
 10
4.154884077803867
 20
8.382893541232894
 10
4.152198439963297
 20
8.366040727500607
 10
4.145830677548391
 20
8.352033722774134
 10
4.136346599555476
 20
8.34211701852211
 10
4.126932482842099
 20
8.337696813558322
  0
LWPOLYLINE
  5
69
330
1F
100
AcDbEntity
  8
0
  6
Continuous
 62
     7
370
    15
100
AcDbPolyline
 90
       21
 70
   128
 43
0.0
 10
4.069827153624276
 20
8.385948658219277
 10
4.076825065352473
 20
8.368528314507088
 10
4.087006163445886
 20
8.353962453467222
 10
4.099373878204513
 20
8.343676811836415
 10
4.11271756629475
 20
8.338678286462974
 10
4.125731028019268
 20
8.339456091348708
 10
4.137140441254814
 20
8.345934143688689
 10
4.145828955998969
 20
8.357478322483494
 10
4.150946106095486
 20
8.372958550991469
 10
4.151990962145553
 20
8.390859570460552
 10
4.14886124752023
 20
8.409429093408757
 10
4.141863335792033
 20
8.426849437120948
 10
4.13168223769862
 20
8.441415298160814
 10
4.119314522939992
 20
8.451700939791619
 10
4.105970855591315
 20
8.456699459608168
 10
4.092957373125238
 20
8.455921660279326
 10
4.081547980631251
 20
8.449443602382453
 10
4.072859445145537
 20
8.43789942914454
 10
4.067742305419799
 20
8.42241919785812
 10
4.066697449369732
 20
8.404518178389036
 10
4.069827153624276
 20
8.385948658219277
  0
LWPOLYLINE
  5
6A
330
1F
100
AcDbEntity
  8
0
  6
Continuous
 62
     7
370
    15
100
AcDbPolyline
 90
       12
 70
   128
 43
0.0
 10
4.141781697014602
 20
8.341675082146666
 10
4.151195813727977
 20
8.346095287110454
 10
4.160679891720894
 20
8.35601199136248
 10
4.167047654135799
 20
8.370018996088951
 10
4.16973329197637
 20
8.386871809821238
 10
4.168498152861224
 20
8.4050728541545
 10
4.163452021863773
 20
8.423004974521063
 10
4.155043248529985
 20
8.439074823494182
 10
4.144019006050761
 20
8.451854467819851
 10
4.131358814564353
 20
8.460208397554449
 10
4.118187613281309
 20
8.463394418850489
 10
4.109433617434424
 20
8.462416989038752
  0
LWPOLYLINE
  5
6B
330
1F
100
AcDbEntity
  8
0
  6
Continuous
 62
     7
370
    15
100
AcDbPolyline
 90
       12
 70
   128
 43
0.0
 10
3.752668934750445
 20
7.339069055197912
 10
3.761422930597331
 20
7.340046485009649
 10
3.774594131880375
 20
7.336860520234983
 10
3.787254312996004
 20
7.328506593278831
 10
3.798278565846008
 20
7.315726889653343
 10
3.806687339179795
 20
7.299657097201599
 10
3.811733470177246
 20
7.281724976835034
 10
3.812968598921612
 20
7.263523878758846
 10
3.810282971451821
 20
7.246671118769486
 10
3.803915209036916
 20
7.232664114043014
 10
3.794431131043999
 20
7.222747409790989
 10
3.785017014330624
 20
7.218327204827201
  0
LWPOLYLINE
  5
6C
330
1F
100
AcDbEntity
  8
0
  6
Continuous
 62
     7
370
    15
100
AcDbPolyline
 90
       21
 70
   128
 43
0.0
 10
3.727911674742021
 20
7.26657899574523
 10
3.734909596840997
 20
7.249158705775967
 10
3.74509070530519
 20
7.234592841957655
 10
3.757458409693038
 20
7.224307203105295
 10
3.770802087412495
 20
7.219308623988927
 10
3.783815549137013
 20
7.220086485396035
 10
3.795224962372559
 20
7.226564537736016
 10
3.803913487487493
 20
7.238108657231
 10
3.809030627213231
 20
7.253588945038796
 10
3.810075483263298
 20
7.27148996450788
 10
3.806945779008754
 20
7.290059484677637
 10
3.799947867280557
 20
7.307479828389827
 10
3.789766758816365
 20
7.32204569220814
 10
3.777399054428518
 20
7.332331274539124
 10
3.764055376709059
 20
7.337329853655494
 10
3.751041914984542
 20
7.336552048769761
 10
3.739632501748996
 20
7.330073996429779
 10
3.730943976634061
 20
7.318529820413419
 10
3.725826836908324
 20
7.303049589126999
 10
3.724781980858257
 20
7.285148513136541
 10
3.727911674742021
 20
7.26657899574523
  0
LWPOLYLINE
  5
6D
330
1F
100
AcDbEntity
  8
0
  6
Continuous
 62
     7
370
    15
100
AcDbPolyline
 90
       12
 70
   128
 43
0.0
 10
3.799866228503126
 20
7.222305473415547
 10
3.809280345216502
 20
7.226725678379334
 10
3.818764423209418
 20
7.236642382631361
 10
3.825132185624323
 20
7.250649387357832
 10
3.827817813094115
 20
7.267502147347191
 10
3.826582684349748
 20
7.28570324542338
 10
3.821536553352297
 20
7.303635365789944
 10
3.81312778001851
 20
7.319705158241688
 10
3.802103527168506
 20
7.332484861867177
 10
3.789443346052878
 20
7.340838788823329
 10
3.776272144769833
 20
7.344024753597994
 10
3.767518148922948
 20
7.343047323786257
  0
ARC
  5
6E
330
1F
100
AcDbEntity
  8
0
  6
Continuous
 62
     7
370
    15
100
AcDbCircle
 10
3.960143193581316
 20
7.446954848612384
 30
0.0
 40
0.0362449547422191
100
AcDbArc
 50
49.37311237648948
 51
102.3707512820928
  0
LWPOLYLINE
  5
6F
330
1F
100
AcDbEntity
  8
0
  6
Continuous
 62
     7
370
    15
100
AcDbPolyline
 90
        9
 70
   128
 43
0.0
 10
3.992206068085301
 20
7.466514558701228
 10
3.997987829595898
 20
7.459016092744883
 10
4.006396602929686
 20
7.442946272032452
 10
4.011442733927137
 20
7.425014151665888
 10
4.012677862671503
 20
7.406813081850387
 10
4.009992235201711
 20
7.389960321861027
 10
4.003624472786807
 20
7.375953260613181
 10
3.994140394793891
 20
7.366036556361155
 10
3.984726278080515
 20
7.361616407918742
  0
LWPOLYLINE
  5
70
330
1F
100
AcDbEntity
  8
0
  6
Continuous
 62
     7
370
    15
100
AcDbPolyline
 90
       21
 70
   128
 43
0.0
 10
3.927620946269997
 20
7.409868196752936
 10
3.934618852812803
 20
7.39244785442997
 10
3.944799961276996
 20
7.377881990611657
 10
3.957167673442929
 20
7.367596349675462
 10
3.970511345976996
 20
7.362597828469692
 10
3.983524812886903
 20
7.363375631966201
 10
3.99493422612245
 20
7.369853684306183
 10
4.003622751237384
 20
7.381397860322542
 10
4.008739890963122
 20
7.396878091608964
 10
4.009784747013189
 20
7.414779139338733
 10
4.006655042758644
 20
7.43334865950849
 10
3.999657131030448
 20
7.450768974959994
 10
3.989476022566255
 20
7.465334838778307
 10
3.977108312993019
 20
7.475620479019888
 10
3.96376464045895
 20
7.480619028486347
 10
3.950751173549043
 20
7.479841224989838
 10
3.939341760313497
 20
7.473363172649856
 10
3.930653237791257
 20
7.461818995938886
 10
3.92553609806552
 20
7.446338736391777
 10
3.924491240719105
 20
7.42843771727
 10
3.927620946269997
 20
7.409868196752936
  0
LWPOLYLINE
  5
71
330
1F
100
AcDbEntity
  8
0
  6
Continuous
 62
     7
370
    15
100
AcDbPolyline
 90
        8
 70
   128
 43
0.0
 10
3.999575492253018
 20
7.365594676507088
 10
4.008989608966393
 20
7.3700148249495
 10
4.01847368695931
 20
7.379931529201527
 10
4.024841449374214
 20
7.393938590449374
 10
4.027527076844005
 20
7.410791350438732
 10
4.02629194809964
 20
7.428992420254234
 10
4.021245817102188
 20
7.446924540620798
 10
4.018016065936329
 20
7.454128981418312
  0
LINE
  5
72
330
1F
100
AcDbEntity
  8
0
  6
Continuous
 62
     7
370
    15
100
AcDbLine
 10
3.974759123985959
 20
7.487333604818723
 30
0.0
 11
3.967227407487449
 21
7.486336528267021
 31
0.0
  0
LWPOLYLINE
  5
73
330
1F
100
AcDbEntity
  8
0
  6
Continuous
 62
     7
370
    15
100
AcDbPolyline
 90
       12
 70
   128
 43
0.0
 10
3.712044547804991
 20
8.753614089209868
 10
3.720798564393435
 20
8.754591513464713
 10
3.7339697553057
 20
8.751405551468495
 10
3.746629936421329
 20
8.743051567990969
 10
3.757654189271332
 20
8.730271920886854
 10
3.766062962605119
 20
8.714202071913735
 10
3.771109093602571
 20
8.69626995154717
 10
3.772344222346937
 20
8.678068909992358
 10
3.769658594877146
 20
8.661216150002998
 10
3.763290832462241
 20
8.647209088755152
 10
3.753806754469325
 20
8.637292384503124
 10
3.744392637755949
 20
8.632872179539337
  0
LWPOLYLINE
  5
74
330
1F
100
AcDbEntity
  8
0
  6
Continuous
 62
     7
370
    15
100
AcDbPolyline
 90
       21
 70
   128
 43
0.0
 10
3.687287298167346
 20
8.681124026978741
 10
3.694285209895543
 20
8.66370368326655
 10
3.704466328730515
 20
8.64913781666979
 10
3.716834043489142
 20
8.638852175038987
 10
3.73017771083782
 20
8.633853655222438
 10
3.743191172562338
 20
8.634631460108172
 10
3.754600585797884
 20
8.641109512448153
 10
3.763289110912819
 20
8.652653688464512
 10
3.768406250638556
 20
8.668133919750934
 10
3.769451106688623
 20
8.686034939220016
 10
3.766321402434079
 20
8.704604515911148
 10
3.759323490705882
 20
8.722024803101964
 10
3.749142382241689
 20
8.736590666920276
 10
3.736774677853842
 20
8.746876305772635
 10
3.723431000134385
 20
8.751874884889005
 10
3.710417538409867
 20
8.751097023481898
 10
3.699008125174321
 20
8.744618971141916
 10
3.690319589688606
 20
8.733074854425378
 10
3.685202460333649
 20
8.717594563839135
 10
3.684157604283581
 20
8.699693544370052
 10
3.687287298167346
 20
8.681124026978741
  0
LWPOLYLINE
  5
75
330
1F
100
AcDbEntity
  8
0
  6
Continuous
 62
     7
370
    15
100
AcDbPolyline
 90
       12
 70
   128
 43
0.0
 10
3.759241851928452
 20
8.636850448127685
 10
3.768655968641827
 20
8.641270653091471
 10
3.778140046634743
 20
8.651187357343497
 10
3.784507809049649
 20
8.665194418591344
 10
3.787193436519439
 20
8.682047178580702
 10
3.785958307775074
 20
8.700248220135515
 10
3.780912176777622
 20
8.718180340502081
 10
3.772503403443835
 20
8.734250189475201
 10
3.761479150593831
 20
8.747029836579313
 10
3.748818969478203
 20
8.75538382005684
 10
3.735647778565938
 20
8.75856978205306
 10
3.726893761977494
 20
8.757592357798214
  0
LWPOLYLINE
  5
76
330
1F
100
AcDbEntity
  8
0
  6
Continuous
 62
     7
370
    15
100
AcDbPolyline
 90
       12
 70
   128
 43
0.0
 10
4.012579080995306
 20
7.276104250649362
 10
4.02133307684219
 20
7.277081680461099
 10
4.034504278125234
 20
7.273895715686435
 10
4.047164459240863
 20
7.265541732208907
 10
4.058188712090867
 20
7.252762085104794
 10
4.066597485424654
 20
7.236692292653049
 10
4.071643616422106
 20
7.218760172286485
 10
4.072878745166471
 20
7.200559074210296
 10
4.07019311769668
 20
7.183706314220938
 10
4.063825355281776
 20
7.169699309494465
 10
4.05434127728886
 20
7.15978260524244
 10
4.044927160575483
 20
7.155362400278653
  0
LWPOLYLINE
  5
77
330
1F
100
AcDbEntity
  8
0
  6
Continuous
 62
     7
370
    15
100
AcDbPolyline
 90
       21
 70
   128
 43
0.0
 10
3.987821831357661
 20
7.203614188418235
 10
3.994819743085857
 20
7.186193901227418
 10
4.00500085155005
 20
7.171628037409106
 10
4.017368555937897
 20
7.161342398556747
 10
4.030712233657355
 20
7.156343819440377
 10
4.043725695381873
 20
7.157121680847486
 10
4.055135108617418
 20
7.163599733187466
 10
4.063823633732353
 20
7.175143852682452
 10
4.06894077345809
 20
7.190624140490247
 10
4.069985629508158
 20
7.20852515995933
 10
4.066855925253614
 20
7.227094680129088
 10
4.059858013525417
 20
7.244514967319903
 10
4.049676905061224
 20
7.259080887659591
 10
4.037309200673377
 20
7.269366469990576
 10
4.023965522953919
 20
7.274365049106944
 10
4.010952061229401
 20
7.273587244221212
 10
3.999542647993855
 20
7.267109191881231
 10
3.990854122878921
 20
7.255565015864871
 10
3.985736983153184
 20
7.24008478457845
 10
3.984692127103116
 20
7.222183708587992
 10
3.987821831357661
 20
7.203614188418235
  0
LWPOLYLINE
  5
78
330
1F
100
AcDbEntity
  8
0
  6
Continuous
 62
     7
370
    15
100
AcDbPolyline
 90
       12
 70
   128
 43
0.0
 10
4.059776374747986
 20
7.159340668866998
 10
4.069190491461362
 20
7.163760873830785
 10
4.078674569454278
 20
7.173677578082811
 10
4.085042331869183
 20
7.187684582809283
 10
4.087727959338974
 20
7.204537342798642
 10
4.086492830594608
 20
7.22273844087483
 10
4.081446699597157
 20
7.240670561241395
 10
4.07303792626337
 20
7.25674035369314
 10
4.062013673413366
 20
7.269520000797252
 10
4.049353492297737
 20
7.27787398427478
 10
4.036182291014693
 20
7.281059949049445
 10
4.027428295167808
 20
7.280082519237708
  0
LWPOLYLINE
  5
79
330
1F
100
AcDbEntity
  8
0
  6
Continuous
 62
     7
370
    15
100
AcDbPolyline
 90
       12
 70
   128
 43
0.0
 10
3.829433502783246
 20
7.475769295116489
 10
3.838187503815522
 20
7.476746723539002
 10
3.851358705098565
 20
7.473560758764337
 10
3.864018886214195
 20
7.465206803547498
 10
3.875043139064198
 20
7.452427128182697
 10
3.883451911101638
 20
7.436357279556883
 10
3.888498045988132
 20
7.418425214669776
 10
3.889733170843456
 20
7.400224117635506
 10
3.88704754078097
 20
7.383371358340757
 10
3.880679784847802
 20
7.369364351877757
 10
3.871195706854886
 20
7.359447647625731
 10
3.861781587548815
 20
7.355027443356555
  0
LWPOLYLINE
  5
7A
330
1F
100
AcDbEntity
  8
0
  6
Continuous
 62
     7
370
    15
100
AcDbPolyline
 90
       21
 70
   128
 43
0.0
 10
3.804676258330991
 20
7.403279231496138
 10
3.811674159688409
 20
7.385858947083767
 10
3.821855273337991
 20
7.371293025354857
 10
3.834222982911228
 20
7.36100744163465
 10
3.847566655445297
 20
7.356008863907503
 10
3.860580124947899
 20
7.356786666709402
 10
3.87198953559075
 20
7.363264719743995
 10
3.880678058112989
 20
7.374808896454966
 10
3.885795199135074
 20
7.390289127394082
 10
3.886840055185142
 20
7.408190203384538
 10
3.883710350930598
 20
7.426759723554297
 10
3.876712443091443
 20
7.444180037963882
 10
3.86653133462725
 20
7.458745901782195
 10
3.854163622461319
 20
7.469031514457701
 10
3.840819949927251
 20
7.474030063924161
 10
3.827806483017343
 20
7.47325226042765
 10
3.816397074967186
 20
7.466774206698445
 10
3.807708549852252
 20
7.455230058942774
 10
3.802591410126515
 20
7.439749771134978
 10
3.801546554076448
 20
7.421848751665895
 10
3.804676258330991
 20
7.403279231496138
  0
LWPOLYLINE
  5
7B
330
1F
100
AcDbEntity
  8
0
  6
Continuous
 62
     7
370
    15
100
AcDbPolyline
 90
       12
 70
   128
 43
0.0
 10
3.876630801721318
 20
7.359005711944901
 10
3.886044921027389
 20
7.363425916214076
 10
3.895528999020305
 20
7.373342620466102
 10
3.901896754953472
 20
7.387349626929103
 10
3.904582385015958
 20
7.404202386223851
 10
3.903347260160634
 20
7.422403483258121
 10
3.898301125274141
 20
7.440335548145228
 10
3.889892353236701
 20
7.456405396771042
 10
3.878868100386698
 20
7.469185072135843
 10
3.866207919271068
 20
7.477539027352682
 10
3.853036717988025
 20
7.480724992127347
 10
3.844282716955749
 20
7.479747563704834
  0
LINE
  5
7C
330
1F
100
AcDbEntity
  8
0
  6
Continuous
 62
     7
370
    15
100
AcDbLine
 10
3.719040343894139
 20
7.5241979379012
 30
0.0
 11
3.724697210105371
 21
7.52268240092428
 31
0.0
  0
LINE
  5
7D
330
1F
100
AcDbEntity
  8
0
  6
Continuous
 62
     7
370
    15
100
AcDbLine
 10
3.724697210105371
 20
7.530389966428819
 30
0.0
 11
3.724697210105371
 21
7.52268240092428
 31
0.0
  0
LINE
  5
7E
330
1F
100
AcDbEntity
  8
0
  6
Continuous
 62
     7
370
    15
100
AcDbLine
 10
3.720454565632337
 20
7.531526617772285
 30
0.0
 11
3.724697210105371
 21
7.530389966428819
 31
0.0
  0
LINE
  5
7F
330
1F
100
AcDbEntity
  8
0
  6
Continuous
 62
     7
370
    15
100
AcDbLine
 10
3.720454565632337
 20
7.531526617772285
 30
0.0
 11
3.720454565632337
 21
8.261816887924334
 31
0.0
  0
LINE
  5
80
330
1F
100
AcDbEntity
  8
0
  6
Continuous
 62
     7
370
    15
100
AcDbLine
 10
3.720454565632337
 20
8.261816887924334
 30
0.0
 11
3.690013900587547
 21
8.269972278515998
 31
0.0
  0
LINE
  5
81
330
1F
100
AcDbEntity
  8
0
  6
Continuous
 62
     7
370
    15
100
AcDbLine
 10
3.690013900587547
 20
8.275752945579229
 30
0.0
 11
3.690013900587547
 21
8.269972278515998
 31
0.0
  0
LINE
  5
82
330
1F
100
AcDbEntity
  8
0
  6
Continuous
 62
     7
370
    15
100
AcDbLine
 10
3.684357055117874
 20
8.277268476999257
 30
0.0
 11
3.690013900587547
 21
8.275752945579229
 31
0.0
  0
LINE
  5
83
330
1F
100
AcDbEntity
  8
0
  6
Continuous
 62
     7
370
    15
100
AcDbLine
 10
3.684357055117874
 20
8.269560939755404
 30
0.0
 11
3.684357055117874
 21
8.277268476999257
 31
0.0
  0
LINE
  5
84
330
1F
100
AcDbEntity
  8
0
  6
Continuous
 62
     7
370
    15
100
AcDbLine
 10
3.638416036129271
 20
8.281869046476458
 30
0.0
 11
3.638416036129271
 21
8.726016579605394
 31
0.0
  0
LINE
  5
85
330
1F
100
AcDbEntity
  8
0
  6
Continuous
 62
     7
370
    15
100
AcDbLine
 10
3.638416036129271
 20
8.726016579605394
 30
0.0
 11
3.709126708207984
 21
8.803416765922179
 31
0.0
  0
LINE
  5
86
330
1F
100
AcDbEntity
  8
0
  6
Continuous
 62
     7
370
    15
100
AcDbLine
 10
3.709126708207984
 20
8.803416765922179
 30
0.0
 11
4.133390782163377
 21
8.689751731599638
 31
0.0
  0
LINE
  5
87
330
1F
100
AcDbEntity
  8
0
  6
Continuous
 62
     7
370
    15
100
AcDbLine
 10
4.133390782163377
 20
8.689751731599638
 30
0.0
 11
4.20410145424209
 21
8.57446320421327
 31
0.0
  0
LINE
  5
88
330
1F
100
AcDbEntity
  8
0
  6
Continuous
 62
     7
370
    15
100
AcDbLine
 10
4.20410145424209
 20
8.57446320421327
 30
0.0
 11
4.20410145424209
 21
8.130315671084334
 31
0.0
  0
LINE
  5
89
330
1F
100
AcDbEntity
  8
0
  6
Continuous
 62
     7
370
    15
100
AcDbLine
 10
4.158160455995047
 20
8.150331309492345
 30
0.0
 11
4.158160455995047
 21
8.142623772248494
 31
0.0
  0
LINE
  5
8A
330
1F
100
AcDbEntity
  8
0
  6
Continuous
 62
     7
370
    15
100
AcDbLine
 10
4.152503589783814
 20
8.151846846469265
 30
0.0
 11
4.158160455995047
 21
8.150331309492345
 31
0.0
  0
LINE
  5
8B
330
1F
100
AcDbEntity
  8
0
  6
Continuous
 62
     7
370
    15
100
AcDbLine
 10
4.152503589783814
 20
8.146066179406032
 30
0.0
 11
4.152503589783814
 21
8.151846846469265
 31
0.0
  0
LINE
  5
8C
330
1F
100
AcDbEntity
  8
0
  6
Continuous
 62
     7
370
    15
100
AcDbLine
 10
4.152503589783814
 20
8.146066179406032
 30
0.0
 11
4.122091216225919
 21
8.154213990395684
 31
0.0
  0
LINE
  5
8D
330
1F
100
AcDbEntity
  8
0
  6
Continuous
 62
     7
370
    15
100
AcDbLine
 10
4.122091216225919
 20
8.154213990395684
 30
0.0
 11
4.122091216225919
 21
7.423923720243636
 31
0.0
  0
LINE
  5
8E
330
1F
100
AcDbEntity
  8
0
  6
Continuous
 62
     7
370
    15
100
AcDbLine
 10
4.117848571752884
 20
7.425060371587102
 30
0.0
 11
4.122091216225919
 21
7.423923720243636
 31
0.0
  0
LINE
  5
8F
330
1F
100
AcDbEntity
  8
0
  6
Continuous
 62
     7
370
    15
100
AcDbLine
 10
4.117848571752884
 20
7.417352806082563
 30
0.0
 11
4.117848571752884
 21
7.425060371587102
 31
0.0
  0
LINE
  5
90
330
1F
100
AcDbEntity
  8
0
  6
Continuous
 62
     7
370
    15
100
AcDbLine
 10
4.117848571752884
 20
7.417352806082563
 30
0.0
 11
4.123505437964117
 21
7.415837269105645
 31
0.0
  0
LINE
  5
91
330
1F
100
AcDbEntity
  8
0
  6
Continuous
 62
     7
370
    15
100
AcDbLine
 10
4.123505437964117
 20
7.102718095207677
 30
0.0
 11
3.719040343894139
 21
7.211078764003232
 31
0.0
  0
LWPOLYLINE
  5
92
330
1F
100
AcDbEntity
  8
0
  6
Continuous
 62
     7
370
    15
100
AcDbPolyline
 90
        6
 70
   128
 43
0.0
 10
3.86612651383618
 20
7.557280222899875
 10
3.863910501196039
 20
7.538810501003508
 10
3.857479388873622
 20
7.523336104078318
 10
3.847462693564662
 20
7.512371810264511
 10
3.834840925816869
 20
7.506990812637952
 10
3.827167274828024
 20
7.506630831953967
  0
LINE
  5
93
330
1F
100
AcDbEntity
  8
0
  6
Continuous
 62
     7
370
    15
100
AcDbLine
 10
3.86612651383618
 20
8.376207312659648
 30
0.0
 11
3.86612651383618
 21
7.557280222899875
 31
0.0
  0
LWPOLYLINE
  5
94
330
1F
100
AcDbEntity
  8
0
  6
Continuous
 62
     7
370
    15
100
AcDbPolyline
 90
        8
 70
   128
 43
0.0
 10
3.794935171676708
 20
8.445866918526238
 10
3.806858249628481
 20
8.450757072461582
 10
3.820849582537285
 20
8.45002801157474
 10
3.834840925816869
 20
8.443260204249913
 10
3.847462693564662
 20
8.431116240997278
 10
3.857479388873622
 20
8.414784723909198
 10
3.863910501196039
 20
8.395864423110756
 10
3.86612651383618
 20
8.376207312659648
  0
LWPOLYLINE
  5
95
330
1F
100
AcDbEntity
  8
0
  6
Continuous
 62
     7
370
    15
100
AcDbPolyline
 90
        6
 70
   128
 43
0.0
 10
4.066948868180866
 20
7.50324768097526
 10
4.064732860726115
 20
7.484777957689669
 10
4.058301743218309
 20
7.469303590414391
 10
4.048285053094739
 20
7.458339266950672
 10
4.035663285346945
 20
7.452958297584801
 10
4.0279896343581
 20
7.452598316900815
  0
LINE
  5
96
330
1F
100
AcDbEntity
  8
0
  6
Continuous
 62
     7
370
    15
100
AcDbLine
 10
4.066948868180866
 20
8.322174798995721
 30
0.0
 11
4.066948868180866
 21
7.50324768097526
 31
0.0
  0
LWPOLYLINE
  5
97
330
1F
100
AcDbEntity
  8
0
  6
Continuous
 62
     7
370
    15
100
AcDbPolyline
 90
        8
 70
   128
 43
0.0
 10
3.995757531206784
 20
8.391834346951714
 10
4.007680603973167
 20
8.396724558797654
 10
4.021671942067362
 20
8.395995496521591
 10
4.035663285346945
 20
8.389227689196761
 10
4.048285053094739
 20
8.377083669422752
 10
4.058301743218309
 20
8.360752210245269
 10
4.064732860726115
 20
8.341831879796917
 10
4.066948868180866
 20
8.322174798995721
  0
LINE
  5
98
330
1F
100
AcDbEntity
  8
0
  6
Continuous
 62
     7
370
    15
100
AcDbLine
 10
3.941262778719096
 20
7.973864229086673
 30
0.0
 11
3.921262779024618
 21
7.951972149444554
 31
0.0
  0
LINE
  5
99
330
1F
100
AcDbEntity
  8
0
  6
Continuous
 62
     7
370
    15
100
AcDbLine
 10
3.921262779024618
 20
8.006472754172333
 30
0.0
 11
3.941262778719096
 21
7.973864229086673
 31
0.0
  0
LINE
  5
9A
330
1F
100
AcDbEntity
  8
0
  6
Continuous
 62
     7
370
    15
100
AcDbLine
 10
3.901262778822488
 20
7.984580671133632
 30
0.0
 11
3.921262779024618
 21
8.006472754172333
 31
0.0
  0
LINE
  5
9B
330
1F
100
AcDbEntity
  8
0
  6
Continuous
 62
     7
370
    15
100
AcDbLine
 10
3.921262779024618
 20
7.951972149444554
 30
0.0
 11
3.901262778822488
 21
7.984580671133632
 31
0.0
  0
LWPOLYLINE
  5
9C
330
1F
100
AcDbEntity
  8
0
  6
Continuous
 62
     7
370
    15
100
AcDbPolyline
 90
       19
 70
   128
 43
0.0
 10
3.885903409146325
 20
8.659711977176728
 10
3.888035597367223
 20
8.675616608033406
 10
3.894174987436078
 20
8.688460373697918
 10
3.903581079758697
 20
8.696694247379104
 10
3.915119358357694
 20
8.699325012899343
 10
3.927398139143578
 20
8.696035391823359
 10
3.938936418390749
 20
8.687222161417098
 10
3.948342510713368
 20
8.673948295559698
 10
3.954481900782223
 20
8.657814908992856
 10
3.956614089003121
 20
8.640767804558102
 10
3.954481900782223
 20
8.624863173701422
 10
3.948342510713368
 20
8.612019351515536
 10
3.938936418390749
 20
8.60378547783435
 10
3.927398139143578
 20
8.601154712487764
 10
3.915119358357694
 20
8.604444333563748
 10
3.903581079758697
 20
8.613257563796357
 10
3.894174987436078
 20
8.626531429653756
 10
3.888035597367223
 20
8.642664872741974
 10
3.885903409146325
 20
8.659711977176728
  0
LWPOLYLINE
  5
9D
330
1F
100
AcDbEntity
  8
0
  6
Continuous
 62
     7
370
    15
100
AcDbPolyline
 90
       19
 70
   128
 43
0.0
 10
3.885893297636163
 20
7.290201667179256
 10
3.888025485857061
 20
7.306106298035934
 10
3.894164875925916
 20
7.318950120221821
 10
3.903570966952188
 20
7.327183994250312
 10
3.915109246847532
 20
7.329814759423245
 10
3.927388026985243
 20
7.326525138520914
 10
3.938926306880587
 20
7.317711907940999
 10
3.948332399203206
 20
7.304438042083601
 10
3.954471789272061
 20
7.288304598995384
 10
3.956603974900265
 20
7.27125749525524
 10
3.954471789272061
 20
7.25535286370395
 10
3.948332399203206
 20
7.242509098039438
 10
3.938926306880587
 20
7.234275224358251
 10
3.927388026985243
 20
7.23164445918532
 10
3.915109246847532
 20
7.23493408008765
 10
3.903570966952188
 20
7.243747310667565
 10
3.894164875925916
 20
7.257021176177658
 10
3.888025485857061
 20
7.273154562744501
 10
3.885893297636163
 20
7.290201667179256
  0
LINE
  5
9E
330
1F
100
AcDbEntity
  8
0
  6
Continuous
 62
     7
370
    15
100
AcDbLine
 10
4.144704473102724
 20
8.69278279443969
 30
0.0
 11
4.133390782163377
 21
8.689751731599638
 31
0.0
  0
LINE
  5
9F
330
1F
100
AcDbEntity
  8
0
  6
Continuous
 62
     7
370
    15
100
AcDbLine
 10
4.144704473102724
 20
8.69278279443969
 30
0.0
 11
4.215415145181436
 21
8.577494267053323
 31
0.0
  0
LINE
  5
A0
330
1F
100
AcDbEntity
  8
0
  6
Continuous
 62
     7
370
    15
100
AcDbLine
 10
4.215415145181436
 20
8.577494267053323
 30
0.0
 11
4.20410145424209
 21
8.57446320421327
 31
0.0
  0
LINE
  5
A1
330
1F
100
AcDbEntity
  8
0
  6
Continuous
 62
     7
370
    15
100
AcDbLine
 10
4.215415145181436
 20
8.577494267053323
 30
0.0
 11
4.215415145181436
 21
8.133346733924387
 31
0.0
  0
LINE
  5
A2
330
1F
100
AcDbEntity
  8
0
  6
Continuous
 62
     7
370
    15
100
AcDbLine
 10
3.72044039914733
 20
8.806447828762232
 30
0.0
 11
3.709126708207984
 21
8.803416765922179
 31
0.0
  0
LINE
  5
A3
330
1F
100
AcDbEntity
  8
0
  6
Continuous
 62
     7
370
    15
100
AcDbLine
 10
3.72044039914733
 20
8.806447828762232
 30
0.0
 11
4.144704473102724
 21
8.69278279443969
 31
0.0
  0
ARC
  5
A4
330
1F
100
AcDbEntity
  8
0
  6
Continuous
 62
     7
370
    15
100
AcDbCircle
 10
4.22508113782004
 20
8.126898546271123
 30
0.0
 40
0.0212561488755594
100
AcDbArc
 50
170.7490252808526
 51
249.2524102604543
  0
LWPOLYLINE
  5
A5
330
1F
100
AcDbEntity
  8
0
  6
Continuous
 62
     7
370
    15
100
AcDbPolyline
 90
        3
 70
   128
 43
0.0
 10
4.215415145181436
 20
8.133346733924387
 10
4.215605345280278
 20
8.130766253257554
 10
4.215632931554155
 20
8.130591362492204
  0
ELLIPSE
  5
A6
330
1F
100
AcDbEntity
  8
0
  6
Continuous
 62
     7
370
    15
100
AcDbEllipse
 10
4.185805377389473
 20
8.146583880551553
 30
0.0
 11
0.034641546066795
 21
0.0060711470549641
 31
0.0
210
0.0
220
0.0
230
1.0
 40
0.817761827892664
 41
4.084522328034362
 42
4.195358253617801
  0
ARC
  5
A7
330
1F
100
AcDbEntity
  8
0
  6
Continuous
 62
     7
370
    15
100
AcDbCircle
 10
4.181709624652907
 20
8.140341804014811
 30
0.0
 40
0.0236594742861269
100
AcDbArc
 50
174.4651889789169
 51
238.8587823548158
  0
LINE
  5
A8
330
1F
100
AcDbEntity
  8
0
  6
Continuous
 62
     7
370
    15
100
AcDbLine
 10
4.152503589783814
 20
8.146066179406032
 30
0.0
 11
4.158160435253487
 21
8.147581710826059
 31
0.0
  0
LINE
  5
A9
330
1F
100
AcDbEntity
  8
0
  6
Continuous
 62
     7
370
    15
100
AcDbLine
 10
4.133404907165266
 20
7.426954783083688
 30
0.0
 11
4.122091216225919
 21
7.423923720243636
 31
0.0
  0
LINE
  5
AA
330
1F
100
AcDbEntity
  8
0
  6
Continuous
 62
     7
370
    15
100
AcDbLine
 10
4.133404907165266
 20
8.15118293798781
 30
0.0
 11
4.133404907165266
 21
7.426954783083688
 31
0.0
  0
ARC
  5
AB
330
1F
100
AcDbEntity
  8
0
  6
Continuous
 62
     7
370
    15
100
AcDbCircle
 10
3.937630938929991
 20
8.666241379380307
 30
0.0
 40
0.0405649694741306
100
AcDbArc
 50
125.336593765834
 51
184.947356740921
  0
LWPOLYLINE
  5
AC
330
1F
100
AcDbEntity
  8
0
  6
Continuous
 62
     7
370
    15
100
AcDbPolyline
 90
        7
 70
   128
 43
0.0
 10
3.939662148698367
 20
8.604177833746588
 10
3.938711830082925
 20
8.604185775327815
 10
3.926433049297041
 20
8.607475396403801
 10
3.914894770698044
 20
8.616288626636409
 10
3.905488678375425
 20
8.629562492493807
 10
3.89934928830657
 20
8.645695935582025
 10
3.897217100085671
 20
8.662743040016779
  0
ARC
  5
AD
330
1F
100
AcDbEntity
  8
0
  6
Continuous
 62
     7
370
    15
100
AcDbCircle
 10
4.144718641235974
 20
7.507601427681816
 30
0.0
 40
0.0941841854678685
100
AcDbArc
 50
256.9835347204534
 51
283.0164502706534
  0
ELLIPSE
  5
AE
330
1F
100
AcDbEntity
  8
0
  6
Continuous
 62
     7
370
    15
100
AcDbEllipse
 10
4.144718615427962
 20
7.121889553544739
 30
0.0
 11
0.0292208156119536
 21
0.01326939927546
 31
0.0
210
0.0
220
0.0
230
1.0
 40
0.5119246607529709
 41
3.698578779770462
 42
5.269375106565344
  0
LINE
  5
AF
330
1F
100
AcDbEntity
  8
0
  6
Continuous
 62
     7
370
    15
100
AcDbLine
 10
4.22674300260579
 20
7.432129251320052
 30
0.0
 11
4.165931820469785
 21
7.415837263548751
 31
0.0
  0
LINE
  5
B0
330
1F
100
AcDbEntity
  8
0
  6
Continuous
 62
     7
370
    15
100
AcDbLine
 10
4.22674300260579
 20
7.215354434273661
 30
0.0
 11
4.22674300260579
 21
7.432129251320052
 31
0.0
  0
LINE
  5
B1
330
1F
100
AcDbEntity
  8
0
  6
Continuous
 62
     7
370
    15
100
AcDbLine
 10
4.165931820469785
 20
7.116206293957867
 30
0.0
 11
4.22674300260579
 21
7.215354434273661
 31
0.0
  0
LINE
  5
B2
330
1F
100
AcDbEntity
  8
0
  6
Continuous
 62
     7
370
    15
100
AcDbLine
 10
4.215429290924884
 20
7.435160319716997
 30
0.0
 11
4.154618108788879
 21
7.418868331945696
 31
0.0
  0
LINE
  5
B3
330
1F
100
AcDbEntity
  8
0
  6
Continuous
 62
     7
370
    15
100
AcDbLine
 10
4.22674300260579
 20
7.432129251320052
 30
0.0
 11
4.215429290924884
 21
7.435160319716997
 31
0.0
  0
LINE
  5
B4
330
1F
100
AcDbEntity
  8
0
  6
Continuous
 62
     7
370
    15
100
AcDbLine
 10
4.129162262692231
 20
7.420383868922616
 30
0.0
 11
4.117848571752884
 21
7.417352806082563
 31
0.0
  0
LINE
  5
B5
330
1F
100
AcDbEntity
  8
0
  6
Continuous
 62
     7
370
    15
100
AcDbLine
 10
4.129162262692231
 20
7.420383868922616
 30
0.0
 11
4.134819128903464
 21
7.418868331945698
 31
0.0
  0
LINE
  5
B6
330
1F
100
AcDbEntity
  8
0
  6
Continuous
 62
     7
370
    15
100
AcDbLine
 10
4.129162262692231
 20
7.420383868922616
 30
0.0
 11
4.129162262692231
 21
7.425818116481081
 31
0.0
  0
LINE
  5
B7
330
1F
100
AcDbEntity
  8
0
  6
Continuous
 62
     7
370
    15
100
AcDbLine
 10
3.912576469761835
 20
7.987611733973685
 30
0.0
 11
3.901262778822488
 21
7.984580671133632
 31
0.0
  0
LINE
  5
B8
330
1F
100
AcDbEntity
  8
0
  6
Continuous
 62
     7
370
    15
100
AcDbLine
 10
3.912576469761835
 20
7.987611733973685
 30
0.0
 11
3.924695003853212
 21
8.000876732825037
 31
0.0
  0
LINE
  5
B9
330
1F
100
AcDbEntity
  8
0
  6
Continuous
 62
     7
370
    15
100
AcDbLine
 10
3.929144227775202
 20
7.960599231052132
 30
0.0
 11
3.912576469761835
 21
7.987611733973685
 31
0.0
  0
ARC
  5
BA
330
1F
100
AcDbEntity
  8
0
  6
Continuous
 62
     7
370
    15
100
AcDbCircle
 10
3.937620913345286
 20
7.296731080691486
 30
0.0
 40
0.0405650560547223
100
AcDbArc
 50
125.3366558358554
 51
184.9473621876819
  0
LWPOLYLINE
  5
BB
330
1F
100
AcDbEntity
  8
0
  6
Continuous
 62
     7
370
    15
100
AcDbPolyline
 90
        7
 70
   128
 43
0.0
 10
3.939652036540032
 20
7.234667523922769
 10
3.93870171792459
 20
7.234675522025371
 10
3.926422937786879
 20
7.237965142927703
 10
3.914884657891535
 20
7.246778373507618
 10
3.905478566865263
 20
7.26005223901771
 10
3.899339176796408
 20
7.276185625584552
 10
3.897206988575509
 20
7.293232730019307
  0
ARC
  5
BC
330
1F
100
AcDbEntity
  8
0
  6
Continuous
 62
     7
370
    15
100
AcDbCircle
 10
3.707906223775725
 20
8.267278971521717
 30
0.0
 40
0.0236594742861185
100
AcDbArc
 50
174.4651889789064
 51
238.8587823548275
  0
ARC
  5
BD
330
1F
100
AcDbEntity
  8
0
  6
Continuous
 62
     7
370
    15
100
AcDbCircle
 10
3.661661557484908
 20
8.279434611899388
 30
0.0
 40
0.0233726492894039
100
AcDbArc
 50
174.0213765654835
 51
239.3025947682564
  0
ELLIPSE
  5
BE
330
1F
100
AcDbEntity
  8
0
  6
Continuous
 62
     7
370
    15
100
AcDbEllipse
 10
3.699138490356508
 20
8.27696731816513
 30
0.0
 11
0.0024227543116377
 21
0.0303807653263277
 31
0.0
210
0.0
220
0.0
230
1.0
 40
0.2312269488150092
 41
2.988183827459172
 42
3.09901975304254
  0
LWPOLYLINE
  5
BF
330
1F
100
AcDbEntity
  8
0
  6
Continuous
 62
     7
370
    15
100
AcDbPolyline
 90
        9
 70
   128
 43
0.0
 10
3.719040323152579
 20
7.535564434665182
 10
3.715309455913874
 20
7.534346485977548
 10
3.712537139096962
 20
7.532956929321178
 10
3.710829963575118
 20
7.531449183108204
 10
3.71025353490043
 20
7.529881177947852
 10
3.710829984316677
 20
7.528313178344391
 10
3.712537139096962
 20
7.526805426574525
 10
3.715309435172315
 20
7.525415875475047
 10
3.719040343894139
 20
7.5241979379012
  0
ELLIPSE
  5
C0
330
1F
100
AcDbEntity
  8
0
  6
Continuous
 62
     7
370
    15
100
AcDbEllipse
 10
3.740253536589258
 20
7.230250218259667
 30
0.0
 11
0.029220815611954
 21
0.01326939927546
 31
0.0
210
0.0
220
0.0
230
0.9999999999999998
 40
0.5119246607529644
 41
2.913180616372986
 42
3.698578779770457
  0
LINE
  5
C1
330
1F
100
AcDbEntity
  8
0
  6
Continuous
 62
     7
370
    15
100
AcDbLine
 10
3.719040323152579
 20
7.535564434665182
 30
0.0
 11
3.720454524149218
 21
7.535943314741742
 31
0.0
  0
LINE
  5
C2
330
1F
100
AcDbEntity
  8
0
  6
Continuous
 62
     7
370
    15
100
AcDbLine
 10
5.134668110914388
 20
7.306305502346349
 30
0.0
 11
5.134668110914388
 21
3.501245814080187
 31
0.0
  0
LINE
  5
C3
330
1F
100
AcDbEntity
  8
0
  6
Continuous
 62
     7
370
    15
100
AcDbLine
 10
5.134668110914388
 20
3.501245814080187
 30
0.0
 11
4.713304422533843
 21
3.388357825107824
 31
0.0
  0
LINE
  5
C4
330
1F
100
AcDbEntity
  8
0
  6
Continuous
 62
     7
370
    15
100
AcDbLine
 10
4.713304422533843
 20
3.388357825107824
 30
0.0
 11
4.63969336488028
 21
3.079603482146751
 31
0.0
  0
LINE
  5
C5
330
1F
100
AcDbEntity
  8
0
  6
Continuous
 62
     7
370
    15
100
AcDbLine
 10
4.63969336488028
 20
3.079603482146751
 30
0.0
 11
4.571135894814738
 21
3.253924778888592
 31
0.0
  0
LINE
  5
C6
330
1F
100
AcDbEntity
  8
0
  6
Continuous
 62
     7
370
    15
100
AcDbLine
 10
4.571135894814738
 20
3.253924778888592
 30
0.0
 11
4.144718618846171
 21
3.139682877949822
 31
0.0
  0
LINE
  5
C7
330
1F
100
AcDbEntity
  8
0
  6
Continuous
 62
     7
370
    15
100
AcDbLine
 10
4.144718618846171
 20
7.571523886596768
 30
0.0
 11
4.144718618846171
 21
7.416216149182205
 31
0.0
  0
LINE
  5
C8
330
1F
100
AcDbEntity
  8
0
  6
Continuous
 62
     7
370
    15
100
AcDbLine
 10
4.144718618846171
 20
7.104314615256695
 30
0.0
 11
4.144718618846171
 21
3.139682877949822
 31
0.0
  0
LINE
  5
C9
330
1F
100
AcDbEntity
  8
0
  6
Continuous
 62
     7
370
    15
100
AcDbLine
 10
4.133404907165266
 20
7.574554954993713
 30
0.0
 11
4.144718618846171
 21
7.571523886596768
 31
0.0
  0
LINE
  5
CA
330
1F
100
AcDbEntity
  8
0
  6
Continuous
 62
     7
370
    15
100
AcDbLine
 10
3.720454544890777
 20
3.253347912272363
 30
0.0
 11
4.144718618846171
 21
3.139682877949822
 31
0.0
  0
LINE
  5
CB
330
1F
100
AcDbEntity
  8
0
  6
Continuous
 62
     7
370
    15
100
AcDbLine
 10
3.720454544890777
 20
7.53152660550067
 30
0.0
 11
3.720454544890777
 21
7.529881183504745
 31
0.0
  0
LINE
  5
CC
330
1F
100
AcDbEntity
  8
0
  6
Continuous
 62
     7
370
    15
100
AcDbLine
 10
3.720454544890777
 20
7.210699866098165
 30
0.0
 11
3.720454544890777
 21
3.253347912272363
 31
0.0
  0
LINE
  5
CD
330
1F
100
AcDbEntity
  8
0
  6
Continuous
 62
     7
370
    15
100
AcDbLine
 10
4.280080109036599
 20
3.175947847784954
 30
0.0
 11
4.63969336488028
 21
3.079603482146751
 31
0.0
  0
LINE
  5
CE
330
1F
100
AcDbEntity
  8
0
  6
Continuous
 62
     7
370
    15
100
AcDbLine
 10
1.952687597732048
 20
9.314925590188346
 30
0.0
 11
2.38124661600227
 21
9.429741287559979
 31
0.0
  0
LINE
  5
CF
330
1F
100
AcDbEntity
  8
0
  6
Continuous
 62
     7
370
    15
100
AcDbLine
 10
2.38124661600227
 20
9.429741287559979
 30
0.0
 11
2.306240916642495
 21
9.485423158342834
 31
0.0
  0
LINE
  5
D0
330
1F
100
AcDbEntity
  8
0
  6
Continuous
 62
     7
370
    15
100
AcDbLine
 10
2.306240916642495
 20
9.485423158342834
 30
0.0
 11
2.594928591926098
 21
9.449100731652622
 31
0.0
  0
LINE
  5
D1
330
1F
100
AcDbEntity
  8
0
  6
Continuous
 62
     7
370
    15
100
AcDbLine
 10
2.594928591926098
 20
9.449100731652622
 30
0.0
 11
3.013347720395858
 21
9.561199840482004
 31
0.0
  0
LINE
  5
D2
330
1F
100
AcDbEntity
  8
0
  6
Continuous
 62
     7
370
    15
100
AcDbLine
 10
6.831724427477523
 20
8.538214520465357
 30
0.0
 11
3.013347720395858
 21
9.561199840482004
 31
0.0
  0
LINE
  5
D3
330
1F
100
AcDbEntity
  8
0
  6
Continuous
 62
     7
370
    15
100
AcDbLine
 10
6.831724427477523
 20
8.538214520465357
 30
0.0
 11
6.413305299007762
 21
8.426115411635976
 31
0.0
  0
LINE
  5
D4
330
1F
100
AcDbEntity
  8
0
  6
Continuous
 62
     7
370
    15
100
AcDbLine
 10
6.413305299007762
 20
8.426115411635976
 30
0.0
 11
6.548881739162671
 21
8.348772792889862
 31
0.0
  0
LINE
  5
D5
330
1F
100
AcDbEntity
  8
0
  6
Continuous
 62
     7
370
    15
100
AcDbLine
 10
6.548881739162671
 20
8.348772792889862
 30
0.0
 11
6.341044584275122
 21
8.36886764870132
 31
0.0
  0
LINE
  5
D6
330
1F
100
AcDbEntity
  8
0
  6
Continuous
 62
     7
370
    15
100
AcDbLine
 10
6.341044584275122
 20
8.36886764870132
 30
0.0
 11
5.912485566004901
 21
8.254051951329687
 31
0.0
  0
LINE
  5
D7
330
1F
100
AcDbEntity
  8
0
  6
Continuous
 62
     7
370
    15
100
AcDbLine
 10
5.912485566004901
 20
8.254051951329687
 30
0.0
 11
1.952687597732048
 21
9.314925590188346
 31
0.0
  0
LINE
  5
D8
330
1F
100
AcDbEntity
  8
0
  6
Continuous
 62
     7
370
    15
100
AcDbLine
 10
1.952687597732048
 20
8.7368594208182
 30
0.0
 11
1.952687597732048
 21
9.314925590188346
 31
0.0
  0
LINE
  5
D9
330
1F
100
AcDbEntity
  8
0
  6
Continuous
 62
     7
370
    15
100
AcDbLine
 10
5.912485566004901
 20
7.675985781959542
 30
0.0
 11
5.912485566004901
 21
8.254051951329687
 31
0.0
  0
LINE
  5
DA
330
1F
100
AcDbEntity
  8
0
  6
Continuous
 62
     7
370
    15
100
AcDbLine
 10
5.912485566004901
 20
7.675985781959542
 30
0.0
 11
4.215415145181436
 21
8.130649703493814
 31
0.0
  0
LINE
  5
DB
330
1F
100
AcDbEntity
  8
0
  6
Continuous
 62
     7
370
    15
100
AcDbLine
 10
4.158160435253487
 20
8.145988873054921
 30
0.0
 11
4.155187713490556
 21
8.146785298069334
 31
0.0
  0
LINE
  5
DC
330
1F
100
AcDbEntity
  8
0
  6
Continuous
 62
     7
370
    15
100
AcDbLine
 10
3.638416015387712
 20
8.285234147282885
 30
0.0
 11
1.952687597732048
 21
8.7368594208182
 31
0.0
  0
LINE
  5
DD
330
1F
100
AcDbEntity
  8
0
  6
Continuous
 62
     7
370
    15
100
AcDbLine
 10
6.341044584275122
 20
7.790801479331174
 30
0.0
 11
6.341044584275122
 21
8.36886764870132
 31
0.0
  0
LINE
  5
DE
330
1F
100
AcDbEntity
  8
0
  6
Continuous
 62
     7
370
    15
100
AcDbLine
 10
6.341044584275122
 20
7.790801479331174
 30
0.0
 11
5.912485566004901
 21
7.675985781959542
 31
0.0
  0
LINE
  5
DF
330
1F
100
AcDbEntity
  8
0
  6
Continuous
 62
     7
370
    15
100
AcDbLine
 10
6.548881739162671
 20
7.770706623519717
 30
0.0
 11
6.548881739162671
 21
8.348772792889862
 31
0.0
  0
LINE
  5
E0
330
1F
100
AcDbEntity
  8
0
  6
Continuous
 62
     7
370
    15
100
AcDbLine
 10
6.548881739162671
 20
7.770706623519717
 30
0.0
 11
6.341044584275122
 21
7.790801479331174
 31
0.0
  0
LINE
  5
E1
330
1F
100
AcDbEntity
  8
0
  6
Continuous
 62
     7
370
    15
100
AcDbLine
 10
6.831724427477523
 20
7.960148351095211
 30
0.0
 11
6.831724427477523
 21
8.538214520465357
 31
0.0
  0
LINE
  5
E2
330
1F
100
AcDbEntity
  8
0
  6
Continuous
 62
     7
370
    15
100
AcDbLine
 10
6.831724427477523
 20
7.960148351095211
 30
0.0
 11
6.548881718421113
 21
7.88437166339915
 31
0.0
  0
LINE
  5
E3
330
1F
100
AcDbEntity
  8
0
  6
Continuous
 62
     7
370
    15
100
AcDbLine
 10
2.306240916642495
 20
9.409646477527921
 30
0.0
 11
2.306240916642495
 21
9.485423158342834
 31
0.0
  0
LINE
  5
E4
330
1F
100
AcDbEntity
  8
0
  6
Continuous
 62
     7
370
    15
100
AcDbLine
 10
1.952687597732048
 20
8.158793223187368
 30
0.0
 11
1.952687597732048
 21
8.7368594208182
 31
0.0
  0
LINE
  5
E5
330
1F
100
AcDbEntity
  8
0
  6
Continuous
 62
     7
370
    15
100
AcDbLine
 10
5.912485566004901
 20
7.097919584328709
 30
0.0
 11
5.912485566004901
 21
7.675985781959542
 31
0.0
  0
LINE
  5
E6
330
1F
100
AcDbEntity
  8
0
  6
Continuous
 62
     7
370
    15
100
AcDbLine
 10
5.912485566004901
 20
7.097919584328709
 30
0.0
 11
4.133404907165266
 21
7.574554954993713
 31
0.0
  0
LINE
  5
E7
330
1F
100
AcDbEntity
  8
0
  6
Continuous
 62
     7
370
    15
100
AcDbLine
 10
3.720454544890777
 20
7.685188920919308
 30
0.0
 11
1.952687597732048
 21
8.158793223187368
 31
0.0
  0
LINE
  5
E8
330
1F
100
AcDbEntity
  8
0
  6
Continuous
 62
     7
370
    15
100
AcDbLine
 10
6.341044584275122
 20
7.212735281700341
 30
0.0
 11
6.341044584275122
 21
7.790801479331174
 31
0.0
  0
LINE
  5
E9
330
1F
100
AcDbEntity
  8
0
  6
Continuous
 62
     7
370
    15
100
AcDbLine
 10
6.341044584275122
 20
7.212735281700341
 30
0.0
 11
5.912485566004901
 21
7.097919584328709
 31
0.0
  0
LINE
  5
EA
330
1F
100
AcDbEntity
  8
0
  6
Continuous
 62
     7
370
    15
100
AcDbLine
 10
6.548881739162671
 20
7.192640425888884
 30
0.0
 11
6.548881739162671
 21
7.770706623519717
 31
0.0
  0
LINE
  5
EB
330
1F
100
AcDbEntity
  8
0
  6
Continuous
 62
     7
370
    15
100
AcDbLine
 10
6.548881739162671
 20
7.192640425888884
 30
0.0
 11
6.341044584275122
 21
7.212735281700341
 31
0.0
  0
LINE
  5
EC
330
1F
100
AcDbEntity
  8
0
  6
Continuous
 62
     7
370
    15
100
AcDbLine
 10
6.831724427477523
 20
7.382082153464379
 30
0.0
 11
6.831724427477523
 21
7.960148351095211
 31
0.0
  0
LINE
  5
ED
330
1F
100
AcDbEntity
  8
0
  6
Continuous
 62
     7
370
    15
100
AcDbLine
 10
6.831724427477523
 20
7.382082153464379
 30
0.0
 11
6.548881718421113
 21
7.306305465768317
 31
0.0
  0
TEXT
  5
FA
330
1F
100
AcDbEntity
  8
0
100
AcDbText
 10
6.01979428679931
 20
2.079408758547298
 30
0.0
 40
0.25
  1
USP  RSPT
100
AcDbText
  0
TEXT
  5
FB
330
1F
100
AcDbEntity
  8
0
100
AcDbText
 10
5.091123841662678
 20
1.587005534809449
 30
0.0
 40
0.25
  1
SIMPSON  DSP
100
AcDbText
  0
SPLINE
  5
1C3
330
1F
100
AcDbEntity
  8
0
  6
Continuous
 62
     7
370
    15
100
AcDbSpline
210
0.0
220
0.0
230
1.0
 70
     8
 71
     3
 72
    20
 73
    16
 74
     0
 42
0.0000000001
 43
0.0000000001
 40
0.0
 40
0.0
 40
0.0
 40
0.0
 40
0.0571204583944526
 40
0.1373004954346467
 40
0.2183884417161625
 40
0.2987914753687178
 40
0.3776218605812873
 40
0.4555366788679945
 40
0.5329739384604607
 40
0.6100701403457678
 40
0.6868635787752261
 40
0.7635047718208951
 40
0.8404681797059664
 40
0.9187485586505969
 40
1.0
 40
1.0
 40
1.0
 40
1.0
 10
11.54387013746017
 20
3.733003641815211
 30
0.0
 10
11.54368319557526
 20
3.727095863039003
 30
0.0
 10
11.5432338432042
 20
3.712895330065507
 30
0.0
 10
11.528084311292
 20
3.690595813886806
 30
0.0
 10
11.50293849277897
 20
3.666536168918478
 30
0.0
 10
11.46828902028296
 20
3.643452725942199
 30
0.0
 10
11.42585291949904
 20
3.621720829653461
 30
0.0
 10
11.37823095836967
 20
3.601152201231542
 30
0.0
 10
11.32767419932737
 20
3.581322578330854
 30
0.0
 10
11.27631874049197
 20
3.561785760402931
 30
0.0
 10
11.22631235813268
 20
3.542096354353611
 30
0.0
 10
11.17972080263792
 20
3.521810038080573
 30
0.0
 10
11.13902963352031
 20
3.500460560717917
 30
0.0
 10
11.10543269489933
 20
3.477648160558511
 30
0.0
 10
11.09259571790487
 20
3.461505624328988
 30
0.0
 10
11.0860576938201
 20
3.453284039862225
 30
0.0
  0
SPLINE
  5
1C4
330
1F
100
AcDbEntity
  8
0
  6
Continuous
 62
     7
370
    15
100
AcDbSpline
210
0.0
220
0.0
230
1.0
 70
     8
 71
     3
 72
    29
 73
    25
 74
     0
 42
0.0000000001
 43
0.0000000001
 40
0.0
 40
0.0
 40
0.0
 40
0.0
 40
0.0701334673445917
 40
0.1128594365449015
 40
0.1545484599930439
 40
0.1950315605089846
 40
0.2342921676230127
 40
0.2725308522140394
 40
0.3102328926242746
 40
0.3482168456238257
 40
0.3928397452052955
 40
0.4392186394273204
 40
0.4869060356196309
 40
0.5351334144472184
 40
0.5829534387623856
 40
0.6298381241578259
 40
0.676178272479627
 40
0.7222343908670699
 40
0.7680876638255742
 40
0.8137608670135396
 40
0.8593435216534722
 40
0.9051178148517397
 40
0.9516753818299822
 40
1.0
 40
1.0
 40
1.0
 40
1.0
 10
11.10022165792926
 20
6.231202842731167
 30
0.0
 10
11.1366780984709
 20
6.223922756103492
 30
0.0
 10
11.19534414613322
 20
6.212207572099252
 30
0.0
 10
11.27354776140461
 20
6.195419715613678
 30
0.0
 10
11.33451314270161
 20
6.181129448683463
 30
0.0
 10
11.39041236415362
 20
6.166252108190525
 30
0.0
 10
11.43994054302945
 20
6.150594678916196
 30
0.0
 10
11.48173781551682
 20
6.133952557971255
 30
0.0
 10
11.51438463409768
 20
6.116123201494024
 30
0.0
 10
11.53725901061816
 20
6.096042985363063
 30
0.0
 10
11.54695469940972
 20
6.073672419790359
 30
0.0
 10
11.54359927688658
 20
6.049527681221568
 30
0.0
 10
11.52838131359366
 20
6.02509269918291
 30
0.0
 10
11.50285922925846
 20
6.001034559155018
 30
0.0
 10
11.46830973072603
 20
5.977950716315528
 30
0.0
 10
11.42584748652879
 20
5.956218924591907
 30
0.0
 10
11.37823239727655
 20
5.935650268684724
 30
0.0
 10
11.32767381660953
 20
5.915820653069942
 30
0.0
 10
11.27631884240726
 20
5.896283833203642
 30
0.0
 10
11.22631233093592
 20
5.876594427670729
 30
0.0
 10
11.17972080994597
 20
5.85630811125968
 30
0.0
 10
11.13902963153315
 20
5.834958633934204
 30
0.0
 10
11.10543269542183
 20
5.812146233764759
 30
0.0
 10
11.09259571808118
 20
5.796003697536622
 30
0.0
 10
11.0860576938201
 20
5.787782113070565
 30
0.0
  0
LINE
  5
1C5
330
1F
100
AcDbEntity
  8
0
  6
Continuous
 62
     7
370
    15
100
AcDbLine
 10
7.347116436188986
 20
6.636778344262574
 30
0.0
 11
7.143143367586807
 21
6.582131704900934
 31
0.0
  0
LINE
  5
1C6
330
1F
100
AcDbEntity
  8
0
  6
Continuous
 62
     7
370
    15
100
AcDbLine
 10
10.59708806956449
 20
3.322283673497159
 30
0.0
 11
11.0860576938201
 21
3.453284039862225
 31
0.0
  0
LINE
  5
1C7
330
1F
100
AcDbEntity
  8
0
  6
Continuous
 62
     7
370
    15
100
AcDbLine
 10
11.0860576938201
 20
3.453284039862225
 30
0.0
 11
11.0860576938201
 21
5.787782113070565
 31
0.0
  0
LINE
  5
1C8
330
1F
100
AcDbEntity
  8
0
  6
Continuous
 62
     7
370
    15
100
AcDbLine
 10
10.59708806956449
 20
5.656781746705498
 30
0.0
 11
11.0860576938201
 21
5.787782113070565
 31
0.0
  0
LINE
  5
1C9
330
1F
100
AcDbEntity
  8
0
  6
Continuous
 62
     7
370
    15
100
AcDbLine
 10
7.143143367586807
 20
4.247633631692595
 30
0.0
 11
10.59708806956449
 21
3.322283673497159
 31
0.0
  0
LINE
  5
1CA
330
1F
100
AcDbEntity
  8
0
  6
Continuous
 62
     7
370
    15
100
AcDbLine
 10
10.59708806956449
 20
5.656781746705498
 30
0.0
 11
10.59708806956449
 21
3.322283673497159
 31
0.0
  0
LINE
  5
1CB
330
1F
100
AcDbEntity
  8
0
  6
Continuous
 62
     7
370
    15
100
AcDbLine
 10
7.143143367586807
 20
6.582131704900934
 30
0.0
 11
10.59708806956449
 21
5.656781746705498
 31
0.0
  0
LINE
  5
1CC
330
1F
100
AcDbEntity
  8
0
  6
Continuous
 62
     7
370
    15
100
AcDbLine
 10
7.143143367586807
 20
6.582131704900934
 30
0.0
 11
7.143143367586807
 21
4.247633631692595
 31
0.0
  0
LINE
  5
1CD
330
1F
100
AcDbEntity
  8
0
  6
Continuous
 62
     7
370
    15
100
AcDbLine
 10
7.61908052765856
 20
7.045013471287383
 30
0.0
 11
7.61908052765856
 21
7.103303269238374
 31
0.0
  0
LINE
  5
1CE
330
1F
100
AcDbEntity
  8
0
  6
Continuous
 62
     7
370
    15
100
AcDbLine
 10
11.10022172174944
 20
5.930014986259028
 30
0.0
 11
10.88265039113562
 21
5.871725222218294
 31
0.0
  0
LINE
  5
1CF
330
1F
100
AcDbEntity
  8
0
  6
Continuous
 62
     7
370
    15
100
AcDbLine
 10
11.10022172174944
 20
5.930014986259028
 30
0.0
 11
11.10022172174944
 21
6.374681248650919
 31
0.0
  0
LINE
  5
1D0
330
1F
100
AcDbEntity
  8
0
  6
Continuous
 62
     7
370
    15
100
AcDbLine
 10
10.88265039113562
 20
5.784290571882658
 30
0.0
 11
10.72277566458426
 21
5.799748155413353
 31
0.0
  0
LINE
  5
1D1
330
1F
100
AcDbEntity
  8
0
  6
Continuous
 62
     7
370
    15
100
AcDbLine
 10
10.88265039113562
 20
5.784290571882658
 30
0.0
 11
10.88265039113562
 21
6.228956834274548
 31
0.0
  0
LINE
  5
1D2
330
1F
100
AcDbEntity
  8
0
  6
Continuous
 62
     7
370
    15
100
AcDbLine
 10
10.72277566458426
 20
5.799748155413353
 30
0.0
 11
10.39311493714213
 21
5.71142840316527
 31
0.0
  0
LINE
  5
1D3
330
1F
100
AcDbEntity
  8
0
  6
Continuous
 62
     7
370
    15
100
AcDbLine
 10
10.72277566458426
 20
5.799748155413353
 30
0.0
 11
10.72277566458426
 21
6.244414417805243
 31
0.0
  0
LINE
  5
1D4
330
1F
100
AcDbEntity
  8
0
  6
Continuous
 62
     7
370
    15
100
AcDbLine
 10
10.39311493714213
 20
5.71142840316527
 30
0.0
 11
7.347116500009168
 21
6.527485048441162
 31
0.0
  0
LINE
  5
1D5
330
1F
100
AcDbEntity
  8
0
  6
Continuous
 62
     7
370
    15
100
AcDbLine
 10
10.39311493714213
 20
5.71142840316527
 30
0.0
 11
10.39311493714213
 21
6.156094665557161
 31
0.0
  0
LINE
  5
1D6
330
1F
100
AcDbEntity
  8
0
  6
Continuous
 62
     7
370
    15
100
AcDbLine
 10
7.347116500009168
 20
6.527485048441162
 30
0.0
 11
7.347116500009168
 21
6.972151310833052
 31
0.0
  0
LINE
  5
1D7
330
1F
100
AcDbEntity
  8
0
  6
Continuous
 62
     7
370
    15
100
AcDbLine
 10
8.644091755803135
 20
6.624677305808518
 30
0.0
 11
7.347116500009168
 21
6.972151310833052
 31
0.0
  0
LINE
  5
1D8
330
1F
100
AcDbEntity
  8
0
  6
Continuous
 62
     7
370
    15
100
AcDbLine
 10
8.706937212637761
 20
6.607840313362925
 30
0.0
 11
8.68789451467879
 21
6.612942062603488
 31
0.0
  0
LINE
  5
1D9
330
1F
100
AcDbEntity
  8
0
  6
Continuous
 62
     7
370
    15
100
AcDbLine
 10
9.04389513974484
 20
6.517565560676924
 30
0.0
 11
9.02459133746429
 21
6.522737262650928
 31
0.0
  0
LINE
  5
1DA
330
1F
100
AcDbEntity
  8
0
  6
Continuous
 62
     7
370
    15
100
AcDbLine
 10
10.39311493714213
 20
6.156094665557161
 30
0.0
 11
9.087697906598016
 21
6.505830315334629
 31
0.0
  0
LINE
  5
1DB
330
1F
100
AcDbEntity
  8
0
  6
Continuous
 62
     7
370
    15
100
AcDbLine
 10
10.72277566458426
 20
6.244414417805243
 30
0.0
 11
10.39311493714213
 21
6.156094665557161
 31
0.0
  0
LINE
  5
1DC
330
1F
100
AcDbEntity
  8
0
  6
Continuous
 62
     7
370
    15
100
AcDbLine
 10
10.88265039113562
 20
6.228956834274548
 30
0.0
 11
10.72277566458426
 21
6.244414417805243
 31
0.0
  0
LINE
  5
1DD
330
1F
100
AcDbEntity
  8
0
  6
Continuous
 62
     7
370
    15
100
AcDbLine
 10
10.7783608098194
 20
6.288451153181044
 30
0.0
 11
10.88265039113562
 21
6.228956834274548
 31
0.0
  0
LINE
  5
1DE
330
1F
100
AcDbEntity
  8
0
  6
Continuous
 62
     7
370
    15
100
AcDbLine
 10
11.10022172174944
 20
6.374681248650919
 30
0.0
 11
10.7783608098194
 21
6.288451153181044
 31
0.0
  0
LINE
  5
1DF
330
1F
100
AcDbEntity
  8
0
  6
Continuous
 62
     7
370
    15
100
AcDbLine
 10
8.706937180727672
 20
7.015868627451803
 30
0.0
 11
8.163008870148162
 21
7.161593033279107
 31
0.0
  0
LINE
  5
1E0
330
1F
100
AcDbEntity
  8
0
  6
Continuous
 62
     7
370
    15
100
AcDbLine
 10
11.10022172174944
 20
6.374681248650919
 30
0.0
 11
9.7947937699766
 21
6.724419824346261
 31
0.0
  0
LINE
  5
1E1
330
1F
100
AcDbEntity
  8
0
  6
Continuous
 62
     7
370
    15
100
AcDbLine
 10
7.841147958218124
 20
7.075362937809233
 30
0.0
 11
8.163008870148162
 21
7.161593033279107
 31
0.0
  0
LINE
  5
1E2
330
1F
100
AcDbEntity
  8
0
  6
Continuous
 62
     7
370
    15
100
AcDbLine
 10
7.61908052765856
 20
7.103303269238374
 30
0.0
 11
7.841147958218124
 21
7.075362937809233
 31
0.0
  0
LINE
  5
1E3
330
1F
100
AcDbEntity
  8
0
  6
Continuous
 62
     7
370
    15
100
AcDbLine
 10
7.676777227451294
 20
7.060471063081136
 30
0.0
 11
7.61908052765856
 21
7.103303269238374
 31
0.0
  0
LINE
  5
1E4
330
1F
100
AcDbEntity
  8
0
  6
Continuous
 62
     7
370
    15
100
AcDbLine
 10
7.347116500009168
 20
6.972151310833052
 30
0.0
 11
7.676777227451294
 21
7.060471063081136
 31
0.0
  0
LINE
  5
1E5
330
1F
100
AcDbEntity
  8
0
  6
Continuous
 62
     7
370
    15
100
AcDbLine
 10
9.468436790010912
 20
10.14685173841788
 30
0.0
 11
9.426132050368559
 21
10.13551783112135
 31
0.0
  0
LINE
  5
1E6
330
1F
100
AcDbEntity
  8
0
  6
Continuous
 62
     7
370
    15
100
AcDbLine
 10
9.7947937699766
 20
10.0594170966313
 30
0.0
 11
9.468436790010912
 21
10.14685173841788
 31
0.0
  0
LINE
  5
1E7
330
1F
100
AcDbEntity
  8
0
  6
Continuous
 62
     7
370
    15
100
AcDbLine
 10
9.087686953459201
 20
10.26717782388325
 30
0.0
 11
9.034950485889305
 21
10.10482714087687
 31
0.0
  0
LINE
  5
1E8
330
1F
100
AcDbEntity
  8
0
  6
Continuous
 62
     7
370
    15
100
AcDbLine
 10
9.414043933424888
 20
10.17974318209668
 30
0.0
 11
9.087686953459201
 21
10.26717782388325
 31
0.0
  0
LINE
  5
1E9
330
1F
100
AcDbEntity
  8
0
  6
Continuous
 62
     7
370
    15
100
AcDbLine
 10
8.706937212637761
 20
7.413198944985417
 30
0.0
 11
8.706937212637761
 21
10.01694875981389
 31
0.0
  0
LINE
  5
1EA
330
1F
100
AcDbEntity
  8
0
  6
Continuous
 62
     7
370
    15
100
AcDbLine
 10
8.706937212637761
 20
7.164197768403791
 30
0.0
 11
8.706937212637761
 21
7.170126599728773
 31
0.0
  0
LINE
  5
1EB
330
1F
100
AcDbEntity
  8
0
  6
Continuous
 62
     7
370
    15
100
AcDbLine
 10
9.033294192603449
 20
6.520405671576356
 30
0.0
 11
9.02459133746429
 21
6.522737262650928
 31
0.0
  0
LINE
  5
1EC
330
1F
100
AcDbEntity
  8
0
  6
Continuous
 62
     7
370
    15
100
AcDbLine
 10
9.034950485889305
 20
10.10482714087687
 30
0.0
 11
8.706937212637761
 21
10.01694875981389
 31
0.0
  0
LINE
  5
1ED
330
1F
100
AcDbEntity
  8
0
  6
Continuous
 62
     7
370
    15
100
AcDbLine
 10
9.033294192603449
 20
9.929514118027324
 30
0.0
 11
8.706937212637761
 21
10.01694875981389
 31
0.0
  0
LINE
  5
1EE
330
1F
100
AcDbEntity
  8
0
  6
Continuous
 62
     7
370
    15
100
AcDbLine
 10
9.361307465854991
 20
10.0173924990903
 30
0.0
 11
9.034950485889305
 21
10.10482714087687
 31
0.0
  0
LINE
  5
1EF
330
1F
100
AcDbEntity
  8
0
  6
Continuous
 62
     7
370
    15
100
AcDbLine
 10
9.414043933424888
 20
10.17974318209668
 30
0.0
 11
9.361307465854991
 21
10.0173924990903
 31
0.0
  0
LINE
  5
1F0
330
1F
100
AcDbEntity
  8
0
  6
Continuous
 62
     7
370
    15
100
AcDbLine
 10
9.361307465854991
 20
10.0173924990903
 30
0.0
 11
9.033294192603449
 21
9.929514118027324
 31
0.0
  0
LINE
  5
1F1
330
1F
100
AcDbEntity
  8
0
  6
Continuous
 62
     7
370
    15
100
AcDbLine
 10
9.033294192603449
 20
7.325177176550959
 30
0.0
 11
9.033294192603449
 21
9.929514118027324
 31
0.0
  0
LINE
  5
1F2
330
1F
100
AcDbEntity
  8
0
  6
Continuous
 62
     7
370
    15
100
AcDbLine
 10
9.033294192603449
 20
6.520405671576356
 30
0.0
 11
9.033294192603449
 21
7.085252984902154
 31
0.0
  0
LINE
  5
1F3
330
1F
100
AcDbEntity
  8
0
  6
Continuous
 62
     7
370
    15
100
AcDbLine
 10
9.045211335278249
 20
6.523598405805604
 30
0.0
 11
9.033294192603449
 21
6.520405671576356
 31
0.0
  0
LINE
  5
1F4
330
1F
100
AcDbEntity
  8
0
  6
Continuous
 62
     7
370
    15
100
AcDbLine
 10
9.7947937699766
 20
6.724419824346261
 30
0.0
 11
9.11282243659933
 21
6.541712167078385
 31
0.0
  0
LINE
  5
1F5
330
1F
100
AcDbEntity
  8
0
  6
Continuous
 62
     7
370
    15
100
AcDbLine
 10
9.7947937699766
 20
6.724419824346261
 30
0.0
 11
9.7947937699766
 21
10.0594170966313
 31
0.0
  0
LINE
  5
1F6
330
1F
100
AcDbEntity
  8
0
  6
Continuous
 62
     7
370
    15
100
AcDbLine
 10
9.7947937699766
 20
10.0594170966313
 30
0.0
 11
9.470667815950106
 21
9.972580171350848
 31
0.0
  0
LINE
  5
1F7
330
1F
100
AcDbEntity
  8
0
  6
Continuous
 62
     7
370
    15
100
AcDbLine
 10
9.470667815950106
 20
9.972580171350848
 30
0.0
 11
9.414043933424888
 21
10.17974318209668
 31
0.0
  0
LINE
  5
1F8
330
1F
100
AcDbEntity
  8
0
  6
Continuous
 62
     7
370
    15
100
AcDbLine
 10
8.706937148817578
 20
6.64808516147929
 30
0.0
 11
8.690955394450792
 21
6.62792072716976
 31
0.0
  0
LINE
  5
1F9
330
1F
100
AcDbEntity
  8
0
  6
Continuous
 62
     7
370
    15
100
AcDbLine
 10
8.706937148817578
 20
6.659942998041176
 30
0.0
 11
8.690561911115702
 21
6.639282128011735
 31
0.0
  0
LINE
  5
1FA
330
1F
100
AcDbEntity
  8
0
  6
Continuous
 62
     7
370
    15
100
AcDbLine
 10
8.706937148817578
 20
6.659953804060738
 30
0.0
 11
8.660170165836289
 21
6.6474244124576
 31
0.0
  0
ELLIPSE
  5
1FB
330
1F
100
AcDbEntity
  8
0
  6
Continuous
 62
     7
370
    15
100
AcDbEllipse
 10
8.690561965970587
 20
6.617048796037421
 30
0.0
 11
-0.0013445774619272
 21
0.011461811018509
 31
0.0
210
0.0
220
0.0
230
1.0
 40
0.2326865680790661
 41
5.3307037035813
 42
5.558531445394524
  0
LINE
  5
1FC
330
1F
100
AcDbEntity
  8
0
  6
Continuous
 62
     7
370
    15
100
AcDbLine
 10
8.690561911115702
 20
6.639282128011735
 30
0.0
 11
8.690561911115702
 21
6.632441476480924
 31
0.0
  0
LINE
  5
1FD
330
1F
100
AcDbEntity
  8
0
  6
Continuous
 62
     7
370
    15
100
AcDbLine
 10
8.68789451467879
 20
6.609869386769697
 30
0.0
 11
8.68789451467879
 21
6.61368310130214
 31
0.0
  0
LINE
  5
1FE
330
1F
100
AcDbEntity
  8
0
  6
Continuous
 62
     7
370
    15
100
AcDbLine
 10
8.683542999356459
 20
6.606588450929939
 30
0.0
 11
8.679191611674493
 21
6.605422666078986
 31
0.0
  0
ARC
  5
1FF
330
1F
100
AcDbEntity
  8
0
  6
Continuous
 62
     7
370
    15
100
AcDbCircle
 10
8.7026709963158
 20
6.613772508139123
 30
0.0
 40
0.0147767521178175
100
AcDbArc
 50
136.4805318808445
 51
180.3466706102835
  0
LINE
  5
200
330
1F
100
AcDbEntity
  8
0
  6
Continuous
 62
     7
370
    15
100
AcDbLine
 10
8.68789451467879
 20
6.633346974472568
 30
0.0
 11
8.691955775811193
 21
6.62394779450802
 31
0.0
  0
ARC
  5
201
330
1F
100
AcDbEntity
  8
0
  6
Continuous
 62
     7
370
    15
100
AcDbCircle
 10
8.710855781161889
 20
6.611542471680874
 30
0.0
 40
0.0316647453882222
100
AcDbArc
 50
136.4802142943869
 51
180.3455605363153
  0
ELLIPSE
  5
202
330
1F
100
AcDbEntity
  8
0
  6
Continuous
 62
     7
370
    15
100
AcDbEllipse
 10
8.690561965970587
 20
6.617048796037421
 30
0.0
 11
0.0018636571627986
 21
0.0233698194817915
 31
0.0
210
0.0
220
0.0
230
1.0
 40
0.2312269488150059
 41
0.3321092961650367
 42
0.8176274184605111
  0
ARC
  5
203
330
1F
100
AcDbEntity
  8
0
  6
Continuous
 62
     7
370
    15
100
AcDbCircle
 10
8.671090047769355
 20
6.622420203741209
 30
0.0
 40
0.0272846893873643
100
AcDbArc
 50
113.5919405858646
 51
183.3637677124599
  0
LINE
  5
204
330
1F
100
AcDbEntity
  8
0
  6
Continuous
 62
     7
370
    15
100
AcDbLine
 10
8.692245934270845
 20
6.611035230504816
 30
0.0
 11
8.706937212637761
 21
6.607099274664273
 31
0.0
  0
LINE
  5
205
330
1F
100
AcDbEntity
  8
0
  6
Continuous
 62
     7
370
    15
100
AcDbLine
 10
8.68354303126655
 20
6.608703626606643
 30
0.0
 11
8.692245934270845
 21
6.611035230504816
 31
0.0
  0
LWPOLYLINE
  5
206
330
1F
100
AcDbEntity
  8
0
  6
Continuous
 62
     7
370
    15
100
AcDbPolyline
 90
       10
 70
   128
 43
0.0
 10
8.875580194060278
 20
6.185445340845435
 10
8.874849197690132
 20
6.185451444945222
 10
8.865403970233302
 20
6.187981925768299
 10
8.856528369815212
 20
6.194761334040275
 10
8.849292916176809
 20
6.204971999550112
 10
8.844570318403437
 20
6.217382294237639
 10
8.84293017162375
 20
6.230495452029459
 10
8.844570318403437
 20
6.242729782923356
 10
8.849292916176809
 20
6.252609692292832
 10
8.855970102768953
 20
6.258641619331315
  0
LINE
  5
207
330
1F
100
AcDbEntity
  8
0
  6
Continuous
 62
     7
370
    15
100
AcDbLine
 10
8.710200817219417
 20
7.165072207712205
 30
0.0
 11
8.706937180727669
 21
7.164197843426791
 31
0.0
  0
LINE
  5
208
330
1F
100
AcDbEntity
  8
0
  6
Continuous
 62
     7
370
    15
100
AcDbLine
 10
8.867483295598738
 20
6.72271939893825
 30
0.0
 11
8.854738883808517
 21
6.743498177447205
 31
0.0
  0
LINE
  5
209
330
1F
100
AcDbEntity
  8
0
  6
Continuous
 62
     7
370
    15
100
AcDbLine
 10
8.854738883808517
 20
6.743498177447205
 30
0.0
 11
8.864060810672793
 21
6.753702039598033
 31
0.0
  0
LINE
  5
20A
330
1F
100
AcDbEntity
  8
0
  6
Continuous
 62
     7
370
    15
100
AcDbLine
 10
8.854738883808517
 20
6.743498177447205
 30
0.0
 11
8.846035980804222
 21
6.741166573549032
 31
0.0
  0
ELLIPSE
  5
20B
330
1F
100
AcDbEntity
  8
0
  6
Continuous
 62
     7
370
    15
100
AcDbEllipse
 10
8.722167167479437
 20
7.40527520142728
 30
0.0
 11
0.0105429482106776
 21
-0.0080901867410654
 31
0.0
210
0.0
220
0.0
230
1.0
 40
0.2714444218424544
 41
2.561552473535074
 42
2.973178005203418
  0
ELLIPSE
  5
20C
330
1F
100
AcDbEntity
  8
0
  6
Continuous
 62
     7
370
    15
100
AcDbEllipse
 10
8.722167167479437
 20
7.40527520142728
 30
0.0
 11
0.0230745077529444
 21
-0.0073525484282388
 31
0.0
210
0.0
220
0.0
230
1.0
 40
0.0454090470290935
 41
2.370662791052648
 42
3.156060954450752
  0
LWPOLYLINE
  5
20D
330
1F
100
AcDbEntity
  8
0
  6
Continuous
 62
     7
370
    15
100
AcDbPolyline
 90
        5
 70
   128
 43
0.0
 10
8.705849301897087
 20
7.170418129513577
 10
8.702979340200977
 20
7.171354996021317
 10
8.700846820713444
 20
7.17242387720792
 10
8.699533624728609
 20
7.173583686261665
 10
8.699090234010817
 20
7.174789848351853
  0
LINE
  5
20E
330
1F
100
AcDbEntity
  8
0
  6
Continuous
 62
     7
370
    15
100
AcDbLine
 10
9.087697906598016
 20
6.164919470689532
 30
0.0
 11
9.033305073944561
 21
6.105380911445714
 31
0.0
  0
LINE
  5
20F
330
1F
100
AcDbEntity
  8
0
  6
Continuous
 62
     7
370
    15
100
AcDbLine
 10
9.033305073944561
 20
6.105380911445714
 30
0.0
 11
9.024602170940266
 21
6.103049307547542
 31
0.0
  0
LINE
  5
210
330
1F
100
AcDbEntity
  8
0
  6
Continuous
 62
     7
370
    15
100
AcDbLine
 10
9.02459133746429
 20
6.521996223952276
 30
0.0
 11
9.043814774180049
 21
6.51684605280127
 31
0.0
  0
LINE
  5
211
330
1F
100
AcDbEntity
  8
0
  6
Continuous
 62
     7
370
    15
100
AcDbLine
 10
9.043667716524566
 20
6.514560241975712
 30
0.0
 11
9.039304330648294
 21
6.513391242675901
 31
0.0
  0
LINE
  5
212
330
1F
100
AcDbEntity
  8
0
  6
Continuous
 62
     7
370
    15
100
AcDbLine
 10
9.04365571833026
 20
6.510110273599178
 30
0.0
 11
9.039304330648294
 21
6.508944488748222
 31
0.0
  0
LINE
  5
213
330
1F
100
AcDbEntity
  8
0
  6
Continuous
 62
     7
370
    15
100
AcDbLine
 10
9.142090699363858
 20
6.543377206171677
 30
0.0
 11
9.142090699363858
 21
6.531519369609792
 31
0.0
  0
LINE
  5
214
330
1F
100
AcDbEntity
  8
0
  6
Continuous
 62
     7
370
    15
100
AcDbLine
 10
9.095312803131365
 20
6.518987054226044
 30
0.0
 11
9.142090699363858
 21
6.531519369609792
 31
0.0
  0
LINE
  5
215
330
1F
100
AcDbEntity
  8
0
  6
Continuous
 62
     7
370
    15
100
AcDbLine
 10
9.064921049874428
 20
6.538987177371062
 30
0.0
 11
9.142090699363858
 21
6.543377206171677
 31
0.0
  0
LINE
  5
216
330
1F
100
AcDbEntity
  8
0
  6
Continuous
 62
     7
370
    15
100
AcDbLine
 10
9.095312803131365
 20
6.53084489078793
 30
0.0
 11
9.142090699363858
 21
6.543377206171677
 31
0.0
  0
LINE
  5
217
330
1F
100
AcDbEntity
  8
0
  6
Continuous
 62
     7
370
    15
100
AcDbLine
 10
9.087697906598016
 20
6.506571354033281
 30
0.0
 11
9.087697906598016
 21
6.164919470689532
 31
0.0
  0
LINE
  5
218
330
1F
100
AcDbEntity
  8
0
  6
Continuous
 62
     7
370
    15
100
AcDbLine
 10
9.087697906598016
 20
6.164919470689532
 30
0.0
 11
9.078995003593721
 21
6.162587866791359
 31
0.0
  0
ARC
  5
219
330
1F
100
AcDbEntity
  8
0
  6
Continuous
 62
     7
370
    15
100
AcDbCircle
 10
9.100408725818386
 20
6.507318517454099
 30
0.0
 40
0.0127327600476216
100
AcDbArc
 50
113.5920181965496
 51
183.3640716381795
  0
ELLIPSE
  5
21A
330
1F
100
AcDbEntity
  8
0
  6
Continuous
 62
     7
370
    15
100
AcDbEllipse
 10
9.064921109842096
 20
6.516753844026981
 30
0.0
 11
0.0266473431283045
 21
0.0046701131192028
 31
0.0
210
0.0
220
0.0
230
1.0
 40
0.8177618278926452
 41
1.428447796740185
 42
1.913965919035749
  0
ARC
  5
21B
330
1F
100
AcDbEntity
  8
0
  6
Continuous
 62
     7
370
    15
100
AcDbCircle
 10
9.075319935682797
 20
6.513898496675555
 30
0.0
 40
0.0316647453882283
100
AcDbArc
 50
136.4802142943895
 51
180.3455605363088
  0
ARC
  5
21C
330
1F
100
AcDbEntity
  8
0
  6
Continuous
 62
     7
370
    15
100
AcDbCircle
 10
9.106232685064432
 20
6.505840682071539
 30
0.0
 40
0.0272846893873645
100
AcDbArc
 50
113.5919405858654
 51
183.3637677124599
  0
LWPOLYLINE
  5
21D
330
1F
100
AcDbEntity
  8
0
  6
Continuous
 62
     7
370
    15
100
AcDbPolyline
 90
       10
 70
   128
 43
0.0
 10
8.87558798012254
 20
7.238914807936993
 10
8.874856983752396
 20
7.238920912036781
 10
8.865411756295564
 20
7.241451392859858
 10
8.856536155877474
 20
7.248230801131834
 10
8.849300702239071
 20
7.258441379685709
 10
8.844578104465702
 20
7.270851761329197
 10
8.842937957686014
 20
7.283964832165056
 10
8.844578104465702
 20
7.296199250014914
 10
8.849300702239071
 20
7.30607915938439
 10
8.855977888831215
 20
7.312111086422873
  0
LINE
  5
21E
330
1F
100
AcDbEntity
  8
0
  6
Continuous
 62
     7
370
    15
100
AcDbLine
 10
9.021327780747771
 20
7.084632334874823
 30
0.0
 11
9.021327780747771
 21
7.086149020744557
 31
0.0
  0
LINE
  5
21F
330
1F
100
AcDbEntity
  8
0
  6
Continuous
 62
     7
370
    15
100
AcDbLine
 10
9.02459133746429
 20
7.083757991962073
 30
0.0
 11
9.02459133746429
 21
6.521996223952276
 31
0.0
  0
LINE
  5
220
330
1F
100
AcDbEntity
  8
0
  6
Continuous
 62
     7
370
    15
100
AcDbLine
 10
9.02459133746429
 20
6.521996223952276
 30
0.0
 11
9.015888434459995
 21
6.519664620054104
 31
0.0
  0
LINE
  5
221
330
1F
100
AcDbEntity
  8
0
  6
Continuous
 62
     7
370
    15
100
AcDbLine
 10
9.02459133746429
 20
7.083757991962073
 30
0.0
 11
9.021327780747771
 21
7.084632334874823
 31
0.0
  0
LINE
  5
222
330
1F
100
AcDbEntity
  8
0
  6
Continuous
 62
     7
370
    15
100
AcDbLine
 10
9.015888434459995
 20
7.081426388063901
 30
0.0
 11
9.02459133746429
 21
7.083757991962073
 31
0.0
  0
LINE
  5
223
330
1F
100
AcDbEntity
  8
0
  6
Continuous
 62
     7
370
    15
100
AcDbLine
 10
9.021327780747771
 20
7.084632334874823
 30
0.0
 11
9.012624877743476
 21
7.082300730976649
 31
0.0
  0
LINE
  5
224
330
1F
100
AcDbEntity
  8
0
  6
Continuous
 62
     7
370
    15
100
AcDbLine
 10
9.096389840508448
 20
7.266345952467204
 30
0.0
 11
9.049611944275953
 21
7.317549052084798
 31
0.0
  0
LINE
  5
225
330
1F
100
AcDbEntity
  8
0
  6
Continuous
 62
     7
370
    15
100
AcDbLine
 10
9.049611944275953
 20
7.087063756078013
 30
0.0
 11
9.096389840508448
 21
7.09959607146176
 31
0.0
  0
LINE
  5
226
330
1F
100
AcDbEntity
  8
0
  6
Continuous
 62
     7
370
    15
100
AcDbLine
 10
9.096389840508448
 20
7.09959607146176
 30
0.0
 11
9.096389840508448
 21
7.266345952467204
 31
0.0
  0
LINE
  5
227
330
1F
100
AcDbEntity
  8
0
  6
Continuous
 62
     7
370
    15
100
AcDbLine
 10
8.714552204901382
 20
7.413610614671195
 30
0.0
 11
9.025679200339826
 21
7.330256254059229
 31
0.0
  0
ELLIPSE
  5
228
330
1F
100
AcDbEntity
  8
0
  6
Continuous
 62
     7
370
    15
100
AcDbEllipse
 10
9.033294151201515
 20
7.321920843954262
 30
0.0
 11
0.0105429482106776
 21
-0.0080901867410654
 31
0.0
210
0.0
220
0.0
230
1.0
 40
0.2714444218424544
 41
1.444831828621463
 42
2.561552473535074
  0
ELLIPSE
  5
229
330
1F
100
AcDbEntity
  8
0
  6
Continuous
 62
     7
370
    15
100
AcDbEllipse
 10
9.033294151201515
 20
7.321920843954262
 30
0.0
 11
0.0230745077529444
 21
-0.0073525484282371
 31
0.0
210
0.0
220
0.0
230
1.0
 40
0.0454090470290596
 41
0.7998664642567759
 42
2.370662791051584
  0
ARC
  5
22A
330
1F
100
AcDbEntity
  8
0
  6
Continuous
 62
     7
370
    15
100
AcDbCircle
 10
9.033294148541834
 20
7.157651220960213
 30
0.0
 40
0.0724490210845965
100
AcDbArc
 50
256.9834682452954
 51
283.0164867279837
  0
LWPOLYLINE
  5
22B
330
1F
100
AcDbEntity
  8
0
  6
Continuous
 62
     7
370
    15
100
AcDbPolyline
 90
       19
 70
   128
 43
0.0
 10
8.888627879357651
 20
7.267060789393967
 10
8.886987732577964
 20
7.25482654545603
 10
8.882265134804594
 20
7.244946636086553
 10
8.875029681166191
 20
7.238612973522669
 10
8.866154080748099
 20
7.236589308138608
 10
8.856708853291269
 20
7.239119788961685
 10
8.847833252873179
 20
7.245899197233661
 10
8.840597799234775
 20
7.256109775787536
 10
8.835875201461407
 20
7.268520157431024
 10
8.834235054681718
 20
7.281633228266883
 10
8.835875201461407
 20
7.293867646116741
 10
8.840597799234775
 20
7.303747555486218
 10
8.847833252873179
 20
7.310081218050102
 10
8.856708853291269
 20
7.312104883434163
 10
8.866154080748099
 20
7.309574402611086
 10
8.875029681166191
 20
7.302794994339111
 10
8.882265134804594
 20
7.292584415785235
 10
8.886987732577964
 20
7.280174034141748
 10
8.888627879357651
 20
7.267060789393967
  0
LWPOLYLINE
  5
22C
330
1F
100
AcDbEntity
  8
0
  6
Continuous
 62
     7
370
    15
100
AcDbPolyline
 90
       19
 70
   128
 43
0.0
 10
8.888620093295388
 20
6.213591409258369
 10
8.886979946515701
 20
6.201357078364472
 10
8.882257348742331
 20
6.191477255950957
 10
8.875021895103929
 20
6.185143506431112
 10
8.866146294685837
 20
6.18311984104705
 10
8.856701067229007
 20
6.185650321870127
 10
8.847825466810917
 20
6.192429730142103
 10
8.840590013172512
 20
6.202640395651939
 10
8.835867415399142
 20
6.215050690339466
 10
8.834227268619455
 20
6.228163848131286
 10
8.835867415399142
 20
6.240398179025184
 10
8.840590013172512
 20
6.25027808839466
 10
8.847825466810917
 20
6.256611750958544
 10
8.856701067229007
 20
6.258635416342606
 10
8.866146294685837
 20
6.256104935519527
 10
8.875021895103929
 20
6.249325527247552
 10
8.882257348742331
 20
6.239114948693677
 10
8.886979946515701
 20
6.226704567050189
 10
8.888620093295388
 20
6.213591409258369
  0
LINE
  5
22D
330
1F
100
AcDbEntity
  8
0
  6
Continuous
 62
     7
370
    15
100
AcDbLine
 10
8.861420569723525
 20
6.758006649991708
 30
0.0
 11
8.876805190552921
 21
6.732923162200158
 31
0.0
  0
LINE
  5
22E
330
1F
100
AcDbEntity
  8
0
  6
Continuous
 62
     7
370
    15
100
AcDbLine
 10
8.876805190552921
 20
6.732923162200158
 30
0.0
 11
8.861420569723525
 21
6.716083094306547
 31
0.0
  0
LINE
  5
22F
330
1F
100
AcDbEntity
  8
0
  6
Continuous
 62
     7
370
    15
100
AcDbLine
 10
8.861420569723525
 20
6.716083094306547
 30
0.0
 11
8.846035980804222
 21
6.741166573549032
 31
0.0
  0
LINE
  5
230
330
1F
100
AcDbEntity
  8
0
  6
Continuous
 62
     7
370
    15
100
AcDbLine
 10
8.846035980804222
 20
6.741166573549032
 30
0.0
 11
8.861420569723525
 21
6.758006649991708
 31
0.0
  0
LINE
  5
231
330
1F
100
AcDbEntity
  8
0
  6
Continuous
 62
     7
370
    15
100
AcDbLine
 10
8.819011164981903
 20
7.084517522074874
 30
0.0
 11
8.819011164981903
 21
6.454573585136058
 31
0.0
  0
LWPOLYLINE
  5
232
330
1F
100
AcDbEntity
  8
0
  6
Continuous
 62
     7
370
    15
100
AcDbPolyline
 90
        6
 70
   128
 43
0.0
 10
8.819011164981903
 20
6.454573585136058
 10
8.817306559817907
 20
6.44036610141107
 10
8.812359538372842
 20
6.428462765844805
 10
8.804654400101465
 20
6.420028603518478
 10
8.794945340010254
 20
6.415889463668198
 10
8.789042515602252
 20
6.41561255972428
  0
LWPOLYLINE
  5
233
330
1F
100
AcDbEntity
  8
0
  6
Continuous
 62
     7
370
    15
100
AcDbPolyline
 90
        3
 70
   128
 43
0.0
 10
8.813032298826472
 20
7.112704894052327
 10
8.817306559817907
 20
7.099638283968906
 10
8.819011164981903
 20
7.084517522074874
  0
LINE
  5
234
330
1F
100
AcDbEntity
  8
0
  6
Continuous
 62
     7
370
    15
100
AcDbLine
 10
8.764248598078761
 20
7.138101811472321
 30
0.0
 11
8.771438994668333
 21
7.14142599958876
 31
0.0
  0
LINE
  5
235
330
1F
100
AcDbEntity
  8
0
  6
Continuous
 62
     7
370
    15
100
AcDbLine
 10
8.973489911059484
 20
7.042954090297779
 30
0.0
 11
8.973489911059484
 21
6.413010066403002
 31
0.0
  0
LWPOLYLINE
  5
236
330
1F
100
AcDbEntity
  8
0
  6
Continuous
 62
     7
370
    15
100
AcDbPolyline
 90
        6
 70
   128
 43
0.0
 10
8.973489911059484
 20
6.413010066403002
 10
8.971785289940445
 20
6.398802586952548
 10
8.966838268495378
 20
6.386899251386283
 10
8.959133130224
 20
6.378465176015915
 10
8.94942407013279
 20
6.374325949209675
 10
8.943521261679833
 20
6.374049040991224
  0
LWPOLYLINE
  5
237
330
1F
100
AcDbEntity
  8
0
  6
Continuous
 62
     7
370
    15
100
AcDbPolyline
 90
        8
 70
   128
 43
0.0
 10
8.918727328201299
 20
7.096538383969758
 10
8.92789892662574
 20
7.100299953887139
 10
8.938661498379264
 20
7.099739135683071
 10
8.94942407013279
 20
7.094533130048588
 10
8.959133130224
 20
7.085191661194968
 10
8.966838268495378
 20
7.072629002426478
 10
8.971785289940445
 20
7.058074856466344
 10
8.973489911059484
 20
7.042954090297779
  0
LINE
  5
238
330
1F
100
AcDbEntity
  8
0
  6
Continuous
 62
     7
370
    15
100
AcDbLine
 10
8.705849301897087
 20
7.411279010773024
 30
0.0
 11
9.016976297335531
 21
7.327924650161057
 31
0.0
  0
LINE
  5
239
330
1F
100
AcDbEntity
  8
0
  6
Continuous
 62
     7
370
    15
100
AcDbLine
 10
8.710200753399234
 20
7.169252327564492
 30
0.0
 11
8.705849301897087
 21
7.170418129513577
 31
0.0
  0
LINE
  5
23A
330
1F
100
AcDbEntity
  8
0
  6
Continuous
 62
     7
370
    15
100
AcDbLine
 10
8.710200753399234
 20
7.169252327564492
 30
0.0
 11
8.710200753399234
 21
7.163323496239509
 31
0.0
  0
LINE
  5
23B
330
1F
100
AcDbEntity
  8
0
  6
Continuous
 62
     7
370
    15
100
AcDbLine
 10
8.710200753399234
 20
7.163323496239509
 30
0.0
 11
8.706937180727669
 21
7.164197843426791
 31
0.0
  0
LINE
  5
23C
330
1F
100
AcDbEntity
  8
0
  6
Continuous
 62
     7
370
    15
100
AcDbLine
 10
8.706937180727669
 20
6.602436075416994
 30
0.0
 11
8.706937180727669
 21
7.164197843426791
 31
0.0
  0
LINE
  5
23D
330
1F
100
AcDbEntity
  8
0
  6
Continuous
 62
     7
370
    15
100
AcDbLine
 10
8.68354303126655
 20
6.608703626606643
 30
0.0
 11
8.706937180727669
 21
6.602436075416994
 31
0.0
  0
LINE
  5
23E
330
1F
100
AcDbEntity
  8
0
  6
Continuous
 62
     7
370
    15
100
AcDbLine
 10
8.68354303126655
 20
6.608703626606643
 30
0.0
 11
8.68354303126655
 21
6.604256872678965
 31
0.0
  0
LINE
  5
23F
330
1F
100
AcDbEntity
  8
0
  6
Continuous
 62
     7
370
    15
100
AcDbLine
 10
8.68354303126655
 20
6.604256872678965
 30
0.0
 11
8.679191611674493
 21
6.605422666078986
 31
0.0
  0
LINE
  5
240
330
1F
100
AcDbEntity
  8
0
  6
Continuous
 62
     7
370
    15
100
AcDbLine
 10
8.679191611674493
 20
6.605422666078986
 30
0.0
 11
8.679191611674493
 21
6.611351497403967
 31
0.0
  0
LINE
  5
241
330
1F
100
AcDbEntity
  8
0
  6
Continuous
 62
     7
370
    15
100
AcDbLine
 10
8.643852366298645
 20
6.27916738846103
 30
0.0
 11
8.643852366298645
 21
6.620819271804778
 31
0.0
  0
LINE
  5
242
330
1F
100
AcDbEntity
  8
0
  6
Continuous
 62
     7
370
    15
100
AcDbLine
 10
8.698245190974578
 20
6.190483949334112
 30
0.0
 11
8.643852366298645
 21
6.27916738846103
 31
0.0
  0
LINE
  5
243
330
1F
100
AcDbEntity
  8
0
  6
Continuous
 62
     7
370
    15
100
AcDbLine
 10
9.024602170940266
 20
6.103049307547542
 30
0.0
 11
8.698245190974578
 21
6.190483949334112
 31
0.0
  0
LINE
  5
244
330
1F
100
AcDbEntity
  8
0
  6
Continuous
 62
     7
370
    15
100
AcDbLine
 10
9.078995003593721
 20
6.162587866791359
 30
0.0
 11
9.024602170940266
 21
6.103049307547542
 31
0.0
  0
LINE
  5
245
330
1F
100
AcDbEntity
  8
0
  6
Continuous
 62
     7
370
    15
100
AcDbLine
 10
9.078995003593721
 20
6.504239750135108
 30
0.0
 11
9.078995003593721
 21
6.162587866791359
 31
0.0
  0
LINE
  5
246
330
1F
100
AcDbEntity
  8
0
  6
Continuous
 62
     7
370
    15
100
AcDbLine
 10
9.043655766195396
 20
6.513707522398652
 30
0.0
 11
9.043655766195396
 21
6.50777869107367
 31
0.0
  0
LINE
  5
247
330
1F
100
AcDbEntity
  8
0
  6
Continuous
 62
     7
370
    15
100
AcDbLine
 10
9.043655766195396
 20
6.50777869107367
 30
0.0
 11
9.039304330648294
 21
6.508944488748222
 31
0.0
  0
LINE
  5
248
330
1F
100
AcDbEntity
  8
0
  6
Continuous
 62
     7
370
    15
100
AcDbLine
 10
9.039304330648294
 20
6.508944488748222
 30
0.0
 11
9.039304330648294
 21
6.513391242675901
 31
0.0
  0
LINE
  5
249
330
1F
100
AcDbEntity
  8
0
  6
Continuous
 62
     7
370
    15
100
AcDbLine
 10
9.015888434459995
 20
6.519664620054104
 30
0.0
 11
9.039304330648294
 21
6.513391242675901
 31
0.0
  0
LINE
  5
24A
330
1F
100
AcDbEntity
  8
0
  6
Continuous
 62
     7
370
    15
100
AcDbLine
 10
9.015888434459995
 20
7.081426388063901
 30
0.0
 11
9.015888434459995
 21
6.519664620054104
 31
0.0
  0
LINE
  5
24B
330
1F
100
AcDbEntity
  8
0
  6
Continuous
 62
     7
370
    15
100
AcDbLine
 10
9.015888434459995
 20
7.081426388063901
 30
0.0
 11
9.012624877743476
 21
7.082300730976649
 31
0.0
  0
LINE
  5
24C
330
1F
100
AcDbEntity
  8
0
  6
Continuous
 62
     7
370
    15
100
AcDbLine
 10
9.012624877743476
 20
7.082300730976649
 30
0.0
 11
9.012624877743476
 21
7.088229562301632
 31
0.0
  0
LINE
  5
24D
330
1F
100
AcDbEntity
  8
0
  6
Continuous
 62
     7
370
    15
100
AcDbLine
 10
9.016976297335531
 20
7.087063768901612
 30
0.0
 11
9.012624877743476
 21
7.088229562301632
 31
0.0
  0
LWPOLYLINE
  5
24E
330
1F
100
AcDbEntity
  8
0
  6
Continuous
 62
     7
370
    15
100
AcDbPolyline
 90
       12
 70
   128
 43
0.0
 10
8.823887409844596
 20
7.115605043442686
 10
8.831129054040701
 20
7.119005240310585
 10
8.838424498650637
 20
7.126633430872624
 10
8.843322761476287
 20
7.13740801068954
 10
8.845388652693308
 20
7.150371665808018
 10
8.844438529726614
 20
7.164372560371788
 10
8.840556890497804
 20
7.1781664991153
 10
8.834088619273014
 20
7.1905278736498
 10
8.825608416795489
 20
7.200358373559462
 10
8.815869807959789
 20
7.206784473355307
 10
8.805738130620186
 20
7.209235211215132
 10
8.799004271705998
 20
7.208483302925733
  0
LWPOLYLINE
  5
24F
330
1F
100
AcDbEntity
  8
0
  6
Continuous
 62
     7
370
    15
100
AcDbPolyline
 90
       21
 70
   128
 43
0.0
 10
8.76853782490299
 20
7.14966165751975
 10
8.77392083392468
 20
7.136261306169797
 10
8.781752463797737
 20
7.125056749925079
 10
8.791266074580097
 20
7.117144852609857
 10
8.801530434079079
 20
7.113299793888377
 10
8.811540821161877
 20
7.113898053311895
 10
8.820317276926481
 20
7.118881131293048
 10
8.8270007498066
 20
7.127761268827514
 10
8.830937019111614
 20
7.139669223866532
 10
8.831740770489787
 20
7.153439191090237
 10
8.829333281746031
 20
7.167723574220407
 10
8.823950272724342
 20
7.181123751658438
 10
8.816118674761376
 20
7.192328299354091
 10
8.806605032068926
 20
7.200240205218379
 10
8.796340672569943
 20
7.204085263939858
 10
8.786330317397236
 20
7.203486995967274
 10
8.777553829722542
 20
7.198503926535186
 10
8.770870356842422
 20
7.189623789000721
 10
8.766934087537409
 20
7.177715833961703
 10
8.766130368069326
 20
7.163945858188932
 10
8.76853782490299
 20
7.14966165751975
  0
LWPOLYLINE
  5
250
330
1F
100
AcDbEntity
  8
0
  6
Continuous
 62
     7
370
    15
100
AcDbPolyline
 90
       12
 70
   128
 43
0.0
 10
8.787581863085794
 20
7.205423113417446
 10
8.794315721999982
 20
7.206175021706844
 10
8.804447399339586
 20
7.203724283847019
 10
8.814186008175285
 20
7.197298184051176
 10
8.82266621065281
 20
7.187467684141513
 10
8.829134481877602
 20
7.175106309607012
 10
8.83301612110641
 20
7.1613123708635
 10
8.833966244073106
 20
7.14731147629973
 10
8.831900352856083
 20
7.134347821181253
 10
8.827002090030433
 20
7.123573241364338
 10
8.819706645420497
 20
7.115945050802299
 10
8.812465001224392
 20
7.112544853934399
  0
LWPOLYLINE
  5
251
330
1F
100
AcDbEntity
  8
0
  6
Continuous
 62
     7
370
    15
100
AcDbPolyline
 90
       12
 70
   128
 43
0.0
 10
9.008759448841017
 20
6.137715942734674
 10
9.016001077082075
 20
6.141116056921145
 10
9.02329652169201
 20
6.148744247483184
 10
9.028194800472707
 20
6.159518909981528
 10
9.030260659779639
 20
6.172482573649071
 10
9.029310568723033
 20
6.186483372707815
 10
9.025428929494225
 20
6.200277311451325
 10
9.018960642314388
 20
6.212638777216321
 10
9.010480455791908
 20
6.22246927285145
 10
9.000741846956209
 20
6.228895372647294
 10
8.99061015366156
 20
6.231346114781653
 10
8.983876310702417
 20
6.230594289173682
  0
LWPOLYLINE
  5
252
330
1F
100
AcDbEntity
  8
0
  6
Continuous
 62
     7
370
    15
100
AcDbPolyline
 90
       21
 70
   128
 43
0.0
 10
8.953409863899409
 20
6.171772469855776
 10
8.958792872921099
 20
6.158372292417745
 10
8.96662448683911
 20
6.147167740447558
 10
8.976138113576515
 20
6.139255751901844
 10
8.986402473075498
 20
6.135410693180364
 10
8.99641284420325
 20
6.136008956878415
 10
9.005189315922901
 20
6.140992117540996
 10
9.011872788803019
 20
6.149872255075462
 10
9.015809042152987
 20
6.161780127433052
 10
9.016612777576115
 20
6.175550185887251
 10
9.014205320742451
 20
6.189834386556434
 10
9.008822311720761
 20
6.203234650950427
 10
9.000990697802752
 20
6.214439115964651
 10
8.991477071065345
 20
6.222351191466327
 10
8.981212711566362
 20
6.226196250187807
 10
8.971202340438612
 20
6.225597899533794
 10
8.962425868718959
 20
6.220614825827174
 10
8.955742395838841
 20
6.211734688292708
 10
8.951806126533828
 20
6.19982673325369
 10
8.9510023911107
 20
6.186056761755453
 10
8.953409863899409
 20
6.171772469855776
  0
LWPOLYLINE
  5
253
330
1F
100
AcDbEntity
  8
0
  6
Continuous
 62
     7
370
    15
100
AcDbPolyline
 90
       12
 70
   128
 43
0.0
 10
8.972453902082214
 20
6.227534099665394
 10
8.979187745041356
 20
6.228285925273365
 10
8.989319438336005
 20
6.225835183139007
 10
8.999058047171704
 20
6.219409083343162
 10
9.007538233694184
 20
6.209578587708033
 10
9.014006520874021
 20
6.197217121943038
 10
9.017888160102829
 20
6.183423183199527
 10
9.018838251159435
 20
6.169422384140784
 10
9.016772391852502
 20
6.15645872047324
 10
9.011874113071806
 20
6.145684057974897
 10
9.004578668461871
 20
6.138055867412857
 10
8.997337040220813
 20
6.134655753226386
  0
LWPOLYLINE
  5
254
330
1F
100
AcDbEntity
  8
0
  6
Continuous
 62
     7
370
    15
100
AcDbPolyline
 90
       12
 70
   128
 43
0.0
 10
8.714498021566456
 20
6.364773918703491
 10
8.721739665762559
 20
6.368174028615429
 10
8.729035110372494
 20
6.37580230613343
 10
8.733933373198144
 20
6.386576885950345
 10
8.735999232505076
 20
6.399540549617888
 10
8.735049141448472
 20
6.413541435632593
 10
8.731167502219662
 20
6.427335374376104
 10
8.724699230994872
 20
6.439696748910606
 10
8.716219028517347
 20
6.449527248820268
 10
8.706480419681648
 20
6.455953348616112
 10
8.696348742342046
 20
6.458404086475937
 10
8.689614883427855
 20
6.457652265142499
  0
LWPOLYLINE
  5
255
330
1F
100
AcDbEntity
  8
0
  6
Continuous
 62
     7
370
    15
100
AcDbPolyline
 90
       21
 70
   128
 43
0.0
 10
8.65914846853494
 20
6.398830437275528
 10
8.664531445646538
 20
6.385430268386563
 10
8.672363075519594
 20
6.374225712141844
 10
8.681876686301954
 20
6.366313727870662
 10
8.692141045800937
 20
6.362468669149182
 10
8.702151400973642
 20
6.363067024077727
 10
8.710927888648338
 20
6.368050093509815
 10
8.717611361528458
 20
6.376930231044281
 10
8.721547630833471
 20
6.388838099127338
 10
8.722351350301554
 20
6.402608161856069
 10
8.719943893467888
 20
6.416892362525251
 10
8.7145608844462
 20
6.430292626919244
 10
8.706729254573144
 20
6.441497183163963
 10
8.697215643790784
 20
6.449409167435145
 10
8.686951284291801
 20
6.453254226156624
 10
8.676940929119094
 20
6.452655871228079
 10
8.6681644414444
 20
6.447672801795992
 10
8.66148096856428
 20
6.438792664261526
 10
8.657544731169357
 20
6.426884787629402
 10
8.656740979791184
 20
6.413114733449738
 10
8.65914846853494
 20
6.398830437275528
  0
LWPOLYLINE
  5
256
330
1F
100
AcDbEntity
  8
0
  6
Continuous
 62
     7
370
    15
100
AcDbPolyline
 90
       12
 70
   128
 43
0.0
 10
8.678192474807651
 20
6.454592075634212
 10
8.68492633372184
 20
6.45534389696765
 10
8.695058011061444
 20
6.452893159107825
 10
8.704796619897143
 20
6.44646705931198
 10
8.713276822374668
 20
6.436636559402319
 10
8.71974509359946
 20
6.424275184867817
 10
8.723626732828268
 20
6.410481246124306
 10
8.724576823884872
 20
6.396480360109601
 10
8.72251096457794
 20
6.383516696442057
 10
8.71761270175229
 20
6.372742116625143
 10
8.710317257142355
 20
6.365113839107142
 10
8.703075612946252
 20
6.361713729195203
  0
LWPOLYLINE
  5
257
330
1F
100
AcDbEntity
  8
0
  6
Continuous
 62
     7
370
    15
100
AcDbPolyline
 90
       12
 70
   128
 43
0.0
 10
8.777579038694621
 20
7.274261928918622
 10
8.784820682890725
 20
7.277662125786521
 10
8.79211612750066
 20
7.28529031634856
 10
8.79701439032631
 20
7.296064896165476
 10
8.799080249633242
 20
7.309028559833019
 10
8.798130158576638
 20
7.323029445847724
 10
8.79424851934783
 20
7.336823384591235
 10
8.787780248123038
 20
7.349184759125736
 10
8.779300045645513
 20
7.359015259035397
 10
8.769561436809814
 20
7.365441358831242
 10
8.75942975947021
 20
7.367892096691067
 10
8.752695900556023
 20
7.36714036231359
  0
LWPOLYLINE
  5
258
330
1F
100
AcDbEntity
  8
0
  6
Continuous
 62
     7
370
    15
100
AcDbPolyline
 90
       21
 70
   128
 43
0.0
 10
8.722229453753014
 20
7.308318542995685
 10
8.727612462774704
 20
7.294918191645732
 10
8.73544409264776
 20
7.283713809312935
 10
8.74495770343012
 20
7.275801738085791
 10
8.755222062929103
 20
7.271956679364312
 10
8.7652324500119
 20
7.27255493878783
 10
8.774008905776504
 20
7.277538190680906
 10
8.780692378656624
 20
7.286418328215371
 10
8.784628647961637
 20
7.298326109342467
 10
8.78543236742972
 20
7.312096085115238
 10
8.783024910596054
 20
7.326380459696342
 10
8.777641901574366
 20
7.339780637134374
 10
8.769810303611402
 20
7.350985184830026
 10
8.76029666091895
 20
7.358897264606236
 10
8.750032301419967
 20
7.362742149415794
 10
8.74002194624726
 20
7.36214388144321
 10
8.731245458572566
 20
7.357160812011122
 10
8.724561985692446
 20
7.348280674476656
 10
8.720625716387433
 20
7.336372719437639
 10
8.71982199691935
 20
7.322602743664867
 10
8.722229453753014
 20
7.308318542995685
  0
LWPOLYLINE
  5
259
330
1F
100
AcDbEntity
  8
0
  6
Continuous
 62
     7
370
    15
100
AcDbPolyline
 90
       12
 70
   128
 43
0.0
 10
8.741273491935817
 20
7.364080172805302
 10
8.748007350850006
 20
7.36483190718278
 10
8.75813902818961
 20
7.362381169322955
 10
8.767877637025309
 20
7.35595506952711
 10
8.776357839502834
 20
7.346124569617448
 10
8.782826110727626
 20
7.333763195082947
 10
8.786707749956434
 20
7.319969256339436
 10
8.787657841013039
 20
7.305968370324731
 10
8.785591981706106
 20
7.293004706657188
 10
8.780693718880456
 20
7.282230126840272
 10
8.773398274270521
 20
7.274601936278234
 10
8.766156630074416
 20
7.271201739410334
  0
LWPOLYLINE
  5
25A
330
1F
100
AcDbEntity
  8
0
  6
Continuous
 62
     7
370
    15
100
AcDbPolyline
 90
       12
 70
   128
 43
0.0
 10
8.918460272647703
 20
7.120673471309492
 10
8.925701884933715
 20
7.124073502814535
 10
8.932997329543653
 20
7.131701867288497
 10
8.937895592369303
 20
7.142476447105413
 10
8.939961483586326
 20
7.15544010222389
 10
8.939011392529721
 20
7.169440988238594
 10
8.935129753300913
 20
7.183234926982105
 10
8.92866145016603
 20
7.195596310065673
 10
8.920181247688503
 20
7.205426809975334
 10
8.910442638852805
 20
7.211852909771179
 10
8.900310961513202
 20
7.214303647631004
 10
8.893577102599014
 20
7.213551739341605
  0
LWPOLYLINE
  5
25B
330
1F
100
AcDbEntity
  8
0
  6
Continuous
 62
     7
370
    15
100
AcDbPolyline
 90
       21
 70
   128
 43
0.0
 10
8.863110655796006
 20
7.154730093935622
 10
8.868493664817696
 20
7.141329742585669
 10
8.876325294690751
 20
7.13012518634095
 10
8.885838937383201
 20
7.122213280476662
 10
8.896103296882184
 20
7.118368221755184
 10
8.906113652054891
 20
7.118966489727768
 10
8.914890107819497
 20
7.123949567708921
 10
8.921573580699615
 20
7.132829705243387
 10
8.92550985000463
 20
7.144737660282404
 10
8.926313601382803
 20
7.158507627506109
 10
8.923906144549139
 20
7.172792002087213
 10
8.918523135527447
 20
7.186192179525245
 10
8.910691505654392
 20
7.197396735769964
 10
8.90117786296194
 20
7.205308641634251
 10
8.890913503462959
 20
7.20915370035573
 10
8.880903148290252
 20
7.208555432383146
 10
8.872126692525647
 20
7.203572354401993
 10
8.865443219645527
 20
7.194692216867527
 10
8.861506950340515
 20
7.182784261828508
 10
8.86070319896234
 20
7.169014294604805
 10
8.863110655796006
 20
7.154730093935622
  0
LWPOLYLINE
  5
25C
330
1F
100
AcDbEntity
  8
0
  6
Continuous
 62
     7
370
    15
100
AcDbPolyline
 90
       12
 70
   128
 43
0.0
 10
8.88215469397881
 20
7.210491549833318
 10
8.888888552892996
 20
7.211243458122718
 10
8.899020230232601
 20
7.208792720262891
 10
8.908758839068301
 20
7.202366620467047
 10
8.917239041545826
 20
7.192536120557385
 10
8.923707344680707
 20
7.180174737473818
 10
8.927588983909515
 20
7.166380798730307
 10
8.928539074966121
 20
7.152379912715602
 10
8.926473183749099
 20
7.139416257597125
 10
8.921574920923447
 20
7.12864167778021
 10
8.914279476313511
 20
7.121013313306249
 10
8.9070378640275
 20
7.117613281801205
  0
LWPOLYLINE
  5
25D
330
1F
100
AcDbEntity
  8
0
  6
Continuous
 62
     7
370
    15
100
AcDbPolyline
 90
       12
 70
   128
 43
0.0
 10
8.899973799489151
 20
6.278027320861509
 10
8.907215411775164
 20
6.281427526278475
 10
8.914510856385099
 20
6.289055716840516
 10
8.919409151120841
 20
6.299830375064325
 10
8.921475010427773
 20
6.312794038731868
 10
8.920524919371167
 20
6.326794837790612
 10
8.916643280142359
 20
6.340588776534124
 10
8.910174977007477
 20
6.352950246573652
 10
8.901694774529952
 20
6.362780746483313
 10
8.891956197604343
 20
6.369206837730092
 10
8.881824488354649
 20
6.371657584138984
 10
8.875090661350553
 20
6.370905754256479
  0
LWPOLYLINE
  5
25E
330
1F
100
AcDbEntity
  8
0
  6
Continuous
 62
     7
370
    15
100
AcDbPolyline
 90
       21
 70
   128
 43
0.0
 10
8.844624214547545
 20
6.312083934938574
 10
8.850007223569235
 20
6.298683670544582
 10
8.857838821532199
 20
6.28747920980489
 10
8.86735246422465
 20
6.27956713002868
 10
8.877616823723633
 20
6.275722158263162
 10
8.887627178896339
 20
6.276320426235746
 10
8.896403634660945
 20
6.28130359117286
 10
8.903087139451155
 20
6.290183720158259
 10
8.907023376846076
 20
6.302091596790383
 10
8.907827128224251
 20
6.315861564014087
 10
8.905419671390585
 20
6.330145851639231
 10
8.900036662368895
 20
6.343546116033223
 10
8.892205032495841
 20
6.354750585321981
 10
8.882691421713481
 20
6.362662656549124
 10
8.872427030304406
 20
6.366507636863708
 10
8.862416675131701
 20
6.365909368891125
 10
8.853640219367095
 20
6.360926203954011
 10
8.846956746486975
 20
6.352046153375505
 10
8.843020477181962
 20
6.340138198336487
 10
8.842216725803789
 20
6.326368231112783
 10
8.844624214547545
 20
6.312083934938574
  0
LWPOLYLINE
  5
25F
330
1F
100
AcDbEntity
  8
0
  6
Continuous
 62
     7
370
    15
100
AcDbPolyline
 90
       12
 70
   128
 43
0.0
 10
8.863668252730349
 20
6.367845564748192
 10
8.870402079734445
 20
6.368597394630696
 10
8.88053378898414
 20
6.366146648221804
 10
8.890272365909748
 20
6.359720556975025
 10
8.898752568387273
 20
6.349890057065364
 10
8.905220871522155
 20
6.337528587025836
 10
8.909102510750964
 20
6.323734648282324
 10
8.910052601807569
 20
6.30973384922358
 10
8.907986742500636
 20
6.296770185556038
 10
8.903088447764895
 20
6.285995527332228
 10
8.89579300315496
 20
6.278367336770188
 10
8.888551390868947
 20
6.274967131353223
  0
LWPOLYLINE
  5
260
330
1F
100
AcDbEntity
  8
0
  6
Continuous
 62
     7
370
    15
100
AcDbPolyline
 90
       12
 70
   128
 43
0.0
 10
8.977509928398959
 20
7.225827418266028
 10
8.984751556640016
 20
7.229227619408461
 10
8.992047001249952
 20
7.236855809970501
 10
8.996945280030649
 20
7.247630385512882
 10
8.99901113933758
 20
7.260594223092348
 10
8.998061048280975
 20
7.274594935195131
 10
8.994179409052167
 20
7.288388873938641
 10
8.98771112187233
 20
7.300750252747676
 10
8.979230919394804
 20
7.310580752657338
 10
8.969492326514151
 20
7.317006848178649
 10
8.959360633219503
 20
7.31945776422493
 10
8.95262679026036
 20
7.318705851660997
  0
LWPOLYLINE
  5
261
330
1F
100
AcDbEntity
  8
0
  6
Continuous
 62
     7
370
    15
100
AcDbPolyline
 90
       21
 70
   128
 43
0.0
 10
8.922160343457353
 20
7.259884032343093
 10
8.927543352479041
 20
7.246483854905061
 10
8.935374966397052
 20
7.235279302934876
 10
8.944888593134457
 20
7.227367227433199
 10
8.95515295263344
 20
7.22352216871172
 10
8.965163323761192
 20
7.224120606321692
 10
8.973939779525798
 20
7.229103684302846
 10
8.980623268360961
 20
7.237983817562779
 10
8.984559521710929
 20
7.249891602964408
 10
8.985363257134057
 20
7.263661748374567
 10
8.982955800300393
 20
7.27794594904375
 10
8.977572791278703
 20
7.291346126481781
 10
8.969741177360694
 20
7.302550678451966
 10
8.960227550623288
 20
7.310462753953643
 10
8.949963175169258
 20
7.314307816949655
 10
8.939952819996552
 20
7.31370937506515
 10
8.931176348276903
 20
7.30872630135853
 10
8.924492875396783
 20
7.299846163824064
 10
8.92055660609177
 20
7.287938382696967
 10
8.919752886623687
 20
7.274168233012275
 10
8.922160343457353
 20
7.259884032343093
  0
LWPOLYLINE
  5
262
330
1F
100
AcDbEntity
  8
0
  6
Continuous
 62
     7
370
    15
100
AcDbPolyline
 90
       12
 70
   128
 43
0.0
 10
8.941204381640154
 20
7.31564566215271
 10
8.947938224599297
 20
7.316397574716642
 10
8.958069917893947
 20
7.313946658670363
 10
8.967808510774601
 20
7.307520563149051
 10
8.976288713252127
 20
7.297690063239389
 10
8.982757000431963
 20
7.285328684430355
 10
8.986638639660771
 20
7.271534745686843
 10
8.987588730717376
 20
7.25753403358406
 10
8.985522871410445
 20
7.244570196004595
 10
8.980624592629748
 20
7.233795620462213
 10
8.973329148019812
 20
7.226167429900174
 10
8.966087519778755
 20
7.22276722875774
  0
LWPOLYLINE
  5
263
330
1F
100
AcDbEntity
  8
0
  6
Continuous
 62
     7
370
    15
100
AcDbPolyline
 90
       12
 70
   128
 43
0.0
 10
8.791188118227195
 20
6.233061206902409
 10
8.798429762423298
 20
6.236461316814347
 10
8.805725207033233
 20
6.244089594332349
 10
8.810623469858885
 20
6.254864174149264
 10
8.812689361075907
 20
6.267827916223701
 10
8.811739238109211
 20
6.281828723831511
 10
8.807857598880403
 20
6.295622662575023
 10
8.801389327655611
 20
6.307984037109524
 10
8.792909125178086
 20
6.317814537019184
 10
8.783170516342387
 20
6.32424063681503
 10
8.773038839002783
 20
6.326691461630816
 10
8.766304980088595
 20
6.325939553341417
  0
LWPOLYLINE
  5
264
330
1F
100
AcDbEntity
  8
0
  6
Continuous
 62
     7
370
    15
100
AcDbPolyline
 90
       21
 70
   128
 43
0.0
 10
8.735838533285587
 20
6.267117820979473
 10
8.741221542307277
 20
6.25371755658548
 10
8.749053172180333
 20
6.242513000340762
 10
8.758566782962693
 20
6.234601016069579
 10
8.768831174371767
 20
6.230755948799034
 10
8.778841529544473
 20
6.231354303727578
 10
8.787617985309079
 20
6.236337381708731
 10
8.794301458189197
 20
6.245217519243198
 10
8.79823772749421
 20
6.257125387326255
 10
8.799041478872386
 20
6.270895441505921
 10
8.796633990128629
 20
6.285179650724169
 10
8.791250981106939
 20
6.298579915118161
 10
8.783419383143975
 20
6.309784462813814
 10
8.773905740451525
 20
6.317696455634062
 10
8.76364138095254
 20
6.321541514355542
 10
8.753631025779835
 20
6.320943159426997
 10
8.744854570015229
 20
6.315960081445844
 10
8.738171065225019
 20
6.307079952460443
 10
8.734234827830096
 20
6.29517207582832
 10
8.733431076451923
 20
6.281402021648655
 10
8.735838533285587
 20
6.267117820979473
  0
LWPOLYLINE
  5
265
330
1F
100
AcDbEntity
  8
0
  6
Continuous
 62
     7
370
    15
100
AcDbPolyline
 90
       12
 70
   128
 43
0.0
 10
8.754882571468391
 20
6.32287936383313
 10
8.761616430382579
 20
6.323631272122528
 10
8.771748107722183
 20
6.321180447306742
 10
8.781486716557882
 20
6.314754347510897
 10
8.789966919035407
 20
6.304923847601236
 10
8.796435190260199
 20
6.292562473066735
 10
8.800316829489007
 20
6.278768534323224
 10
8.801266952455703
 20
6.264767726715414
 10
8.799201061238679
 20
6.251803984640976
 10
8.794302798413029
 20
6.241029404824061
 10
8.787007353803094
 20
6.233401127306061
 10
8.779765709606991
 20
6.230001017394122
  0
LINE
  5
266
330
1F
100
AcDbEntity
  8
0
  6
Continuous
 62
     7
370
    15
100
AcDbLine
 10
11.54513743875628
 20
3.732992654127994
 30
0.0
 11
11.54513743875628
 21
6.067490727336333
 31
0.0
  0
SPLINE
  5
267
330
1F
100
AcDbEntity
  8
0
  6
Continuous
 62
     7
370
    15
100
AcDbSpline
210
0.0
220
0.0
230
1.0
 70
     8
 71
     3
 72
     9
 73
     5
 74
     0
 42
0.0000000001
 43
0.0000000001
 40
0.0
 40
0.0
 40
0.0
 40
0.0
 40
0.4828439639240964
 40
1.0
 40
1.0
 40
1.0
 40
1.0
 10
8.691498631844076
 20
6.625370545211396
 30
0.0
 10
8.691200535285444
 20
6.626569083946368
 30
0.0
 10
8.690583158698171
 20
6.629051332508061
 30
0.0
 10
8.690569153821964
 20
6.631285871271543
 30
0.0
 10
8.690561911115702
 20
6.632441476480924
 30
0.0
  0
ARC
  5
268
330
1F
100
AcDbEntity
  8
0
  6
Continuous
 62
     7
370
    15
100
AcDbCircle
 10
8.792885623986371
 20
6.466236083354336
 30
0.0
 40
0.0507692307689149
100
AcDbArc
 50
179.9999999999992
 51
265.6587127158748
  0
SPLINE
  5
269
330
1F
100
AcDbEntity
  8
0
  6
Continuous
 62
     7
370
    15
100
AcDbSpline
210
0.0
220
0.0
230
1.0
 70
     8
 71
     3
 72
     9
 73
     5
 74
     0
 42
0.0000000001
 43
0.0000000001
 40
0.0
 40
0.0
 40
0.0
 40
0.0
 40
0.4403495864473512
 40
1.0
 40
1.0
 40
1.0
 40
1.0
 10
8.710985294902481
 20
7.413608674212423
 30
0.0
 10
8.709253064387009
 20
7.413417460298518
 30
0.0
 10
8.705319302283475
 20
7.412983228225207
 30
0.0
 10
8.701468837794205
 20
7.412802293230053
 30
0.0
 10
8.699313923750416
 20
7.412701032885188
 30
0.0
  0
LINE
  5
26A
330
1F
100
AcDbEntity
  8
0
  6
Continuous
 62
     7
370
    15
100
AcDbLine
 10
8.699090234010817
 20
7.41261179269033
 30
0.0
 11
8.699090234010817
 21
7.174789848351853
 31
0.0
  0
ARC
  5
26B
330
1F
100
AcDbEntity
  8
0
  6
Continuous
 62
     7
370
    15
100
AcDbCircle
 10
8.947364359438768
 20
6.424672598443951
 30
0.0
 40
0.0507692307689159
100
AcDbArc
 50
180.0000000000028
 51
265.6587127158754
  0
LINE
  5
26C
330
1F
100
AcDbEntity
  8
0
  6
Continuous
 62
     7
370
    15
100
AcDbLine
 10
8.742116460816127
 20
7.096180038374511
 30
0.0
 11
8.742116460816127
 21
6.466236101435693
 31
0.0
  0
ARC
  5
26D
330
1F
100
AcDbEntity
  8
0
  6
Continuous
 62
     7
370
    15
100
AcDbCircle
 10
8.792885623986366
 20
7.096180008884537
 30
0.0
 40
0.0507692307689154
100
AcDbArc
 50
124.3372094322767
 51
179.9999999999995
  0
LINE
  5
26E
330
1F
100
AcDbEntity
  8
0
  6
Continuous
 62
     7
370
    15
100
AcDbLine
 10
8.896595190938663
 20
7.054616610871948
 30
0.0
 11
8.896595190938663
 21
6.424672586977171
 31
0.0
  0
ARC
  5
26F
330
1F
100
AcDbEntity
  8
0
  6
Continuous
 62
     7
370
    15
100
AcDbCircle
 10
8.947364359438765
 20
7.054616523974151
 30
0.0
 40
0.0507692307689154
100
AcDbArc
 50
124.3372094322771
 51
180.0
  0
LINE
  5
270
330
1F
100
AcDbEntity
  8
0
  6
Continuous
 62
     7
370
    15
100
AcDbLine
 10
9.044119962292677
 20
7.319498301594655
 30
0.0
 11
9.036589930646984
 21
7.323913476341171
 31
0.0
  0
LINE
  5
271
330
1F
100
AcDbEntity
  8
0
  6
Continuous
 62
     7
370
    15
100
AcDbLine
 10
8.812465001224392
 20
7.112544853934399
 30
0.0
 11
8.823887409844596
 21
7.115605043442686
 31
0.0
  0
LINE
  5
272
330
1F
100
AcDbEntity
  8
0
  6
Continuous
 62
     7
370
    15
100
AcDbLine
 10
8.799004271705998
 20
7.208483302925733
 30
0.0
 11
8.787581863085794
 21
7.205423113417446
 31
0.0
  0
LINE
  5
273
330
1F
100
AcDbEntity
  8
0
  6
Continuous
 62
     7
370
    15
100
AcDbLine
 10
8.997337040220813
 20
6.134655753226386
 30
0.0
 11
9.008759448841017
 21
6.137715942734674
 31
0.0
  0
LINE
  5
274
330
1F
100
AcDbEntity
  8
0
  6
Continuous
 62
     7
370
    15
100
AcDbLine
 10
8.983876310702417
 20
6.230594289173682
 30
0.0
 11
8.972453902082214
 21
6.227534099665394
 31
0.0
  0
LINE
  5
275
330
1F
100
AcDbEntity
  8
0
  6
Continuous
 62
     7
370
    15
100
AcDbLine
 10
8.703075612946252
 20
6.361713729195203
 30
0.0
 11
8.714498021566456
 21
6.364773918703491
 31
0.0
  0
LINE
  5
276
330
1F
100
AcDbEntity
  8
0
  6
Continuous
 62
     7
370
    15
100
AcDbLine
 10
8.689614883427855
 20
6.457652265142499
 30
0.0
 11
8.678192474807651
 21
6.454592075634212
 31
0.0
  0
LINE
  5
277
330
1F
100
AcDbEntity
  8
0
  6
Continuous
 62
     7
370
    15
100
AcDbLine
 10
8.766156630074416
 20
7.271201739410334
 30
0.0
 11
8.777579038694621
 21
7.274261928918622
 31
0.0
  0
LINE
  5
278
330
1F
100
AcDbEntity
  8
0
  6
Continuous
 62
     7
370
    15
100
AcDbLine
 10
8.752695900556023
 20
7.36714036231359
 30
0.0
 11
8.741273491935817
 21
7.364080172805302
 31
0.0
  0
LINE
  5
279
330
1F
100
AcDbEntity
  8
0
  6
Continuous
 62
     7
370
    15
100
AcDbLine
 10
8.9070378640275
 20
7.117613281801205
 30
0.0
 11
8.918460272647703
 21
7.120673471309492
 31
0.0
  0
LINE
  5
27A
330
1F
100
AcDbEntity
  8
0
  6
Continuous
 62
     7
370
    15
100
AcDbLine
 10
8.893577102599014
 20
7.213551739341605
 30
0.0
 11
8.88215469397881
 21
7.210491549833318
 31
0.0
  0
LINE
  5
27B
330
1F
100
AcDbEntity
  8
0
  6
Continuous
 62
     7
370
    15
100
AcDbLine
 10
8.888551390868947
 20
6.274967131353223
 30
0.0
 11
8.899973799489151
 21
6.278027320861509
 31
0.0
  0
LINE
  5
27C
330
1F
100
AcDbEntity
  8
0
  6
Continuous
 62
     7
370
    15
100
AcDbLine
 10
8.875090661350553
 20
6.370905754256479
 30
0.0
 11
8.863668252730349
 21
6.367845564748192
 31
0.0
  0
LINE
  5
27D
330
1F
100
AcDbEntity
  8
0
  6
Continuous
 62
     7
370
    15
100
AcDbLine
 10
8.966087519778755
 20
7.22276722875774
 30
0.0
 11
8.977509928398959
 21
7.225827418266028
 31
0.0
  0
LINE
  5
27E
330
1F
100
AcDbEntity
  8
0
  6
Continuous
 62
     7
370
    15
100
AcDbLine
 10
8.95262679026036
 20
7.318705851660997
 30
0.0
 11
8.941204381640154
 21
7.31564566215271
 31
0.0
  0
LINE
  5
27F
330
1F
100
AcDbEntity
  8
0
  6
Continuous
 62
     7
370
    15
100
AcDbLine
 10
8.779765709606991
 20
6.230001017394122
 30
0.0
 11
8.791188118227195
 21
6.233061206902409
 31
0.0
  0
LINE
  5
280
330
1F
100
AcDbEntity
  8
0
  6
Continuous
 62
     7
370
    15
100
AcDbLine
 10
8.766304980088595
 20
6.325939553341417
 30
0.0
 11
8.754882571468391
 21
6.32287936383313
 31
0.0
  0
ENDSEC
  0
SECTION
  2
OBJECTS
  0
DICTIONARY
  5
C
330
0
100
AcDbDictionary
281
     1
  3
ACAD_COLOR
350
F7
  3
ACAD_GROUP
350
D
  3
ACAD_LAYOUT
350
1A
  3
ACAD_MATERIAL
350
F6
  3
ACAD_MLINESTYLE
350
17
  3
ACAD_PLOTSETTINGS
350
19
  3
ACAD_PLOTSTYLENAME
350
E
  0
DICTIONARY
  5
F7
102
{ACAD_REACTORS
330
C
102
}
330
C
100
AcDbDictionary
281
     1
  0
DICTIONARY
  5
D
102
{ACAD_REACTORS
330
C
102
}
330
C
100
AcDbDictionary
281
     1
  0
DICTIONARY
  5
1A
102
{ACAD_REACTORS
330
C
102
}
330
C
100
AcDbDictionary
281
     1
  3
Layout1
350
1E
  3
Layout2
350
26
  3
Model
350
22
  0
DICTIONARY
  5
F6
102
{ACAD_REACTORS
330
C
102
}
330
C
100
AcDbDictionary
281
     1
  0
DICTIONARY
  5
17
102
{ACAD_REACTORS
330
C
102
}
330
C
100
AcDbDictionary
281
     1
  3
Standard
350
18
  0
DICTIONARY
  5
19
102
{ACAD_REACTORS
330
C
102
}
330
C
100
AcDbDictionary
281
     1
  0
ACDBDICTIONARYWDFLT
  5
E
102
{ACAD_REACTORS
330
C
102
}
330
C
100
AcDbDictionary
281
     1
  3
Normal
350
F
100
AcDbDictionaryWithDefault
340
F
  0
LAYOUT
  5
1E
102
{ACAD_REACTORS
330
1A
102
}
330
1A
100
AcDbPlotSettings
  1

  2
none_device
  4

  6

 40
0.0
 41
0.0
 42
0.0
 43
0.0
 44
0.0
 45
0.0
 46
0.0
 47
0.0
 48
0.0
 49
0.0
140
0.0
141
0.0
142
1.0
143
1.0
 70
   688
 72
     0
 73
     0
 74
     5
  7

 75
    16
147
1.0
 76
     0
 77
     2
 78
   300
148
0.0
149
0.0
100
AcDbLayout
  1
Layout1
 70
     1
 71
     1
 10
0.0
 20
0.0
 11
12.0
 21
9.0
 12
0.0
 22
0.0
 32
0.0
 14
1.000000000000000E+20
 24
1.000000000000000E+20
 34
1.000000000000000E+20
 15
-1.000000000000000E+20
 25
-1.000000000000000E+20
 35
-1.000000000000000E+20
146
0.0
 13
0.0
 23
0.0
 33
0.0
 16
1.0
 26
0.0
 36
0.0
 17
0.0
 27
1.0
 37
0.0
 76
     0
330
1B
  0
LAYOUT
  5
26
102
{ACAD_REACTORS
330
1A
102
}
330
1A
100
AcDbPlotSettings
  1

  2
none_device
  4

  6

 40
0.0
 41
0.0
 42
0.0
 43
0.0
 44
0.0
 45
0.0
 46
0.0
 47
0.0
 48
0.0
 49
0.0
140
0.0
141
0.0
142
1.0
143
1.0
 70
   688
 72
     0
 73
     0
 74
     5
  7

 75
    16
147
1.0
 76
     0
 77
     2
 78
   300
148
0.0
149
0.0
100
AcDbLayout
  1
Layout2
 70
     1
 71
     2
 10
0.0
 20
0.0
 11
0.0
 21
0.0
 12
0.0
 22
0.0
 32
0.0
 14
0.0
 24
0.0
 34
0.0
 15
0.0
 25
0.0
 35
0.0
146
0.0
 13
0.0
 23
0.0
 33
0.0
 16
1.0
 26
0.0
 36
0.0
 17
0.0
 27
1.0
 37
0.0
 76
     0
330
23
  0
LAYOUT
  5
22
102
{ACAD_REACTORS
330
1A
102
}
330
1A
100
AcDbPlotSettings
  1

  2
none_device
  4

  6

 40
0.0
 41
0.0
 42
0.0
 43
0.0
 44
0.0
 45
0.0
 46
0.0
 47
0.0
 48
0.0
 49
0.0
140
0.0
141
0.0
142
1.0
143
1.0
 70
  1712
 72
     0
 73
     0
 74
     0
  7

 75
     0
147
1.0
 76
     0
 77
     2
 78
   300
148
0.0
149
0.0
100
AcDbLayout
  1
Model
 70
     1
 71
     0
 10
0.0
 20
0.0
 11
8.5
 21
11.0
 12
0.0
 22
0.0
 32
0.0
 14
0.0
 24
0.0
 34
0.0
 15
8.5
 25
11.0
 35
0.0
146
0.0
 13
0.0
 23
0.0
 33
0.0
 16
1.0
 26
0.0
 36
0.0
 17
0.0
 27
1.0
 37
0.0
 76
     0
330
1F
  0
MLINESTYLE
  5
18
102
{ACAD_REACTORS
330
17
102
}
330
17
100
AcDbMlineStyle
  2
STANDARD
 70
     0
  3

 62
   256
 51
90.0
 52
90.0
 71
     2
 49
0.5
 62
   256
  6
BYLAYER
 49
-0.5
 62
   256
  6
BYLAYER
  0
ACDBPLACEHOLDER
  5
F
102
{ACAD_REACTORS
330
E
102
}
330
E
  0
ENDSEC
  0
EOF
