  0
SECTION
  2
HEADER
  9
$ACADVER
  1
AC1018
  9
$ACADMAINTVER
 70
     0
  9
$DWGCODEPAGE
  3
ANSI_1252
  9
$INSBASE
 10
0.0
 20
0.0
 30
0.0
  9
$EXTMIN
 10
2.761379930646249
 20
1.446815210765006
 30
0.0
  9
$EXTMAX
 10
5.993017833082113
 20
10.38523737303904
 30
0.0
  9
$LIMMIN
 10
0.0
 20
0.0
  9
$LIMMAX
 10
8.5
 20
11.0
  9
$ORTHOMODE
 70
     0
  9
$REGENMODE
 70
     1
  9
$FILLMODE
 70
     1
  9
$QTEXTMODE
 70
     0
  9
$MIRRTEXT
 70
     1
  9
$LTSCALE
 40
1.0
  9
$ATTMODE
 70
     1
  9
$TEXTSIZE
 40
0.25
  9
$TRACEWID
 40
0.05
  9
$TEXTSTYLE
  7
Standard
  9
$CLAYER
  8
0
  9
$CELTYPE
  6
ByLayer
  9
$CECOLOR
 62
   256
  9
$CELTSCALE
 40
1.0
  9
$DISPSILH
 70
     0
  9
$DIMSCALE
 40
1.0
  9
$DIMASZ
 40
0.156
  9
$DIMEXO
 40
0.05
  9
$DIMDLI
 40
0.38
  9
$DIMRND
 40
0.0
  9
$DIMDLE
 40
0.0
  9
$DIMEXE
 40
0.125
  9
$DIMTP
 40
0.0
  9
$DIMTM
 40
0.0
  9
$DIMTXT
 40
0.125
  9
$DIMCEN
 40
0.09
  9
$DIMTSZ
 40
0.0
  9
$DIMTOL
 70
     0
  9
$DIMLIM
 70
     0
  9
$DIMTIH
 70
     1
  9
$DIMTOH
 70
     1
  9
$DIMSE1
 70
     0
  9
$DIMSE2
 70
     0
  9
$DIMTAD
 70
     0
  9
$DIMZIN
 70
     0
  9
$DIMBLK
  1

  9
$DIMASO
 70
     1
  9
$DIMSHO
 70
     1
  9
$DIMPOST
  1

  9
$DIMAPOST
  1

  9
$DIMALT
 70
     0
  9
$DIMALTD
 70
     2
  9
$DIMALTF
 40
25.4
  9
$DIMLFAC
 40
16.0
  9
$DIMTOFL
 70
     0
  9
$DIMTVP
 40
0.0
  9
$DIMTIX
 70
     0
  9
$DIMSOXD
 70
     0
  9
$DIMSAH
 70
     0
  9
$DIMBLK1
  1

  9
$DIMBLK2
  1

  9
$DIMSTYLE
  2
Standard
  9
$DIMCLRD
 70
     0
  9
$DIMCLRE
 70
     0
  9
$DIMCLRT
 70
     0
  9
$DIMTFAC
 40
1.0
  9
$DIMGAP
 40
0.06
  9
$DIMJUST
 70
     0
  9
$DIMSD1
 70
     0
  9
$DIMSD2
 70
     0
  9
$DIMTOLJ
 70
     1
  9
$DIMTZIN
 70
     0
  9
$DIMALTZ
 70
     0
  9
$DIMALTTZ
 70
     0
  9
$DIMUPT
 70
     0
  9
$DIMDEC
 70
     3
  9
$DIMTDEC
 70
     3
  9
$DIMALTU
 70
     2
  9
$DIMALTTD
 70
     2
  9
$DIMTXSTY
  7
Standard
  9
$DIMAUNIT
 70
     0
  9
$DIMADEC
 70
     0
  9
$DIMALTRND
 40
0.0
  9
$DIMAZIN
 70
     0
  9
$DIMDSEP
 70
    46
  9
$DIMATFIT
 70
     3
  9
$DIMFRAC
 70
     0
  9
$DIMLDRBLK
  1

  9
$DIMLUNIT
 70
     2
  9
$DIMLWD
 70
    -2
  9
$DIMLWE
 70
    -2
  9
$DIMTMOVE
 70
     0
  9
$LUNITS
 70
     2
  9
$LUPREC
 70
     3
  9
$SKETCHINC
 40
0.1
  9
$FILLETRAD
 40
0.5
  9
$AUNITS
 70
     0
  9
$AUPREC
 70
     0
  9
$MENU
  1
.
  9
$ELEVATION
 40
0.0
  9
$PELEVATION
 40
0.0
  9
$THICKNESS
 40
0.0
  9
$LIMCHECK
 70
     0
  9
$CHAMFERA
 40
0.5
  9
$CHAMFERB
 40
0.5
  9
$CHAMFERC
 40
1.0
  9
$CHAMFERD
 40
0.0
  9
$SKPOLY
 70
     0
  9
$TDCREATE
 40
2456505.440052095
  9
$TDUCREATE
 40
2456505.648385428
  9
$TDUPDATE
 40
2456573.344422975
  9
$TDUUPDATE
 40
2456573.552756308
  9
$TDINDWG
 40
0.0010894097
  9
$TDUSRTIMER
 40
0.0010894097
  9
$USRTIMER
 70
     1
  9
$ANGBASE
 50
0.0
  9
$ANGDIR
 70
     0
  9
$PDMODE
 70
     0
  9
$PDSIZE
 40
-1.0
  9
$PLINEWID
 40
0.0
  9
$SPLFRAME
 70
     0
  9
$SPLINETYPE
 70
     6
  9
$SPLINESEGS
 70
     8
  9
$HANDSEED
  5
117
  9
$SURFTAB1
 70
     6
  9
$SURFTAB2
 70
     6
  9
$SURFTYPE
 70
     6
  9
$SURFU
 70
     6
  9
$SURFV
 70
     6
  9
$UCSBASE
  2

  9
$UCSNAME
  2

  9
$UCSORG
 10
0.0
 20
0.0
 30
0.0
  9
$UCSXDIR
 10
1.0
 20
0.0
 30
0.0
  9
$UCSYDIR
 10
0.0
 20
1.0
 30
0.0
  9
$UCSORTHOREF
  2

  9
$UCSORTHOVIEW
 70
     0
  9
$UCSORGTOP
 10
0.0
 20
0.0
 30
0.0
  9
$UCSORGBOTTOM
 10
0.0
 20
0.0
 30
0.0
  9
$UCSORGLEFT
 10
0.0
 20
0.0
 30
0.0
  9
$UCSORGRIGHT
 10
0.0
 20
0.0
 30
0.0
  9
$UCSORGFRONT
 10
0.0
 20
0.0
 30
0.0
  9
$UCSORGBACK
 10
0.0
 20
0.0
 30
0.0
  9
$PUCSBASE
  2

  9
$PUCSNAME
  2

  9
$PUCSORG
 10
0.0
 20
0.0
 30
0.0
  9
$PUCSXDIR
 10
1.0
 20
0.0
 30
0.0
  9
$PUCSYDIR
 10
0.0
 20
1.0
 30
0.0
  9
$PUCSORTHOREF
  2

  9
$PUCSORTHOVIEW
 70
     0
  9
$PUCSORGTOP
 10
0.0
 20
0.0
 30
0.0
  9
$PUCSORGBOTTOM
 10
0.0
 20
0.0
 30
0.0
  9
$PUCSORGLEFT
 10
0.0
 20
0.0
 30
0.0
  9
$PUCSORGRIGHT
 10
0.0
 20
0.0
 30
0.0
  9
$PUCSORGFRONT
 10
0.0
 20
0.0
 30
0.0
  9
$PUCSORGBACK
 10
0.0
 20
0.0
 30
0.0
  9
$USERI1
 70
     0
  9
$USERI2
 70
     0
  9
$USERI3
 70
     0
  9
$USERI4
 70
     0
  9
$USERI5
 70
     0
  9
$USERR1
 40
0.0
  9
$USERR2
 40
0.0
  9
$USERR3
 40
0.0
  9
$USERR4
 40
0.0
  9
$USERR5
 40
0.0
  9
$WORLDVIEW
 70
     1
  9
$SHADEDGE
 70
     3
  9
$SHADEDIF
 70
    70
  9
$TILEMODE
 70
     1
  9
$MAXACTVP
 70
    64
  9
$PINSBASE
 10
0.0
 20
0.0
 30
0.0
  9
$PLIMCHECK
 70
     0
  9
$PEXTMIN
 10
1.000000000000000E+20
 20
1.000000000000000E+20
 30
1.000000000000000E+20
  9
$PEXTMAX
 10
-1.000000000000000E+20
 20
-1.000000000000000E+20
 30
-1.000000000000000E+20
  9
$PLIMMIN
 10
0.0
 20
0.0
  9
$PLIMMAX
 10
12.0
 20
9.0
  9
$UNITMODE
 70
     0
  9
$VISRETAIN
 70
     1
  9
$PLINEGEN
 70
     0
  9
$PSLTSCALE
 70
     1
  9
$TREEDEPTH
 70
  3020
  9
$CMLSTYLE
  2
Standard
  9
$CMLJUST
 70
     0
  9
$CMLSCALE
 40
1.0
  9
$PROXYGRAPHICS
 70
     1
  9
$MEASUREMENT
 70
     0
  9
$CELWEIGHT
370
    -1
  9
$ENDCAPS
280
     0
  9
$JOINSTYLE
280
     0
  9
$LWDISPLAY
290
     1
  9
$INSUNITS
 70
     1
  9
$HYPERLINKBASE
  1

  9
$STYLESHEET
  1

  9
$XEDIT
290
     1
  9
$CEPSNTYPE
380
     0
  9
$PSTYLEMODE
290
     1
  9
$FINGERPRINTGUID
  2
{BD02EEAC-8373-4460-9727-64BBBF158907}
  9
$VERSIONGUID
  2
{B773D627-E5C2-4D0A-9714-15752EB71F97}
  9
$EXTNAMES
290
     1
  9
$PSVPSCALE
 40
0.0
  9
$OLESTARTUP
290
     0
  9
$SORTENTS
280
   127
  9
$INDEXCTL
280
     0
  9
$HIDETEXT
280
     0
  9
$XCLIPFRAME
290
     0
  9
$HALOGAP
280
     0
  9
$OBSCOLOR
 70
   257
  9
$OBSLTYPE
280
     0
  9
$INTERSECTIONDISPLAY
280
     0
  9
$INTERSECTIONCOLOR
 70
   257
  9
$DIMASSOC
280
     1
  9
$PROJECTNAME
  1

  0
ENDSEC
  0
SECTION
  2
CLASSES
  0
CLASS
  1
ACDBDICTIONARYWDFLT
  2
AcDbDictionaryWithDefault
  3
ObjectDBX Classes
 90
        0
 91
        1
280
     0
281
     0
  0
CLASS
  1
VISUALSTYLE
  2
AcDbVisualStyle
  3
ObjectDBX Classes
 90
     4095
 91
        0
280
     0
281
     0
  0
CLASS
  1
MATERIAL
  2
AcDbMaterial
  3
ObjectDBX Classes
 90
        0
 91
        0
280
     0
281
     0
  0
ENDSEC
  0
SECTION
  2
TABLES
  0
TABLE
  2
VPORT
  5
8
330
0
100
AcDbSymbolTable
 70
     3
  0
VPORT
  5
116
330
8
100
AcDbSymbolTableRecord
100
AcDbViewportTableRecord
  2
*Active
 70
     0
 10
0.0
 20
0.0
 11
1.0
 21
1.0
 12
5.519670919344992
 22
5.897969659915903
 13
0.0
 23
0.0
 14
0.5
 24
0.5
 15
0.5
 25
0.5
 16
0.0
 26
0.0
 36
1.0
 17
0.0
 27
0.0
 37
0.0
 40
10.82084101647914
 41
2.144329896907216
 42
50.0
 43
0.0
 44
0.0
 50
0.0
 51
0.0
 71
     0
 72
  2000
 73
     1
 74
     3
 75
     0
 76
     0
 77
     0
 78
     0
281
     0
 65
     1
110
0.0
120
0.0
130
0.0
111
1.0
121
0.0
131
0.0
112
0.0
122
1.0
132
0.0
 79
     0
146
0.0
  0
ENDTAB
  0
TABLE
  2
LTYPE
  5
5
330
0
100
AcDbSymbolTable
 70
     6
  0
LTYPE
  5
14
330
5
100
AcDbSymbolTableRecord
100
AcDbLinetypeTableRecord
  2
ByBlock
 70
     0
  3

 72
    65
 73
     0
 40
0.0
  0
LTYPE
  5
15
330
5
100
AcDbSymbolTableRecord
100
AcDbLinetypeTableRecord
  2
ByLayer
 70
     0
  3

 72
    65
 73
     0
 40
0.0
  0
LTYPE
  5
16
330
5
100
AcDbSymbolTableRecord
100
AcDbLinetypeTableRecord
  2
Continuous
 70
     0
  3
Solid line
 72
    65
 73
     0
 40
0.0
  0
LTYPE
  5
3F
330
5
100
AcDbSymbolTableRecord
100
AcDbLinetypeTableRecord
  2
HIDDEN
 70
     0
  3
Hidden __ __ __ __ __ __ __ __ __ __ __ __ __ __
 72
    65
 73
     2
 40
0.075
 49
0.05
 74
     0
 49
-0.025
 74
     0
  0
LTYPE
  5
40
330
5
100
AcDbSymbolTableRecord
100
AcDbLinetypeTableRecord
  2
PHANTOM
 70
     0
  3
Phantom ______  __  __  ______  __  __  ______
 72
    65
 73
     6
 40
0.5
 49
0.25
 74
     0
 49
-0.05
 74
     0
 49
0.05
 74
     0
 49
-0.05
 74
     0
 49
0.05
 74
     0
 49
-0.05
 74
     0
  0
LTYPE
  5
41
330
5
100
AcDbSymbolTableRecord
100
AcDbLinetypeTableRecord
  2
CENTER
 70
     0
  3
Center ____ _ ____ _ ____ _ ____ _ ____ _ ____
 72
    65
 73
     4
 40
0.4
 49
0.25
 74
     0
 49
-0.05
 74
     0
 49
0.05
 74
     0
 49
-0.05
 74
     0
  0
LTYPE
  5
42
330
5
100
AcDbSymbolTableRecord
100
AcDbLinetypeTableRecord
  2
CENTERX2
 70
     0
  3
Center (2x) ________  __  ________  __  _____
 72
    65
 73
     4
 40
0.8
 49
0.5
 74
     0
 49
-0.1
 74
     0
 49
0.1
 74
     0
 49
-0.1
 74
     0
  0
LTYPE
  5
43
330
5
100
AcDbSymbolTableRecord
100
AcDbLinetypeTableRecord
  2
DOT2
 70
     0
  3
Dot (.5x) ........................................
 72
    65
 73
     2
 40
0.025
 49
0.0
 74
     0
 49
-0.025
 74
     0
  0
ENDTAB
  0
TABLE
  2
LAYER
  5
2
330
0
100
AcDbSymbolTable
 70
     7
  0
LAYER
  5
10
330
2
100
AcDbSymbolTableRecord
100
AcDbLayerTableRecord
  2
0
 70
     0
 62
     7
  6
Continuous
370
    -3
390
F
  0
LAYER
  5
44
330
2
100
AcDbSymbolTableRecord
100
AcDbLayerTableRecord
  2
SLD-0
 70
     0
 62
   179
  6
Continuous
370
    -3
390
F
  0
LAYER
  5
45
330
2
100
AcDbSymbolTableRecord
100
AcDbLayerTableRecord
  2
SLD-DEFPOINTS
 70
     0
 62
   179
  6
Continuous
370
    -3
390
F
  0
LAYER
  5
46
330
2
100
AcDbSymbolTableRecord
100
AcDbLayerTableRecord
  2
OBJ
 70
     0
 62
   179
  6
Continuous
370
    -3
390
F
  0
LAYER
  5
47
330
2
100
AcDbSymbolTableRecord
100
AcDbLayerTableRecord
  2
FORMAT
 70
     0
 62
     7
  6
Continuous
370
    -3
390
F
  0
LAYER
  5
48
330
2
100
AcDbSymbolTableRecord
100
AcDbLayerTableRecord
  2
TOLERANCES
 70
     0
 62
     7
  6
Continuous
370
    -3
390
F
  0
LAYER
  5
49
330
2
100
AcDbSymbolTableRecord
100
AcDbLayerTableRecord
  2
QTY-BLANK-SIZE-1
 70
     0
 62
     7
  6
Continuous
370
    -3
390
F
  0
ENDTAB
  0
TABLE
  2
STYLE
  5
3
330
0
100
AcDbSymbolTable
 70
     2
  0
STYLE
  5
11
330
3
100
AcDbSymbolTableRecord
100
AcDbTextStyleTableRecord
  2
Standard
 70
     0
 40
0.0
 41
1.0
 50
0.0
 71
     0
 42
0.25
  3
txt
  4

  0
STYLE
  5
107
330
3
100
AcDbSymbolTableRecord
100
AcDbTextStyleTableRecord
  2
SLDTEXTSTYLE0
 70
     0
 40
0.0
 41
0.7
 50
0.0
 71
     0
 42
0.2
  3
TXT
  4

  0
ENDTAB
  0
TABLE
  2
VIEW
  5
6
330
0
100
AcDbSymbolTable
 70
     0
  0
ENDTAB
  0
TABLE
  2
UCS
  5
7
330
0
100
AcDbSymbolTable
 70
     0
  0
ENDTAB
  0
TABLE
  2
APPID
  5
9
330
0
100
AcDbSymbolTable
 70
     1
  0
APPID
  5
12
330
9
100
AcDbSymbolTableRecord
100
AcDbRegAppTableRecord
  2
ACAD
 70
     0
  0
ENDTAB
  0
TABLE
  2
DIMSTYLE
  5
A
330
0
100
AcDbSymbolTable
 70
     1
100
AcDbDimStyleTable
 71
     0
  0
DIMSTYLE
105
27
330
A
100
AcDbSymbolTableRecord
100
AcDbDimStyleTableRecord
  2
Standard
 70
     0
340
11
  0
ENDTAB
  0
TABLE
  2
BLOCK_RECORD
  5
1
330
0
100
AcDbSymbolTable
 70
     1
  0
BLOCK_RECORD
  5
1F
330
1
100
AcDbSymbolTableRecord
100
AcDbBlockTableRecord
  2
*Model_Space
340
22
  0
BLOCK_RECORD
  5
1B
330
1
100
AcDbSymbolTableRecord
100
AcDbBlockTableRecord
  2
*Paper_Space
340
1E
  0
BLOCK_RECORD
  5
23
330
1
100
AcDbSymbolTableRecord
100
AcDbBlockTableRecord
  2
*Paper_Space0
340
26
  0
ENDTAB
  0
ENDSEC
  0
SECTION
  2
BLOCKS
  0
BLOCK
  5
20
330
1F
100
AcDbEntity
  8
0
100
AcDbBlockBegin
  2
*Model_Space
 70
     0
 10
0.0
 20
0.0
 30
0.0
  3
*Model_Space
  1

  0
ENDBLK
  5
21
330
1F
100
AcDbEntity
  8
0
100
AcDbBlockEnd
  0
BLOCK
  5
1C
330
1B
100
AcDbEntity
 67
     1
  8
0
100
AcDbBlockBegin
  2
*Paper_Space
 70
     0
 10
0.0
 20
0.0
 30
0.0
  3
*Paper_Space
  1

  0
ENDBLK
  5
1D
330
1B
100
AcDbEntity
 67
     1
  8
0
100
AcDbBlockEnd
  0
BLOCK
  5
24
330
23
100
AcDbEntity
  8
0
100
AcDbBlockBegin
  2
*Paper_Space0
 70
     0
 10
0.0
 20
0.0
 30
0.0
  3
*Paper_Space0
  1

  0
ENDBLK
  5
25
330
23
100
AcDbEntity
  8
0
100
AcDbBlockEnd
  0
ENDSEC
  0
SECTION
  2
ENTITIES
  0
LINE
  5
4A
330
1F
100
AcDbEntity
  8
0
  6
Continuous
 62
     7
370
    15
100
AcDbLine
 10
4.511010449352728
 20
8.818352318316707
 30
0.0
 11
4.50146450965918
 21
8.820909781061059
 31
0.0
  0
LINE
  5
4B
330
1F
100
AcDbEntity
  8
0
  6
Continuous
 62
     7
370
    15
100
AcDbLine
 10
4.511010449352728
 20
8.818352318316707
 30
0.0
 11
4.511010449352728
 21
4.181779756250146
 31
0.0
  0
LINE
  5
4C
330
1F
100
AcDbEntity
  8
0
  6
Continuous
 62
     7
370
    15
100
AcDbLine
 10
4.511010449352728
 20
4.181779756250146
 30
0.0
 11
4.50146450965918
 21
4.184337218994499
 31
0.0
  0
LINE
  5
4D
330
1F
100
AcDbEntity
  8
0
  6
Continuous
 62
     7
370
    15
100
AcDbLine
 10
4.50146450965918
 20
8.820909781061059
 30
0.0
 11
4.50146450965918
 21
4.184337218994499
 31
0.0
  0
LINE
  5
4E
330
1F
100
AcDbEntity
  8
0
  6
Continuous
 62
     7
370
    15
100
AcDbLine
 10
4.62149588743919
 20
4.211380026183817
 30
0.0
 11
4.62149588743919
 21
8.847952588250379
 31
0.0
  0
LINE
  5
4F
330
1F
100
AcDbEntity
  8
0
  6
Continuous
 62
     7
370
    15
100
AcDbLine
 10
4.511010449352728
 20
4.181779756250146
 30
0.0
 11
4.62149588743919
 21
4.211380026183817
 31
0.0
  0
LINE
  5
50
330
1F
100
AcDbEntity
  8
0
  6
Continuous
 62
     7
370
    15
100
AcDbLine
 10
4.62149588743919
 20
8.847952588250379
 30
0.0
 11
4.511010449352728
 21
8.818352318316707
 31
0.0
  0
LWPOLYLINE
  5
51
330
1F
100
AcDbEntity
  8
0
  6
Continuous
 62
     7
370
    15
100
AcDbPolyline
 90
       17
 70
   128
 43
0.0
 10
4.547603226820313
 20
8.737833216910917
 10
4.548181838544118
 20
8.734024671994429
 10
4.549829625796276
 20
8.73110607799539
 10
4.552295693490028
 20
8.729521735787097
 10
4.555204619401923
 20
8.729512596012639
 10
4.558113545313818
 20
8.731080402588812
 10
4.560579638934519
 20
8.733986125322834
 10
4.562227400259729
 20
8.737787633207712
 10
4.562806011983534
 20
8.741906211075296
 10
4.562227400259729
 20
8.745714614688349
 10
4.560579638934519
 20
8.748633215633505
 10
4.558113545313818
 20
8.750217692199118
 10
4.555204619401923
 20
8.750226690670137
 10
4.552295693490028
 20
8.748659025397403
 10
4.549829625796276
 20
8.745753168306061
 10
4.548181838544118
 20
8.741951653475066
 10
4.547603226820313
 20
8.737833216910917
  0
LWPOLYLINE
  5
52
330
1F
100
AcDbEntity
  8
0
  6
Continuous
 62
     7
370
    15
100
AcDbPolyline
 90
       17
 70
   128
 43
0.0
 10
4.580748860838946
 20
8.641336543470178
 10
4.581327472562751
 20
8.637528139857124
 10
4.582975259814911
 20
8.634609545858085
 10
4.585441327508662
 20
8.633025062346357
 10
4.588350253420557
 20
8.633016063875336
 10
4.591259179332452
 20
8.63458372914807
 10
4.593725247026203
 20
8.637489586239412
 10
4.595373034278362
 20
8.641291101070409
 10
4.595951646002168
 20
8.645409537634556
 10
4.595373034278362
 20
8.649218082551046
 10
4.593725247026203
 20
8.652136676550084
 10
4.591259179332452
 20
8.653721018758377
 10
4.588350253420557
 20
8.653730158532834
 10
4.585441327508662
 20
8.652162351956661
 10
4.582975259814911
 20
8.649256636168756
 10
4.581327472562751
 20
8.645455121337761
 10
4.580748860838946
 20
8.641336543470178
  0
LWPOLYLINE
  5
53
330
1F
100
AcDbEntity
  8
0
  6
Continuous
 62
     7
370
    15
100
AcDbPolyline
 90
       17
 70
   128
 43
0.0
 10
4.547603226820313
 20
8.496972183478542
 10
4.548181838544118
 20
8.493163779865488
 10
4.549829625796276
 20
8.490245185866449
 10
4.552295693490028
 20
8.488660702354721
 10
4.555204619401923
 20
8.488651703883698
 10
4.558113545313818
 20
8.490219369156434
 10
4.560579638934519
 20
8.493125233193893
 10
4.562227400259729
 20
8.496926741078771
 10
4.562806011983534
 20
8.501045177642918
 10
4.562227400259729
 20
8.504853722559408
 10
4.560579638934519
 20
8.507772323504564
 10
4.558113545313818
 20
8.509356658766741
 10
4.555204619401923
 20
8.509365798541198
 10
4.552295693490028
 20
8.507797991965025
 10
4.549829625796276
 20
8.50489227617712
 10
4.548181838544118
 20
8.501090761346125
 10
4.547603226820313
 20
8.496972183478542
  0
LWPOLYLINE
  5
54
330
1F
100
AcDbEntity
  8
0
  6
Continuous
 62
     7
370
    15
100
AcDbPolyline
 90
       17
 70
   128
 43
0.0
 10
4.580748860838946
 20
8.400475651341237
 10
4.581327472562751
 20
8.396667247728183
 10
4.582975259814911
 20
8.393748653729144
 10
4.585441327508662
 20
8.392164170217416
 10
4.588350253420557
 20
8.392155171746395
 10
4.591259179332452
 20
8.393722837019129
 10
4.593725247026203
 20
8.396628694110473
 10
4.595373034278362
 20
8.400430208941468
 10
4.595951646002168
 20
8.404548645505615
 10
4.595373034278362
 20
8.408357049118668
 10
4.593725247026203
 20
8.411275643117708
 10
4.591259179332452
 20
8.412860126629437
 10
4.588350253420557
 20
8.412869125100456
 10
4.585441327508662
 20
8.41130145982772
 10
4.582975259814911
 20
8.408395602736378
 10
4.581327472562751
 20
8.404594087905383
 10
4.580748860838946
 20
8.400475651341237
  0
LWPOLYLINE
  5
55
330
1F
100
AcDbEntity
  8
0
  6
Continuous
 62
     7
370
    15
100
AcDbPolyline
 90
       17
 70
   128
 43
0.0
 10
4.547603226820313
 20
8.256111291349599
 10
4.548181838544118
 20
8.252302887736547
 10
4.549829625796276
 20
8.249384293737508
 10
4.552295693490028
 20
8.247799810225778
 10
4.555204619401923
 20
8.247790811754759
 10
4.558113545313818
 20
8.249358477027493
 10
4.560579638934519
 20
8.252264341064952
 10
4.562227400259729
 20
8.25606584894983
 10
4.562806011983534
 20
8.260184285513979
 10
4.562227400259729
 20
8.263992830430467
 10
4.560579638934519
 20
8.266911431375623
 10
4.558113545313818
 20
8.2684957666378
 10
4.555204619401923
 20
8.268504906412257
 10
4.552295693490028
 20
8.266937099836084
 10
4.549829625796276
 20
8.264031384048179
 10
4.548181838544118
 20
8.260229869217184
 10
4.547603226820313
 20
8.256111291349599
  0
LWPOLYLINE
  5
56
330
1F
100
AcDbEntity
  8
0
  6
Continuous
 62
     7
370
    15
100
AcDbPolyline
 90
       17
 70
   128
 43
0.0
 10
4.580748860838946
 20
8.159614759212296
 10
4.581327472562751
 20
8.155806355599242
 10
4.582975259814911
 20
8.152887761600203
 10
4.585441327508662
 20
8.151303278088473
 10
4.588350253420557
 20
8.151294279617454
 10
4.591259179332452
 20
8.152861944890188
 10
4.593725247026203
 20
8.155767801981532
 10
4.595373034278362
 20
8.159569316812527
 10
4.595951646002168
 20
8.163687753376674
 10
4.595373034278362
 20
8.167496156989727
 10
4.593725247026203
 20
8.170414750988767
 10
4.591259179332452
 20
8.171999234500495
 10
4.588350253420557
 20
8.172008232971515
 10
4.585441327508662
 20
8.170440567698781
 10
4.582975259814911
 20
8.167534710607437
 10
4.581327472562751
 20
8.163733195776442
 10
4.580748860838946
 20
8.159614759212296
  0
LWPOLYLINE
  5
57
330
1F
100
AcDbEntity
  8
0
  6
Continuous
 62
     7
370
    15
100
AcDbPolyline
 90
       17
 70
   128
 43
0.0
 10
4.547603226820313
 20
8.015250399220658
 10
4.548181838544118
 20
8.011441995607606
 10
4.549829625796276
 20
8.008523401608567
 10
4.552295693490028
 20
8.006938918096837
 10
4.555204619401923
 20
8.006929919625818
 10
4.558113545313818
 20
8.008497584898552
 10
4.560579638934519
 20
8.011403448936011
 10
4.562227400259729
 20
8.015204956820889
 10
4.562806011983534
 20
8.019323393385038
 10
4.562227400259729
 20
8.023131796998091
 10
4.560579638934519
 20
8.026050397943246
 10
4.558113545313818
 20
8.027634874508859
 10
4.555204619401923
 20
8.027643872979878
 10
4.552295693490028
 20
8.026076207707143
 10
4.549829625796276
 20
8.023170350615801
 10
4.548181838544118
 20
8.019368835784806
 10
4.547603226820313
 20
8.015250399220658
  0
LWPOLYLINE
  5
58
330
1F
100
AcDbEntity
  8
0
  6
Continuous
 62
     7
370
    15
100
AcDbPolyline
 90
       17
 70
   128
 43
0.0
 10
4.580748860838946
 20
7.918753867083355
 10
4.581327472562751
 20
7.914945463470301
 10
4.582975259814911
 20
7.912026869471262
 10
4.585441327508662
 20
7.910442385959533
 10
4.588350253420557
 20
7.910433387488514
 10
4.591259179332452
 20
7.912001052761248
 10
4.593725247026203
 20
7.91490690985259
 10
4.595373034278362
 20
7.918708424683586
 10
4.595951646002168
 20
7.922826861247734
 10
4.595373034278362
 20
7.926635264860785
 10
4.593725247026203
 20
7.929553858859825
 10
4.591259179332452
 20
7.931138342371554
 10
4.588350253420557
 20
7.931147340842574
 10
4.585441327508662
 20
7.92957967556984
 10
4.582975259814911
 20
7.926673818478496
 10
4.581327472562751
 20
7.922872303647501
 10
4.580748860838946
 20
7.918753867083355
  0
LWPOLYLINE
  5
59
330
1F
100
AcDbEntity
  8
0
  6
Continuous
 62
     7
370
    15
100
AcDbPolyline
 90
       17
 70
   128
 43
0.0
 10
4.547603226820313
 20
7.774389507091719
 10
4.548181838544118
 20
7.770581103478665
 10
4.549829625796276
 20
7.767662509479626
 10
4.552295693490028
 20
7.766078025967897
 10
4.555204619401923
 20
7.766069027496876
 10
4.558113545313818
 20
7.767636692769611
 10
4.560579638934519
 20
7.77054255680707
 10
4.562227400259729
 20
7.774344064691949
 10
4.562806011983534
 20
7.778462501256096
 10
4.562227400259729
 20
7.782270904869149
 10
4.560579638934519
 20
7.785189505814305
 10
4.558113545313818
 20
7.786773982379918
 10
4.555204619401923
 20
7.786782980850938
 10
4.552295693490028
 20
7.785215315578203
 10
4.549829625796276
 20
7.78230945848686
 10
4.548181838544118
 20
7.778507943655865
 10
4.547603226820313
 20
7.774389507091719
  0
LWPOLYLINE
  5
5A
330
1F
100
AcDbEntity
  8
0
  6
Continuous
 62
     7
370
    15
100
AcDbPolyline
 90
       17
 70
   128
 43
0.0
 10
4.580748860838946
 20
7.677892974954414
 10
4.581327472562751
 20
7.674084430037924
 10
4.582975259814911
 20
7.671165836038885
 10
4.585441327508662
 20
7.669581493830593
 10
4.588350253420557
 20
7.669572354056136
 10
4.591259179332452
 20
7.671140160632307
 10
4.593725247026203
 20
7.674045876420214
 10
4.595373034278362
 20
7.677847391251209
 10
4.595951646002168
 20
7.681965969118793
 10
4.595373034278362
 20
7.685774372731845
 10
4.593725247026203
 20
7.688692966730886
 10
4.591259179332452
 20
7.690277450242613
 10
4.588350253420557
 20
7.690286448713633
 10
4.585441327508662
 20
7.688718783440898
 10
4.582975259814911
 20
7.685812926349556
 10
4.581327472562751
 20
7.682011411518561
 10
4.580748860838946
 20
7.677892974954414
  0
LWPOLYLINE
  5
5B
330
1F
100
AcDbEntity
  8
0
  6
Continuous
 62
     7
370
    15
100
AcDbPolyline
 90
       17
 70
   128
 43
0.0
 10
4.547603226820313
 20
7.533528614962778
 10
4.548181838544118
 20
7.529720140698006
 10
4.549829625796276
 20
7.526801546698966
 10
4.552295693490028
 20
7.525217133838957
 10
4.555204619401923
 20
7.525208064716217
 10
4.558113545313818
 20
7.526775800640671
 10
4.560579638934519
 20
7.529681594026411
 10
4.562227400259729
 20
7.53348310191129
 10
4.562806011983534
 20
7.537601609127156
 10
4.562227400259729
 20
7.541410012740208
 10
4.560579638934519
 20
7.544328613685364
 10
4.558113545313818
 20
7.545913090250977
 10
4.555204619401923
 20
7.545922088721997
 10
4.552295693490028
 20
7.544354423449262
 10
4.549829625796276
 20
7.541448566357919
 10
4.548181838544118
 20
7.537647051526924
 10
4.547603226820313
 20
7.533528614962778
  0
LWPOLYLINE
  5
5C
330
1F
100
AcDbEntity
  8
0
  6
Continuous
 62
     7
370
    15
100
AcDbPolyline
 90
       17
 70
   128
 43
0.0
 10
4.580748860838946
 20
7.437032012173755
 10
4.581327472562751
 20
7.433223608560702
 10
4.582975259814911
 20
7.430305014561662
 10
4.585441327508662
 20
7.428720531049934
 10
4.588350253420557
 20
7.428711532578913
 10
4.591259179332452
 20
7.430279197851649
 10
4.593725247026203
 20
7.433185054942991
 10
4.595373034278362
 20
7.436986569773986
 10
4.595951646002168
 20
7.441105006338132
 10
4.595373034278362
 20
7.444913480602904
 10
4.593725247026203
 20
7.447832074601944
 10
4.591259179332452
 20
7.449416487461955
 10
4.588350253420557
 20
7.449425556584693
 10
4.585441327508662
 20
7.447857820660239
 10
4.582975259814911
 20
7.444952034220615
 10
4.581327472562751
 20
7.44115051938962
 10
4.580748860838946
 20
7.437032012173755
  0
LWPOLYLINE
  5
5D
330
1F
100
AcDbEntity
  8
0
  6
Continuous
 62
     7
370
    15
100
AcDbPolyline
 90
       17
 70
   128
 43
0.0
 10
4.547603226820313
 20
7.292667652182117
 10
4.548181838544118
 20
7.288859248569065
 10
4.549829625796276
 20
7.285940654570026
 10
4.552295693490028
 20
7.284356171058297
 10
4.555204619401923
 20
7.284347172587277
 10
4.558113545313818
 20
7.285914837860012
 10
4.560579638934519
 20
7.288820701897471
 10
4.562227400259729
 20
7.29262220978235
 10
4.562806011983534
 20
7.296740646346496
 10
4.562227400259729
 20
7.300549120611268
 10
4.560579638934519
 20
7.303467721556423
 10
4.558113545313818
 20
7.305052127470317
 10
4.555204619401923
 20
7.305061196593056
 10
4.552295693490028
 20
7.303493460668603
 10
4.549829625796276
 20
7.300587674228979
 10
4.548181838544118
 20
7.296786159397984
 10
4.547603226820313
 20
7.292667652182117
  0
LWPOLYLINE
  5
5E
330
1F
100
AcDbEntity
  8
0
  6
Continuous
 62
     7
370
    15
100
AcDbPolyline
 90
       17
 70
   128
 43
0.0
 10
4.580748860838946
 20
7.196171120044814
 10
4.581327472562751
 20
7.192362645780042
 10
4.582975259814911
 20
7.189444051781003
 10
4.585441327508662
 20
7.187859638920993
 10
4.588350253420557
 20
7.187850569798253
 10
4.591259179332452
 20
7.189418305722708
 10
4.593725247026203
 20
7.192324092162332
 10
4.595373034278362
 20
7.196125606993327
 10
4.595951646002168
 20
7.200244114209191
 10
4.595373034278362
 20
7.204052517822246
 10
4.593725247026203
 20
7.206971111821284
 10
4.591259179332452
 20
7.208555595333013
 10
4.588350253420557
 20
7.208564593804034
 10
4.585441327508662
 20
7.206996928531299
 10
4.582975259814911
 20
7.204091071439956
 10
4.581327472562751
 20
7.200289556608961
 10
4.580748860838946
 20
7.196171120044814
  0
LWPOLYLINE
  5
5F
330
1F
100
AcDbEntity
  8
0
  6
Continuous
 62
     7
370
    15
100
AcDbPolyline
 90
       17
 70
   128
 43
0.0
 10
4.547603226820313
 20
7.051806760053178
 10
4.548181838544118
 20
7.047998321114265
 10
4.549829625796276
 20
7.045079727115225
 10
4.552295693490028
 20
7.043495278929356
 10
4.555204619401923
 20
7.043486245132476
 10
4.558113545313818
 20
7.045053945731071
 10
4.560579638934519
 20
7.04795977444267
 10
4.562227400259729
 20
7.051761282327549
 10
4.562806011983534
 20
7.055879754217555
 10
4.562227400259729
 20
7.059688193156469
 10
4.560579638934519
 20
7.062606829427482
 10
4.558113545313818
 20
7.064191235341376
 10
4.555204619401923
 20
7.064200304464116
 10
4.552295693490028
 20
7.062632568539662
 10
4.549829625796276
 20
7.059726782100038
 10
4.548181838544118
 20
7.055925231943183
 10
4.547603226820313
 20
7.051806760053178
  0
LWPOLYLINE
  5
60
330
1F
100
AcDbEntity
  8
0
  6
Continuous
 62
     7
370
    15
100
AcDbPolyline
 90
       17
 70
   128
 43
0.0
 10
4.580748860838946
 20
6.955310192590014
 10
4.581327472562751
 20
6.951501753651101
 10
4.582975259814911
 20
6.948583159652063
 10
4.585441327508662
 20
6.946998711466192
 10
4.588350253420557
 20
6.946989677669313
 10
4.591259179332452
 20
6.948557378267908
 10
4.593725247026203
 20
6.951463200033391
 10
4.595373034278362
 20
6.955264714864386
 10
4.595951646002168
 20
6.959383186754392
 10
4.595373034278362
 20
6.963191625693305
 10
4.593725247026203
 20
6.966110219692343
 10
4.591259179332452
 20
6.967694667878213
 10
4.588350253420557
 20
6.967703701675093
 10
4.585441327508662
 20
6.966136001076498
 10
4.582975259814911
 20
6.963230179311016
 10
4.581327472562751
 20
6.959428664480021
 10
4.580748860838946
 20
6.955310192590014
  0
LWPOLYLINE
  5
61
330
1F
100
AcDbEntity
  8
0
  6
Continuous
 62
     7
370
    15
100
AcDbPolyline
 90
       17
 70
   128
 43
0.0
 10
4.547603226820313
 20
6.810945867924236
 10
4.548181838544118
 20
6.807137393659465
 10
4.549829625796276
 20
6.804218799660425
 10
4.552295693490028
 20
6.802634386800415
 10
4.555204619401923
 20
6.802625317677676
 10
4.558113545313818
 20
6.804193053602131
 10
4.560579638934519
 20
6.80709884698787
 10
4.562227400259729
 20
6.81090035487275
 10
4.562806011983534
 20
6.815018862088614
 10
4.562227400259729
 20
6.818827301027527
 10
4.560579638934519
 20
6.821745901972683
 10
4.558113545313818
 20
6.823330307886577
 10
4.555204619401923
 20
6.823339377009315
 10
4.552295693490028
 20
6.821771641084862
 10
4.549829625796276
 20
6.818865854645238
 10
4.548181838544118
 20
6.815064339814242
 10
4.547603226820313
 20
6.810945867924236
  0
LWPOLYLINE
  5
62
330
1F
100
AcDbEntity
  8
0
  6
Continuous
 62
     7
370
    15
100
AcDbPolyline
 90
       17
 70
   128
 43
0.0
 10
4.580748860838946
 20
6.714449282798144
 10
4.581327472562751
 20
6.710640843859231
 10
4.582975259814911
 20
6.707722249860192
 10
4.585441327508662
 20
6.706137819337252
 10
4.588350253420557
 20
6.706128767877443
 10
4.591259179332452
 20
6.707696486138967
 10
4.593725247026203
 20
6.71060229024152
 10
4.595373034278362
 20
6.714403805072515
 10
4.595951646002168
 20
6.718522276962522
 10
4.595373034278362
 20
6.722330715901434
 10
4.593725247026203
 20
6.725249327563403
 10
4.591259179332452
 20
6.726833758086343
 10
4.588350253420557
 20
6.726842809546153
 10
4.585441327508662
 20
6.725275091284627
 10
4.582975259814911
 20
6.722369287182075
 10
4.581327472562751
 20
6.71856775468815
 10
4.580748860838946
 20
6.714449282798144
  0
LWPOLYLINE
  5
63
330
1F
100
AcDbEntity
  8
0
  6
Continuous
 62
     7
370
    15
100
AcDbPolyline
 90
       17
 70
   128
 43
0.0
 10
4.547603226820313
 20
6.570084940469437
 10
4.548181838544118
 20
6.566276501530524
 10
4.549829625796276
 20
6.56335789870002
 10
4.552295693490028
 20
6.561773468177079
 10
4.555204619401923
 20
6.56176441671727
 10
4.558113545313818
 20
6.563332134978796
 10
4.560579638934519
 20
6.566237946027464
 10
4.562227400259729
 20
6.570039462743809
 10
4.562806011983534
 20
6.574157934633815
 10
4.562227400259729
 20
6.577966382404192
 10
4.560579638934519
 20
6.580884983349347
 10
4.558113545313818
 20
6.582469406926171
 10
4.555204619401923
 20
6.58247845838598
 10
4.552295693490028
 20
6.580910740124456
 10
4.549829625796276
 20
6.578004936021903
 10
4.548181838544118
 20
6.574203421190908
 10
4.547603226820313
 20
6.570084940469437
  0
LWPOLYLINE
  5
64
330
1F
100
AcDbEntity
  8
0
  6
Continuous
 62
     7
370
    15
100
AcDbPolyline
 90
       17
 70
   128
 43
0.0
 10
4.580748860838946
 20
6.473588373006275
 10
4.581327472562751
 20
6.469779929927612
 10
4.582975259814911
 20
6.466861331236857
 10
4.585441327508662
 20
6.465276898506051
 10
4.588350253420557
 20
6.465267850358041
 10
4.591259179332452
 20
6.466835565307765
 10
4.593725247026203
 20
6.469741371618185
 10
4.595373034278362
 20
6.473542891140896
 10
4.595951646002168
 20
6.477661367170653
 10
4.595373034278362
 20
6.481469810249312
 10
4.593725247026203
 20
6.484388408940068
 10
4.591259179332452
 20
6.485972841670873
 10
4.588350253420557
 20
6.485981889818885
 10
4.585441327508662
 20
6.484414174869159
 10
4.582975259814911
 20
6.481508368558739
 10
4.581327472562751
 20
6.477706849036028
 10
4.580748860838946
 20
6.473588373006275
  0
LWPOLYLINE
  5
65
330
1F
100
AcDbEntity
  8
0
  6
Continuous
 62
     7
370
    15
100
AcDbPolyline
 90
       17
 70
   128
 43
0.0
 10
4.547603226820313
 20
6.329224030677567
 10
4.548181838544118
 20
6.325415582907189
 10
4.549829625796276
 20
6.322496988908149
 10
4.552295693490028
 20
6.320912549553745
 10
4.555204619401923
 20
6.3209035069254
 10
4.558113545313818
 20
6.322471216355459
 10
4.560579638934519
 20
6.325377036235594
 10
4.562227400259729
 20
6.329178544120473
 10
4.562806011983534
 20
6.333297024841944
 10
4.562227400259729
 20
6.337105463780857
 10
4.560579638934519
 20
6.340024073557477
 10
4.558113545313818
 20
6.3416084971343
 10
4.555204619401923
 20
6.341617548594109
 10
4.552295693490028
 20
6.340049830332586
 10
4.549829625796276
 20
6.337144026230032
 10
4.548181838544118
 20
6.333342502567572
 10
4.547603226820313
 20
6.329224030677567
  0
LWPOLYLINE
  5
66
330
1F
100
AcDbEntity
  8
0
  6
Continuous
 62
     7
370
    15
100
AcDbPolyline
 90
       17
 70
   128
 43
0.0
 10
4.580748860838946
 20
6.232727463214403
 10
4.581327472562751
 20
6.22891902427549
 10
4.582975259814911
 20
6.226000412613521
 10
4.585441327508662
 20
6.224415982090581
 10
4.588350253420557
 20
6.224406930630773
 10
4.591259179332452
 20
6.225974648892297
 10
4.593725247026203
 20
6.228880452994849
 10
4.595373034278362
 20
6.232681985488775
 10
4.595951646002168
 20
6.23680045737878
 10
4.595373034278362
 20
6.240608896317693
 10
4.593725247026203
 20
6.243527490316732
 10
4.591259179332452
 20
6.245111920839672
 10
4.588350253420557
 20
6.245120972299481
 10
4.585441327508662
 20
6.243553254037958
 10
4.582975259814911
 20
6.240647449935404
 10
4.581327472562751
 20
6.236845935104409
 10
4.580748860838946
 20
6.232727463214403
  0
LWPOLYLINE
  5
67
330
1F
100
AcDbEntity
  8
0
  6
Continuous
 62
     7
370
    15
100
AcDbPolyline
 90
       17
 70
   128
 43
0.0
 10
4.547603226820313
 20
6.088363120885695
 10
4.548181838544118
 20
6.084554681946783
 10
4.549829625796276
 20
6.081636087947743
 10
4.552295693490028
 20
6.080051639761874
 10
4.555204619401923
 20
6.080042605964994
 10
4.558113545313818
 20
6.08161030656359
 10
4.560579638934519
 20
6.084516135275188
 10
4.562227400259729
 20
6.088317643160068
 10
4.562806011983534
 20
6.092436115050074
 10
4.562227400259729
 20
6.096244553988987
 10
4.560579638934519
 20
6.099163154934142
 10
4.558113545313818
 20
6.100747596173896
 10
4.555204619401923
 20
6.100756629970774
 10
4.552295693490028
 20
6.099188929372179
 10
4.549829625796276
 20
6.096283107606696
 10
4.548181838544118
 20
6.092481592775702
 10
4.547603226820313
 20
6.088363120885695
  0
LWPOLYLINE
  5
68
330
1F
100
AcDbEntity
  8
0
  6
Continuous
 62
     7
370
    15
100
AcDbPolyline
 90
       17
 70
   128
 43
0.0
 10
4.580748860838946
 20
5.991866553422532
 10
4.581327472562751
 20
5.988058114483619
 10
4.582975259814911
 20
5.98513952048458
 10
4.585441327508662
 20
5.98355507229871
 10
4.588350253420557
 20
5.983546038501832
 10
4.591259179332452
 20
5.985113739100426
 10
4.593725247026203
 20
5.988019560865908
 10
4.595373034278362
 20
5.991821075696904
 10
4.595951646002168
 20
5.99593954758691
 10
4.595373034278362
 20
5.999747986525823
 10
4.593725247026203
 20
6.002666580524863
 10
4.591259179332452
 20
6.004251028710732
 10
4.588350253420557
 20
6.004260062507611
 10
4.585441327508662
 20
6.002692361909017
 10
4.582975259814911
 20
5.999786540143534
 10
4.581327472562751
 20
5.995985025312538
 10
4.580748860838946
 20
5.991866553422532
  0
LWPOLYLINE
  5
69
330
1F
100
AcDbEntity
  8
0
  6
Continuous
 62
     7
370
    15
100
AcDbPolyline
 90
       17
 70
   128
 43
0.0
 10
4.547603226820313
 20
5.847502228756755
 10
4.548181838544118
 20
5.843693754491983
 10
4.549829625796276
 20
5.840775160492944
 10
4.552295693490028
 20
5.839190747632934
 10
4.555204619401923
 20
5.839181678510196
 10
4.558113545313818
 20
5.840749414434649
 10
4.560579638934519
 20
5.843655207820389
 10
4.562227400259729
 20
5.847456715705268
 10
4.562806011983534
 20
5.851575222921133
 10
4.562227400259729
 20
5.855383626534187
 10
4.560579638934519
 20
5.858302227479343
 10
4.558113545313818
 20
5.859886704044955
 10
4.555204619401923
 20
5.859895702515975
 10
4.552295693490028
 20
5.85832803724324
 10
4.549829625796276
 20
5.855422180151896
 10
4.548181838544118
 20
5.851620665320901
 10
4.547603226820313
 20
5.847502228756755
  0
LWPOLYLINE
  5
6A
330
1F
100
AcDbEntity
  8
0
  6
Continuous
 62
     7
370
    15
100
AcDbPolyline
 90
       17
 70
   128
 43
0.0
 10
4.580748860838946
 20
5.751005625967732
 10
4.581327472562751
 20
5.747197222354678
 10
4.582975259814911
 20
5.744278628355639
 10
4.585441327508662
 20
5.742694144843911
 10
4.588350253420557
 20
5.742685146372891
 10
4.591259179332452
 20
5.744252811645625
 10
4.593725247026203
 20
5.747158668736968
 10
4.595373034278362
 20
5.750960183567964
 10
4.595951646002168
 20
5.755078620132111
 10
4.595373034278362
 20
5.758887094396881
 10
4.593725247026203
 20
5.761805688395922
 10
4.591259179332452
 20
5.763390101255931
 10
4.588350253420557
 20
5.76339917037867
 10
4.585441327508662
 20
5.761831434454216
 10
4.582975259814911
 20
5.758925648014593
 10
4.581327472562751
 20
5.755124133183597
 10
4.580748860838946
 20
5.751005625967732
  0
LWPOLYLINE
  5
6B
330
1F
100
AcDbEntity
  8
0
  6
Continuous
 62
     7
370
    15
100
AcDbPolyline
 90
       17
 70
   128
 43
0.0
 10
4.547603226820313
 20
5.606641265976096
 10
4.548181838544118
 20
5.602832862363042
 10
4.549829625796276
 20
5.599914268364003
 10
4.552295693490028
 20
5.598329784852275
 10
4.555204619401923
 20
5.598320786381254
 10
4.558113545313818
 20
5.599888451653989
 10
4.560579638934519
 20
5.602794315691448
 10
4.562227400259729
 20
5.606595823576326
 10
4.562806011983534
 20
5.610714260140475
 10
4.562227400259729
 20
5.614522734405245
 10
4.560579638934519
 20
5.617441335350402
 10
4.558113545313818
 20
5.619025741264295
 10
4.555204619401923
 20
5.619034810387034
 10
4.552295693490028
 20
5.61746707446258
 10
4.549829625796276
 20
5.614561288022955
 10
4.548181838544118
 20
5.610759773191961
 10
4.547603226820313
 20
5.606641265976096
  0
LWPOLYLINE
  5
6C
330
1F
100
AcDbEntity
  8
0
  6
Continuous
 62
     7
370
    15
100
AcDbPolyline
 90
       17
 70
   128
 43
0.0
 10
4.580748860838946
 20
5.510144733838791
 10
4.581327472562751
 20
5.50633625957402
 10
4.582975259814911
 20
5.50341766557498
 10
4.585441327508662
 20
5.50183325271497
 10
4.588350253420557
 20
5.501824183592231
 10
4.591259179332452
 20
5.503391919516685
 10
4.593725247026203
 20
5.506297705956309
 10
4.595373034278362
 20
5.510099220787305
 10
4.595951646002168
 20
5.514217728003171
 10
4.595373034278362
 20
5.518026131616222
 10
4.593725247026203
 20
5.520944725615262
 10
4.591259179332452
 20
5.522529209126991
 10
4.588350253420557
 20
5.522538207598011
 10
4.585441327508662
 20
5.520970542325275
 10
4.582975259814911
 20
5.518064685233933
 10
4.581327472562751
 20
5.514263170402938
 10
4.580748860838946
 20
5.510144733838791
  0
LWPOLYLINE
  5
6D
330
1F
100
AcDbEntity
  8
0
  6
Continuous
 62
     7
370
    15
100
AcDbPolyline
 90
       17
 70
   128
 43
0.0
 10
4.547603226820313
 20
5.365780373847155
 10
4.548181838544118
 20
5.361971899582384
 10
4.549829625796276
 20
5.359053305583344
 10
4.552295693490028
 20
5.357468892723334
 10
4.555204619401923
 20
5.357459823600595
 10
4.558113545313818
 20
5.359027559525048
 10
4.560579638934519
 20
5.361933352910789
 10
4.562227400259729
 20
5.365734860795668
 10
4.562806011983534
 20
5.369853368011533
 10
4.562227400259729
 20
5.373661842276304
 10
4.560579638934519
 20
5.376580443221461
 10
4.558113545313818
 20
5.378164849135353
 10
4.555204619401923
 20
5.378173918258092
 10
4.552295693490028
 20
5.376606182333639
 10
4.549829625796276
 20
5.373700395894015
 10
4.548181838544118
 20
5.36989888106302
 10
4.547603226820313
 20
5.365780373847155
  0
LWPOLYLINE
  5
6E
330
1F
100
AcDbEntity
  8
0
  6
Continuous
 62
     7
370
    15
100
AcDbPolyline
 90
       17
 70
   128
 43
0.0
 10
4.580748860838946
 20
5.269283771058132
 10
4.581327472562751
 20
5.265475367445079
 10
4.582975259814911
 20
5.262556773446039
 10
4.585441327508662
 20
5.260972289934311
 10
4.588350253420557
 20
5.260963291463291
 10
4.591259179332452
 20
5.262530956736026
 10
4.593725247026203
 20
5.265436813827368
 10
4.595373034278362
 20
5.269238328658363
 10
4.595951646002168
 20
5.273356765222511
 10
4.595373034278362
 20
5.277165310138999
 10
4.593725247026203
 20
5.280083904138039
 10
4.591259179332452
 20
5.281668246346331
 10
4.588350253420557
 20
5.281677386120788
 10
4.585441327508662
 20
5.280109579544617
 10
4.582975259814911
 20
5.27720386375671
 10
4.581327472562751
 20
5.273402348925715
 10
4.580748860838946
 20
5.269283771058132
  0
LWPOLYLINE
  5
6F
330
1F
100
AcDbEntity
  8
0
  6
Continuous
 62
     7
370
    15
100
AcDbPolyline
 90
       17
 70
   128
 43
0.0
 10
4.547603226820313
 20
5.124919411066496
 10
4.548181838544118
 20
5.121111007453443
 10
4.549829625796276
 20
5.118192413454403
 10
4.552295693490028
 20
5.116607929942674
 10
4.555204619401923
 20
5.116598931471654
 10
4.558113545313818
 20
5.118166596744389
 10
4.560579638934519
 20
5.121072460781848
 10
4.562227400259729
 20
5.124873968666727
 10
4.562806011983534
 20
5.128992405230873
 10
4.562227400259729
 20
5.132800950147363
 10
4.560579638934519
 20
5.135719551092519
 10
4.558113545313818
 20
5.137303886354695
 10
4.555204619401923
 20
5.137313026129152
 10
4.552295693490028
 20
5.135745219552981
 10
4.549829625796276
 20
5.132839503765074
 10
4.548181838544118
 20
5.129037988934079
 10
4.547603226820313
 20
5.124919411066496
  0
LWPOLYLINE
  5
70
330
1F
100
AcDbEntity
  8
0
  6
Continuous
 62
     7
370
    15
100
AcDbPolyline
 90
       17
 70
   128
 43
0.0
 10
4.580748860838946
 20
5.028422878929191
 10
4.581327472562751
 20
5.024614475316138
 10
4.582975259814911
 20
5.021695881317098
 10
4.585441327508662
 20
5.02011139780537
 10
4.588350253420557
 20
5.02010239933435
 10
4.591259179332452
 20
5.021670064607085
 10
4.593725247026203
 20
5.024575921698427
 10
4.595373034278362
 20
5.028377436529422
 10
4.595951646002168
 20
5.032495873093569
 10
4.595373034278362
 20
5.036304276706623
 10
4.593725247026203
 20
5.039222870705661
 10
4.591259179332452
 20
5.04080735421739
 10
4.588350253420557
 20
5.040816352688411
 10
4.585441327508662
 20
5.039248687415676
 10
4.582975259814911
 20
5.036342830324334
 10
4.581327472562751
 20
5.032541315493337
 10
4.580748860838946
 20
5.028422878929191
  0
LWPOLYLINE
  5
71
330
1F
100
AcDbEntity
  8
0
  6
Continuous
 62
     7
370
    15
100
AcDbPolyline
 90
       17
 70
   128
 43
0.0
 10
4.547603226820313
 20
4.884058518937554
 10
4.548181838544118
 20
4.880250115324502
 10
4.549829625796276
 20
4.877331521325462
 10
4.552295693490028
 20
4.875747037813733
 10
4.555204619401923
 20
4.875738039342713
 10
4.558113545313818
 20
4.877305704615449
 10
4.560579638934519
 20
4.880211568652907
 10
4.562227400259729
 20
4.884013076537786
 10
4.562806011983534
 20
4.888131513101932
 10
4.562227400259729
 20
4.891940058018422
 10
4.560579638934519
 20
4.894858658963578
 10
4.558113545313818
 20
4.896442994225754
 10
4.555204619401923
 20
4.896452134000211
 10
4.552295693490028
 20
4.89488432742404
 10
4.549829625796276
 20
4.891978611636133
 10
4.548181838544118
 20
4.888177096805137
 10
4.547603226820313
 20
4.884058518937554
  0
LWPOLYLINE
  5
72
330
1F
100
AcDbEntity
  8
0
  6
Continuous
 62
     7
370
    15
100
AcDbPolyline
 90
       17
 70
   128
 43
0.0
 10
4.580748860838946
 20
4.78756198680025
 10
4.581327472562751
 20
4.783753583187197
 10
4.582975259814911
 20
4.780834989188158
 10
4.585441327508662
 20
4.779250505676428
 10
4.588350253420557
 20
4.779241507205409
 10
4.591259179332452
 20
4.780809172478144
 10
4.593725247026203
 20
4.783715029569486
 10
4.595373034278362
 20
4.787516544400482
 10
4.595951646002168
 20
4.791634980964628
 10
4.595373034278362
 20
4.795443384577682
 10
4.593725247026203
 20
4.798361978576721
 10
4.591259179332452
 20
4.79994646208845
 10
4.588350253420557
 20
4.799955460559471
 10
4.585441327508662
 20
4.798387795286735
 10
4.582975259814911
 20
4.795481938195393
 10
4.581327472562751
 20
4.791680423364398
 10
4.580748860838946
 20
4.78756198680025
  0
LWPOLYLINE
  5
73
330
1F
100
AcDbEntity
  8
0
  6
Continuous
 62
     7
370
    15
100
AcDbPolyline
 90
       17
 70
   128
 43
0.0
 10
4.547603226820313
 20
4.643197626808613
 10
4.548181838544118
 20
4.639389223195561
 10
4.549829625796276
 20
4.636470629196521
 10
4.552295693490028
 20
4.634886145684792
 10
4.555204619401923
 20
4.634877147213772
 10
4.558113545313818
 20
4.636444812486507
 10
4.560579638934519
 20
4.639350676523966
 10
4.562227400259729
 20
4.643152184408845
 10
4.562806011983534
 20
4.647270620972991
 10
4.562227400259729
 20
4.651079024586045
 10
4.560579638934519
 20
4.653997625531201
 10
4.558113545313818
 20
4.655582102096813
 10
4.555204619401923
 20
4.655591100567833
 10
4.552295693490028
 20
4.654023435295099
 10
4.549829625796276
 20
4.651117578203757
 10
4.548181838544118
 20
4.647316063372761
 10
4.547603226820313
 20
4.643197626808613
  0
LWPOLYLINE
  5
74
330
1F
100
AcDbEntity
  8
0
  6
Continuous
 62
     7
370
    15
100
AcDbPolyline
 90
       17
 70
   128
 43
0.0
 10
4.580748860838946
 20
4.546701094671309
 10
4.581327472562751
 20
4.542892691058256
 10
4.582975259814911
 20
4.539974097059217
 10
4.585441327508662
 20
4.538389613547487
 10
4.588350253420557
 20
4.538380615076468
 10
4.591259179332452
 20
4.539948280349203
 10
4.593725247026203
 20
4.542854137440546
 10
4.595373034278362
 20
4.546655652271541
 10
4.595951646002168
 20
4.550774088835688
 10
4.595373034278362
 20
4.554582492448741
 10
4.593725247026203
 20
4.55750108644778
 10
4.591259179332452
 20
4.559085569959509
 10
4.588350253420557
 20
4.55909456843053
 10
4.585441327508662
 20
4.557526903157794
 10
4.582975259814911
 20
4.554621046066452
 10
4.581327472562751
 20
4.550819531235456
 10
4.580748860838946
 20
4.546701094671309
  0
LWPOLYLINE
  5
75
330
1F
100
AcDbEntity
  8
0
  6
Continuous
 62
     7
370
    15
100
AcDbPolyline
 90
       17
 70
   128
 43
0.0
 10
4.547603226820313
 20
4.402336734679672
 10
4.548181838544118
 20
4.39852833106662
 10
4.549829625796276
 20
4.39560973706758
 10
4.552295693490028
 20
4.394025253555851
 10
4.555204619401923
 20
4.394016255084832
 10
4.558113545313818
 20
4.395583920357566
 10
4.560579638934519
 20
4.398489784395025
 10
4.562227400259729
 20
4.402291292279904
 10
4.562806011983534
 20
4.406409728844051
 10
4.562227400259729
 20
4.410218132457105
 10
4.560579638934519
 20
4.41313673340226
 10
4.558113545313818
 20
4.414721209967873
 10
4.555204619401923
 20
4.414730208438893
 10
4.552295693490028
 20
4.413162543166158
 10
4.549829625796276
 20
4.410256686074816
 10
4.548181838544118
 20
4.40645517124382
 10
4.547603226820313
 20
4.402336734679672
  0
LWPOLYLINE
  5
76
330
1F
100
AcDbEntity
  8
0
  6
Continuous
 62
     7
370
    15
100
AcDbPolyline
 90
       17
 70
   128
 43
0.0
 10
4.580748860838946
 20
4.305840202542368
 10
4.581327472562751
 20
4.302031657625878
 10
4.582975259814911
 20
4.299113063626839
 10
4.585441327508662
 20
4.297528721418547
 10
4.588350253420557
 20
4.297519581644091
 10
4.591259179332452
 20
4.299087388220262
 10
4.593725247026203
 20
4.301993104008167
 10
4.595373034278362
 20
4.305794618839163
 10
4.595951646002168
 20
4.309913196706747
 10
4.595373034278362
 20
4.3137216003198
 10
4.593725247026203
 20
4.316640194318839
 10
4.591259179332452
 20
4.318224677830568
 10
4.588350253420557
 20
4.318233676301588
 10
4.585441327508662
 20
4.316666011028853
 10
4.582975259814911
 20
4.31376015393751
 10
4.581327472562751
 20
4.309958639106515
 10
4.580748860838946
 20
4.305840202542368
  0
LINE
  5
77
330
1F
100
AcDbEntity
  8
0
  6
Continuous
 62
     7
370
    15
100
AcDbLine
 10
4.62149588743919
 20
8.847952588250379
 30
0.0
 11
4.611949947745642
 21
8.850510050994731
 31
0.0
  0
LINE
  5
78
330
1F
100
AcDbEntity
  8
0
  6
Continuous
 62
     7
370
    15
100
AcDbLine
 10
4.611949947745642
 20
8.850510050994731
 30
0.0
 11
4.50146450965918
 21
8.820909781061059
 31
0.0
  0
ARC
  5
79
330
1F
100
AcDbEntity
  8
0
  6
Continuous
 62
     7
370
    15
100
AcDbCircle
 10
4.539614847468949
 20
8.744046313792274
 30
0.0
 40
0.0137242646716513
100
AcDbArc
 50
309.6831746423936
 51
20.32103758105272
  0
ARC
  5
7A
330
1F
100
AcDbEntity
  8
0
  6
Continuous
 62
     7
370
    15
100
AcDbCircle
 10
4.572764454493519
 20
8.647548673301137
 30
0.0
 40
0.0137208749674973
100
AcDbArc
 50
309.673362138885
 51
20.33058602420508
  0
ARC
  5
7B
330
1F
100
AcDbEntity
  8
0
  6
Continuous
 62
     7
370
    15
100
AcDbCircle
 10
4.539618118915925
 20
8.503184545210643
 30
0.0
 40
0.0137215013488642
100
AcDbArc
 50
309.6749987290856
 51
20.32921349436657
  0
ARC
  5
7C
330
1F
100
AcDbEntity
  8
0
  6
Continuous
 62
     7
370
    15
100
AcDbCircle
 10
4.572763858366531
 20
8.406687940881928
 30
0.0
 40
0.0137213784736057
100
AcDbArc
 50
309.6748523331032
 51
20.32909582998532
  0
ARC
  5
7D
330
1F
100
AcDbEntity
  8
0
  6
Continuous
 62
     7
370
    15
100
AcDbCircle
 10
4.539618820474892
 20
8.262323421180559
 30
0.0
 40
0.0137208749674914
100
AcDbArc
 50
309.6733621388669
 51
20.33058602421538
  0
ARC
  5
7E
330
1F
100
AcDbEntity
  8
0
  6
Continuous
 62
     7
370
    15
100
AcDbCircle
 10
4.572763858366573
 20
8.165827048752975
 30
0.0
 40
0.01372137847357
100
AcDbArc
 50
309.6748523330069
 51
20.32909583009457
  0
ARC
  5
7F
330
1F
100
AcDbEntity
  8
0
  6
Continuous
 62
     7
370
    15
100
AcDbCircle
 10
4.539618224347906
 20
8.021462688761348
 30
0.0
 40
0.0137213784735973
100
AcDbArc
 50
309.6748523330842
 51
20.32909583000516
  0
ARC
  5
80
330
1F
100
AcDbEntity
  8
0
  6
Continuous
 62
     7
370
    15
100
AcDbCircle
 10
4.572763858366549
 20
7.924966156624042
 30
0.0
 40
0.0137213784735898
100
AcDbArc
 50
309.6748523330628
 51
20.32909583002848
  0
ARC
  5
81
330
1F
100
AcDbEntity
  8
0
  6
Continuous
 62
     7
370
    15
100
AcDbCircle
 10
4.539618224347913
 20
7.780601796632406
 30
0.0
 40
0.0137213784735914
100
AcDbArc
 50
309.674852333066
 51
20.3290958300259
  0
ARC
  5
82
330
1F
100
AcDbEntity
  8
0
  6
Continuous
 62
     7
370
    15
100
AcDbCircle
 10
4.572760481487577
 20
7.684106071835771
 30
0.0
 40
0.0137242646716567
100
AcDbArc
 50
309.6831746424088
 51
20.3210375810437
  0
ARC
  5
83
330
1F
100
AcDbEntity
  8
0
  6
Continuous
 62
     7
370
    15
100
AcDbCircle
 10
4.539616536114342
 20
7.539741308120657
 30
0.0
 40
0.0137228213640591
100
AcDbArc
 50
309.6790134053141
 51
20.32506678852417
  0
ARC
  5
84
330
1F
100
AcDbEntity
  8
0
  6
Continuous
 62
     7
370
    15
100
AcDbCircle
 10
4.572764156411075
 20
7.443244221864657
 30
0.0
 40
0.0137211267353968
100
AcDbArc
 50
309.6741072970417
 51
20.32984086605685
  0
ARC
  5
85
330
1F
100
AcDbEntity
  8
0
  6
Continuous
 62
     7
370
    15
100
AcDbCircle
 10
4.539618171631935
 20
7.298879977818512
 30
0.0
 40
0.0137214399112065
100
AcDbArc
 50
309.674925531356
 51
20.32915466248743
  0
ARC
  5
86
330
1F
100
AcDbEntity
  8
0
  6
Continuous
 62
     7
370
    15
100
AcDbCircle
 10
4.572762170132977
 20
7.202383813202693
 30
0.0
 40
0.0137228213640591
100
AcDbArc
 50
309.6790134053141
 51
20.32506678852417
  0
ARC
  5
87
330
1F
100
AcDbEntity
  8
0
  6
Continuous
 62
     7
370
    15
100
AcDbCircle
 10
4.539617353923992
 20
7.058019269436691
 30
0.0
 40
0.0137221305859482
100
AcDbArc
 50
309.6769694441138
 51
20.32711074972189
  0
ARC
  5
88
330
1F
100
AcDbEntity
  8
0
  6
Continuous
 62
     7
370
    15
100
AcDbCircle
 10
4.572762987942626
 20
6.961522701973527
 30
0.0
 40
0.0137221305859482
100
AcDbArc
 50
309.6769694441138
 51
20.32711074972189
  0
ARC
  5
89
330
1F
100
AcDbEntity
  8
0
  6
Continuous
 62
     7
370
    15
100
AcDbCircle
 10
4.539616685133162
 20
6.817158521158329
 30
0.0
 40
0.0137226954912442
100
AcDbArc
 50
309.6786409761758
 51
20.32543921766906
  0
ARC
  5
8A
330
1F
100
AcDbEntity
  8
0
  6
Continuous
 62
     7
370
    15
100
AcDbCircle
 10
4.572762666737999
 20
6.720661872743146
 30
0.0
 40
0.0137223976678233
100
AcDbArc
 50
309.677786901931
 51
20.32626028432406
  0
ARC
  5
8B
330
1F
100
AcDbEntity
  8
0
  6
Continuous
 62
     7
370
    15
100
AcDbCircle
 10
4.539617058710198
 20
6.576297517366126
 30
0.0
 40
0.0137223778279938
100
AcDbArc
 50
309.6777146205448
 51
20.32634906950986
  0
ARC
  5
8C
330
1F
100
AcDbEntity
  8
0
  6
Continuous
 62
     7
370
    15
100
AcDbCircle
 10
4.572762780169647
 20
6.479800927997854
 30
0.0
 40
0.0137223034413845
100
AcDbArc
 50
309.6774979048666
 51
20.3265616592447
  0
ARC
  5
8D
330
1F
100
AcDbEntity
  8
0
  6
Continuous
 62
     7
370
    15
100
AcDbCircle
 10
4.539617230578939
 20
6.335436561528697
 30
0.0
 40
0.0137222326567315
100
AcDbArc
 50
309.6772850565183
 51
20.32677863353332
  0
ARC
  5
8E
330
1F
100
AcDbEntity
  8
0
  6
Continuous
 62
     7
370
    15
100
AcDbCircle
 10
4.572762644209723
 20
6.238940047024822
 30
0.0
 40
0.0137224209242012
100
AcDbArc
 50
309.6778285648393
 51
20.32625162899717
  0
ARC
  5
8F
330
1F
100
AcDbEntity
  8
0
  6
Continuous
 62
     7
370
    15
100
AcDbCircle
 10
4.539617529300766
 20
6.094575572297992
 30
0.0
 40
0.0137219739975964
100
AcDbArc
 50
309.6765603826449
 51
20.32745379596346
  0
ARC
  5
90
330
1F
100
AcDbEntity
  8
0
  6
Continuous
 62
     7
370
    15
100
AcDbCircle
 10
4.5727631633194
 20
5.998079004834829
 30
0.0
 40
0.0137219739975964
100
AcDbArc
 50
309.6765603826449
 51
20.32745379596346
  0
ARC
  5
91
330
1F
100
AcDbEntity
  8
0
  6
Continuous
 62
     7
370
    15
100
AcDbCircle
 10
4.539616536114363
 20
5.853714921914629
 30
0.0
 40
0.0137228213640419
100
AcDbArc
 50
309.6790134052627
 51
20.32506678857467
  0
ARC
  5
92
330
1F
100
AcDbEntity
  8
0
  6
Continuous
 62
     7
370
    15
100
AcDbCircle
 10
4.572764156411105
 20
5.757217835658628
 30
0.0
 40
0.0137211267353709
100
AcDbArc
 50
309.6741072969636
 51
20.32984086612152
  0
ARC
  5
93
330
1F
100
AcDbEntity
  8
0
  6
Continuous
 62
     7
370
    15
100
AcDbCircle
 10
4.539618171631931
 20
5.612853591612491
 30
0.0
 40
0.0137214399112093
100
AcDbArc
 50
309.6749255313627
 51
20.32915466247532
  0
ARC
  5
94
330
1F
100
AcDbEntity
  8
0
  6
Continuous
 62
     7
370
    15
100
AcDbCircle
 10
4.572762170132976
 20
5.51635742699667
 30
0.0
 40
0.0137228213640602
100
AcDbArc
 50
309.6790134053193
 51
20.32506678852637
  0
ARC
  5
95
330
1F
100
AcDbEntity
  8
0
  6
Continuous
 62
     7
370
    15
100
AcDbCircle
 10
4.539616834161374
 20
5.371992987154945
 30
0.0
 40
0.0137225696110755
100
AcDbArc
 50
309.6782685167255
 51
20.32581167712016
  0
ARC
  5
96
330
1F
100
AcDbEntity
  8
0
  6
Continuous
 62
     7
370
    15
100
AcDbCircle
 10
4.572764454493523
 20
5.275495900889091
 30
0.0
 40
0.0137208749674938
100
AcDbArc
 50
309.6733621388783
 51
20.33058602421371
  0
ARC
  5
97
330
1F
100
AcDbEntity
  8
0
  6
Continuous
 62
     7
370
    15
100
AcDbCircle
 10
4.539618118915947
 20
5.131131772798593
 30
0.0
 40
0.013721501348846
100
AcDbArc
 50
309.6749987290313
 51
20.32921349441837
  0
ARC
  5
98
330
1F
100
AcDbEntity
  8
0
  6
Continuous
 62
     7
370
    15
100
AcDbCircle
 10
4.572763858366532
 20
5.034635168469882
 30
0.0
 40
0.0137213784736043
100
AcDbArc
 50
309.6748523331051
 51
20.32909582999009
  0
ARC
  5
99
330
1F
100
AcDbEntity
  8
0
  6
Continuous
 62
     7
370
    15
100
AcDbCircle
 10
4.539618820474909
 20
4.890270648768509
 30
0.0
 40
0.0137208749674766
100
AcDbArc
 50
309.6733621388269
 51
20.33058602426422
  0
ARC
  5
9A
330
1F
100
AcDbEntity
  8
0
  6
Continuous
 62
     7
370
    15
100
AcDbCircle
 10
4.572763858366553
 20
4.793774276340937
 30
0.0
 40
0.0137213784735873
100
AcDbArc
 50
309.6748523330512
 51
20.32909583003363
  0
ARC
  5
9B
330
1F
100
AcDbEntity
  8
0
  6
Continuous
 62
     7
370
    15
100
AcDbCircle
 10
4.539618224347898
 20
4.649409916349306
 30
0.0
 40
0.0137213784736044
100
AcDbArc
 50
309.6748523331028
 51
20.32909582998313
  0
ARC
  5
9C
330
1F
100
AcDbEntity
  8
0
  6
Continuous
 62
     7
370
    15
100
AcDbCircle
 10
4.572763858366549
 20
4.552913384211997
 30
0.0
 40
0.0137213784735902
100
AcDbArc
 50
309.6748523330604
 51
20.32909583002848
  0
ARC
  5
9D
330
1F
100
AcDbEntity
  8
0
  6
Continuous
 62
     7
370
    15
100
AcDbCircle
 10
4.539618224347918
 20
4.408549024220358
 30
0.0
 40
0.0137213784735867
100
AcDbArc
 50
309.6748523330536
 51
20.32909583003711
  0
ARC
  5
9E
330
1F
100
AcDbEntity
  8
0
  6
Continuous
 62
     7
370
    15
100
AcDbCircle
 10
4.572760481487603
 20
4.31205329942372
 30
0.0
 40
0.0137242646716347
100
AcDbArc
 50
309.683174642345
 51
20.32103758110191
  0
LINE
  5
9F
330
1F
100
AcDbEntity
  8
0
  6
Continuous
 62
     7
370
    15
100
AcDbLine
 10
4.347674916972062
 20
10.27124963366053
 30
0.0
 11
4.335736363872525
 21
10.3497170532863
 31
0.0
  0
LINE
  5
A0
330
1F
100
AcDbEntity
  8
0
  6
Continuous
 62
     7
370
    15
100
AcDbLine
 10
4.490415973628618
 20
10.23300772702714
 30
0.0
 11
4.347674916972062
 21
10.27124963366053
 31
0.0
  0
LINE
  5
A1
330
1F
100
AcDbEntity
  8
0
  6
Continuous
 62
     7
370
    15
100
AcDbLine
 10
4.490415973628618
 20
10.23300772702714
 30
0.0
 11
4.490415973628618
 21
7.417945758831806
 31
0.0
  0
LINE
  5
A2
330
1F
100
AcDbEntity
  8
0
  6
Continuous
 62
     7
370
    15
100
AcDbLine
 10
4.490415973628618
 20
7.417945758831806
 30
0.0
 11
4.181056757357301
 21
7.500826511867638
 31
0.0
  0
LINE
  5
A3
330
1F
100
AcDbEntity
  8
0
  6
Continuous
 62
     7
370
    15
100
AcDbLine
 10
4.181056757357301
 20
7.500826511867638
 30
0.0
 11
4.181056757357301
 21
10.34599600326444
 31
0.0
  0
LINE
  5
A4
330
1F
100
AcDbEntity
  8
0
  6
Continuous
 62
     7
370
    15
100
AcDbLine
 10
4.314371126943281
 20
10.31027961027975
 30
0.0
 11
4.181056757357301
 21
10.34599600326444
 31
0.0
  0
LINE
  5
A5
330
1F
100
AcDbEntity
  8
0
  6
Continuous
 62
     7
370
    15
100
AcDbLine
 10
4.335736363872525
 20
10.3497170532863
 30
0.0
 11
4.314371126943281
 21
10.31027961027975
 31
0.0
  0
LINE
  5
A6
330
1F
100
AcDbEntity
  8
0
  6
Continuous
 62
     7
370
    15
100
AcDbLine
 10
4.622998483776204
 20
7.453466078584542
 30
0.0
 11
4.62149588743919
 21
7.453063516419361
 31
0.0
  0
LINE
  5
A7
330
1F
100
AcDbEntity
  8
0
  6
Continuous
 62
     7
370
    15
100
AcDbLine
 10
4.586405706308619
 20
7.443662469082485
 30
0.0
 11
4.581740540716341
 21
7.442412619661526
 31
0.0
  0
LINE
  5
A8
330
1F
100
AcDbEntity
  8
0
  6
Continuous
 62
     7
370
    15
100
AcDbLine
 10
4.50146450965918
 20
7.420905783741338
 30
0.0
 11
4.490415973628618
 21
7.417945758831806
 31
0.0
  0
LINE
  5
A9
330
1F
100
AcDbEntity
  8
0
  6
Continuous
 62
     7
370
    15
100
AcDbLine
 10
4.490415973628618
 20
10.23300772702714
 30
0.0
 11
4.622998483776204
 21
10.26852804677987
 31
0.0
  0
LINE
  5
AA
330
1F
100
AcDbEntity
  8
0
  6
Continuous
 62
     7
370
    15
100
AcDbLine
 10
4.622998483776204
 20
10.26852804677987
 30
0.0
 11
4.622998483776204
 21
7.453466078584542
 31
0.0
  0
LINE
  5
AB
330
1F
100
AcDbEntity
  8
0
  6
Continuous
 62
     7
370
    15
100
AcDbLine
 10
4.347674916972062
 20
10.27124963366053
 30
0.0
 11
4.480257427119648
 21
10.30676995341326
 31
0.0
  0
LINE
  5
AC
330
1F
100
AcDbEntity
  8
0
  6
Continuous
 62
     7
370
    15
100
AcDbLine
 10
4.622998483776204
 20
10.26852804677987
 30
0.0
 11
4.480257427119648
 21
10.30676995341326
 31
0.0
  0
LINE
  5
AD
330
1F
100
AcDbEntity
  8
0
  6
Continuous
 62
     7
370
    15
100
AcDbLine
 10
4.335736363872525
 20
10.3497170532863
 30
0.0
 11
4.468318874020112
 21
10.38523737303904
 31
0.0
  0
LINE
  5
AE
330
1F
100
AcDbEntity
  8
0
  6
Continuous
 62
     7
370
    15
100
AcDbLine
 10
4.480257427119648
 20
10.30676995341326
 30
0.0
 11
4.468318874020112
 21
10.38523737303904
 31
0.0
  0
LINE
  5
AF
330
1F
100
AcDbEntity
  8
0
  6
Continuous
 62
     7
370
    15
100
AcDbLine
 10
4.181056757357301
 20
10.34599600326444
 30
0.0
 11
4.313639267504887
 21
10.38151632301718
 31
0.0
  0
LINE
  5
B0
330
1F
100
AcDbEntity
  8
0
  6
Continuous
 62
     7
370
    15
100
AcDbLine
 10
4.384034518802183
 20
10.36265665719572
 30
0.0
 11
4.313639267504887
 21
10.38151632301718
 31
0.0
  0
LINE
  5
B1
330
1F
100
AcDbEntity
  8
0
  6
Continuous
 62
     7
370
    15
100
AcDbLine
 10
4.490415973628618
 20
5.581381332708125
 30
0.0
 11
4.50146450965918
 21
5.584341357617657
 31
0.0
  0
LINE
  5
B2
330
1F
100
AcDbEntity
  8
0
  6
Continuous
 62
     7
370
    15
100
AcDbLine
 10
4.62149588743919
 20
5.616499090295681
 30
0.0
 11
4.622998483776204
 21
5.61690165246086
 31
0.0
  0
LINE
  5
B3
330
1F
100
AcDbEntity
  8
0
  6
Continuous
 62
     7
370
    15
100
AcDbLine
 10
4.181056757357301
 20
5.498500578798404
 30
0.0
 11
4.181056757357301
 21
2.819092594347154
 31
0.0
  0
LINE
  5
B4
330
1F
100
AcDbEntity
  8
0
  6
Continuous
 62
     7
370
    15
100
AcDbLine
 10
4.490415973628618
 20
2.76631936451279
 30
0.0
 11
4.490415973628618
 21
5.581381332708125
 31
0.0
  0
LINE
  5
B5
330
1F
100
AcDbEntity
  8
0
  6
Continuous
 62
     7
370
    15
100
AcDbLine
 10
4.490415973628618
 20
2.76631936451279
 30
0.0
 11
4.347674916972062
 21
2.804561271146178
 31
0.0
  0
LINE
  5
B6
330
1F
100
AcDbEntity
  8
0
  6
Continuous
 62
     7
370
    15
100
AcDbLine
 10
4.347674916972062
 20
2.804561271146178
 30
0.0
 11
4.335736363872525
 21
2.732490792157729
 31
0.0
  0
LINE
  5
B7
330
1F
100
AcDbEntity
  8
0
  6
Continuous
 62
     7
370
    15
100
AcDbLine
 10
4.335736363872525
 20
2.732490792157729
 30
0.0
 11
4.314371126943281
 21
2.78337620136246
 31
0.0
  0
LINE
  5
B8
330
1F
100
AcDbEntity
  8
0
  6
Continuous
 62
     7
370
    15
100
AcDbLine
 10
4.314371126943281
 20
2.78337620136246
 30
0.0
 11
4.181056757357301
 21
2.819092594347154
 31
0.0
  0
LINE
  5
B9
330
1F
100
AcDbEntity
  8
0
  6
Continuous
 62
     7
370
    15
100
AcDbLine
 10
4.622998483776204
 20
2.801839684265526
 30
0.0
 11
4.622998483776204
 21
5.61690165246086
 31
0.0
  0
LINE
  5
BA
330
1F
100
AcDbEntity
  8
0
  6
Continuous
 62
     7
370
    15
100
AcDbLine
 10
4.622998483776204
 20
2.801839684265526
 30
0.0
 11
4.490415973628618
 21
2.76631936451279
 31
0.0
  0
LINE
  5
BB
330
1F
100
AcDbEntity
  8
0
  6
Continuous
 62
     7
370
    15
100
AcDbLine
 10
4.468318874020112
 20
2.768011111910464
 30
0.0
 11
4.335736363872525
 21
2.732490792157729
 31
0.0
  0
LINE
  5
BC
330
1F
100
AcDbEntity
  8
0
  6
Continuous
 62
     7
370
    15
100
AcDbLine
 10
4.468989545858551
 20
2.772059795544688
 30
0.0
 11
4.468318874020112
 21
2.768011111910464
 31
0.0
  0
LINE
  5
BD
330
1F
100
AcDbEntity
  8
0
  6
Continuous
 62
     7
370
    15
100
AcDbLine
 10
3.871697567012931
 20
7.252184259706257
 30
0.0
 11
4.50146450965918
 21
7.420905783741338
 31
0.0
  0
LINE
  5
BE
330
1F
100
AcDbEntity
  8
0
  6
Continuous
 62
     7
370
    15
100
AcDbLine
 10
4.62149588743919
 20
7.453063516419361
 30
0.0
 11
5.882532420922598
 21
7.790909140546935
 31
0.0
  0
LINE
  5
BF
330
1F
100
AcDbEntity
  8
0
  6
Continuous
 62
     7
370
    15
100
AcDbLine
 10
3.871697567012931
 20
7.252184259706257
 30
0.0
 11
3.728956510356375
 21
7.290426166339645
 31
0.0
  0
LINE
  5
C0
330
1F
100
AcDbEntity
  8
0
  6
Continuous
 62
     7
370
    15
100
AcDbLine
 10
3.728956510356375
 20
7.290426166339645
 30
0.0
 11
3.661775199323184
 21
7.278824491272296
 31
0.0
  0
LINE
  5
C1
330
1F
100
AcDbEntity
  8
0
  6
Continuous
 62
     7
370
    15
100
AcDbLine
 10
3.661775199323184
 20
7.278824491272296
 30
0.0
 11
3.673555596412574
 21
7.293428556046098
 31
0.0
  0
LINE
  5
C2
330
1F
100
AcDbEntity
  8
0
  6
Continuous
 62
     7
370
    15
100
AcDbLine
 10
3.673555596412574
 20
7.293428556046098
 30
0.0
 11
3.540241226826593
 21
7.329144949030793
 31
0.0
  0
LINE
  5
C3
330
1F
100
AcDbEntity
  8
0
  6
Continuous
 62
     7
370
    15
100
AcDbLine
 10
5.595270328566303
 20
7.879709957294065
 30
0.0
 11
4.622998490257942
 21
7.619227586392736
 31
0.0
  0
LINE
  5
C4
330
1F
100
AcDbEntity
  8
0
  6
Continuous
 62
     7
370
    15
100
AcDbLine
 10
4.181056757357301
 20
7.500826511867638
 30
0.0
 11
3.540241226826593
 21
7.329144949030793
 31
0.0
  0
LINE
  5
C5
330
1F
100
AcDbEntity
  8
0
  6
Continuous
 62
     7
370
    15
100
AcDbLine
 10
5.595270328566303
 20
7.879709957294065
 30
0.0
 11
5.728584698152283
 21
7.843993564309371
 31
0.0
  0
LINE
  5
C6
330
1F
100
AcDbEntity
  8
0
  6
Continuous
 62
     7
370
    15
100
AcDbLine
 10
5.728584698152283
 20
7.843993564309371
 30
0.0
 11
5.783095569100161
 21
7.847149662884994
 31
0.0
  0
LINE
  5
C7
330
1F
100
AcDbEntity
  8
0
  6
Continuous
 62
     7
370
    15
100
AcDbLine
 10
5.783095569100161
 20
7.847149662884994
 30
0.0
 11
5.739791364266042
 21
7.829151047180324
 31
0.0
  0
LINE
  5
C8
330
1F
100
AcDbEntity
  8
0
  6
Continuous
 62
     7
370
    15
100
AcDbLine
 10
5.739791364266042
 20
7.829151047180324
 30
0.0
 11
5.882532420922598
 21
7.790909140546935
 31
0.0
  0
LINE
  5
C9
330
1F
100
AcDbEntity
  8
0
  6
Continuous
 62
     7
370
    15
100
AcDbLine
 10
3.871697567012931
 20
7.071538555283692
 30
0.0
 11
3.871697567012931
 21
7.252184259706257
 31
0.0
  0
LINE
  5
CA
330
1F
100
AcDbEntity
  8
0
  6
Continuous
 62
     7
370
    15
100
AcDbLine
 10
5.882532420922598
 20
7.610263436124371
 30
0.0
 11
5.882532420922598
 21
7.790909140546935
 31
0.0
  0
LINE
  5
CB
330
1F
100
AcDbEntity
  8
0
  6
Continuous
 62
     7
370
    15
100
AcDbLine
 10
3.871697567012931
 20
7.071538555283692
 30
0.0
 11
4.50146450965918
 21
7.240260079318773
 31
0.0
  0
LINE
  5
CC
330
1F
100
AcDbEntity
  8
0
  6
Continuous
 62
     7
370
    15
100
AcDbLine
 10
4.62149588743919
 20
7.272417811996797
 30
0.0
 11
5.882532420922598
 21
7.610263436124371
 31
0.0
  0
LINE
  5
CD
330
1F
100
AcDbEntity
  8
0
  6
Continuous
 62
     7
370
    15
100
AcDbLine
 10
3.728956510356375
 20
7.109780461917081
 30
0.0
 11
3.728956510356375
 21
7.290426166339645
 31
0.0
  0
LINE
  5
CE
330
1F
100
AcDbEntity
  8
0
  6
Continuous
 62
     7
370
    15
100
AcDbLine
 10
3.871697567012931
 20
7.071538555283692
 30
0.0
 11
3.728956510356375
 21
7.109780461917081
 31
0.0
  0
LINE
  5
CF
330
1F
100
AcDbEntity
  8
0
  6
Continuous
 62
     7
370
    15
100
AcDbLine
 10
3.661775199323184
 20
7.098178786849731
 30
0.0
 11
3.661775199323184
 21
7.278824491272296
 31
0.0
  0
LINE
  5
D0
330
1F
100
AcDbEntity
  8
0
  6
Continuous
 62
     7
370
    15
100
AcDbLine
 10
3.728956510356375
 20
7.109780461917081
 30
0.0
 11
3.661775199323184
 21
7.098178786849731
 31
0.0
  0
LINE
  5
D1
330
1F
100
AcDbEntity
  8
0
  6
Continuous
 62
     7
370
    15
100
AcDbLine
 10
3.540241226826593
 20
7.148499244608228
 30
0.0
 11
3.540241226826593
 21
7.329144949030793
 31
0.0
  0
LINE
  5
D2
330
1F
100
AcDbEntity
  8
0
  6
Continuous
 62
     7
370
    15
100
AcDbLine
 10
3.661775200943618
 20
7.115938949765025
 30
0.0
 11
3.540241226826593
 21
7.148499244608228
 31
0.0
  0
LINE
  5
D3
330
1F
100
AcDbEntity
  8
0
  6
Continuous
 62
     7
370
    15
100
AcDbLine
 10
5.783095569100161
 20
7.81754941902033
 30
0.0
 11
5.783095569100161
 21
7.847149662884994
 31
0.0
  0
LINE
  5
D4
330
1F
100
AcDbEntity
  8
0
  6
Continuous
 62
     7
370
    15
100
AcDbLine
 10
3.783309175060644
 20
5.738346746364364
 30
0.0
 11
3.58443537094884
 21
5.685066256316087
 31
0.0
  0
LINE
  5
D5
330
1F
100
AcDbEntity
  8
0
  6
Continuous
 62
     7
370
    15
100
AcDbLine
 10
5.772047050894377
 20
6.191426947671309
 30
0.0
 11
5.805192589307386
 21
6.197150906458992
 31
0.0
  0
LINE
  5
D6
330
1F
100
AcDbEntity
  8
0
  6
Continuous
 62
     7
370
    15
100
AcDbLine
 10
5.805192589307386
 20
6.197150906458992
 30
0.0
 11
5.793412296482816
 21
6.182546869320421
 31
0.0
  0
LINE
  5
D7
330
1F
100
AcDbEntity
  8
0
  6
Continuous
 62
     7
370
    15
100
AcDbLine
 10
5.793412296482816
 20
6.182546869320421
 30
0.0
 11
5.926726668752641
 21
6.146830475616695
 31
0.0
  0
LINE
  5
D8
330
1F
100
AcDbEntity
  8
0
  6
Continuous
 62
     7
370
    15
100
AcDbLine
 10
3.871697567012931
 20
5.596265467353423
 30
0.0
 11
4.50146450965918
 21
5.764986991388504
 31
0.0
  0
LINE
  5
D9
330
1F
100
AcDbEntity
  8
0
  6
Continuous
 62
     7
370
    15
100
AcDbLine
 10
4.62149588743919
 20
5.797144724066527
 30
0.0
 11
5.926726668752641
 21
6.146830475616695
 31
0.0
  0
LINE
  5
DA
330
1F
100
AcDbEntity
  8
0
  6
Continuous
 62
     7
370
    15
100
AcDbLine
 10
3.871697567012931
 20
5.596265467353423
 30
0.0
 11
3.738383194743107
 21
5.631981861057147
 31
0.0
  0
LINE
  5
DB
330
1F
100
AcDbEntity
  8
0
  6
Continuous
 62
     7
370
    15
100
AcDbLine
 10
3.738383194743107
 20
5.631981861057147
 30
0.0
 11
3.683872323238205
 21
5.628825762630758
 31
0.0
  0
LINE
  5
DC
330
1F
100
AcDbEntity
  8
0
  6
Continuous
 62
     7
370
    15
100
AcDbLine
 10
3.683872323238205
 20
5.628825762630758
 30
0.0
 11
3.727176422744093
 21
5.646824350985095
 31
0.0
  0
LINE
  5
DD
330
1F
100
AcDbEntity
  8
0
  6
Continuous
 62
     7
370
    15
100
AcDbLine
 10
3.727176422744093
 20
5.646824350985095
 30
0.0
 11
3.58443537094884
 21
5.685066256316087
 31
0.0
  0
LINE
  5
DE
330
1F
100
AcDbEntity
  8
0
  6
Continuous
 62
     7
370
    15
100
AcDbLine
 10
3.871697567012931
 20
5.415619833582575
 30
0.0
 11
3.871697567012931
 21
5.596265467353423
 31
0.0
  0
LINE
  5
DF
330
1F
100
AcDbEntity
  8
0
  6
Continuous
 62
     7
370
    15
100
AcDbLine
 10
3.871697567012931
 20
5.415619833582575
 30
0.0
 11
3.738383194743107
 21
5.451336227286302
 31
0.0
  0
LINE
  5
E0
330
1F
100
AcDbEntity
  8
0
  6
Continuous
 62
     7
370
    15
100
AcDbLine
 10
3.738383194743107
 20
5.451336227286302
 30
0.0
 11
3.738383194743107
 21
5.631981861057147
 31
0.0
  0
LINE
  5
E1
330
1F
100
AcDbEntity
  8
0
  6
Continuous
 62
     7
370
    15
100
AcDbLine
 10
5.926726668752641
 20
5.966184841845849
 30
0.0
 11
5.926726668752641
 21
6.146830475616695
 31
0.0
  0
LINE
  5
E2
330
1F
100
AcDbEntity
  8
0
  6
Continuous
 62
     7
370
    15
100
AcDbLine
 10
3.871697567012931
 20
5.415619833582575
 30
0.0
 11
4.50146450965918
 21
5.584341357617657
 31
0.0
  0
LINE
  5
E3
330
1F
100
AcDbEntity
  8
0
  6
Continuous
 62
     7
370
    15
100
AcDbLine
 10
4.62149588743919
 20
5.616499090295681
 30
0.0
 11
5.926726668752641
 21
5.966184841845849
 31
0.0
  0
LINE
  5
E4
330
1F
100
AcDbEntity
  8
0
  6
Continuous
 62
     7
370
    15
100
AcDbLine
 10
3.683872323238205
 20
5.448180128859912
 30
0.0
 11
3.683872323238205
 21
5.628825762630758
 31
0.0
  0
LINE
  5
E5
330
1F
100
AcDbEntity
  8
0
  6
Continuous
 62
     7
370
    15
100
AcDbLine
 10
3.738383194743107
 20
5.451336227286302
 30
0.0
 11
3.683872323238205
 21
5.448180128859912
 31
0.0
  0
LINE
  5
E6
330
1F
100
AcDbEntity
  8
0
  6
Continuous
 62
     7
370
    15
100
AcDbLine
 10
3.58443537094884
 20
5.504420622545241
 30
0.0
 11
3.58443537094884
 21
5.685066256316087
 31
0.0
  0
LINE
  5
E7
330
1F
100
AcDbEntity
  8
0
  6
Continuous
 62
     7
370
    15
100
AcDbLine
 10
3.683872260041267
 20
5.47778038099416
 30
0.0
 11
3.58443537094884
 21
5.504420622545241
 31
0.0
  0
LINE
  5
E8
330
1F
100
AcDbEntity
  8
0
  6
Continuous
 62
     7
370
    15
100
AcDbLine
 10
5.805192589307386
 20
6.179390760140193
 30
0.0
 11
5.805192589307386
 21
6.197150906458992
 31
0.0
  0
LINE
  5
E9
330
1F
100
AcDbEntity
  8
0
  6
Continuous
 62
     7
370
    15
100
AcDbLine
 10
3.871697567012931
 20
7.071538555283692
 30
0.0
 11
3.871697567012931
 21
6.981215773724128
 31
0.0
  0
LINE
  5
EA
330
1F
100
AcDbEntity
  8
0
  6
Continuous
 62
     7
370
    15
100
AcDbLine
 10
4.62149588743919
 20
7.272417811996797
 30
0.0
 11
5.993017833082113
 21
7.639863699111926
 31
0.0
  0
LINE
  5
EB
330
1F
100
AcDbEntity
  8
0
  6
Continuous
 62
     7
370
    15
100
AcDbLine
 10
5.993017833082113
 20
7.639863699111926
 30
0.0
 11
5.993017833082113
 21
7.549540917552362
 31
0.0
  0
LINE
  5
EC
330
1F
100
AcDbEntity
  8
0
  6
Continuous
 62
     7
370
    15
100
AcDbLine
 10
3.871697567012931
 20
6.981215773724128
 30
0.0
 11
4.50146450965918
 21
7.149937297759209
 31
0.0
  0
LINE
  5
ED
330
1F
100
AcDbEntity
  8
0
  6
Continuous
 62
     7
370
    15
100
AcDbLine
 10
4.62149588743919
 20
7.182095030437233
 30
0.0
 11
5.993017833082113
 21
7.549540917552362
 31
0.0
  0
LINE
  5
EE
330
1F
100
AcDbEntity
  8
0
  6
Continuous
 62
     7
370
    15
100
AcDbLine
 10
2.87420119895905
 20
7.24845607492242
 30
0.0
 11
3.871697567012931
 21
6.981215773724128
 31
0.0
  0
LINE
  5
EF
330
1F
100
AcDbEntity
  8
0
  6
Continuous
 62
     7
370
    15
100
AcDbLine
 10
2.87420119895905
 20
7.24845607492242
 30
0.0
 11
2.87420119895905
 21
7.338778856481984
 31
0.0
  0
LINE
  5
F0
330
1F
100
AcDbEntity
  8
0
  6
Continuous
 62
     7
370
    15
100
AcDbLine
 10
2.87420119895905
 20
7.338778856481984
 30
0.0
 11
3.540241265717017
 21
7.160339361611647
 31
0.0
  0
LINE
  5
F1
330
1F
100
AcDbEntity
  8
0
  6
Continuous
 62
     7
370
    15
100
AcDbLine
 10
5.993017833082113
 20
7.639863699111926
 30
0.0
 11
5.882532396616084
 21
7.669463968611465
 31
0.0
  0
LINE
  5
F2
330
1F
100
AcDbEntity
  8
0
  6
Continuous
 62
     7
370
    15
100
AcDbLine
 10
5.34652117649387
 20
7.813067298406632
 30
0.0
 11
4.954863704913852
 21
7.917996663588994
 31
0.0
  0
SPLINE
  5
F3
330
1F
100
AcDbEntity
  8
0
  6
Continuous
 62
     7
370
    15
100
AcDbSpline
210
0.0
220
0.0
230
1.0
 70
     8
 71
     3
 72
    31
 73
    27
 74
     0
 42
0.0000000001
 43
0.0000000001
 40
0.0
 40
0.0
 40
0.0
 40
0.0
 40
0.0455018329096081
 40
0.0908571319483735
 40
0.1361489885662524
 40
0.1814322800229089
 40
0.2267355053688069
 40
0.2720631167891093
 40
0.3254899249396926
 40
0.3788632544251549
 40
0.4320941695080557
 40
0.4852382884810109
 40
0.538523266508642
 40
0.5921735135265031
 40
0.6462826437547993
 40
0.700306448894794
 40
0.7283530018908686
 40
0.7561604653680424
 40
0.783746191270862
 40
0.8112055367558333
 40
0.8387186216011208
 40
0.8664341471056864
 40
0.9092182784490963
 40
0.9523704620488386
 40
0.9955141222252914
 40
1.0
 40
1.0
 40
1.0
 40
1.0
 10
2.87420119895905
 20
7.338778856481984
 30
0.0
 10
2.886412569352603
 20
7.346084172364118
 30
0.0
 10
2.910795984704719
 20
7.360671278126346
 30
0.0
 10
2.953702240914697
 20
7.381699848969688
 30
0.0
 10
3.000660790287213
 20
7.402036370628154
 30
0.0
 10
3.051786471846747
 20
7.421631138594025
 30
0.0
 10
3.106579784139616
 20
7.440505079916458
 30
0.0
 10
3.168166365905869
 20
7.459740184745998
 30
0.0
 10
3.236808811692499
 20
7.47918564587675
 30
0.0
 10
3.312608972458836
 20
7.49868292377145
 30
0.0
 10
3.391396413151833
 20
7.517233394283182
 30
0.0
 10
3.472935037393545
 20
7.534884395094469
 30
0.0
 10
3.557252543856176
 20
7.55169348347043
 30
0.0
 10
3.644358290054801
 20
7.567752802570074
 30
0.0
 10
3.733957041201154
 20
7.583023995799591
 30
0.0
 10
3.808857524761238
 20
7.596105833490326
 30
0.0
 10
3.867343493847544
 20
7.607422021011517
 30
0.0
 10
3.910191280045973
 20
7.616573229445492
 30
0.0
 10
3.950541541942789
 20
7.626359353204618
 30
0.0
 10
3.987771610119017
 20
7.636935529751702
 30
0.0
 10
4.021269745599001
 20
7.648398652831921
 30
0.0
 10
4.057292528945892
 20
7.662691771334962
 30
0.0
 10
4.09489846066104
 20
7.679967480357444
 30
0.0
 10
4.135298985972273
 20
7.699915086404664
 30
0.0
 10
4.163330350678716
 20
7.714014084818529
 30
0.0
 10
4.179530977694905
 20
7.721177990410627
 30
0.0
 10
4.181056796247728
 20
7.721852706275154
 30
0.0
  0
SPLINE
  5
F4
330
1F
100
AcDbEntity
  8
0
  6
Continuous
 62
     7
370
    15
100
AcDbSpline
210
0.0
220
0.0
230
1.0
 70
     8
 71
     3
 72
    13
 73
     9
 74
     0
 42
0.0000000001
 43
0.0000000001
 40
0.0
 40
0.0
 40
0.0
 40
0.0
 40
0.1499797109227294
 40
0.3564847395886095
 40
0.517891546812902
 40
0.6785432925709685
 40
0.8389040801620332
 40
1.0
 40
1.0
 40
1.0
 40
1.0
 10
4.622998548593581
 20
7.85811475139776
 30
0.0
 10
4.638102858451805
 20
7.861672938869409
 30
0.0
 10
4.674004087580382
 20
7.870130346384295
 30
0.0
 10
4.727652690078121
 20
7.88195599511386
 30
0.0
 10
4.784464841168393
 20
7.893327781717095
 30
0.0
 10
4.838597875512805
 20
7.90283163513409
 30
0.0
 10
4.89505837743203
 20
7.911339762290796
 30
0.0
 10
4.934898226129785
 20
7.915774316061891
 30
0.0
 10
4.954863704913852
 20
7.917996663588994
 30
0.0
  0
LINE
  5
F5
330
1F
100
AcDbEntity
  8
0
  6
Continuous
 62
     7
370
    15
100
AcDbLine
 10
3.915891711135177
 20
5.608105566991552
 30
0.0
 11
4.50146450965918
 21
5.764986991388504
 31
0.0
  0
LINE
  5
F6
330
1F
100
AcDbEntity
  8
0
  6
Continuous
 62
     7
370
    15
100
AcDbLine
 10
4.62149588743919
 20
5.797144724066527
 30
0.0
 11
5.772047008763085
 21
6.105390085206547
 31
0.0
  0
LINE
  5
F7
330
1F
100
AcDbEntity
  8
0
  6
Continuous
 62
     7
370
    15
100
AcDbLine
 10
3.915891711135177
 20
5.608105566991552
 30
0.0
 11
3.915891711135177
 21
6.243071365222043
 31
0.0
  0
LINE
  5
F8
330
1F
100
AcDbEntity
  8
0
  6
Continuous
 62
     7
370
    15
100
AcDbLine
 10
3.915891711135177
 20
6.243071365222043
 30
0.0
 11
3.783309175060642
 21
6.265060393478052
 31
0.0
  0
LINE
  5
F9
330
1F
100
AcDbEntity
  8
0
  6
Continuous
 62
     7
370
    15
100
AcDbLine
 10
3.783309175060642
 20
6.265060393478052
 30
0.0
 11
3.871697567012931
 21
6.351008311311106
 31
0.0
  0
LINE
  5
FA
330
1F
100
AcDbEntity
  8
0
  6
Continuous
 62
     7
370
    15
100
AcDbLine
 10
3.871697567012931
 20
6.351008311311106
 30
0.0
 11
3.871697567012931
 21
6.981215773724128
 31
0.0
  0
LINE
  5
FB
330
1F
100
AcDbEntity
  8
0
  6
Continuous
 62
     7
370
    15
100
AcDbLine
 10
5.81624115288533
 20
7.502180491215381
 30
0.0
 11
4.62149588743919
 21
7.182095030437233
 31
0.0
  0
LINE
  5
FC
330
1F
100
AcDbEntity
  8
0
  6
Continuous
 62
     7
370
    15
100
AcDbLine
 10
5.81624115288533
 20
7.502180491215381
 30
0.0
 11
5.81624115288533
 21
6.871973028802359
 31
0.0
  0
LINE
  5
FD
330
1F
100
AcDbEntity
  8
0
  6
Continuous
 62
     7
370
    15
100
AcDbLine
 10
5.81624115288533
 20
6.871973028802359
 30
0.0
 11
5.90462954483762
 21
6.833385565090751
 31
0.0
  0
LINE
  5
FE
330
1F
100
AcDbEntity
  8
0
  6
Continuous
 62
     7
370
    15
100
AcDbLine
 10
5.90462954483762
 20
6.833385565090751
 30
0.0
 11
5.772047008763085
 21
6.740355883437038
 31
0.0
  0
LINE
  5
FF
330
1F
100
AcDbEntity
  8
0
  6
Continuous
 62
     7
370
    15
100
AcDbLine
 10
5.772047008763085
 20
6.740355883437038
 30
0.0
 11
5.772047008763085
 21
6.105390085206547
 31
0.0
  0
LINE
  5
100
330
1F
100
AcDbEntity
  8
0
  6
Continuous
 62
     7
370
    15
100
AcDbLine
 10
3.73911504390187
 20
6.3865286345369
 30
0.0
 11
3.871697567012931
 21
6.351008311311106
 31
0.0
  0
LINE
  5
101
330
1F
100
AcDbEntity
  8
0
  6
Continuous
 62
     7
370
    15
100
AcDbLine
 10
3.73911504390187
 20
6.3865286345369
 30
0.0
 11
3.73911504390187
 21
7.016736096949922
 31
0.0
  0
LINE
  5
102
330
1F
100
AcDbEntity
  8
0
  6
Continuous
 62
     7
370
    15
100
AcDbLine
 10
3.73911504390187
 20
7.016736096949922
 30
0.0
 11
3.871697567012931
 21
6.981215773724128
 31
0.0
  0
LINE
  5
103
330
1F
100
AcDbEntity
  8
0
  6
Continuous
 62
     7
370
    15
100
AcDbLine
 10
3.650726651949582
 20
6.300580716703846
 30
0.0
 11
3.783309175060642
 21
6.265060393478052
 31
0.0
  0
LINE
  5
104
330
1F
100
AcDbEntity
  8
0
  6
Continuous
 62
     7
370
    15
100
AcDbLine
 10
3.650726651949582
 20
6.300580716703846
 30
0.0
 11
3.73911504390187
 21
6.3865286345369
 31
0.0
  0
LINE
  5
105
330
1F
100
AcDbEntity
  8
0
  6
Continuous
 62
     7
370
    15
100
AcDbLine
 10
3.783309188024117
 20
5.643625890217345
 30
0.0
 11
3.915891711135177
 21
5.608105566991552
 31
0.0
  0
LINE
  5
106
330
1F
100
AcDbEntity
  8
0
  6
Continuous
 62
     7
370
    15
100
AcDbLine
 10
3.783309188024117
 20
5.643625890217345
 30
0.0
 11
3.783309188024117
 21
6.265060396307251
 31
0.0
  0
TEXT
  5
10E
330
1F
100
AcDbEntity
  8
0
100
AcDbText
 10
3.685788947834623
 20
1.976187922736791
 30
0.0
 40
0.25
  1
USP  RS
100
AcDbText
  0
TEXT
  5
10F
330
1F
100
AcDbEntity
  8
0
100
AcDbText
 10
2.761379930646249
 20
1.446815210765006
 30
0.0
 40
0.25
  1
SIMPSON  CS
100
AcDbText
  0
ENDSEC
  0
SECTION
  2
OBJECTS
  0
DICTIONARY
  5
C
330
0
100
AcDbDictionary
281
     1
  3
ACAD_COLOR
350
10B
  3
ACAD_GROUP
350
D
  3
ACAD_LAYOUT
350
1A
  3
ACAD_MATERIAL
350
10A
  3
ACAD_MLINESTYLE
350
17
  3
ACAD_PLOTSETTINGS
350
19
  3
ACAD_PLOTSTYLENAME
350
E
  0
DICTIONARY
  5
10B
102
{ACAD_REACTORS
330
C
102
}
330
C
100
AcDbDictionary
281
     1
  0
DICTIONARY
  5
D
102
{ACAD_REACTORS
330
C
102
}
330
C
100
AcDbDictionary
281
     1
  0
DICTIONARY
  5
1A
102
{ACAD_REACTORS
330
C
102
}
330
C
100
AcDbDictionary
281
     1
  3
Layout1
350
1E
  3
Layout2
350
26
  3
Model
350
22
  0
DICTIONARY
  5
10A
102
{ACAD_REACTORS
330
C
102
}
330
C
100
AcDbDictionary
281
     1
  0
DICTIONARY
  5
17
102
{ACAD_REACTORS
330
C
102
}
330
C
100
AcDbDictionary
281
     1
  3
Standard
350
18
  0
DICTIONARY
  5
19
102
{ACAD_REACTORS
330
C
102
}
330
C
100
AcDbDictionary
281
     1
  0
ACDBDICTIONARYWDFLT
  5
E
102
{ACAD_REACTORS
330
C
102
}
330
C
100
AcDbDictionary
281
     1
  3
Normal
350
F
100
AcDbDictionaryWithDefault
340
F
  0
LAYOUT
  5
1E
102
{ACAD_REACTORS
330
1A
102
}
330
1A
100
AcDbPlotSettings
  1

  2
none_device
  4

  6

 40
0.0
 41
0.0
 42
0.0
 43
0.0
 44
0.0
 45
0.0
 46
0.0
 47
0.0
 48
0.0
 49
0.0
140
0.0
141
0.0
142
1.0
143
1.0
 70
   688
 72
     0
 73
     0
 74
     5
  7

 75
    16
147
1.0
 76
     0
 77
     2
 78
   300
148
0.0
149
0.0
100
AcDbLayout
  1
Layout1
 70
     1
 71
     1
 10
0.0
 20
0.0
 11
12.0
 21
9.0
 12
0.0
 22
0.0
 32
0.0
 14
1.000000000000000E+20
 24
1.000000000000000E+20
 34
1.000000000000000E+20
 15
-1.000000000000000E+20
 25
-1.000000000000000E+20
 35
-1.000000000000000E+20
146
0.0
 13
0.0
 23
0.0
 33
0.0
 16
1.0
 26
0.0
 36
0.0
 17
0.0
 27
1.0
 37
0.0
 76
     0
330
1B
  0
LAYOUT
  5
26
102
{ACAD_REACTORS
330
1A
102
}
330
1A
100
AcDbPlotSettings
  1

  2
none_device
  4

  6

 40
0.0
 41
0.0
 42
0.0
 43
0.0
 44
0.0
 45
0.0
 46
0.0
 47
0.0
 48
0.0
 49
0.0
140
0.0
141
0.0
142
1.0
143
1.0
 70
   688
 72
     0
 73
     0
 74
     5
  7

 75
    16
147
1.0
 76
     0
 77
     2
 78
   300
148
0.0
149
0.0
100
AcDbLayout
  1
Layout2
 70
     1
 71
     2
 10
0.0
 20
0.0
 11
0.0
 21
0.0
 12
0.0
 22
0.0
 32
0.0
 14
0.0
 24
0.0
 34
0.0
 15
0.0
 25
0.0
 35
0.0
146
0.0
 13
0.0
 23
0.0
 33
0.0
 16
1.0
 26
0.0
 36
0.0
 17
0.0
 27
1.0
 37
0.0
 76
     0
330
23
  0
LAYOUT
  5
22
102
{ACAD_REACTORS
330
1A
102
}
330
1A
100
AcDbPlotSettings
  1

  2
none_device
  4

  6

 40
0.0
 41
0.0
 42
0.0
 43
0.0
 44
0.0
 45
0.0
 46
0.0
 47
0.0
 48
0.0
 49
0.0
140
0.0
141
0.0
142
1.0
143
1.0
 70
  1712
 72
     0
 73
     0
 74
     0
  7

 75
     0
147
1.0
 76
     0
 77
     2
 78
   300
148
0.0
149
0.0
100
AcDbLayout
  1
Model
 70
     1
 71
     0
 10
0.0
 20
0.0
 11
8.5
 21
11.0
 12
0.0
 22
0.0
 32
0.0
 14
0.0
 24
0.0
 34
0.0
 15
8.5
 25
11.0
 35
0.0
146
0.0
 13
0.0
 23
0.0
 33
0.0
 16
1.0
 26
0.0
 36
0.0
 17
0.0
 27
1.0
 37
0.0
 76
     0
330
1F
  0
MLINESTYLE
  5
18
102
{ACAD_REACTORS
330
17
102
}
330
17
100
AcDbMlineStyle
  2
STANDARD
 70
     0
  3

 62
   256
 51
90.0
 52
90.0
 71
     2
 49
0.5
 62
   256
  6
BYLAYER
 49
-0.5
 62
   256
  6
BYLAYER
  0
ACDBPLACEHOLDER
  5
F
102
{ACAD_REACTORS
330
E
102
}
330
E
  0
ENDSEC
  0
EOF
