  0
SECTION
  2
HEADER
  9
$ACADVER
  1
AC1018
  9
$ACADMAINTVER
 70
     0
  9
$DWGCODEPAGE
  3
ANSI_1252
  9
$INSBASE
 10
0.0
 20
0.0
 30
0.0
  9
$EXTMIN
 10
1.661472486250751
 20
2.999586712067488
 30
0.0
  9
$EXTMAX
 10
6.139404954618901
 20
9.398507192348112
 30
0.0
  9
$LIMMIN
 10
0.0
 20
0.0
  9
$LIMMAX
 10
8.5
 20
11.0
  9
$ORTHOMODE
 70
     0
  9
$REGENMODE
 70
     1
  9
$FILLMODE
 70
     1
  9
$QTEXTMODE
 70
     0
  9
$MIRRTEXT
 70
     1
  9
$LTSCALE
 40
1.0
  9
$ATTMODE
 70
     1
  9
$TEXTSIZE
 40
0.1388888888888889
  9
$TRACEWID
 40
0.05
  9
$TEXTSTYLE
  7
Standard
  9
$CLAYER
  8
0
  9
$CELTYPE
  6
ByLayer
  9
$CECOLOR
 62
   256
  9
$CELTSCALE
 40
1.0
  9
$DISPSILH
 70
     0
  9
$DIMSCALE
 40
1.0
  9
$DIMASZ
 40
0.156
  9
$DIMEXO
 40
0.05
  9
$DIMDLI
 40
0.38
  9
$DIMRND
 40
0.0
  9
$DIMDLE
 40
0.0
  9
$DIMEXE
 40
0.125
  9
$DIMTP
 40
0.0
  9
$DIMTM
 40
0.0
  9
$DIMTXT
 40
0.125
  9
$DIMCEN
 40
0.09
  9
$DIMTSZ
 40
0.0
  9
$DIMTOL
 70
     0
  9
$DIMLIM
 70
     0
  9
$DIMTIH
 70
     1
  9
$DIMTOH
 70
     1
  9
$DIMSE1
 70
     0
  9
$DIMSE2
 70
     0
  9
$DIMTAD
 70
     0
  9
$DIMZIN
 70
     0
  9
$DIMBLK
  1

  9
$DIMASO
 70
     1
  9
$DIMSHO
 70
     1
  9
$DIMPOST
  1

  9
$DIMAPOST
  1

  9
$DIMALT
 70
     0
  9
$DIMALTD
 70
     2
  9
$DIMALTF
 40
25.4
  9
$DIMLFAC
 40
12.0
  9
$DIMTOFL
 70
     0
  9
$DIMTVP
 40
0.0
  9
$DIMTIX
 70
     0
  9
$DIMSOXD
 70
     0
  9
$DIMSAH
 70
     0
  9
$DIMBLK1
  1

  9
$DIMBLK2
  1

  9
$DIMSTYLE
  2
Standard
  9
$DIMCLRD
 70
     0
  9
$DIMCLRE
 70
     0
  9
$DIMCLRT
 70
     0
  9
$DIMTFAC
 40
1.0
  9
$DIMGAP
 40
0.06
  9
$DIMJUST
 70
     0
  9
$DIMSD1
 70
     0
  9
$DIMSD2
 70
     0
  9
$DIMTOLJ
 70
     1
  9
$DIMTZIN
 70
     0
  9
$DIMALTZ
 70
     0
  9
$DIMALTTZ
 70
     0
  9
$DIMUPT
 70
     0
  9
$DIMDEC
 70
     3
  9
$DIMTDEC
 70
     3
  9
$DIMALTU
 70
     2
  9
$DIMALTTD
 70
     2
  9
$DIMTXSTY
  7
Standard
  9
$DIMAUNIT
 70
     0
  9
$DIMADEC
 70
     0
  9
$DIMALTRND
 40
0.0
  9
$DIMAZIN
 70
     0
  9
$DIMDSEP
 70
    46
  9
$DIMATFIT
 70
     3
  9
$DIMFRAC
 70
     0
  9
$DIMLDRBLK
  1

  9
$DIMLUNIT
 70
     2
  9
$DIMLWD
 70
    -2
  9
$DIMLWE
 70
    -2
  9
$DIMTMOVE
 70
     0
  9
$LUNITS
 70
     2
  9
$LUPREC
 70
     3
  9
$SKETCHINC
 40
0.1
  9
$FILLETRAD
 40
0.5
  9
$AUNITS
 70
     0
  9
$AUPREC
 70
     0
  9
$MENU
  1
.
  9
$ELEVATION
 40
0.0
  9
$PELEVATION
 40
0.0
  9
$THICKNESS
 40
0.0
  9
$LIMCHECK
 70
     0
  9
$CHAMFERA
 40
0.5
  9
$CHAMFERB
 40
0.5
  9
$CHAMFERC
 40
1.0
  9
$CHAMFERD
 40
0.0
  9
$SKPOLY
 70
     0
  9
$TDCREATE
 40
2456456.676273391
  9
$TDUCREATE
 40
2456456.884606724
  9
$TDUPDATE
 40
2456571.480751540
  9
$TDUUPDATE
 40
2456571.689084873
  9
$TDINDWG
 40
0.0021731597
  9
$TDUSRTIMER
 40
0.0021731597
  9
$USRTIMER
 70
     1
  9
$ANGBASE
 50
0.0
  9
$ANGDIR
 70
     0
  9
$PDMODE
 70
     0
  9
$PDSIZE
 40
-1.0
  9
$PLINEWID
 40
0.0
  9
$SPLFRAME
 70
     0
  9
$SPLINETYPE
 70
     6
  9
$SPLINESEGS
 70
     8
  9
$HANDSEED
  5
1D2
  9
$SURFTAB1
 70
     6
  9
$SURFTAB2
 70
     6
  9
$SURFTYPE
 70
     6
  9
$SURFU
 70
     6
  9
$SURFV
 70
     6
  9
$UCSBASE
  2

  9
$UCSNAME
  2

  9
$UCSORG
 10
0.0
 20
0.0
 30
0.0
  9
$UCSXDIR
 10
1.0
 20
0.0
 30
0.0
  9
$UCSYDIR
 10
0.0
 20
1.0
 30
0.0
  9
$UCSORTHOREF
  2

  9
$UCSORTHOVIEW
 70
     0
  9
$UCSORGTOP
 10
0.0
 20
0.0
 30
0.0
  9
$UCSORGBOTTOM
 10
0.0
 20
0.0
 30
0.0
  9
$UCSORGLEFT
 10
0.0
 20
0.0
 30
0.0
  9
$UCSORGRIGHT
 10
0.0
 20
0.0
 30
0.0
  9
$UCSORGFRONT
 10
0.0
 20
0.0
 30
0.0
  9
$UCSORGBACK
 10
0.0
 20
0.0
 30
0.0
  9
$PUCSBASE
  2

  9
$PUCSNAME
  2

  9
$PUCSORG
 10
0.0
 20
0.0
 30
0.0
  9
$PUCSXDIR
 10
1.0
 20
0.0
 30
0.0
  9
$PUCSYDIR
 10
0.0
 20
1.0
 30
0.0
  9
$PUCSORTHOREF
  2

  9
$PUCSORTHOVIEW
 70
     0
  9
$PUCSORGTOP
 10
0.0
 20
0.0
 30
0.0
  9
$PUCSORGBOTTOM
 10
0.0
 20
0.0
 30
0.0
  9
$PUCSORGLEFT
 10
0.0
 20
0.0
 30
0.0
  9
$PUCSORGRIGHT
 10
0.0
 20
0.0
 30
0.0
  9
$PUCSORGFRONT
 10
0.0
 20
0.0
 30
0.0
  9
$PUCSORGBACK
 10
0.0
 20
0.0
 30
0.0
  9
$USERI1
 70
     0
  9
$USERI2
 70
     0
  9
$USERI3
 70
     0
  9
$USERI4
 70
     0
  9
$USERI5
 70
     0
  9
$USERR1
 40
0.0
  9
$USERR2
 40
0.0
  9
$USERR3
 40
0.0
  9
$USERR4
 40
0.0
  9
$USERR5
 40
0.0
  9
$WORLDVIEW
 70
     1
  9
$SHADEDGE
 70
     3
  9
$SHADEDIF
 70
    70
  9
$TILEMODE
 70
     1
  9
$MAXACTVP
 70
    64
  9
$PINSBASE
 10
0.0
 20
0.0
 30
0.0
  9
$PLIMCHECK
 70
     0
  9
$PEXTMIN
 10
1.000000000000000E+20
 20
1.000000000000000E+20
 30
1.000000000000000E+20
  9
$PEXTMAX
 10
-1.000000000000000E+20
 20
-1.000000000000000E+20
 30
-1.000000000000000E+20
  9
$PLIMMIN
 10
0.0
 20
0.0
  9
$PLIMMAX
 10
12.0
 20
9.0
  9
$UNITMODE
 70
     0
  9
$VISRETAIN
 70
     1
  9
$PLINEGEN
 70
     0
  9
$PSLTSCALE
 70
     1
  9
$TREEDEPTH
 70
  3020
  9
$CMLSTYLE
  2
Standard
  9
$CMLJUST
 70
     0
  9
$CMLSCALE
 40
1.0
  9
$PROXYGRAPHICS
 70
     1
  9
$MEASUREMENT
 70
     0
  9
$CELWEIGHT
370
    -1
  9
$ENDCAPS
280
     0
  9
$JOINSTYLE
280
     0
  9
$LWDISPLAY
290
     1
  9
$INSUNITS
 70
     1
  9
$HYPERLINKBASE
  1

  9
$STYLESHEET
  1

  9
$XEDIT
290
     1
  9
$CEPSNTYPE
380
     0
  9
$PSTYLEMODE
290
     1
  9
$FINGERPRINTGUID
  2
{D22B2966-E9E3-40AB-9FB9-DB547A6AFB39}
  9
$VERSIONGUID
  2
{61A094E5-B3B6-4F5B-8935-528C4B0D4CE8}
  9
$EXTNAMES
290
     1
  9
$PSVPSCALE
 40
0.0
  9
$OLESTARTUP
290
     0
  9
$SORTENTS
280
   127
  9
$INDEXCTL
280
     0
  9
$HIDETEXT
280
     0
  9
$XCLIPFRAME
290
     0
  9
$HALOGAP
280
     0
  9
$OBSCOLOR
 70
   257
  9
$OBSLTYPE
280
     0
  9
$INTERSECTIONDISPLAY
280
     0
  9
$INTERSECTIONCOLOR
 70
   257
  9
$DIMASSOC
280
     1
  9
$PROJECTNAME
  1

  0
ENDSEC
  0
SECTION
  2
CLASSES
  0
CLASS
  1
ACDBDICTIONARYWDFLT
  2
AcDbDictionaryWithDefault
  3
ObjectDBX Classes
 90
        0
 91
        1
280
     0
281
     0
  0
CLASS
  1
VISUALSTYLE
  2
AcDbVisualStyle
  3
ObjectDBX Classes
 90
     4095
 91
        0
280
     0
281
     0
  0
CLASS
  1
MATERIAL
  2
AcDbMaterial
  3
ObjectDBX Classes
 90
        0
 91
        0
280
     0
281
     0
  0
ENDSEC
  0
SECTION
  2
TABLES
  0
TABLE
  2
VPORT
  5
8
330
0
100
AcDbSymbolTable
 70
     3
  0
VPORT
  5
1D1
330
8
100
AcDbSymbolTableRecord
100
AcDbViewportTableRecord
  2
*Active
 70
     0
 10
0.0
 20
0.0
 11
1.0
 21
1.0
 12
3.567750473380337
 22
6.093598423434873
 13
0.0
 23
0.0
 14
0.5
 24
0.5
 15
0.5
 25
0.5
 16
0.0
 26
0.0
 36
1.0
 17
0.0
 27
0.0
 37
0.0
 40
7.188993743435498
 41
2.247298919567827
 42
50.0
 43
0.0
 44
0.0
 50
0.0
 51
0.0
 71
     0
 72
  2000
 73
     1
 74
     3
 75
     0
 76
     0
 77
     0
 78
     0
281
     0
 65
     1
110
0.0
120
0.0
130
0.0
111
1.0
121
0.0
131
0.0
112
0.0
122
1.0
132
0.0
 79
     0
146
0.0
  0
ENDTAB
  0
TABLE
  2
LTYPE
  5
5
330
0
100
AcDbSymbolTable
 70
     6
  0
LTYPE
  5
14
330
5
100
AcDbSymbolTableRecord
100
AcDbLinetypeTableRecord
  2
ByBlock
 70
     0
  3

 72
    65
 73
     0
 40
0.0
  0
LTYPE
  5
15
330
5
100
AcDbSymbolTableRecord
100
AcDbLinetypeTableRecord
  2
ByLayer
 70
     0
  3

 72
    65
 73
     0
 40
0.0
  0
LTYPE
  5
16
330
5
100
AcDbSymbolTableRecord
100
AcDbLinetypeTableRecord
  2
Continuous
 70
     0
  3
Solid line
 72
    65
 73
     0
 40
0.0
  0
LTYPE
  5
3F
330
5
100
AcDbSymbolTableRecord
100
AcDbLinetypeTableRecord
  2
HIDDEN
 70
     0
  3
Hidden __ __ __ __ __ __ __ __ __ __ __ __ __ __
 72
    65
 73
     2
 40
0.075
 49
0.05
 74
     0
 49
-0.025
 74
     0
  0
LTYPE
  5
40
330
5
100
AcDbSymbolTableRecord
100
AcDbLinetypeTableRecord
  2
PHANTOM
 70
     0
  3
Phantom ______  __  __  ______  __  __  ______
 72
    65
 73
     6
 40
0.5
 49
0.25
 74
     0
 49
-0.05
 74
     0
 49
0.05
 74
     0
 49
-0.05
 74
     0
 49
0.05
 74
     0
 49
-0.05
 74
     0
  0
LTYPE
  5
41
330
5
100
AcDbSymbolTableRecord
100
AcDbLinetypeTableRecord
  2
CENTER
 70
     0
  3
Center ____ _ ____ _ ____ _ ____ _ ____ _ ____
 72
    65
 73
     4
 40
0.4
 49
0.25
 74
     0
 49
-0.05
 74
     0
 49
0.05
 74
     0
 49
-0.05
 74
     0
  0
LTYPE
  5
42
330
5
100
AcDbSymbolTableRecord
100
AcDbLinetypeTableRecord
  2
CENTERX2
 70
     0
  3
Center (2x) ________  __  ________  __  _____
 72
    65
 73
     4
 40
0.8
 49
0.5
 74
     0
 49
-0.1
 74
     0
 49
0.1
 74
     0
 49
-0.1
 74
     0
  0
LTYPE
  5
43
330
5
100
AcDbSymbolTableRecord
100
AcDbLinetypeTableRecord
  2
DOT2
 70
     0
  3
Dot (.5x) ........................................
 72
    65
 73
     2
 40
0.025
 49
0.0
 74
     0
 49
-0.025
 74
     0
  0
ENDTAB
  0
TABLE
  2
LAYER
  5
2
330
0
100
AcDbSymbolTable
 70
     7
  0
LAYER
  5
10
330
2
100
AcDbSymbolTableRecord
100
AcDbLayerTableRecord
  2
0
 70
     0
 62
     7
  6
Continuous
370
    -3
390
F
  0
LAYER
  5
44
330
2
100
AcDbSymbolTableRecord
100
AcDbLayerTableRecord
  2
SLD-0
 70
     0
 62
   179
  6
Continuous
370
    -3
390
F
  0
LAYER
  5
45
330
2
100
AcDbSymbolTableRecord
100
AcDbLayerTableRecord
  2
SLD-DEFPOINTS
 70
     0
 62
   179
  6
Continuous
370
    -3
390
F
  0
LAYER
  5
46
330
2
100
AcDbSymbolTableRecord
100
AcDbLayerTableRecord
  2
OBJ
 70
     0
 62
   179
  6
Continuous
370
    -3
390
F
  0
LAYER
  5
47
330
2
100
AcDbSymbolTableRecord
100
AcDbLayerTableRecord
  2
FORMAT
 70
     0
 62
     7
  6
Continuous
370
    -3
390
F
  0
LAYER
  5
48
330
2
100
AcDbSymbolTableRecord
100
AcDbLayerTableRecord
  2
TOLERANCES
 70
     0
 62
     7
  6
Continuous
370
    -3
390
F
  0
LAYER
  5
49
330
2
100
AcDbSymbolTableRecord
100
AcDbLayerTableRecord
  2
QTY-BLANK-SIZE-1
 70
     0
 62
     7
  6
Continuous
370
    -3
390
F
  0
ENDTAB
  0
TABLE
  2
STYLE
  5
3
330
0
100
AcDbSymbolTable
 70
     2
  0
STYLE
  5
11
330
3
100
AcDbSymbolTableRecord
100
AcDbTextStyleTableRecord
  2
Standard
 70
     0
 40
0.0
 41
1.0
 50
0.0
 71
     0
 42
0.1388888888888889
  3
txt
  4

  0
STYLE
  5
1B8
330
3
100
AcDbSymbolTableRecord
100
AcDbTextStyleTableRecord
  2
SLDTEXTSTYLE0
 70
     0
 40
0.0
 41
0.7
 50
0.0
 71
     0
 42
0.2
  3
TXT
  4

  0
ENDTAB
  0
TABLE
  2
VIEW
  5
6
330
0
100
AcDbSymbolTable
 70
     0
  0
ENDTAB
  0
TABLE
  2
UCS
  5
7
330
0
100
AcDbSymbolTable
 70
     0
  0
ENDTAB
  0
TABLE
  2
APPID
  5
9
330
0
100
AcDbSymbolTable
 70
     1
  0
APPID
  5
12
330
9
100
AcDbSymbolTableRecord
100
AcDbRegAppTableRecord
  2
ACAD
 70
     0
  0
ENDTAB
  0
TABLE
  2
DIMSTYLE
  5
A
330
0
100
AcDbSymbolTable
 70
     1
100
AcDbDimStyleTable
 71
     0
  0
DIMSTYLE
105
27
330
A
100
AcDbSymbolTableRecord
100
AcDbDimStyleTableRecord
  2
Standard
 70
     0
340
11
  0
ENDTAB
  0
TABLE
  2
BLOCK_RECORD
  5
1
330
0
100
AcDbSymbolTable
 70
     1
  0
BLOCK_RECORD
  5
1F
330
1
100
AcDbSymbolTableRecord
100
AcDbBlockTableRecord
  2
*Model_Space
340
22
  0
BLOCK_RECORD
  5
1B
330
1
100
AcDbSymbolTableRecord
100
AcDbBlockTableRecord
  2
*Paper_Space
340
1E
  0
BLOCK_RECORD
  5
23
330
1
100
AcDbSymbolTableRecord
100
AcDbBlockTableRecord
  2
*Paper_Space0
340
26
  0
ENDTAB
  0
ENDSEC
  0
SECTION
  2
BLOCKS
  0
BLOCK
  5
20
330
1F
100
AcDbEntity
  8
0
100
AcDbBlockBegin
  2
*Model_Space
 70
     0
 10
0.0
 20
0.0
 30
0.0
  3
*Model_Space
  1

  0
ENDBLK
  5
21
330
1F
100
AcDbEntity
  8
0
100
AcDbBlockEnd
  0
BLOCK
  5
1C
330
1B
100
AcDbEntity
 67
     1
  8
0
100
AcDbBlockBegin
  2
*Paper_Space
 70
     0
 10
0.0
 20
0.0
 30
0.0
  3
*Paper_Space
  1

  0
ENDBLK
  5
1D
330
1B
100
AcDbEntity
 67
     1
  8
0
100
AcDbBlockEnd
  0
BLOCK
  5
24
330
23
100
AcDbEntity
  8
0
100
AcDbBlockBegin
  2
*Paper_Space0
 70
     0
 10
0.0
 20
0.0
 30
0.0
  3
*Paper_Space0
  1

  0
ENDBLK
  5
25
330
23
100
AcDbEntity
  8
0
100
AcDbBlockEnd
  0
ENDSEC
  0
SECTION
  2
ENTITIES
  0
LINE
  5
4A
330
1F
100
AcDbEntity
  8
0
  6
Continuous
 62
     7
370
    15
100
AcDbLine
 10
2.548395031560194
 20
6.219276704944516
 30
0.0
 11
2.548395031560195
 21
6.647860350116068
 31
0.0
  0
LINE
  5
4B
330
1F
100
AcDbEntity
  8
0
  6
Continuous
 62
     7
370
    15
100
AcDbLine
 10
1.931895067631064
 20
6.647860366138527
 30
0.0
 11
1.931895067631063
 21
6.219276720966976
 31
0.0
  0
LINE
  5
4C
330
1F
100
AcDbEntity
  8
0
  6
Continuous
 62
     7
370
    15
100
AcDbLine
 10
4.749173391951877
 20
5.904316765265574
 30
0.0
 11
4.749173391951877
 21
5.475733135808575
 31
0.0
  0
LINE
  5
4D
330
1F
100
AcDbEntity
  8
0
  6
Continuous
 62
     7
370
    15
100
AcDbLine
 10
5.365673226167848
 20
5.475733155039373
 30
0.0
 11
5.365673226167849
 21
5.904316784496372
 31
0.0
  0
LINE
  5
4E
330
1F
100
AcDbEntity
  8
0
  6
Continuous
 62
     7
370
    15
100
AcDbLine
 10
2.521395153526688
 20
4.955797334061933
 30
0.0
 11
2.52139515352669
 21
6.154299275833247
 31
0.0
  0
LINE
  5
4F
330
1F
100
AcDbEntity
  8
0
  6
Continuous
 62
     7
370
    15
100
AcDbLine
 10
2.52139515352669
 20
6.606481754928479
 30
0.0
 11
2.521395153526691
 21
6.810911988784652
 31
0.0
  0
LINE
  5
50
330
1F
100
AcDbEntity
  8
0
  6
Continuous
 62
     7
370
    15
100
AcDbLine
 10
1.958895014112435
 20
6.810911903732102
 30
0.0
 11
1.958895014112435
 21
6.606481669875929
 31
0.0
  0
LINE
  5
51
330
1F
100
AcDbEntity
  8
0
  6
Continuous
 62
     7
370
    15
100
AcDbLine
 10
1.958895014112433
 20
6.154299190780697
 30
0.0
 11
1.958895014112431
 21
4.955797249009382
 31
0.0
  0
LINE
  5
52
330
1F
100
AcDbEntity
  8
0
  6
Continuous
 62
     7
370
    15
100
AcDbLine
 10
4.744923284445697
 20
6.325110743229597
 30
0.0
 11
4.744923284445697
 21
6.110818936358374
 31
0.0
  0
LINE
  5
53
330
1F
100
AcDbEntity
  8
0
  6
Continuous
 62
     7
370
    15
100
AcDbLine
 10
5.369923463387189
 20
6.11081891044869
 30
0.0
 11
5.36992346338719
 21
6.325110717319915
 31
0.0
  0
LINE
  5
54
330
1F
100
AcDbEntity
  8
0
  6
Continuous
 62
     7
370
    15
100
AcDbLine
 10
5.338673340951769
 20
4.185547975087281
 30
0.0
 11
5.338673340951771
 21
5.410755549203138
 31
0.0
  0
LINE
  5
55
330
1F
100
AcDbEntity
  8
0
  6
Continuous
 62
     7
370
    15
100
AcDbLine
 10
5.338673340951772
 20
5.862938020441093
 30
0.0
 11
5.338673340951773
 21
6.04066269266821
 31
0.0
  0
LINE
  5
56
330
1F
100
AcDbEntity
  8
0
  6
Continuous
 62
     7
370
    15
100
AcDbLine
 10
4.776173338433248
 20
6.040662741230091
 30
0.0
 11
4.776173338433248
 21
5.862938069002975
 31
0.0
  0
LINE
  5
57
330
1F
100
AcDbEntity
  8
0
  6
Continuous
 62
     7
370
    15
100
AcDbLine
 10
4.776173338433247
 20
5.410755597765019
 30
0.0
 11
4.776173338433244
 21
4.185548023649162
 31
0.0
  0
LINE
  5
58
330
1F
100
AcDbEntity
  8
0
  6
Continuous
 62
     7
370
    15
100
AcDbLine
 10
5.696113340882866
 20
5.915608719348408
 30
0.0
 11
5.695741532072975
 21
5.915245822551628
 31
0.0
  0
LINE
  5
59
330
1F
100
AcDbEntity
  8
0
  6
Continuous
 62
     7
370
    15
100
AcDbLine
 10
2.724984019598575
 20
6.474120198003061
 30
0.0
 11
2.729941772232217
 21
6.477628799189364
 31
0.0
  0
LINE
  5
5A
330
1F
100
AcDbEntity
  8
0
  6
Continuous
 62
     7
370
    15
100
AcDbLine
 10
2.742231449735583
 20
6.522848456270512
 30
0.0
 11
2.739731659981762
 21
6.528383832080786
 31
0.0
  0
LINE
  5
5B
330
1F
100
AcDbEntity
  8
0
  6
Continuous
 62
     7
370
    15
100
AcDbLine
 10
2.729200681955814
 20
6.531246003331057
 30
0.0
 11
2.724242929322173
 21
6.527737402144753
 31
0.0
  0
LINE
  5
5C
330
1F
100
AcDbEntity
  8
0
  6
Continuous
 62
     7
370
    15
100
AcDbLine
 10
2.711953251818806
 20
6.482517745063606
 30
0.0
 11
2.714452904676894
 21
6.476982235638899
 31
0.0
  0
LINE
  5
5D
330
1F
100
AcDbEntity
  8
0
  6
Continuous
 62
     7
370
    15
100
AcDbLine
 10
2.719987999379982
 20
6.533749813051259
 30
0.0
 11
2.715030246746341
 21
6.530241211864955
 31
0.0
  0
LINE
  5
5E
330
1F
100
AcDbEntity
  8
0
  6
Continuous
 62
     7
370
    15
100
AcDbLine
 10
2.702740569242974
 20
6.485021554783808
 30
0.0
 11
2.705240222101062
 21
6.479486045359102
 31
0.0
  0
LINE
  5
5F
330
1F
100
AcDbEntity
  8
0
  6
Continuous
 62
     7
370
    15
100
AcDbLine
 10
2.71077531680415
 20
6.536253622771461
 30
0.0
 11
2.705817564170509
 21
6.532745021585157
 31
0.0
  0
LINE
  5
60
330
1F
100
AcDbEntity
  8
0
  6
Continuous
 62
     7
370
    15
100
AcDbLine
 10
2.693527886667142
 20
6.48752536450401
 30
0.0
 11
2.696027539525231
 21
6.481989855079303
 31
0.0
  0
LINE
  5
61
330
1F
100
AcDbEntity
  8
0
  6
Continuous
 62
     7
370
    15
100
AcDbLine
 10
2.701562634228318
 20
6.538757432491663
 30
0.0
 11
2.696604881594677
 21
6.535248831305359
 31
0.0
  0
LINE
  5
62
330
1F
100
AcDbEntity
  8
0
  6
Continuous
 62
     7
370
    15
100
AcDbLine
 10
2.684315204091311
 20
6.490029174224212
 30
0.0
 11
2.686814856949399
 21
6.484493664799507
 31
0.0
  0
LINE
  5
63
330
1F
100
AcDbEntity
  8
0
  6
Continuous
 62
     7
370
    15
100
AcDbLine
 10
2.692349951652487
 20
6.541261242211866
 30
0.0
 11
2.687392166590556
 21
6.537752649838875
 31
0.0
  0
LINE
  5
64
330
1F
100
AcDbEntity
  8
0
  6
Continuous
 62
     7
370
    15
100
AcDbLine
 10
2.675102489087189
 20
6.492532992757729
 30
0.0
 11
2.677602174373567
 21
6.486997474519707
 31
0.0
  0
LINE
  5
65
330
1F
100
AcDbEntity
  8
0
  6
Continuous
 62
     7
370
    15
100
AcDbLine
 10
2.683137236648365
 20
6.543765060745381
 30
0.0
 11
2.678179484014724
 21
6.540256459559077
 31
0.0
  0
LINE
  5
66
330
1F
100
AcDbEntity
  8
0
  6
Continuous
 62
     7
370
    15
100
AcDbLine
 10
2.665889806511357
 20
6.495036802477931
 30
0.0
 11
2.668389459369445
 21
6.489501293053224
 31
0.0
  0
LINE
  5
67
330
1F
100
AcDbEntity
  8
0
  6
Continuous
 62
     7
370
    15
100
AcDbLine
 10
2.673924554072534
 20
6.546268870465583
 30
0.0
 11
2.668966801438893
 21
6.54276026927928
 31
0.0
  0
LINE
  5
68
330
1F
100
AcDbEntity
  8
0
  6
Continuous
 62
     7
370
    15
100
AcDbLine
 10
2.656677123935526
 20
6.497540612198132
 30
0.0
 11
2.659176776793614
 21
6.492005102773427
 31
0.0
  0
LINE
  5
69
330
1F
100
AcDbEntity
  8
0
  6
Continuous
 62
     7
370
    15
100
AcDbLine
 10
2.664711871496702
 20
6.548772680185786
 30
0.0
 11
2.659754118863061
 21
6.545264078999482
 31
0.0
  0
LINE
  5
6A
330
1F
100
AcDbEntity
  8
0
  6
Continuous
 62
     7
370
    15
100
AcDbLine
 10
2.647464441359694
 20
6.500044421918335
 30
0.0
 11
2.649964094217782
 21
6.494508912493628
 31
0.0
  0
LINE
  5
6B
330
1F
100
AcDbEntity
  8
0
  6
Continuous
 62
     7
370
    15
100
AcDbLine
 10
2.65549915649258
 20
6.551276498719301
 30
0.0
 11
2.650541436287229
 21
6.547767888719683
 31
0.0
  0
LINE
  5
6C
330
1F
100
AcDbEntity
  8
0
  6
Continuous
 62
     7
370
    15
100
AcDbLine
 10
2.638251758783862
 20
6.502548231638537
 30
0.0
 11
2.640751379213661
 21
6.497012731027146
 31
0.0
  0
LINE
  5
6D
330
1F
100
AcDbEntity
  8
0
  6
Continuous
 62
     7
370
    15
100
AcDbLine
 10
2.646286473916748
 20
6.553780308439505
 30
0.0
 11
2.641328753711397
 21
6.550271698439885
 31
0.0
  0
LINE
  5
6E
330
1F
100
AcDbEntity
  8
0
  6
Continuous
 62
     7
370
    15
100
AcDbLine
 10
2.629039076208031
 20
6.505052041358739
 30
0.0
 11
2.63153869663783
 21
6.499516540747348
 31
0.0
  0
LINE
  5
6F
330
1F
100
AcDbEntity
  8
0
  6
Continuous
 62
     7
370
    15
100
AcDbLine
 10
2.564557626970715
 20
6.522576717591115
 30
0.0
 11
2.565062205569012
 21
6.521459159320968
 31
0.0
  0
LINE
  5
70
330
1F
100
AcDbEntity
  8
0
  6
Continuous
 62
     7
370
    15
100
AcDbLine
 10
5.696113340882866
 20
5.647743929330274
 30
0.0
 11
5.695741532072975
 21
5.647381032533494
 31
0.0
  0
LINE
  5
71
330
1F
100
AcDbEntity
  8
0
  6
Continuous
 62
     7
370
    15
100
AcDbLine
 10
5.54226221420623
 20
5.703871070754307
 30
0.0
 11
5.54721999926816
 21
5.707379631698192
 31
0.0
  0
LINE
  5
72
330
1F
100
AcDbEntity
  8
0
  6
Continuous
 62
     7
370
    15
100
AcDbLine
 10
5.559509676771527
 20
5.752599320208444
 30
0.0
 11
5.557009854589416
 21
5.758134673402928
 31
0.0
  0
LINE
  5
73
330
1F
100
AcDbEntity
  8
0
  6
Continuous
 62
     7
370
    15
100
AcDbLine
 10
5.546478876563468
 20
5.7609968446532
 30
0.0
 11
5.541521350927856
 21
5.757488181773695
 31
0.0
  0
LINE
  5
74
330
1F
100
AcDbEntity
  8
0
  6
Continuous
 62
     7
370
    15
100
AcDbLine
 10
5.529231536528756
 20
5.712268391078116
 30
0.0
 11
5.531731099284547
 21
5.706733108390147
 31
0.0
  0
LINE
  5
75
330
1F
100
AcDbEntity
  8
0
  6
Continuous
 62
     7
370
    15
100
AcDbLine
 10
5.537266388557376
 20
5.763500601493515
 30
0.0
 11
5.532308603495445
 21
5.759992009120526
 31
0.0
  0
LINE
  5
76
330
1F
100
AcDbEntity
  8
0
  6
Continuous
 62
     7
370
    15
100
AcDbLine
 10
5.520018789096344
 20
5.714772218424947
 30
0.0
 11
5.522518611278457
 21
5.709236865230463
 31
0.0
  0
LINE
  5
77
330
1F
100
AcDbEntity
  8
0
  6
Continuous
 62
     7
370
    15
100
AcDbLine
 10
5.528053641124964
 20
5.766004428840346
 30
0.0
 11
5.523095856063033
 21
5.762495836467356
 31
0.0
  0
LINE
  5
78
330
1F
100
AcDbEntity
  8
0
  6
Continuous
 62
     7
370
    15
100
AcDbLine
 10
5.510806041663934
 20
5.717276045771778
 30
0.0
 11
5.513305863846044
 21
5.711740692577294
 31
0.0
  0
LINE
  5
79
330
1F
100
AcDbEntity
  8
0
  6
Continuous
 62
     7
370
    15
100
AcDbLine
 10
5.518840893692552
 20
5.768508256187176
 30
0.0
 11
5.513883108630622
 21
5.764999663814187
 31
0.0
  0
LINE
  5
7A
330
1F
100
AcDbEntity
  8
0
  6
Continuous
 62
     7
370
    15
100
AcDbLine
 10
5.501593294231521
 20
5.719779873118608
 30
0.0
 11
5.504093116413633
 21
5.714244519924124
 31
0.0
  0
LINE
  5
7B
330
1F
100
AcDbEntity
  8
0
  6
Continuous
 62
     7
370
    15
100
AcDbLine
 10
5.509628146260141
 20
5.771012083534008
 30
0.0
 11
5.50467036119821
 21
5.767503491161018
 31
0.0
  0
LINE
  5
7C
330
1F
100
AcDbEntity
  8
0
  6
Continuous
 62
     7
370
    15
100
AcDbLine
 10
5.49238054679911
 20
5.722283700465439
 30
0.0
 11
5.494880368981221
 21
5.716748347270955
 31
0.0
  0
LINE
  5
7D
330
1F
100
AcDbEntity
  8
0
  6
Continuous
 62
     7
370
    15
100
AcDbLine
 10
5.500415658254049
 20
5.773515840374323
 30
0.0
 11
5.495457873192118
 21
5.770007248001333
 31
0.0
  0
LINE
  5
7E
330
1F
100
AcDbEntity
  8
0
  6
Continuous
 62
     7
370
    15
100
AcDbLine
 10
5.483168058793017
 20
5.724787457305755
 30
0.0
 11
5.485667880975128
 21
5.71925210411127
 31
0.0
  0
LINE
  5
7F
330
1F
100
AcDbEntity
  8
0
  6
Continuous
 62
     7
370
    15
100
AcDbLine
 10
5.491202910821638
 20
5.776019667721154
 30
0.0
 11
5.486245125759706
 21
5.772511075348164
 31
0.0
  0
LINE
  5
80
330
1F
100
AcDbEntity
  8
0
  6
Continuous
 62
     7
370
    15
100
AcDbLine
 10
5.473955311360607
 20
5.727291284652586
 30
0.0
 11
5.476455133542717
 21
5.721755931458102
 31
0.0
  0
LINE
  5
81
330
1F
100
AcDbEntity
  8
0
  6
Continuous
 62
     7
370
    15
100
AcDbLine
 10
5.481990163389226
 20
5.778523495067984
 30
0.0
 11
5.477032378327296
 21
5.775014902694994
 31
0.0
  0
LINE
  5
82
330
1F
100
AcDbEntity
  8
0
  6
Continuous
 62
     7
370
    15
100
AcDbLine
 10
5.464742563928195
 20
5.729795111999417
 30
0.0
 11
5.467242386110306
 21
5.724259758804933
 31
0.0
  0
LINE
  5
83
330
1F
100
AcDbEntity
  8
0
  6
Continuous
 62
     7
370
    15
100
AcDbLine
 10
5.472777415956815
 20
5.781027322414816
 30
0.0
 11
5.467819630894884
 21
5.777518730041826
 31
0.0
  0
LINE
  5
84
330
1F
100
AcDbEntity
  8
0
  6
Continuous
 62
     7
370
    15
100
AcDbLine
 10
5.455529816495784
 20
5.732298939346247
 30
0.0
 11
5.458029638677895
 21
5.726763586151763
 31
0.0
  0
LINE
  5
85
330
1F
100
AcDbEntity
  8
0
  6
Continuous
 62
     7
370
    15
100
AcDbLine
 10
5.463564668524403
 20
5.783531149761647
 30
0.0
 11
5.458607142888791
 21
5.780022486882142
 31
0.0
  0
LINE
  5
86
330
1F
100
AcDbEntity
  8
0
  6
Continuous
 62
     7
370
    15
100
AcDbLine
 10
5.446317328489691
 20
5.734802696186563
 30
0.0
 11
5.448816891245483
 21
5.729267413498594
 31
0.0
  0
LINE
  5
87
330
1F
100
AcDbEntity
  8
0
  6
Continuous
 62
     7
370
    15
100
AcDbLine
 10
5.395936085203923
 20
5.798828577252987
 30
0.0
 11
5.394125693651474
 21
5.797547163114519
 31
0.0
  0
LINE
  5
88
330
1F
100
AcDbEntity
  8
0
  6
Continuous
 62
     7
370
    15
100
AcDbLine
 10
5.381835879252375
 20
5.752327372418941
 30
0.0
 11
5.382748645485804
 21
5.750305815556573
 31
0.0
  0
LINE
  5
89
330
1F
100
AcDbEntity
  8
0
  6
Continuous
 62
     7
370
    15
100
AcDbLine
 10
1.927645024981463
 20
7.09535995096319
 30
0.0
 11
1.927645024981462
 21
6.881068144091965
 31
0.0
  0
LINE
  5
8A
330
1F
100
AcDbEntity
  8
0
  6
Continuous
 62
     7
370
    15
100
AcDbLine
 10
2.552645074209797
 20
6.88106815343554
 30
0.0
 11
2.552645074209798
 21
7.095359960306763
 31
0.0
  0
SPLINE
  5
8B
330
1F
100
AcDbEntity
  8
0
  6
Continuous
 62
     7
370
    15
100
AcDbSpline
210
0.0
220
0.0
230
1.0
 70
    11
 71
     3
 72
    31
 73
    27
 74
     0
 42
0.0000000001
 43
0.0000000001
 40
0.0
 40
0.0
 40
0.0
 40
0.0
 40
0.0317681274817137
 40
0.0623227476467085
 40
0.0930365595209526
 40
0.1252615072615891
 40
0.1873986905605581
 40
0.2499543144242419
 40
0.3126270984276821
 40
0.3746506905837643
 40
0.406907925390973
 40
0.4376468747630448
 40
0.4682131077626022
 40
0.4999732229829882
 40
0.5318126924911287
 40
0.5624056684273818
 40
0.593118893262508
 40
0.6253029118951633
 40
0.6874494643921761
 40
0.7499980199516808
 40
0.8126586458440986
 40
0.8746891042866316
 40
0.9068757247456693
 40
0.9375911965857081
 40
0.9681795930355432
 40
1.0
 40
1.0
 40
1.0
 40
1.0
 10
2.132345098898842
 20
6.284832876366506
 30
0.0
 10
2.132232853139958
 20
6.282819555628607
 30
0.0
 10
2.132012649285973
 20
6.278869820777151
 30
0.0
 10
2.130024638333875
 20
6.273527196895016
 30
0.0
 10
2.126797749225306
 20
6.268936736674525
 30
0.0
 10
2.121056625647102
 20
6.264100892326225
 30
0.0
 10
2.111873190998426
 20
6.260396178369486
 30
0.0
 10
2.099172335810667
 20
6.261532708713253
 30
0.0
 10
2.086791174213171
 20
6.267028728139738
 30
0.0
 10
2.078222128255545
 20
6.275428721987729
 30
0.0
 10
2.07301340837608
 20
6.28316480481154
 30
0.0
 10
2.070100124349433
 20
6.289384755632759
 30
0.0
 10
2.068386244920021
 20
6.295703326357902
 30
0.0
 10
2.067863525799209
 20
6.301916067507975
 30
0.0
 10
2.068386875546091
 20
6.307766731236656
 30
0.0
 10
2.070097518383542
 20
6.31291252275768
 30
0.0
 10
2.073005432949136
 20
6.317166030379722
 30
0.0
 10
2.078220649346325
 20
6.32148173538592
 30
0.0
 10
2.086782934240045
 20
6.324556550969531
 30
0.0
 10
2.099170458228662
 20
6.323102357784417
 30
0.0
 10
2.111862145267347
 20
6.317912395549629
 30
0.0
 10
2.121048938583722
 20
6.310144048107042
 30
0.0
 10
2.126777884018595
 20
6.302930746796266
 30
0.0
 10
2.130003234755158
 20
6.297052889636193
 30
0.0
 10
2.13199703092596
 20
6.290934102191157
 30
0.0
 10
2.132227559289798
 20
6.286893208698085
 30
0.0
 10
2.132345098898842
 20
6.284832876366506
 30
0.0
  0
LWPOLYLINE
  5
8C
330
1F
100
AcDbEntity
  8
0
  6
Continuous
 62
     7
370
    15
100
AcDbPolyline
 90
       37
 70
   128
 43
0.0
 10
2.536756471331191
 20
6.691073691188144
 10
2.544070489574381
 20
6.674360380458361
 10
2.547845309287941
 20
6.657338561508233
 10
2.548036672460663
 20
6.640206285434008
 10
2.544642440024493
 20
6.623163138607338
 10
2.537702217507035
 20
6.606407611298772
 10
2.527296800479474
 20
6.590134856916506
 10
2.513547353395595
 20
6.574534352883964
 10
2.496613972293305
 20
6.559787728970345
 10
2.476693793500087
 20
6.546066719007578
 10
2.454019008644879
 20
6.533531223481059
 10
2.428853488951486
 20
6.522327066808836
 10
2.401490411004264
 20
6.512584934410034
 10
2.372248254130168
 20
6.504418044135478
 10
2.341467827983362
 20
6.497921672958314
 10
2.309507343872001
 20
6.493171421726128
 10
2.276739240590543
 20
6.490222625863758
 10
2.243544902519907
 20
6.489109570223632
 10
2.210310908933143
 20
6.489845227295935
 10
2.177424368126393
 20
6.49242107332388
 10
2.145268327180305
 20
6.496807140093895
 10
2.11421712404743
 20
6.502952253220117
 10
2.084632355670425
 20
6.510784871693842
 10
2.056858712795805
 20
6.520213878252378
 10
2.031219486913511
 20
6.531129373447194
 10
2.008013356158216
 20
6.543404232446114
 10
1.987510443423115
 20
6.556895517993048
 10
1.969949700335591
 20
6.571446216305887
 10
1.955535361693057
 20
6.586886713144163
 10
1.944435611991654
 20
6.603037376874821
 10
1.936779493858141
 20
6.61970991115348
 10
1.932656248283406
 20
6.636710352760831
 10
1.932113873199138
 20
6.653840659088927
 10
1.935158575468058
 20
6.670901248555116
 10
1.941755141640127
 20
6.687693547544713
 10
1.951826631412655
 20
6.704022038149184
 10
1.958895019742044
 20
6.712837877586483
  0
LWPOLYLINE
  5
8D
330
1F
100
AcDbEntity
  8
0
  6
Continuous
 62
     7
370
    15
100
AcDbPolyline
 90
       31
 70
   128
 43
0.0
 10
1.931895067631063
 20
6.219276720966976
 10
1.932656248283405
 20
6.208126707589279
 10
1.936779493858141
 20
6.191126265981929
 10
1.944435611991653
 20
6.17445373170327
 10
1.955535361693056
 20
6.158303067972611
 10
1.969949700335589
 20
6.142862571134336
 10
1.987510443423113
 20
6.128311872821496
 10
2.008013356158215
 20
6.114820587274564
 10
2.03121948691351
 20
6.102545728275641
 10
2.056858712795805
 20
6.091630233080826
 10
2.084632355670424
 20
6.082201226522291
 10
2.114217124047428
 20
6.074368608048565
 10
2.145268327180303
 20
6.068223494922342
 10
2.177424368126392
 20
6.063837428152329
 10
2.210310908933142
 20
6.061261582124384
 10
2.243544902519906
 20
6.060525925052081
 10
2.276739240590542
 20
6.061638980692205
 10
2.309507343872001
 20
6.064587776554576
 10
2.34146782798336
 20
6.069338027786763
 10
2.372248254130168
 20
6.075834398963926
 10
2.401490411004264
 20
6.084001289238482
 10
2.428853488951485
 20
6.093743421637284
 10
2.454019008644878
 20
6.104947578309507
 10
2.476693793500086
 20
6.117483073836027
 10
2.496613972293305
 20
6.131204083798794
 10
2.513547353395595
 20
6.145950707712413
 10
2.527296800479473
 20
6.161551211744955
 10
2.537702217507034
 20
6.17782396612722
 10
2.544642440024492
 20
6.194579493435787
 10
2.548036672460663
 20
6.211622640262457
 10
2.548395031560194
 20
6.219276704944516
  0
SPLINE
  5
8E
330
1F
100
AcDbEntity
  8
0
  6
Continuous
 62
     7
370
    15
100
AcDbSpline
210
0.0
220
0.0
230
1.0
 70
     8
 71
     3
 72
    16
 73
    12
 74
     0
 42
0.0000000001
 43
0.0000000001
 40
0.0
 40
0.0
 40
0.0
 40
0.0
 40
0.0786586135235726
 40
0.2041291698046193
 40
0.3286405305635353
 40
0.4533841263665907
 40
0.5786235278507255
 40
0.7076455945840525
 40
0.8372079558793766
 40
0.9669952507991258
 40
0.9999999999999998
 40
0.9999999999999998
 40
0.9999999999999998
 40
0.9999999999999998
 10
2.132676843035536
 20
6.277995265483288
 30
0.0
 10
2.131341612928234
 20
6.276180217046578
 30
0.0
 10
2.127876519900375
 20
6.271469934040768
 30
0.0
 10
2.118409003500273
 20
6.267881680092933
 30
0.0
 10
2.106405690453192
 20
6.26870953137667
 30
0.0
 10
2.094525411349199
 20
6.274144680773818
 30
0.0
 10
2.084872640499965
 20
6.283987061852996
 30
0.0
 10
2.07811641435293
 20
6.296186405835101
 30
0.0
 10
2.076369437441441
 20
6.308639184306843
 30
0.0
 10
2.077147267229459
 20
6.317775236589443
 30
0.0
 10
2.080040645407659
 20
6.320859084222364
 30
0.0
 10
2.080627254056937
 20
6.321484308988403
 30
0.0
  0
LWPOLYLINE
  5
8F
330
1F
100
AcDbEntity
  8
0
  6
Continuous
 62
     7
370
    15
100
AcDbPolyline
 90
       35
 70
   128
 43
0.0
 10
2.521601188468976
 20
6.688865750111938
 10
2.528666101316603
 20
6.672624471259639
 10
2.532209339782321
 20
6.656081024783451
 10
2.532187524476485
 20
6.639437151843554
 10
2.52860096587566
 20
6.622896043571829
 10
2.521493621440605
 20
6.606659790429885
 10
2.510952116011841
 20
6.590926402869142
 10
2.49710507190956
 20
6.575887943558219
 10
2.480121423089387
 20
6.561727910803623
 10
2.460208758028443
 20
6.548619297441176
 10
2.437609864797037
 20
6.536722028006461
 10
2.41260075684439
 20
6.526181274627093
 10
2.385486601826109
 20
6.517125830364039
 10
2.356598421528036
 20
6.509666102165705
 10
2.326288786406398
 20
6.503893145752688
 10
2.294927701106419
 20
6.499877563188793
 10
2.262897891906558
 20
6.497668221356332
 10
2.230590407458373
 20
6.497292166432571
 10
2.198399470191136
 20
6.498753887920658
 10
2.166718163455998
 20
6.502035722102504
 10
2.135933099134724
 20
6.507097422251133
 10
2.106420007392275
 20
6.513877357241425
 10
2.078539214886082
 20
6.522292630147516
 10
2.052630989457457
 20
6.532240685095434
 10
2.029011630780376
 20
6.543599942691606
 10
2.007969359044531
 20
6.556231856899369
 10
1.989761021634915
 20
6.56998215173242
 10
1.974608907763422
 20
6.584683053527756
 10
1.962697937874776
 20
6.600155079723473
 10
1.954173537531135
 20
6.616209495708711
 10
1.949139749175283
 20
6.632650194564044
 10
1.947657974289762
 20
6.649276515802157
 10
1.949746349756675
 20
6.665885550106882
 10
1.955379325969775
 20
6.682274560060029
 10
1.95889511777119
 20
6.689239101291072
  0
LINE
  5
90
330
1F
100
AcDbEntity
  8
0
  6
Continuous
 62
     7
370
    15
100
AcDbLine
 10
2.536756471331191
 20
6.691073691188144
 30
0.0
 11
2.521601188468976
 21
6.688865750111938
 31
0.0
  0
LINE
  5
91
330
1F
100
AcDbEntity
  8
0
  6
Continuous
 62
     7
370
    15
100
AcDbLine
 10
2.533923049145785
 20
6.696232797503196
 30
0.0
 11
2.536756471331191
 21
6.691073691188144
 31
0.0
  0
LINE
  5
92
330
1F
100
AcDbEntity
  8
0
  6
Continuous
 62
     7
370
    15
100
AcDbLine
 10
2.521395001136994
 20
6.689240878719812
 30
0.0
 11
2.521601188468976
 21
6.688865750111938
 31
0.0
  0
LINE
  5
93
330
1F
100
AcDbEntity
  8
0
  6
Continuous
 62
     7
370
    15
100
AcDbLine
 10
2.650603640044472
 20
6.573609771614004
 30
0.0
 11
2.650603640044472
 21
6.603464435238742
 31
0.0
  0
ARC
  5
94
330
1F
100
AcDbEntity
  8
0
  6
Continuous
 62
     7
370
    15
100
AcDbCircle
 10
2.613267882143304
 20
6.601540764501474
 30
0.0
 40
0.0373852822265675
100
AcDbArc
 50
2.94947376039958
 51
57.27057249090531
  0
LINE
  5
95
330
1F
100
AcDbEntity
  8
0
  6
Continuous
 62
     7
370
    15
100
AcDbLine
 10
2.6334810744644
 20
6.632990505094212
 30
0.0
 11
2.6334810744644
 21
6.782306252509142
 31
0.0
  0
LINE
  5
96
330
1F
100
AcDbEntity
  8
0
  6
Continuous
 62
     7
370
    15
100
AcDbLine
 10
2.953536746445888
 20
6.693899733517803
 30
0.0
 11
2.6334810744644
 21
6.782306252509142
 31
0.0
  0
LINE
  5
97
330
1F
100
AcDbEntity
  8
0
  6
Continuous
 62
     7
370
    15
100
AcDbLine
 10
2.953536746445887
 20
6.265316088346252
 30
0.0
 11
2.953536746445888
 21
6.693899733517803
 31
0.0
  0
LINE
  5
98
330
1F
100
AcDbEntity
  8
0
  6
Continuous
 62
     7
370
    15
100
AcDbLine
 10
2.633481074464399
 20
6.353722607337591
 30
0.0
 11
2.953536746445887
 21
6.265316088346252
 31
0.0
  0
LINE
  5
99
330
1F
100
AcDbEntity
  8
0
  6
Continuous
 62
     7
370
    15
100
AcDbLine
 10
2.953536746445888
 20
6.693899733517803
 30
0.0
 11
2.960980774348699
 21
6.701048431539564
 31
0.0
  0
LINE
  5
9A
330
1F
100
AcDbEntity
  8
0
  6
Continuous
 62
     7
370
    15
100
AcDbLine
 10
2.640924933043189
 20
6.789454825729785
 30
0.0
 11
2.6334810744644
 21
6.782306252509142
 31
0.0
  0
LINE
  5
9B
330
1F
100
AcDbEntity
  8
0
  6
Continuous
 62
     7
370
    15
100
AcDbLine
 10
2.960980774348699
 20
6.701048431539564
 30
0.0
 11
2.640924933043189
 21
6.789454825729785
 31
0.0
  0
LINE
  5
9C
330
1F
100
AcDbEntity
  8
0
  6
Continuous
 62
     7
370
    15
100
AcDbLine
 10
2.953536746445887
 20
6.265316088346252
 30
0.0
 11
2.960980774348699
 21
6.272464786368012
 31
0.0
  0
LINE
  5
9D
330
1F
100
AcDbEntity
  8
0
  6
Continuous
 62
     7
370
    15
100
AcDbLine
 10
2.960980774348699
 20
6.272464786368012
 30
0.0
 11
2.960980774348699
 21
6.701048431539564
 31
0.0
  0
LWPOLYLINE
  5
9E
330
1F
100
AcDbEntity
  8
0
  6
Continuous
 62
     7
370
    15
100
AcDbPolyline
 90
       10
 70
   128
 43
0.0
 10
2.564360663978881
 20
6.533450584460169
 10
2.564283303311365
 20
6.533248029830694
 10
2.560926699094674
 20
6.522203213068945
 10
2.559152259949008
 20
6.511124943626847
 10
2.559152259949008
 20
6.501213712626494
 10
2.560926699094674
 20
6.493543546860096
 10
2.564283303311365
 20
6.488945689673755
 10
2.568858318236014
 20
6.487918225039421
 10
2.574155985679572
 20
6.490572744454778
 10
2.574759617919375
 20
6.491081786748113
  0
LINE
  5
9F
330
1F
100
AcDbEntity
  8
0
  6
Continuous
 62
     7
370
    15
100
AcDbLine
 10
2.621634418448691
 20
6.780464701142963
 30
0.0
 11
2.533923049145785
 21
6.696232797503196
 31
0.0
  0
LINE
  5
A0
330
1F
100
AcDbEntity
  8
0
  6
Continuous
 62
     7
370
    15
100
AcDbLine
 10
2.62163441844869
 20
6.631148953728032
 30
0.0
 11
2.621634418448691
 21
6.780464701142963
 31
0.0
  0
ARC
  5
A1
330
1F
100
AcDbEntity
  8
0
  6
Continuous
 62
     7
370
    15
100
AcDbCircle
 10
2.683190864100787
 20
6.596270905277094
 30
0.0
 40
0.0707507898547108
100
AcDbArc
 50
150.4639919116119
 51
178.9772298287863
  0
LINE
  5
A2
330
1F
100
AcDbEntity
  8
0
  6
Continuous
 62
     7
370
    15
100
AcDbLine
 10
2.612451346236388
 20
6.597533789823603
 30
0.0
 11
2.612451346236388
 21
6.589780009709939
 31
0.0
  0
LINE
  5
A3
330
1F
100
AcDbEntity
  8
0
  6
Continuous
 62
     7
370
    15
100
AcDbLine
 10
2.548395027474755
 20
6.281546999222241
 30
0.0
 11
2.62163441844869
 21
6.35188105597141
 31
0.0
  0
LINE
  5
A4
330
1F
100
AcDbEntity
  8
0
  6
Continuous
 62
     7
370
    15
100
AcDbLine
 10
2.607754590187241
 20
6.784298606988541
 30
0.0
 11
2.621634418448691
 21
6.780464701142963
 31
0.0
  0
LINE
  5
A5
330
1F
100
AcDbEntity
  8
0
  6
Continuous
 62
     7
370
    15
100
AcDbLine
 10
2.607754590187241
 20
6.784298606988541
 30
0.0
 11
2.521395083597334
 21
6.701364959496587
 31
0.0
  0
SPLINE
  5
A6
330
1F
100
AcDbEntity
  8
0
  6
Continuous
 62
     7
370
    15
100
AcDbSpline
210
0.0
220
0.0
230
1.0
 70
     8
 71
     3
 72
    15
 73
    11
 74
     0
 42
0.0000000001
 43
0.0000000001
 40
0.0
 40
0.0
 40
0.0
 40
0.0
 40
0.1212243652369662
 40
0.2384634485964269
 40
0.3542704273354871
 40
0.471330476453007
 40
0.5922516321795954
 40
0.7193650601922235
 40
0.8547177615402027
 40
1.0
 40
1.0
 40
1.0
 40
1.0
 10
2.62163441844869
 20
6.631148953728032
 30
0.0
 10
2.62189105093288
 20
6.631632410123129
 30
0.0
 10
2.622395879042989
 20
6.63258342916122
 30
0.0
 10
2.623503270176077
 20
6.633719332960689
 30
0.0
 10
2.62483691581819
 20
6.634552450499875
 30
0.0
 10
2.626390021107683
 20
6.635035248658141
 30
0.0
 10
2.628109932107553
 20
6.635144242192582
 30
0.0
 10
2.629930220125658
 20
6.63484859704313
 30
0.0
 10
2.631794203835645
 20
6.634155974609832
 30
0.0
 10
2.63290567541162
 20
6.633388051914876
 30
0.0
 10
2.6334810744644
 20
6.632990505094212
 30
0.0
  0
ARC
  5
A7
330
1F
100
AcDbEntity
  8
0
  6
Continuous
 62
     7
370
    15
100
AcDbCircle
 10
2.629423242350526
 20
6.769384786234098
 30
0.0
 40
0.0135436439764742
100
AcDbArc
 50
72.56572680664644
 51
125.1059852885578
  0
ARC
  5
A8
330
1F
100
AcDbEntity
  8
0
  6
Continuous
 62
     7
370
    15
100
AcDbCircle
 10
2.62956297607409
 20
6.753275385014326
 30
0.0
 40
0.0379215769272737
100
AcDbArc
 50
72.56538684507851
 51
125.1060574778793
  0
LWPOLYLINE
  5
A9
330
1F
100
AcDbEntity
  8
0
  6
Continuous
 62
     7
370
    15
100
AcDbPolyline
 90
        3
 70
   128
 43
0.0
 10
2.560520279062573
 20
6.494607707725005
 10
2.565722522784477
 20
6.500455405035391
 10
2.568499710940896
 20
6.504885847550921
  0
ARC
  5
AA
330
1F
100
AcDbEntity
  8
0
  6
Continuous
 62
     7
370
    15
100
AcDbCircle
 10
2.629423242350525
 20
6.340801141062557
 30
0.0
 40
0.0135436439764649
100
AcDbArc
 50
72.56572680663404
 51
125.1059852885859
  0
SPLINE
  5
AB
330
1F
100
AcDbEntity
  8
0
  6
Continuous
 62
     7
370
    15
100
AcDbSpline
210
0.0
220
0.0
230
1.0
 70
    11
 71
     3
 72
    31
 73
    27
 74
     0
 42
0.0000000001
 43
0.0000000001
 40
0.0
 40
0.0
 40
0.0
 40
0.0
 40
0.0317679706267156
 40
0.0623226005890373
 40
0.0930362485972312
 40
0.1252616737373811
 40
0.1873984722751522
 40
0.2499542635179621
 40
0.3126270952765439
 40
0.3746504269335516
 40
0.406907559181308
 40
0.4376469808468768
 40
0.4682130518337017
 40
0.4999732633987816
 40
0.5318125649902474
 40
0.56240561569661
 40
0.5931185148432389
 40
0.6253028273608332
 40
0.6874493314426655
 40
0.7499976189890228
 40
0.8126584311358145
 40
0.8746889134431132
 40
0.9068755963663644
 40
0.9375913530948977
 40
0.9681794233353
 40
1.0
 40
1.0
 40
1.0
 40
1.0
 10
4.881363491312356
 20
5.559708135400093
 30
0.0
 10
4.881461711310634
 20
5.561707626880594
 30
0.0
 10
4.881654399908669
 20
5.56563024159164
 30
0.0
 10
4.883401711130857
 20
5.570736498199205
 30
0.0
 10
4.886266225260315
 20
5.574970676334622
 30
0.0
 10
4.891435427824238
 20
5.579244118445934
 30
0.0
 10
4.899913491190248
 20
5.582255507572589
 30
0.0
 10
4.912194971168617
 20
5.580706659033904
 30
0.0
 10
4.924791223355662
 20
5.575422112165793
 30
0.0
 10
4.933921988613395
 20
5.567574335622961
 30
0.0
 10
4.93961203850377
 20
5.560311479271091
 30
0.0
 10
4.942840345832847
 20
5.554401109024034
 30
0.0
 10
4.944757892602871
 20
5.5482826575742
 30
0.0
 10
4.945345195153829
 20
5.542133686588435
 30
0.0
 10
4.94475693703576
 20
5.536219173629203
 30
0.0
 10
4.942843151185969
 20
5.530873576582231
 30
0.0
 10
4.939621010488774
 20
5.526311047298132
 30
0.0
 10
4.933923444379143
 20
5.521521425640056
 30
0.0
 10
4.924799892777659
 20
5.517894610768595
 30
0.0
 10
4.91219690208956
 20
5.519137026844155
 30
0.0
 10
4.899923999785463
 20
5.524738698741987
 30
0.0
 10
4.891442498187448
 20
5.533200417722877
 30
0.0
 10
4.886284013091503
 20
5.540974554503027
 30
0.0
 10
4.883420582166662
 20
5.547208263346794
 30
0.0
 10
4.881668068641902
 20
5.55356411798783
 30
0.0
 10
4.881466345033294
 20
5.557633341936988
 30
0.0
 10
4.881363491312356
 20
5.559708135400093
 30
0.0
  0
LWPOLYLINE
  5
AC
330
1F
100
AcDbEntity
  8
0
  6
Continuous
 62
     7
370
    15
100
AcDbPolyline
 90
       31
 70
   128
 43
0.0
 10
4.749173391951877
 20
5.475733135808575
 10
4.749635119879344
 20
5.467045820110029
 10
4.753244861928285
 20
5.450014459638838
 10
4.760397028446511
 20
5.433282616708185
 10
4.771008121521594
 20
5.41704508516833
 10
4.784954711892073
 20
5.401491027247874
 10
4.802074253566113
 20
5.386801531500987
 10
4.822167498093525
 20
5.37314776092171
 10
4.845000559415874
 20
5.360688598154463
 10
4.87030721279048
 20
5.349569166596969
 10
4.897793016881228
 20
5.339919026825272
 10
4.927137735213155
 20
5.331850493575703
 10
4.957999753602446
 20
5.325457606001827
 10
4.990019560864014
 20
5.320814669233428
 10
5.022824522845971
 20
5.317975896404903
 10
5.056032179341332
 20
5.316974256395677
 10
5.089256084558058
 20
5.317821509303287
 10
5.122109392187368
 20
5.320507659148035
 10
5.154209207763734
 20
5.325001479192392
 10
5.185181978730144
 20
5.331250755234334
 10
5.214667046971428
 20
5.339182515843218
 10
5.242320777660787
 20
5.348704472524143
 10
5.267821315124415
 20
5.359705777012962
 10
5.290871782148209
 20
5.37205820161037
 10
5.311203644910486
 20
5.385618128601183
 10
5.328579829475689
 20
5.400227326045852
 10
5.342798526144599
 20
5.415716013513778
 10
5.353693546058814
 20
5.431903533854785
 10
5.36113878129935
 20
5.448601411533849
 10
5.365046583258712
 20
5.465615330732648
 10
5.365673226167848
 20
5.475733155039373
  0
LWPOLYLINE
  5
AD
330
1F
100
AcDbEntity
  8
0
  6
Continuous
 62
     7
370
    15
100
AcDbPolyline
 90
       37
 70
   128
 43
0.0
 10
5.355302923370634
 20
5.945150635409288
 10
5.36211179342297
 20
5.928380732707732
 10
5.365372439070379
 20
5.911330739428645
 10
5.365046583258712
 20
5.894198960189647
 10
5.361138781299351
 20
5.877185040990848
 10
5.353693546058816
 20
5.860487163311784
 10
5.342798526144599
 20
5.844299642970777
 10
5.32857982947569
 20
5.828810955502851
 10
5.311203644910486
 20
5.814201758058183
 10
5.290871782148209
 20
5.800641831067369
 10
5.267821315124416
 20
5.788289406469961
 10
5.242320777660788
 20
5.777288101981142
 10
5.214667046971428
 20
5.767766145300217
 10
5.185181978730144
 20
5.759834384691333
 10
5.154209207763734
 20
5.753585108649392
 10
5.122109392187369
 20
5.749091288605034
 10
5.089256084558058
 20
5.746405138760286
 10
5.056032179341332
 20
5.745557885852676
 10
5.022824522845971
 20
5.746559525861902
 10
4.990019560864014
 20
5.749398298690426
 10
4.957999753602447
 20
5.754041235458825
 10
4.927137735213156
 20
5.760434123032702
 10
4.897793016881228
 20
5.76850265628227
 10
4.87030721279048
 20
5.778152796053968
 10
4.845000559415875
 20
5.789272227611462
 10
4.822167498093526
 20
5.801731390378709
 10
4.802074253566114
 20
5.815385160957986
 10
4.784954711892073
 20
5.830074656704873
 10
4.771008121521594
 20
5.845628714625329
 10
4.760397028446512
 20
5.861866246165184
 10
4.753244861928286
 20
5.878598089095837
 10
4.749635119879344
 20
5.895629449567028
 10
4.749609754417737
 20
5.912762049076065
 10
4.753168998631704
 20
5.929796221386616
 10
4.760271481500838
 20
5.946533614411726
 10
4.770834526613146
 20
5.962779585915428
 10
4.776173408919438
 20
5.969294259086901
  0
SPLINE
  5
AE
330
1F
100
AcDbEntity
  8
0
  6
Continuous
 62
     7
370
    15
100
AcDbSpline
210
0.0
220
0.0
230
1.0
 70
     8
 71
     3
 72
     9
 73
     5
 74
     0
 42
0.0000000001
 43
0.0000000001
 40
0.0
 40
0.0
 40
0.0
 40
0.0
 40
0.7852857760708051
 40
1.0
 40
1.0
 40
1.0
 40
1.0
 10
4.890359287238136
 20
5.56636668281025
 30
0.0
 10
4.89049160278966
 20
5.570433992047218
 30
0.0
 10
4.89066009629299
 20
5.575613392159771
 30
0.0
 10
4.893594615058992
 20
5.578703605125088
 30
0.0
 10
4.894224697978439
 20
5.579367117803712
 30
0.0
  0
SPLINE
  5
AF
330
1F
100
AcDbEntity
  8
0
  6
Continuous
 62
     7
370
    15
100
AcDbSpline
210
0.0
220
0.0
230
1.0
 70
     8
 71
     3
 72
    14
 73
    10
 74
     0
 42
0.0000000001
 43
0.0000000001
 40
0.0
 40
0.0
 40
0.0
 40
0.0
 40
0.0385274468461893
 40
0.1975900308902544
 40
0.3553954669039876
 40
0.5134862890424696
 40
0.6722503333275142
 40
0.8355494191213569
 40
1.0
 40
1.0
 40
1.0
 40
1.0
 10
4.943073304936012
 20
5.532230731222985
 30
0.0
 10
4.942538740950597
 20
5.53155629520034
 30
0.0
 10
4.939797201527744
 20
5.528097414701975
 30
0.0
 10
4.93147453217326
 20
5.525413983157383
 30
0.0
 10
4.919671332367797
 20
5.526231471512208
 30
0.0
 10
4.907857741037999
 20
5.531798940750249
 30
0.0
 10
4.898346905155989
 20
5.541697922591398
 30
0.0
 10
4.891510993773048
 20
5.553973341699348
 30
0.0
 10
4.890744087549818
 20
5.562225904428168
 30
0.0
 10
4.890359287238136
 20
5.56636668281025
 30
0.0
  0
LWPOLYLINE
  5
B0
330
1F
100
AcDbEntity
  8
0
  6
Continuous
 62
     7
370
    15
100
AcDbPolyline
 90
       35
 70
   128
 43
0.0
 10
5.340082740685851
 20
5.943064191127462
 10
5.346656960323641
 20
5.926768370440833
 10
5.3497004004825
 20
5.910198479664378
 10
5.349176267986777
 20
5.893556861443063
 10
5.345091229044428
 20
5.877046516934989
 10
5.337494667307768
 20
5.860869086797722
 10
5.326479606657565
 20
5.84522186727921
 10
5.312180275810158
 20
5.830296080628763
 10
5.294771582709077
 20
5.81627377237074
 10
5.274465763957464
 20
5.803326159620634
 10
5.251510507995386
 20
5.791611151819496
 10
5.226186465624229
 20
5.781271892073074
 10
5.198802368233612
 20
5.772434582108085
 10
5.169692469877924
 20
5.765206956804137
 10
5.139212310264332
 20
5.759677385885702
 10
5.107733793262143
 20
5.755913307541915
 10
5.075641223682293
 20
5.753960597347406
 10
5.043326306351546
 20
5.753843219209183
 10
5.01118339024789
 20
5.755562468071629
 10
4.979604831361793
 20
5.759097461502534
 10
4.948976197114014
 20
5.764404991061628
 10
4.91967131570782
 20
5.771420355321293
 10
4.892047768703418
 20
5.780057816199337
 10
4.866442884275153
 20
5.790212029545357
 10
4.843169251333655
 20
5.801759008076565
 10
4.822510658700316
 20
5.814557822892323
 10
4.804719407043817
 20
5.828452188130982
 10
4.790012727189678
 20
5.843272630134912
 10
4.778570160504634
 20
5.858838138914571
 10
4.77053131025066
 20
5.874958829119397
 10
4.765994281222338
 20
5.89143781607889
 10
4.765014353458138
 20
5.90807396773609
 10
4.76760369365696
 20
5.924664374554986
 10
4.773730519011754
 20
5.941006284970223
 10
4.776173442092003
 20
5.945695500418118
  0
LINE
  5
B1
330
1F
100
AcDbEntity
  8
0
  6
Continuous
 62
     7
370
    15
100
AcDbLine
 10
5.340082740685851
 20
5.943064191127462
 30
0.0
 11
5.355302923370634
 21
5.945150635409288
 31
0.0
  0
LINE
  5
B2
330
1F
100
AcDbEntity
  8
0
  6
Continuous
 62
     7
370
    15
100
AcDbLine
 10
5.33867326913031
 20
5.945791585662222
 30
0.0
 11
5.340082740685851
 21
5.943064191127462
 31
0.0
  0
LINE
  5
B3
330
1F
100
AcDbEntity
  8
0
  6
Continuous
 62
     7
370
    15
100
AcDbLine
 10
5.352625465113168
 20
5.95033175311963
 30
0.0
 11
5.355302923370634
 21
5.945150635409288
 31
0.0
  0
LINE
  5
B4
330
1F
100
AcDbEntity
  8
0
  6
Continuous
 62
     7
370
    15
100
AcDbLine
 10
5.779777065690005
 20
5.95172836851615
 30
0.0
 11
5.462427647547738
 21
6.04268595785782
 31
0.0
  0
LINE
  5
B5
330
1F
100
AcDbEntity
  8
0
  6
Continuous
 62
     7
370
    15
100
AcDbLine
 10
5.772118351414416
 20
5.944640067487442
 30
0.0
 11
5.779777065690005
 21
5.95172836851615
 31
0.0
  0
LINE
  5
B6
330
1F
100
AcDbEntity
  8
0
  6
Continuous
 62
     7
370
    15
100
AcDbLine
 10
5.772118351414416
 20
5.944640067487442
 30
0.0
 11
5.454768810741562
 21
6.035597860950058
 31
0.0
  0
LINE
  5
B7
330
1F
100
AcDbEntity
  8
0
  6
Continuous
 62
     7
370
    15
100
AcDbLine
 10
5.454768810741562
 20
6.035597860950058
 30
0.0
 11
5.462427647547738
 21
6.04268595785782
 31
0.0
  0
LINE
  5
B8
330
1F
100
AcDbEntity
  8
0
  6
Continuous
 62
     7
370
    15
100
AcDbLine
 10
5.772118351414416
 20
5.516056438030442
 30
0.0
 11
5.779777065690004
 21
5.523144739059151
 31
0.0
  0
LINE
  5
B9
330
1F
100
AcDbEntity
  8
0
  6
Continuous
 62
     7
370
    15
100
AcDbLine
 10
5.772118351414416
 20
5.516056438030442
 30
0.0
 11
5.772118351414416
 21
5.944640067487442
 31
0.0
  0
LINE
  5
BA
330
1F
100
AcDbEntity
  8
0
  6
Continuous
 62
     7
370
    15
100
AcDbLine
 10
5.779777065690004
 20
5.523144739059151
 30
0.0
 11
5.779777065690005
 21
5.95172836851615
 31
0.0
  0
LINE
  5
BB
330
1F
100
AcDbEntity
  8
0
  6
Continuous
 62
     7
370
    15
100
AcDbLine
 10
5.454768810741561
 20
5.607014231493058
 30
0.0
 11
5.772118351414416
 21
5.516056438030442
 31
0.0
  0
LINE
  5
BC
330
1F
100
AcDbEntity
  8
0
  6
Continuous
 62
     7
370
    15
100
AcDbLine
 10
5.47174661921795
 20
5.803743977853463
 30
0.0
 11
5.471746619217952
 21
5.85661961202705
 31
0.0
  0
ARC
  5
BD
330
1F
100
AcDbEntity
  8
0
  6
Continuous
 62
     7
370
    15
100
AcDbCircle
 10
5.433991246176451
 20
5.854699729974996
 30
0.0
 40
0.0378041550705298
100
AcDbArc
 50
2.911015408040407
 51
56.65969700735766
  0
LINE
  5
BE
330
1F
100
AcDbEntity
  8
0
  6
Continuous
 62
     7
370
    15
100
AcDbLine
 10
5.454768810741562
 20
6.035597860950058
 30
0.0
 11
5.454768810741562
 21
5.886282113535128
 31
0.0
  0
ARC
  5
BF
330
1F
100
AcDbEntity
  8
0
  6
Continuous
 62
     7
370
    15
100
AcDbCircle
 10
5.681114819658413
 20
5.617229102066565
 30
0.0
 40
0.0340346190680723
100
AcDbArc
 50
60.175682179161
 51
89.41559129058019
  0
LWPOLYLINE
  5
C0
330
1F
100
AcDbEntity
  8
0
  6
Continuous
 62
     7
370
    15
100
AcDbPolyline
 90
        3
 70
   128
 43
0.0
 10
5.669252808077452
 20
5.647906029140965
 10
5.665978034095786
 20
5.645330215730233
 10
5.663282718807923
 20
5.642078942518094
  0
ARC
  5
C1
330
1F
100
AcDbEntity
  8
0
  6
Continuous
 62
     7
370
    15
100
AcDbCircle
 10
5.681114819658398
 20
5.885093860655539
 30
0.0
 40
0.0340346190681283
100
AcDbArc
 50
60.17568217918579
 51
89.41559129055574
  0
LWPOLYLINE
  5
C2
330
1F
100
AcDbEntity
  8
0
  6
Continuous
 62
     7
370
    15
100
AcDbPolyline
 90
        3
 70
   128
 43
0.0
 10
5.669252808077452
 20
5.915770819159098
 10
5.665978034095786
 20
5.913195005748367
 10
5.663282718807924
 20
5.909943701107122
  0
LINE
  5
C3
330
1F
100
AcDbEntity
  8
0
  6
Continuous
 62
     7
370
    15
100
AcDbLine
 10
5.338863050721736
 20
5.9542762120699
 30
0.0
 11
5.338673363087449
 21
5.954095279412904
 31
0.0
  0
LINE
  5
C4
330
1F
100
AcDbEntity
  8
0
  6
Continuous
 62
     7
370
    15
100
AcDbLine
 10
5.352625465113168
 20
5.95033175311963
 30
0.0
 11
5.338863050721736
 21
5.9542762120699
 31
0.0
  0
LINE
  5
C5
330
1F
100
AcDbEntity
  8
0
  6
Continuous
 62
     7
370
    15
100
AcDbLine
 10
5.442868334214571
 20
6.03385139295192
 30
0.0
 11
5.442868334214571
 21
5.88453564553699
 31
0.0
  0
ARC
  5
C6
330
1F
100
AcDbEntity
  8
0
  6
Continuous
 62
     7
370
    15
100
AcDbCircle
 10
5.502242694094206
 20
5.849708965182637
 30
0.0
 40
0.0688346734983231
100
AcDbArc
 50
149.6057791005986
 51
178.929519852986
  0
LINE
  5
C7
330
1F
100
AcDbEntity
  8
0
  6
Continuous
 62
     7
370
    15
100
AcDbLine
 10
5.433420034290763
 20
5.850994956318025
 30
0.0
 11
5.433420034290763
 21
5.818527779800795
 31
0.0
  0
LINE
  5
C8
330
1F
100
AcDbEntity
  8
0
  6
Continuous
 62
     7
370
    15
100
AcDbLine
 10
5.365673305067276
 20
5.533823808909702
 30
0.0
 11
5.442868334214571
 21
5.605267763494921
 31
0.0
  0
LINE
  5
C9
330
1F
100
AcDbEntity
  8
0
  6
Continuous
 62
     7
370
    15
100
AcDbLine
 10
5.442868334214571
 20
6.03385139295192
 30
0.0
 11
5.352625465113168
 21
5.95033175311963
 31
0.0
  0
LINE
  5
CA
330
1F
100
AcDbEntity
  8
0
  6
Continuous
 62
     7
370
    15
100
AcDbLine
 10
5.4106261225124
 20
5.816505914527436
 30
0.0
 11
5.380234148877426
 21
5.788378118398735
 31
0.0
  0
LINE
  5
CB
330
1F
100
AcDbEntity
  8
0
  6
Continuous
 62
     7
370
    15
100
AcDbLine
 10
5.380234148877426
 20
5.788378118398735
 30
0.0
 11
5.380234148877426
 21
5.734805166680929
 31
0.0
  0
LINE
  5
CC
330
1F
100
AcDbEntity
  8
0
  6
Continuous
 62
     7
370
    15
100
AcDbLine
 10
5.380234148877426
 20
5.734805166680929
 30
0.0
 11
5.386930039905511
 21
5.741002279886584
 31
0.0
  0
LINE
  5
CD
330
1F
100
AcDbEntity
  8
0
  6
Continuous
 62
     7
370
    15
100
AcDbLine
 10
5.4106261225124
 20
5.808752951570493
 30
0.0
 11
5.4106261225124
 21
5.816505914527436
 31
0.0
  0
LINE
  5
CE
330
1F
100
AcDbEntity
  8
0
  6
Continuous
 62
     7
370
    15
100
AcDbLine
 10
5.429105660396821
 20
6.037795922408705
 30
0.0
 11
5.338863050721736
 21
5.9542762120699
 31
0.0
  0
LINE
  5
CF
330
1F
100
AcDbEntity
  8
0
  6
Continuous
 62
     7
370
    15
100
AcDbLine
 10
5.442868334214571
 20
6.03385139295192
 30
0.0
 11
5.429105660396821
 21
6.037795922408705
 31
0.0
  0
ARC
  5
D0
330
1F
100
AcDbEntity
  8
0
  6
Continuous
 62
     7
370
    15
100
AcDbCircle
 10
5.450601720975835
 20
6.022574208584056
 30
0.0
 40
0.0136740688189759
100
AcDbArc
 50
72.25723991313254
 51
124.4405800974946
  0
SPLINE
  5
D1
330
1F
100
AcDbEntity
  8
0
  6
Continuous
 62
     7
370
    15
100
AcDbSpline
210
0.0
220
0.0
230
1.0
 70
     8
 71
     3
 72
    15
 73
    11
 74
     0
 42
0.0000000001
 43
0.0000000001
 40
0.0
 40
0.0
 40
0.0
 40
0.0
 40
0.1212287970258215
 40
0.238448028328629
 40
0.3542696757782496
 40
0.4713319569799089
 40
0.5922447097587149
 40
0.7193703302731561
 40
0.8547177467228472
 40
1.0
 40
1.0
 40
1.0
 40
1.0
 10
5.442868334214571
 20
5.88453564553699
 30
0.0
 10
5.443131601840158
 20
5.885017018668304
 30
0.0
 10
5.443649429681266
 20
5.885963843819329
 30
0.0
 10
5.444774715041262
 20
5.887091001710709
 30
0.0
 10
5.446123563306605
 20
5.88791317795053
 30
0.0
 10
5.447687779724279
 20
5.888383760490881
 30
0.0
 10
5.449414219614183
 20
5.888478653869372
 30
0.0
 10
5.451235288099944
 20
5.888168727559101
 30
0.0
 10
5.453094288134684
 20
5.88746101421277
 30
0.0
 10
5.45419761654776
 20
5.886684246787537
 30
0.0
 10
5.454768810741562
 20
5.886282113535128
 30
0.0
  0
ARC
  5
D2
330
1F
100
AcDbEntity
  8
0
  6
Continuous
 62
     7
370
    15
100
AcDbCircle
 10
5.45075945543846
 20
6.006218678324649
 30
0.0
 40
0.0382884993653371
100
AcDbArc
 50
72.25723439274999
 51
124.4400107715666
  0
ARC
  5
D3
330
1F
100
AcDbEntity
  8
0
  6
Continuous
 62
     7
370
    15
100
AcDbCircle
 10
5.450601720975835
 20
5.593990579127056
 30
0.0
 40
0.0136740688189765
100
AcDbArc
 50
72.25723991313721
 51
124.4405800974925
  0
LINE
  5
D4
330
1F
100
AcDbEntity
  8
0
  6
Continuous
 62
     7
370
    15
100
AcDbLine
 10
4.724807527820486
 20
5.804020989264286
 30
0.0
 11
4.749173273718027
 21
5.797600298119527
 31
0.0
  0
LINE
  5
D5
330
1F
100
AcDbEntity
  8
0
  6
Continuous
 62
     7
370
    15
100
AcDbLine
 10
4.724807527820487
 20
6.232604618721286
 30
0.0
 11
4.724807527820487
 21
6.119755778535827
 31
0.0
  0
LINE
  5
D6
330
1F
100
AcDbEntity
  8
0
  6
Continuous
 62
     7
370
    15
100
AcDbLine
 10
4.724807527820487
 20
6.112817929407222
 30
0.0
 11
4.724807527820486
 21
5.804020989264286
 31
0.0
  0
LINE
  5
D7
330
1F
100
AcDbEntity
  8
0
  6
Continuous
 62
     7
370
    15
100
AcDbLine
 10
4.744923435894214
 20
6.227303924383511
 30
0.0
 11
4.724807527820487
 21
6.232604618721286
 31
0.0
  0
LINE
  5
D8
330
1F
100
AcDbEntity
  8
0
  6
Continuous
 62
     7
370
    15
100
AcDbLine
 10
4.724807527820487
 20
6.232604618721286
 30
0.0
 11
4.731981302053709
 21
6.23982608262057
 31
0.0
  0
LINE
  5
D9
330
1F
100
AcDbEntity
  8
0
  6
Continuous
 62
     7
370
    15
100
AcDbLine
 10
4.744923396044558
 20
6.236415802778039
 30
0.0
 11
4.731981302053709
 21
6.23982608262057
 31
0.0
  0
LWPOLYLINE
  5
DA
330
1F
100
AcDbEntity
  8
0
  6
Continuous
 62
     7
370
    15
100
AcDbPolyline
 90
       30
 70
   128
 43
0.0
 10
1.958895014112431
 20
4.955797249009382
 10
1.959695233649056
 20
4.944878677297402
 10
1.963832211919831
 20
4.928774894385203
 10
1.971443984215819
 20
4.91301095985808
 10
1.982434863178896
 20
4.897785065806322
 10
1.996666628869564
 20
4.883288771460185
 10
2.013960247786441
 20
4.869704229930484
 10
2.034098290729564
 20
4.857202420756718
 10
2.056827509320563
 20
4.845940485236878
 10
2.081861978062199
 20
4.836060018384196
 10
2.108886957002857
 20
4.827685335858664
 10
2.137562624687868
 20
4.820921776151824
 10
2.167528351511202
 20
4.815854368361583
 10
2.198407246858616
 20
4.812546767195895
 10
2.229810987224846
 20
4.811040624073002
 10
2.261344709187379
 20
4.811354940595039
 10
2.292611844706211
 20
4.813485608515955
 10
2.323219197680081
 20
4.817405994469543
 10
2.352781790020094
 20
4.823066733238883
 10
2.380927952571096
 20
4.830396650219754
 10
2.407303619797659
 20
4.839303473234343
 10
2.431577247683438
 20
4.849675314477595
 10
2.4534435354818
 20
4.861381794272128
 10
2.472627356401338
 20
4.874275449678628
 10
2.488887742160687
 20
4.888194409613925
 10
2.502019828472489
 20
4.902963403487956
 10
2.511858861145931
 20
4.918396942924912
 10
2.518280844439124
 20
4.934300682932777
 10
2.521205113134303
 20
4.950474822542602
 10
2.521395153526688
 20
4.955797334061933
  0
LWPOLYLINE
  5
DB
330
1F
100
AcDbEntity
  8
0
  6
Continuous
 62
     7
370
    15
100
AcDbPolyline
 90
       12
 70
   128
 43
0.0
 10
5.451111425510362
 20
5.725989951962489
 10
5.449565325105758
 20
5.725902983266468
 10
5.445685289355118
 20
5.728095713729196
 10
5.443152718301001
 20
5.733680351990193
 10
5.442273300114426
 20
5.741983502589908
 10
5.443152718301001
 20
5.752003362838544
 10
5.445685289355118
 20
5.762531735076287
 10
5.449565325105758
 20
5.772298533220252
 10
5.454324915938706
 20
5.780125796620593
 10
5.459390058046941
 20
5.785069530597339
 10
5.464149648879888
 20
5.786533280326914
 10
5.467202423718093
 20
5.785196314640221
  0
LINE
  5
DC
330
1F
100
AcDbEntity
  8
0
  6
Continuous
 62
     7
370
    15
100
AcDbLine
 10
5.444227212906611
 20
5.784070303020675
 30
0.0
 11
5.431596801924666
 21
5.731562913053518
 31
0.0
  0
LINE
  5
DD
330
1F
100
AcDbEntity
  8
0
  6
Continuous
 62
     7
370
    15
100
AcDbLine
 10
5.469487761079036
 20
5.808725372434865
 30
0.0
 11
5.444227212906611
 21
5.784070303020675
 31
0.0
  0
LINE
  5
DE
330
1F
100
AcDbEntity
  8
0
  6
Continuous
 62
     7
370
    15
100
AcDbLine
 10
5.482118035165249
 20
5.78087318549633
 30
0.0
 11
5.469487761079036
 21
5.808725372434865
 31
0.0
  0
LINE
  5
DF
330
1F
100
AcDbEntity
  8
0
  6
Continuous
 62
     7
370
    15
100
AcDbLine
 10
5.482001126209561
 20
5.780386863885546
 30
0.0
 11
5.482118035165249
 21
5.78087318549633
 31
0.0
  0
LINE
  5
E0
330
1F
100
AcDbEntity
  8
0
  6
Continuous
 62
     7
370
    15
100
AcDbLine
 10
5.444227212906611
 20
5.703710891158519
 30
0.0
 11
5.463144012827805
 21
5.722174267802913
 31
0.0
  0
LINE
  5
E1
330
1F
100
AcDbEntity
  8
0
  6
Continuous
 62
     7
370
    15
100
AcDbLine
 10
5.431596801924666
 20
5.731562913053518
 30
0.0
 11
5.444227212906611
 21
5.703710891158519
 31
0.0
  0
LINE
  5
E2
330
1F
100
AcDbEntity
  8
0
  6
Continuous
 62
     7
370
    15
100
AcDbLine
 10
5.444227212906611
 20
5.784070303020675
 30
0.0
 11
5.398163735170872
 21
5.796589369248314
 31
0.0
  0
LINE
  5
E3
330
1F
100
AcDbEntity
  8
0
  6
Continuous
 62
     7
370
    15
100
AcDbLine
 10
5.431596801924666
 20
5.731562913053518
 30
0.0
 11
5.385533324188927
 21
5.744081979281157
 31
0.0
  0
LINE
  5
E4
330
1F
100
AcDbEntity
  8
0
  6
Continuous
 62
     7
370
    15
100
AcDbLine
 10
5.398163735170872
 20
5.796589369248314
 30
0.0
 11
5.385533324188927
 21
5.744081979281157
 31
0.0
  0
LINE
  5
E5
330
1F
100
AcDbEntity
  8
0
  6
Continuous
 62
     7
370
    15
100
AcDbLine
 10
5.469487761079036
 20
5.808725372434865
 30
0.0
 11
5.423424283343298
 21
5.821244438662504
 31
0.0
  0
LINE
  5
E6
330
1F
100
AcDbEntity
  8
0
  6
Continuous
 62
     7
370
    15
100
AcDbLine
 10
5.423424283343298
 20
5.821244438662504
 30
0.0
 11
5.398163735170872
 21
5.796589369248314
 31
0.0
  0
LINE
  5
E7
330
1F
100
AcDbEntity
  8
0
  6
Continuous
 62
     7
370
    15
100
AcDbLine
 10
5.444227212906611
 20
5.703710891158519
 30
0.0
 11
5.398163735170872
 21
5.716229957386158
 31
0.0
  0
LINE
  5
E8
330
1F
100
AcDbEntity
  8
0
  6
Continuous
 62
     7
370
    15
100
AcDbLine
 10
5.385533324188927
 20
5.744081979281157
 30
0.0
 11
5.398163735170872
 21
5.716229957386158
 31
0.0
  0
LWPOLYLINE
  5
E9
330
1F
100
AcDbEntity
  8
0
  6
Continuous
 62
     7
370
    15
100
AcDbPolyline
 90
       60
 70
   128
 43
0.0
 10
5.33380404935242
 20
6.249996470222654
 10
5.316736201857018
 20
6.235291345166415
 10
5.296730234378067
 20
6.221604070735478
 10
5.274012913099917
 20
6.209089616193873
 10
5.248841469483211
 20
6.197889631813451
 10
5.221500988258672
 20
6.188131194333975
 10
5.192301629794879
 20
6.179924743338023
 10
5.161574202107839
 20
6.173363320256685
 10
5.129666496784359
 20
6.168521258120331
 10
5.096940302201517
 20
6.165453370513862
 10
5.063766334153005
 20
6.164194535716375
 10
5.03052059332023
 20
6.164758893055001
 10
4.997579652503131
 20
6.167140098816041
 10
4.965316714947387
 20
6.171311201768855
 10
4.934097359162584
 20
6.177224860124436
 10
4.904275312470678
 20
6.184814233964742
 10
4.876188584963633
 20
6.193993096441489
 10
4.850155217699459
 20
6.204657672604406
 10
4.826470346199694
 20
6.216687010430299
 10
4.805402276519617
 20
6.229944815951997
 10
4.787189790002202
 20
6.244280869047517
 10
4.772039004809855
 20
6.259532815917153
 10
4.760121801196658
 20
6.275527707389175
 10
4.751573169357749
 20
6.292084427915122
 10
4.74648990131045
 20
6.309015332236674
 10
4.744929578114577
 20
6.326128655884448
 10
4.746910061580242
 20
6.343230446928398
 10
4.752408672466617
 20
6.360126839162881
 10
4.761363350290956
 20
6.376626640831315
 10
4.773672314467126
 20
6.392542622459772
 10
4.789196427445932
 20
6.407694632640769
 10
4.807759641315179
 20
6.421910843215008
 10
4.829151735714328
 20
6.435030421560009
 10
4.853130061566151
 20
6.446904423239276
 10
4.879423201348647
 20
6.45739855525352
 10
4.907733224496765
 20
6.466393758809097
 10
4.937739182048296
 20
6.473788163484043
 10
4.969101213942691
 20
6.479498020789358
 10
5.001464000571505
 20
6.483458645128901
 10
5.034460855712086
 20
6.485625009625306
 10
5.06771784100895
 20
6.485972848548959
 10
5.100858197768937
 20
6.484497965310322
 10
5.133506454260019
 20
6.481217166021223
 10
5.165292590897553
 20
6.476167469126004
 10
5.195856515134855
 20
6.469406426599964
 10
5.224852053840859
 20
6.461010355627643
 10
5.251950505833415
 20
6.451074568838683
 10
5.276844893683271
 20
6.439711535479591
 10
5.299253076829899
 20
6.427050035335555
 10
5.318921225106488
 20
6.413233531421752
 10
5.335626636516607
 20
6.398418550073226
 10
5.349179762366725
 20
6.382772934818963
 10
5.359427277286607
 20
6.36647398709757
 10
5.366252778499956
 20
6.349706397193158
 10
5.369579322627025
 20
6.332660188228678
 10
5.369369058519687
 20
6.315528253657101
 10
5.365624221871283
 20
6.298505062029225
 10
5.3583873878872
 20
6.281783342747811
 10
5.347740484284448
 20
6.265552475295803
 10
5.33380404935242
 20
6.249996470222654
  0
ARC
  5
EA
330
1F
100
AcDbEntity
  8
0
  6
Continuous
 62
     7
370
    15
100
AcDbCircle
 10
5.265327896206092
 20
6.114873394323363
 30
0.0
 40
0.1046741205524343
100
AcDbArc
 50
310.8578186577113
 51
357.7801299700789
  0
LWPOLYLINE
  5
EB
330
1F
100
AcDbEntity
  8
0
  6
Continuous
 62
     7
370
    15
100
AcDbPolyline
 90
       26
 70
   128
 43
0.0
 10
4.744923284445697
 20
6.110818936358374
 10
4.746489901310449
 20
6.094723525365451
 10
4.751573169357749
 20
6.077792621043899
 10
4.760121801196657
 20
6.061235900517952
 10
4.772039004809855
 20
6.04524100904593
 10
4.787189790002201
 20
6.029989062176293
 10
4.805402276519617
 20
6.015653009080774
 10
4.826470346199693
 20
6.002395203559075
 10
4.850155217699459
 20
5.990365865733183
 10
4.876188584963632
 20
5.979701289570265
 10
4.904275312470677
 20
5.970522427093518
 10
4.934097359162583
 20
5.962933053253213
 10
4.965316714947386
 20
5.957019394897632
 10
4.99757965250313
 20
5.952848291944818
 10
5.03052059332023
 20
5.950467086183778
 10
5.063766334153005
 20
5.949902728845152
 10
5.096940302201516
 20
5.951161563642639
 10
5.129666496784357
 20
5.954229451249108
 10
5.161574202107839
 20
5.959071513385461
 10
5.192301629794879
 20
5.9656329364668
 10
5.221500988258671
 20
5.973839387462752
 10
5.248841469483211
 20
5.983597824942228
 10
5.274012913099916
 20
5.994797809322649
 10
5.296730234378065
 20
6.007312263864254
 10
5.316736201857017
 20
6.020999538295193
 10
5.333804049352418
 20
6.035704663351429
  0
LINE
  5
EC
330
1F
100
AcDbEntity
  8
0
  6
Continuous
 62
     7
370
    15
100
AcDbLine
 10
2.622342579726171
 20
6.555571392998578
 30
0.0
 11
2.576279101990433
 21
6.568090459226216
 31
0.0
  0
LINE
  5
ED
330
1F
100
AcDbEntity
  8
0
  6
Continuous
 62
     7
370
    15
100
AcDbLine
 10
2.609712168744225
 20
6.503064003031421
 30
0.0
 11
2.622342579726171
 21
6.555571392998578
 31
0.0
  0
LINE
  5
EE
330
1F
100
AcDbEntity
  8
0
  6
Continuous
 62
     7
370
    15
100
AcDbLine
 10
2.609712168744225
 20
6.503064003031421
 30
0.0
 11
2.563648691008487
 21
6.51558306925906
 31
0.0
  0
LINE
  5
EF
330
1F
100
AcDbEntity
  8
0
  6
Continuous
 62
     7
370
    15
100
AcDbLine
 10
2.576279101990433
 20
6.568090459226216
 30
0.0
 11
2.563648691008487
 21
6.51558306925906
 31
0.0
  0
LWPOLYLINE
  5
F0
330
1F
100
AcDbEntity
  8
0
  6
Continuous
 62
     7
370
    15
100
AcDbPolyline
 90
       13
 70
   128
 43
0.0
 10
2.63224917631548
 20
6.498745601175204
 10
2.627680691925318
 20
6.49740407324437
 10
2.623800656174678
 20
6.499596772277993
 10
2.621268085120561
 20
6.505181410538989
 10
2.620388666933986
 20
6.513484592567809
 10
2.621268085120561
 20
6.523504452816447
 10
2.623800656174678
 20
6.534032825054189
 10
2.627680691925319
 20
6.543799591769048
 10
2.632440282758266
 20
6.551626855169391
 10
2.6375054248665
 20
6.556570589146136
 10
2.642265015699448
 20
6.558034338875713
 10
2.646145051450087
 20
6.55584163984209
 10
2.647145896151528
 20
6.554353164557456
  0
LINE
  5
F1
330
1F
100
AcDbEntity
  8
0
  6
Continuous
 62
     7
370
    15
100
AcDbLine
 10
2.622342579726171
 20
6.555571392998578
 30
0.0
 11
2.647603127898596
 21
6.580226462412767
 31
0.0
  0
LINE
  5
F2
330
1F
100
AcDbEntity
  8
0
  6
Continuous
 62
     7
370
    15
100
AcDbLine
 10
2.647603127898596
 20
6.580226462412767
 30
0.0
 11
2.659931957581501
 21
6.55303905276469
 31
0.0
  0
LINE
  5
F3
330
1F
100
AcDbEntity
  8
0
  6
Continuous
 62
     7
370
    15
100
AcDbLine
 10
2.642209299136257
 20
6.494602476893999
 30
0.0
 11
2.622342579726171
 21
6.475211949707317
 31
0.0
  0
LINE
  5
F4
330
1F
100
AcDbEntity
  8
0
  6
Continuous
 62
     7
370
    15
100
AcDbLine
 10
2.622342579726171
 20
6.475211949707317
 30
0.0
 11
2.609712168744225
 21
6.503064003031421
 31
0.0
  0
LINE
  5
F5
330
1F
100
AcDbEntity
  8
0
  6
Continuous
 62
     7
370
    15
100
AcDbLine
 10
2.601539650162858
 20
6.592745528640405
 30
0.0
 11
2.647603127898596
 21
6.580226462412767
 31
0.0
  0
LINE
  5
F6
330
1F
100
AcDbEntity
  8
0
  6
Continuous
 62
     7
370
    15
100
AcDbLine
 10
2.601539650162858
 20
6.592745528640405
 30
0.0
 11
2.576279101990433
 21
6.568090459226216
 31
0.0
  0
LINE
  5
F7
330
1F
100
AcDbEntity
  8
0
  6
Continuous
 62
     7
370
    15
100
AcDbLine
 10
2.622342579726171
 20
6.475211949707317
 30
0.0
 11
2.576279101990433
 21
6.487731015934955
 31
0.0
  0
LINE
  5
F8
330
1F
100
AcDbEntity
  8
0
  6
Continuous
 62
     7
370
    15
100
AcDbLine
 10
2.563648691008487
 20
6.51558306925906
 30
0.0
 11
2.576279101990433
 21
6.487731015934955
 31
0.0
  0
LWPOLYLINE
  5
F9
330
1F
100
AcDbEntity
  8
0
  6
Continuous
 62
     7
370
    15
100
AcDbPolyline
 90
       30
 70
   128
 43
0.0
 10
4.776173338433244
 20
4.185548023649162
 10
4.776973424665423
 20
4.174629402756595
 10
4.781110536240645
 20
4.158525669024984
 10
4.788722373393212
 20
4.14276171687123
 10
4.79971312264313
 20
4.127535858072731
 10
4.813944884742511
 20
4.11303947929275
 10
4.831238572107255
 20
4.099455004570264
 10
4.851376615050377
 20
4.086953195396498
 10
4.87410576519351
 20
4.075691193069443
 10
4.899140302383013
 20
4.065810793023977
 10
4.926165281323671
 20
4.057436110498445
 10
4.954840949008682
 20
4.050672550791604
 10
4.984806607384149
 20
4.045605076194147
 10
5.01568557117943
 20
4.042297541835675
 10
5.04708931154566
 20
4.040791398712783
 10
5.078623029916905
 20
4.041105630800974
 10
5.109890104170444
 20
4.043236400782364
 10
5.140497586857474
 20
4.047156751482694
 10
5.170060114340908
 20
4.052817507878663
 10
5.198206143587464
 20
4.060147375678948
 10
5.224581944118471
 20
4.069054247874124
 10
5.248855507147672
 20
4.079426106744004
 10
5.270721794946034
 20
4.091132586538537
 10
5.289905680722152
 20
4.104026224318409
 10
5.3061660664815
 20
4.117945184253705
 10
5.319298152793301
 20
4.132714178127736
 10
5.329137120610165
 20
4.148147735191321
 10
5.335559103903357
 20
4.164051475199185
 10
5.338483437455116
 20
4.180225597182383
 10
5.338673340951769
 20
4.185547975087281
  0
LINE
  5
FA
330
1F
100
AcDbEntity
  8
0
  6
Continuous
 62
     7
370
    15
100
AcDbLine
 10
3.409266936217359
 20
8.070742985727211
 30
0.0
 11
3.409266936217358
 21
7.270016144320194
 31
0.0
  0
LINE
  5
FB
330
1F
100
AcDbEntity
  8
0
  6
Continuous
 62
     7
370
    15
100
AcDbLine
 10
2.767560797027642
 20
7.444418121466951
 30
0.0
 11
3.409266936217359
 21
8.070742985727211
 31
0.0
  0
LINE
  5
FC
330
1F
100
AcDbEntity
  8
0
  6
Continuous
 62
     7
370
    15
100
AcDbLine
 10
2.491180125182953
 20
7.519532465952897
 30
0.0
 11
2.767560797027642
 21
7.444418121466951
 31
0.0
  0
LINE
  5
FD
330
1F
100
AcDbEntity
  8
0
  6
Continuous
 62
     7
370
    15
100
AcDbLine
 10
3.13288626437267
 20
8.145857330213157
 30
0.0
 11
2.491180125182953
 21
7.519532465952897
 31
0.0
  0
LINE
  5
FE
330
1F
100
AcDbEntity
  8
0
  6
Continuous
 62
     7
370
    15
100
AcDbLine
 10
3.13288626437267
 20
8.145857330213157
 30
0.0
 11
3.409266936217359
 21
8.070742985727211
 31
0.0
  0
LINE
  5
FF
330
1F
100
AcDbEntity
  8
0
  6
Continuous
 62
     7
370
    15
100
AcDbLine
 10
5.729392415197021
 20
5.844689054757598
 30
0.0
 11
5.705456964747691
 21
5.811014475669431
 31
0.0
  0
LINE
  5
100
330
1F
100
AcDbEntity
  8
0
  6
Continuous
 62
     7
370
    15
100
AcDbLine
 10
5.705456964747691
 20
5.811014475669431
 30
0.0
 11
5.657586582701671
 21
5.824024619771329
 31
0.0
  0
LINE
  5
101
330
1F
100
AcDbEntity
  8
0
  6
Continuous
 62
     7
370
    15
100
AcDbLine
 10
5.657586582701671
 20
5.824024619771329
 30
0.0
 11
5.63365139167866
 21
5.870709413467907
 31
0.0
  0
LINE
  5
102
330
1F
100
AcDbEntity
  8
0
  6
Continuous
 62
     7
370
    15
100
AcDbLine
 10
5.63365139167866
 20
5.870709413467907
 30
0.0
 11
5.657586582701671
 21
5.90438406306259
 31
0.0
  0
LINE
  5
103
330
1F
100
AcDbEntity
  8
0
  6
Continuous
 62
     7
370
    15
100
AcDbLine
 10
5.657586582701671
 20
5.90438406306259
 30
0.0
 11
5.705456964747691
 21
5.891373918960693
 31
0.0
  0
LINE
  5
104
330
1F
100
AcDbEntity
  8
0
  6
Continuous
 62
     7
370
    15
100
AcDbLine
 10
5.705456964747691
 20
5.891373918960693
 30
0.0
 11
5.729392415197021
 21
5.844689054757598
 31
0.0
  0
LINE
  5
105
330
1F
100
AcDbEntity
  8
0
  6
Continuous
 62
     7
370
    15
100
AcDbLine
 10
5.729392415197021
 20
5.844689054757598
 30
0.0
 11
5.746407459600171
 21
5.861296259715373
 31
0.0
  0
LINE
  5
106
330
1F
100
AcDbEntity
  8
0
  6
Continuous
 62
     7
370
    15
100
AcDbLine
 10
5.705456964747691
 20
5.891373918960693
 30
0.0
 11
5.722472009150842
 21
5.907981123918466
 31
0.0
  0
LINE
  5
107
330
1F
100
AcDbEntity
  8
0
  6
Continuous
 62
     7
370
    15
100
AcDbLine
 10
5.746407459600171
 20
5.861296259715373
 30
0.0
 11
5.722472009150842
 21
5.907981123918466
 31
0.0
  0
LINE
  5
108
330
1F
100
AcDbEntity
  8
0
  6
Continuous
 62
     7
370
    15
100
AcDbLine
 10
5.657586582701671
 20
5.90438406306259
 30
0.0
 11
5.674601627104822
 21
5.920991268020364
 31
0.0
  0
LINE
  5
109
330
1F
100
AcDbEntity
  8
0
  6
Continuous
 62
     7
370
    15
100
AcDbLine
 10
5.722472009150842
 20
5.907981123918466
 30
0.0
 11
5.674601627104822
 21
5.920991268020364
 31
0.0
  0
LINE
  5
10A
330
1F
100
AcDbEntity
  8
0
  6
Continuous
 62
     7
370
    15
100
AcDbLine
 10
5.705456964747691
 20
5.811014475669431
 30
0.0
 11
5.722472009150842
 21
5.827621680627205
 31
0.0
  0
LINE
  5
10B
330
1F
100
AcDbEntity
  8
0
  6
Continuous
 62
     7
370
    15
100
AcDbLine
 10
5.722472009150842
 20
5.827621680627205
 30
0.0
 11
5.746407459600171
 21
5.861296259715373
 31
0.0
  0
ARC
  5
10C
330
1F
100
AcDbEntity
  8
0
  6
Continuous
 62
     7
370
    15
100
AcDbCircle
 10
5.400837087045331
 20
5.755706759537171
 30
0.0
 40
0.0191026037454412
100
AcDbArc
 50
171.9393142239811
 51
216.9371834611865
  0
LWPOLYLINE
  5
10D
330
1F
100
AcDbEntity
  8
0
  6
Continuous
 62
     7
370
    15
100
AcDbPolyline
 90
        8
 70
   128
 43
0.0
 10
5.404703212500352
 20
5.802776134375218
 10
5.403799563769097
 20
5.802935140314128
 10
5.399039972936148
 20
5.80147139058455
 10
5.393974830827914
 20
5.796527656607805
 10
5.389215239994967
 20
5.788700393207464
 10
5.385335204244327
 20
5.778933595063498
 10
5.38280263319021
 20
5.768405222825757
 10
5.381923215003634
 20
5.758385362577119
  0
LINE
  5
10E
330
1F
100
AcDbEntity
  8
0
  6
Continuous
 62
     7
370
    15
100
AcDbLine
 10
3.774592540458121
 20
8.772182328087852
 30
0.0
 11
4.050973212302809
 21
8.697067983601904
 31
0.0
  0
LINE
  5
10F
330
1F
100
AcDbEntity
  8
0
  6
Continuous
 62
     7
370
    15
100
AcDbLine
 10
4.050973212302806
 20
7.09561430078787
 30
0.0
 11
4.050973212302809
 21
8.697067983601904
 31
0.0
  0
LINE
  5
110
330
1F
100
AcDbEntity
  8
0
  6
Continuous
 62
     7
370
    15
100
AcDbLine
 10
4.416298679647837
 20
9.398507192348112
 30
0.0
 11
3.774592540458121
 21
8.772182328087852
 31
0.0
  0
LINE
  5
111
330
1F
100
AcDbEntity
  8
0
  6
Continuous
 62
     7
370
    15
100
AcDbLine
 10
4.416298679647837
 20
9.398507192348112
 30
0.0
 11
4.692679351492526
 21
9.323392847862166
 31
0.0
  0
LINE
  5
112
330
1F
100
AcDbEntity
  8
0
  6
Continuous
 62
     7
370
    15
100
AcDbLine
 10
4.050973212302809
 20
8.697067983601904
 30
0.0
 11
4.692679351492526
 21
9.323392847862166
 31
0.0
  0
LINE
  5
113
330
1F
100
AcDbEntity
  8
0
  6
Continuous
 62
     7
370
    15
100
AcDbLine
 10
4.692679351492526
 20
9.323392847862166
 30
0.0
 11
4.692679351492524
 21
7.60905826717596
 31
0.0
  0
LINE
  5
114
330
1F
100
AcDbEntity
  8
0
  6
Continuous
 62
     7
370
    15
100
AcDbLine
 10
4.692679351492524
 20
7.60905826717596
 30
0.0
 11
4.141436376564396
 21
7.07102822451151
 31
0.0
  0
LWPOLYLINE
  5
115
330
1F
100
AcDbEntity
  8
0
  6
Continuous
 62
     7
370
    15
100
AcDbPolyline
 90
       10
 70
   128
 43
0.0
 10
2.727092350777194
 20
6.52946956081141
 10
2.722104280966445
 20
6.522985658640473
 10
2.717717731004982
 20
6.514052806776525
 10
2.714462076690982
 20
6.50374879603214
 10
2.712729661194233
 20
6.493316088522036
 10
2.712729661194233
 20
6.484013262128934
 10
2.714462076690982
 20
6.476962335887789
 10
2.717717731004982
 20
6.473013561977726
 10
2.722104280966445
 20
6.472643524590364
 10
2.724984019598575
 20
6.474120198003061
  0
LWPOLYLINE
  5
116
330
1F
100
AcDbEntity
  8
0
  6
Continuous
 62
     7
370
    15
100
AcDbPolyline
 90
        5
 70
   128
 43
0.0
 10
2.739731659981762
 20
6.528383832080786
 10
2.739722624863407
 20
6.528403865446329
 10
2.736466970549406
 20
6.532352639356391
 10
2.732080420587943
 20
6.532722676743754
 10
2.727092350777194
 20
6.52946956081141
  0
LWPOLYLINE
  5
117
330
1F
100
AcDbEntity
  8
0
  6
Continuous
 62
     7
370
    15
100
AcDbPolyline
 90
       18
 70
   128
 43
0.0
 10
2.73169869206511
 20
6.523753245927251
 10
2.727308309023132
 20
6.517960757627257
 10
2.723510958295016
 20
6.509935910783038
 10
2.720819314399554
 20
6.500762384194356
 10
2.719596972402679
 20
6.491679158505062
 10
2.720009165453703
 20
6.483913141555615
 10
2.721999903197971
 20
6.478512815186487
 10
2.725300733103747
 20
6.476207969751428
 10
2.72946551197831
 20
6.477309534193722
 10
2.733931872151911
 20
6.481668838645757
 10
2.738096651026473
 20
6.488697177921006
 10
2.741397344036517
 20
6.497445312100945
 10
2.743388218676518
 20
6.506731814219091
 10
2.743800411727542
 20
6.515302457276862
 10
2.742578069730666
 20
6.521999596443001
 10
2.739886425835204
 20
6.525918869115424
 10
2.736089075107087
 20
6.526531054512025
 10
2.73169869206511
 20
6.523753245927251
  0
ARC
  5
118
330
1F
100
AcDbEntity
  8
0
  6
Continuous
 62
     7
370
    15
100
AcDbCircle
 10
2.755596871005339
 20
6.4949362553134
 30
0.0
 40
0.0453760387486981
100
AcDbArc
 50
133.7077457357502
 51
195.8833609249319
  0
LWPOLYLINE
  5
119
330
1F
100
AcDbEntity
  8
0
  6
Continuous
 62
     7
370
    15
100
AcDbPolyline
 90
       10
 70
   128
 43
0.0
 10
2.717879668201363
 20
6.531973370531611
 10
2.712891598390614
 20
6.525489468360677
 10
2.708505048429151
 20
6.516556616496726
 10
2.70524939411515
 20
6.506252605752342
 10
2.703516978618402
 20
6.49581989824224
 10
2.703516978618402
 20
6.486517071849136
 10
2.70524939411515
 20
6.47946614560799
 10
2.708505048429151
 20
6.475517371697929
 10
2.712891598390614
 20
6.475147334310566
 10
2.714911221134472
 20
6.476063850130108
  0
LWPOLYLINE
  5
11A
330
1F
100
AcDbEntity
  8
0
  6
Continuous
 62
     7
370
    15
100
AcDbPolyline
 90
        4
 70
   128
 43
0.0
 10
2.730060787388735
 20
6.531806123180824
 10
2.727254287973575
 20
6.534856449076593
 10
2.722867738012111
 20
6.535226486463956
 10
2.717879668201363
 20
6.531973370531611
  0
ARC
  5
11B
330
1F
100
AcDbEntity
  8
0
  6
Continuous
 62
     7
370
    15
100
AcDbCircle
 10
2.746384188429506
 20
6.497440065033603
 30
0.0
 40
0.045376038748697
100
AcDbArc
 50
133.7077457357501
 51
195.8833609249335
  0
LWPOLYLINE
  5
11C
330
1F
100
AcDbEntity
  8
0
  6
Continuous
 62
     7
370
    15
100
AcDbPolyline
 90
       10
 70
   128
 43
0.0
 10
2.708666985625531
 20
6.534477180251814
 10
2.703678915814782
 20
6.527993278080878
 10
2.699292365853319
 20
6.519060426216928
 10
2.696036711539318
 20
6.508756415472544
 10
2.69430429604257
 20
6.498323707962441
 10
2.69430429604257
 20
6.489020881569338
 10
2.696036711539318
 20
6.481969955328192
 10
2.699292365853319
 20
6.478021181418131
 10
2.703678915814781
 20
6.477651144030768
 10
2.705698538558641
 20
6.478567659850309
  0
LWPOLYLINE
  5
11D
330
1F
100
AcDbEntity
  8
0
  6
Continuous
 62
     7
370
    15
100
AcDbPolyline
 90
        4
 70
   128
 43
0.0
 10
2.720848104812903
 20
6.534309932901026
 10
2.718041605397743
 20
6.537360258796795
 10
2.71365505543628
 20
6.537730296184158
 10
2.708666985625531
 20
6.534477180251814
  0
ARC
  5
11E
330
1F
100
AcDbEntity
  8
0
  6
Continuous
 62
     7
370
    15
100
AcDbCircle
 10
2.737657580339776
 20
6.500036438876628
 30
0.0
 40
0.0458689093569667
100
AcDbArc
 50
137.0926461692126
 51
195.8284012271963
  0
LINE
  5
11F
330
1F
100
AcDbEntity
  8
0
  6
Continuous
 62
     7
370
    15
100
AcDbLine
 10
2.705817564170509
 20
6.532745021585157
 30
0.0
 11
2.704060644337615
 21
6.531264675087856
 31
0.0
  0
LWPOLYLINE
  5
120
330
1F
100
AcDbEntity
  8
0
  6
Continuous
 62
     7
370
    15
100
AcDbPolyline
 90
       10
 70
   128
 43
0.0
 10
2.699454303049699
 20
6.536980989972015
 10
2.694466233238951
 20
6.530497087801081
 10
2.690079683277487
 20
6.521564235937129
 10
2.686824028963486
 20
6.511260225192746
 10
2.685091613466739
 20
6.500827517682644
 10
2.685091613466739
 20
6.49152469128954
 10
2.686824028963486
 20
6.484473765048394
 10
2.690079683277487
 20
6.480524991138333
 10
2.69446623323895
 20
6.48015495375097
 10
2.696485855982809
 20
6.481071469570512
  0
LINE
  5
121
330
1F
100
AcDbEntity
  8
0
  6
Continuous
 62
     7
370
    15
100
AcDbLine
 10
2.699454303049699
 20
6.536980989972015
 30
0.0
 11
2.704060644337615
 21
6.531264675087856
 31
0.0
  0
ARC
  5
122
330
1F
100
AcDbEntity
  8
0
  6
Continuous
 62
     7
370
    15
100
AcDbCircle
 10
2.727958823277842
 20
6.502447684474006
 30
0.0
 40
0.0453760387486977
100
AcDbArc
 50
133.7077457357486
 51
195.8833609249324
  0
LWPOLYLINE
  5
123
330
1F
100
AcDbEntity
  8
0
  6
Continuous
 62
     7
370
    15
100
AcDbPolyline
 90
        4
 70
   128
 43
0.0
 10
2.711635422237071
 20
6.536813742621228
 10
2.708828922821911
 20
6.539864068516997
 10
2.704442372860448
 20
6.54023410590436
 10
2.699454303049699
 20
6.536980989972015
  0
LWPOLYLINE
  5
124
330
1F
100
AcDbEntity
  8
0
  6
Continuous
 62
     7
370
    15
100
AcDbPolyline
 90
       10
 70
   128
 43
0.0
 10
2.690241620473868
 20
6.539484799692218
 10
2.685253550663118
 20
6.533000897521282
 10
2.680867000701656
 20
6.524068045657333
 10
2.677611346387656
 20
6.513764034912948
 10
2.675878930890906
 20
6.503331327402845
 10
2.675878930890906
 20
6.494028501009742
 10
2.677611346387656
 20
6.486977574768596
 10
2.680867000701656
 20
6.483028800858535
 10
2.685253550663118
 20
6.482658763471173
 10
2.687273173406977
 20
6.483575279290713
  0
LWPOLYLINE
  5
125
330
1F
100
AcDbEntity
  8
0
  6
Continuous
 62
     7
370
    15
100
AcDbPolyline
 90
        4
 70
   128
 43
0.0
 10
2.70242273966124
 20
6.53931755234143
 10
2.69961624024608
 20
6.542367878237199
 10
2.695229690284616
 20
6.542737915624562
 10
2.690241620473868
 20
6.539484799692218
  0
ARC
  5
126
330
1F
100
AcDbEntity
  8
0
  6
Continuous
 62
     7
370
    15
100
AcDbCircle
 10
2.718746108273723
 20
6.504951503007522
 30
0.0
 40
0.0453760387486992
100
AcDbArc
 50
133.7077457357506
 51
195.8833609249304
  0
LWPOLYLINE
  5
127
330
1F
100
AcDbEntity
  8
0
  6
Continuous
 62
     7
370
    15
100
AcDbPolyline
 90
       10
 70
   128
 43
0.0
 10
2.681028905469747
 20
6.541988618225734
 10
2.676040835658997
 20
6.535504716054798
 10
2.671654285697535
 20
6.52657186419085
 10
2.668398631383534
 20
6.516267853446464
 10
2.666666215886785
 20
6.505835145936361
 10
2.666666215886785
 20
6.496532319543258
 10
2.668398631383534
 20
6.489481393302113
 10
2.671654285697535
 20
6.485532619392051
 10
2.676040835658997
 20
6.485162582004688
 10
2.678060458402856
 20
6.486079097824229
  0
LWPOLYLINE
  5
128
330
1F
100
AcDbEntity
  8
0
  6
Continuous
 62
     7
370
    15
100
AcDbPolyline
 90
        4
 70
   128
 43
0.0
 10
2.693210024657118
 20
6.541821370874946
 10
2.690403525241959
 20
6.544871696770716
 10
2.686016975280495
 20
6.545241734158079
 10
2.681028905469747
 20
6.541988618225734
  0
ARC
  5
129
330
1F
100
AcDbEntity
  8
0
  6
Continuous
 62
     7
370
    15
100
AcDbCircle
 10
2.709533425697889
 20
6.507455312727724
 30
0.0
 40
0.0453760387486974
100
AcDbArc
 50
133.7077457357498
 51
195.8833609249323
  0
LWPOLYLINE
  5
12A
330
1F
100
AcDbEntity
  8
0
  6
Continuous
 62
     7
370
    15
100
AcDbPolyline
 90
       10
 70
   128
 43
0.0
 10
2.671816222893914
 20
6.544492427945935
 10
2.666828153083165
 20
6.538008525775001
 10
2.662441603121702
 20
6.52907567391105
 10
2.659185948807702
 20
6.518771663166666
 10
2.657453533310953
 20
6.508338955656564
 10
2.657453533310953
 20
6.49903612926346
 10
2.659185948807702
 20
6.491985203022315
 10
2.662441603121702
 20
6.488036429112253
 10
2.666828153083165
 20
6.48766639172489
 10
2.668847775827024
 20
6.488582907544432
  0
LWPOLYLINE
  5
12B
330
1F
100
AcDbEntity
  8
0
  6
Continuous
 62
     7
370
    15
100
AcDbPolyline
 90
        4
 70
   128
 43
0.0
 10
2.683997342081286
 20
6.544325180595149
 10
2.681190842666126
 20
6.547375506490918
 10
2.676804292704664
 20
6.547745543878281
 10
2.671816222893914
 20
6.544492427945935
  0
ARC
  5
12C
330
1F
100
AcDbEntity
  8
0
  6
Continuous
 62
     7
370
    15
100
AcDbCircle
 10
2.700320743122064
 20
6.509959122447926
 30
0.0
 40
0.0453760387487032
100
AcDbArc
 50
133.7077457357543
 51
195.8833609249301
  0
LWPOLYLINE
  5
12D
330
1F
100
AcDbEntity
  8
0
  6
Continuous
 62
     7
370
    15
100
AcDbPolyline
 90
       10
 70
   128
 43
0.0
 10
2.662603540318083
 20
6.546996237666139
 10
2.657615470507334
 20
6.540512335495202
 10
2.653228920545871
 20
6.531579483631253
 10
2.64997326623187
 20
6.521275472886868
 10
2.648240850735122
 20
6.510842765376765
 10
2.648240850735122
 20
6.501539938983662
 10
2.64997326623187
 20
6.494489012742517
 10
2.653228920545871
 20
6.490540238832455
 10
2.657615470507334
 20
6.490170201445093
 10
2.659635093251192
 20
6.491086717264633
  0
LWPOLYLINE
  5
12E
330
1F
100
AcDbEntity
  8
0
  6
Continuous
 62
     7
370
    15
100
AcDbPolyline
 90
        4
 70
   128
 43
0.0
 10
2.674784659505454
 20
6.546828990315351
 10
2.671978160090295
 20
6.54987931621112
 10
2.667591610128832
 20
6.550249353598482
 10
2.662603540318083
 20
6.546996237666139
  0
ARC
  5
12F
330
1F
100
AcDbEntity
  8
0
  6
Continuous
 62
     7
370
    15
100
AcDbCircle
 10
2.691108060546226
 20
6.512462932168129
 30
0.0
 40
0.0453760387486974
100
AcDbArc
 50
133.7077457357498
 51
195.8833609249323
  0
LWPOLYLINE
  5
130
330
1F
100
AcDbEntity
  8
0
  6
Continuous
 62
     7
370
    15
100
AcDbPolyline
 90
       10
 70
   128
 43
0.0
 10
2.653390825313961
 20
6.549500056199654
 10
2.648402755503213
 20
6.543016154028719
 10
2.644016205541749
 20
6.53408330216477
 10
2.640760551227748
 20
6.523779291420384
 10
2.639028135731001
 20
6.513346583910283
 10
2.639028135731001
 20
6.504043757517179
 10
2.640760551227748
 20
6.496992831276035
 10
2.644016205541749
 20
6.493044057365971
 10
2.648402755503212
 20
6.492674019978609
 10
2.650422378247071
 20
6.49359053579815
  0
LWPOLYLINE
  5
131
330
1F
100
AcDbEntity
  8
0
  6
Continuous
 62
     7
370
    15
100
AcDbPolyline
 90
        4
 70
   128
 43
0.0
 10
2.665571944501333
 20
6.549332808848868
 10
2.662765445086173
 20
6.552383134744636
 10
2.65837889512471
 20
6.552753172131999
 10
2.653390825313961
 20
6.549500056199654
  0
ARC
  5
132
330
1F
100
AcDbEntity
  8
0
  6
Continuous
 62
     7
370
    15
100
AcDbCircle
 10
2.681895377970397
 20
6.514966741888332
 30
0.0
 40
0.0453760387486996
100
AcDbArc
 50
133.7077457357526
 51
195.8833609249326
  0
LWPOLYLINE
  5
133
330
1F
100
AcDbEntity
  8
0
  6
Continuous
 62
     7
370
    15
100
AcDbPolyline
 90
       10
 70
   128
 43
0.0
 10
2.64417814273813
 20
6.552003865919857
 10
2.63919007292738
 20
6.545519963748922
 10
2.634803522965918
 20
6.536587111884972
 10
2.631547868651917
 20
6.526283101140586
 10
2.629815453155168
 20
6.515850393630485
 10
2.629815453155168
 20
6.50654756723738
 10
2.631547868651917
 20
6.499496640996235
 10
2.634803522965918
 20
6.495547867086173
 10
2.63919007292738
 20
6.495177829698811
 10
2.64120969567124
 20
6.496094345518352
  0
LWPOLYLINE
  5
134
330
1F
100
AcDbEntity
  8
0
  6
Continuous
 62
     7
370
    15
100
AcDbPolyline
 90
        4
 70
   128
 43
0.0
 10
2.656359261925501
 20
6.551836618569069
 10
2.653552762510342
 20
6.554886944464839
 10
2.649166212548879
 20
6.555256981852201
 10
2.64417814273813
 20
6.552003865919857
  0
ARC
  5
135
330
1F
100
AcDbEntity
  8
0
  6
Continuous
 62
     7
370
    15
100
AcDbCircle
 10
2.672682695394558
 20
6.517470551608534
 30
0.0
 40
0.0453760387486933
100
AcDbArc
 50
133.7077457357461
 51
195.883360924935
  0
LWPOLYLINE
  5
136
330
1F
100
AcDbEntity
  8
0
  6
Continuous
 62
     7
370
    15
100
AcDbPolyline
 90
       10
 70
   128
 43
0.0
 10
2.634965460162298
 20
6.554507675640059
 10
2.629977390351549
 20
6.548023773469123
 10
2.625590840390086
 20
6.539090921605174
 10
2.622335186076085
 20
6.528786910860788
 10
2.620602770579337
 20
6.518354203350686
 10
2.620602770579337
 20
6.509051376957582
 10
2.622335186076085
 20
6.502000450716439
 10
2.625590840390086
 20
6.498051676806375
 10
2.629977390351549
 20
6.497681639419013
 10
2.631997013095408
 20
6.498598155238554
  0
LWPOLYLINE
  5
137
330
1F
100
AcDbEntity
  8
0
  6
Continuous
 62
     7
370
    15
100
AcDbPolyline
 90
        4
 70
   128
 43
0.0
 10
2.64714657934967
 20
6.554340428289272
 10
2.64434007993451
 20
6.55739075418504
 10
2.639953529973047
 20
6.557760791572403
 10
2.634965460162298
 20
6.554507675640059
  0
ARC
  5
138
330
1F
100
AcDbEntity
  8
0
  6
Continuous
 62
     7
370
    15
100
AcDbCircle
 10
2.629399984047367
 20
6.529329814521633
 30
0.0
 40
0.0642511521095308
100
AcDbArc
 50
147.37130948098
 51
185.5782654925362
  0
LWPOLYLINE
  5
139
330
1F
100
AcDbEntity
  8
0
  6
Continuous
 62
     7
370
    15
100
AcDbPolyline
 90
        3
 70
   128
 43
0.0
 10
2.563015770333821
 20
6.529669375531122
 10
2.56340085802978
 20
6.526475923803326
 10
2.564557626970715
 20
6.522576717591115
  0
LWPOLYLINE
  5
13A
330
1F
100
AcDbEntity
  8
0
  6
Continuous
 62
     7
370
    15
100
AcDbPolyline
 90
        3
 70
   128
 43
0.0
 10
2.559820791621289
 20
6.516563904197181
 10
2.56110939115277
 20
6.515576353038752
 10
2.563949156230964
 20
6.514920675524099
  0
LINE
  5
13B
330
1F
100
AcDbEntity
  8
0
  6
Continuous
 62
     7
370
    15
100
AcDbLine
 10
4.756451036032341
 20
6.067507094913219
 30
0.0
 11
4.746676371193459
 21
6.070163639370695
 31
0.0
  0
LINE
  5
13C
330
1F
100
AcDbEntity
  8
0
  6
Continuous
 62
     7
370
    15
100
AcDbLine
 10
4.746676371193459
 20
6.070163639370695
 30
0.0
 11
4.722741050457289
 21
6.116848468320532
 31
0.0
  0
LINE
  5
13D
330
1F
100
AcDbEntity
  8
0
  6
Continuous
 62
     7
370
    15
100
AcDbLine
 10
4.722741050457289
 20
6.116848468320532
 30
0.0
 11
4.744923427557483
 21
6.14805678811554
 31
0.0
  0
LINE
  5
13E
330
1F
100
AcDbEntity
  8
0
  6
Continuous
 62
     7
370
    15
100
AcDbLine
 10
3.409266936217359
 20
8.070742985727211
 30
0.0
 11
4.050973212302809
 21
8.697067983601904
 31
0.0
  0
LINE
  5
13F
330
1F
100
AcDbEntity
  8
0
  6
Continuous
 62
     7
370
    15
100
AcDbLine
 10
3.774592540458121
 20
8.772182328087852
 30
0.0
 11
3.13288626437267
 21
8.145857330213157
 31
0.0
  0
LINE
  5
140
330
1F
100
AcDbEntity
  8
0
  6
Continuous
 62
     7
370
    15
100
AcDbLine
 10
2.913495303962115
 20
6.616286404503139
 30
0.0
 11
2.930510348365267
 21
6.632893609460913
 31
0.0
  0
LINE
  5
141
330
1F
100
AcDbEntity
  8
0
  6
Continuous
 62
     7
370
    15
100
AcDbLine
 10
2.889560048082525
 20
6.662971215826346
 30
0.0
 11
2.913495303962115
 21
6.616286404503139
 31
0.0
  0
LINE
  5
142
330
1F
100
AcDbEntity
  8
0
  6
Continuous
 62
     7
370
    15
100
AcDbLine
 10
2.889560048082525
 20
6.662971215826346
 30
0.0
 11
2.906575092485677
 21
6.679578420784121
 31
0.0
  0
LINE
  5
143
330
1F
100
AcDbEntity
  8
0
  6
Continuous
 62
     7
370
    15
100
AcDbLine
 10
2.930510348365267
 20
6.632893609460913
 30
0.0
 11
2.906575092485677
 21
6.679578420784121
 31
0.0
  0
LINE
  5
144
330
1F
100
AcDbEntity
  8
0
  6
Continuous
 62
     7
370
    15
100
AcDbLine
 10
2.913495303962115
 20
6.616286404503139
 30
0.0
 11
2.889560048082525
 21
6.58261180396419
 31
0.0
  0
LINE
  5
145
330
1F
100
AcDbEntity
  8
0
  6
Continuous
 62
     7
370
    15
100
AcDbLine
 10
2.889560048082525
 20
6.58261180396419
 30
0.0
 11
2.841689503895056
 21
6.595621992132659
 31
0.0
  0
LINE
  5
146
330
1F
100
AcDbEntity
  8
0
  6
Continuous
 62
     7
370
    15
100
AcDbLine
 10
2.841689503895056
 20
6.595621992132659
 30
0.0
 11
2.817754248015466
 21
6.642306772026763
 31
0.0
  0
LINE
  5
147
330
1F
100
AcDbEntity
  8
0
  6
Continuous
 62
     7
370
    15
100
AcDbLine
 10
2.817754248015466
 20
6.642306772026763
 30
0.0
 11
2.841689503895056
 21
6.675981403994816
 31
0.0
  0
LINE
  5
148
330
1F
100
AcDbEntity
  8
0
  6
Continuous
 62
     7
370
    15
100
AcDbLine
 10
2.841689503895056
 20
6.675981403994816
 30
0.0
 11
2.889560048082525
 21
6.662971215826346
 31
0.0
  0
LINE
  5
149
330
1F
100
AcDbEntity
  8
0
  6
Continuous
 62
     7
370
    15
100
AcDbLine
 10
2.841689503895056
 20
6.675981403994816
 30
0.0
 11
2.858704548298207
 21
6.692588608952591
 31
0.0
  0
LINE
  5
14A
330
1F
100
AcDbEntity
  8
0
  6
Continuous
 62
     7
370
    15
100
AcDbLine
 10
2.906575092485677
 20
6.679578420784121
 30
0.0
 11
2.858704548298207
 21
6.692588608952591
 31
0.0
  0
LINE
  5
14B
330
1F
100
AcDbEntity
  8
0
  6
Continuous
 62
     7
370
    15
100
AcDbLine
 10
2.889560048082525
 20
6.58261180396419
 30
0.0
 11
2.906575092485677
 21
6.599219008921965
 31
0.0
  0
LINE
  5
14C
330
1F
100
AcDbEntity
  8
0
  6
Continuous
 62
     7
370
    15
100
AcDbLine
 10
2.906575092485677
 20
6.599219008921965
 30
0.0
 11
2.930510348365267
 21
6.632893609460913
 31
0.0
  0
LINE
  5
14D
330
1F
100
AcDbEntity
  8
0
  6
Continuous
 62
     7
370
    15
100
AcDbLine
 10
5.962103771879623
 20
6.021775027443626
 30
0.0
 11
5.962103771879622
 21
5.378899543971746
 31
0.0
  0
LINE
  5
14E
330
1F
100
AcDbEntity
  8
0
  6
Continuous
 62
     7
370
    15
100
AcDbLine
 10
2.568787222166084
 20
6.301130272205449
 30
0.0
 11
4.749173400000783
 21
5.70854802909437
 31
0.0
  0
LINE
  5
14F
330
1F
100
AcDbEntity
  8
0
  6
Continuous
 62
     7
370
    15
100
AcDbLine
 10
5.371664127930019
 20
5.539368387606055
 30
0.0
 11
5.962103771879622
 21
5.378899543971746
 31
0.0
  0
LINE
  5
150
330
1F
100
AcDbEntity
  8
0
  6
Continuous
 62
     7
370
    15
100
AcDbLine
 10
2.552645068045979
 20
6.94839284728265
 30
0.0
 11
4.749131372937142
 21
6.351434934621617
 31
0.0
  0
LINE
  5
151
330
1F
100
AcDbEntity
  8
0
  6
Continuous
 62
     7
370
    15
100
AcDbLine
 10
5.369923377331025
 20
6.182716969790967
 30
0.0
 11
5.962103771879623
 21
6.021775027443626
 31
0.0
  0
LINE
  5
152
330
1F
100
AcDbEntity
  8
0
  6
Continuous
 62
     7
370
    15
100
AcDbLine
 10
5.991272282532149
 20
6.050244388042522
 30
0.0
 11
5.962103771879623
 21
6.021775027443626
 31
0.0
  0
LINE
  5
153
330
1F
100
AcDbEntity
  8
0
  6
Continuous
 62
     7
370
    15
100
AcDbLine
 10
2.552645110259964
 20
6.984789572598466
 30
0.0
 11
4.766018122806125
 21
6.38324221463518
 31
0.0
  0
LINE
  5
154
330
1F
100
AcDbEntity
  8
0
  6
Continuous
 62
     7
370
    15
100
AcDbLine
 10
5.369923419545012
 20
6.219113695106783
 30
0.0
 11
5.991272282532149
 21
6.050244388042522
 31
0.0
  0
LINE
  5
155
330
1F
100
AcDbEntity
  8
0
  6
Continuous
 62
     7
370
    15
100
AcDbLine
 10
5.991272282532149
 20
6.050244388042522
 30
0.0
 11
5.991272282532148
 21
5.407368904570644
 31
0.0
  0
LINE
  5
156
330
1F
100
AcDbEntity
  8
0
  6
Continuous
 62
     7
370
    15
100
AcDbLine
 10
5.962103771879622
 20
5.378899543971746
 30
0.0
 11
5.991272282532148
 21
5.407368904570644
 31
0.0
  0
LINE
  5
157
330
1F
100
AcDbEntity
  8
0
  6
Continuous
 62
     7
370
    15
100
AcDbLine
 10
5.729392415197019
 20
5.576824296168569
 30
0.0
 11
5.705456964747691
 21
5.54314970136585
 31
0.0
  0
LINE
  5
158
330
1F
100
AcDbEntity
  8
0
  6
Continuous
 62
     7
370
    15
100
AcDbLine
 10
5.705456964747691
 20
5.54314970136585
 30
0.0
 11
5.657586582701671
 21
5.556159845467747
 31
0.0
  0
LINE
  5
159
330
1F
100
AcDbEntity
  8
0
  6
Continuous
 62
     7
370
    15
100
AcDbLine
 10
5.657586582701671
 20
5.556159845467747
 30
0.0
 11
5.63365139167866
 21
5.602844654878879
 31
0.0
  0
LINE
  5
15A
330
1F
100
AcDbEntity
  8
0
  6
Continuous
 62
     7
370
    15
100
AcDbLine
 10
5.63365139167866
 20
5.602844654878879
 30
0.0
 11
5.657586582701671
 21
5.636519273044456
 31
0.0
  0
LINE
  5
15B
330
1F
100
AcDbEntity
  8
0
  6
Continuous
 62
     7
370
    15
100
AcDbLine
 10
5.657586582701671
 20
5.636519273044456
 30
0.0
 11
5.705456964747691
 21
5.623509128942558
 31
0.0
  0
LINE
  5
15C
330
1F
100
AcDbEntity
  8
0
  6
Continuous
 62
     7
370
    15
100
AcDbLine
 10
5.705456964747691
 20
5.623509128942558
 30
0.0
 11
5.729392415197019
 21
5.576824296168569
 31
0.0
  0
LINE
  5
15D
330
1F
100
AcDbEntity
  8
0
  6
Continuous
 62
     7
370
    15
100
AcDbLine
 10
5.729392415197019
 20
5.576824296168569
 30
0.0
 11
5.746407459600171
 21
5.593431501126343
 31
0.0
  0
LINE
  5
15E
330
1F
100
AcDbEntity
  8
0
  6
Continuous
 62
     7
370
    15
100
AcDbLine
 10
5.705456964747691
 20
5.623509128942558
 30
0.0
 11
5.722472009150841
 21
5.640116333900333
 31
0.0
  0
LINE
  5
15F
330
1F
100
AcDbEntity
  8
0
  6
Continuous
 62
     7
370
    15
100
AcDbLine
 10
5.746407459600171
 20
5.593431501126343
 30
0.0
 11
5.722472009150841
 21
5.640116333900333
 31
0.0
  0
LINE
  5
160
330
1F
100
AcDbEntity
  8
0
  6
Continuous
 62
     7
370
    15
100
AcDbLine
 10
5.657586582701671
 20
5.636519273044456
 30
0.0
 11
5.674601627104822
 21
5.65312647800223
 31
0.0
  0
LINE
  5
161
330
1F
100
AcDbEntity
  8
0
  6
Continuous
 62
     7
370
    15
100
AcDbLine
 10
5.722472009150841
 20
5.640116333900333
 30
0.0
 11
5.674601627104822
 21
5.65312647800223
 31
0.0
  0
LINE
  5
162
330
1F
100
AcDbEntity
  8
0
  6
Continuous
 62
     7
370
    15
100
AcDbLine
 10
5.705456964747691
 20
5.54314970136585
 30
0.0
 11
5.722472009150841
 21
5.559756906323624
 31
0.0
  0
LINE
  5
163
330
1F
100
AcDbEntity
  8
0
  6
Continuous
 62
     7
370
    15
100
AcDbLine
 10
5.722472009150841
 20
5.559756906323624
 30
0.0
 11
5.746407459600171
 21
5.593431501126343
 31
0.0
  0
LINE
  5
164
330
1F
100
AcDbEntity
  8
0
  6
Continuous
 62
     7
370
    15
100
AcDbLine
 10
4.777487667145838
 20
6.396647811127383
 30
0.0
 11
4.777487667145839
 21
6.716179723388227
 31
0.0
  0
LINE
  5
165
330
1F
100
AcDbEntity
  8
0
  6
Continuous
 62
     7
370
    15
100
AcDbLine
 10
4.777487667145839
 20
6.716179723388227
 30
0.0
 11
5.993562675147734
 21
6.385676593548757
 31
0.0
  0
LINE
  5
166
330
1F
100
AcDbEntity
  8
0
  6
Continuous
 62
     7
370
    15
100
AcDbLine
 10
5.993562675147734
 20
6.385676593548757
 30
0.0
 11
5.993562675147732
 21
4.671342012862552
 31
0.0
  0
LINE
  5
167
330
1F
100
AcDbEntity
  8
0
  6
Continuous
 62
     7
370
    15
100
AcDbLine
 10
5.993562675147732
 20
4.671342012862552
 30
0.0
 11
5.338673361684861
 21
4.849326895681197
 31
0.0
  0
LINE
  5
168
330
1F
100
AcDbEntity
  8
0
  6
Continuous
 62
     7
370
    15
100
AcDbLine
 10
5.993562675147732
 20
4.671342012862552
 30
0.0
 11
6.139404954618897
 21
4.813688548628169
 31
0.0
  0
LINE
  5
169
330
1F
100
AcDbEntity
  8
0
  6
Continuous
 62
     7
370
    15
100
AcDbLine
 10
5.993562675147734
 20
6.385676593548757
 30
0.0
 11
6.139404954618901
 21
6.528023129314375
 31
0.0
  0
LINE
  5
16A
330
1F
100
AcDbEntity
  8
0
  6
Continuous
 62
     7
370
    15
100
AcDbLine
 10
6.139404954618897
 20
4.813688548628169
 30
0.0
 11
6.139404954618901
 21
6.528023129314375
 31
0.0
  0
LINE
  5
16B
330
1F
100
AcDbEntity
  8
0
  6
Continuous
 62
     7
370
    15
100
AcDbLine
 10
4.777487667145839
 20
6.716179723388227
 30
0.0
 11
4.923329946617005
 21
6.858526259153844
 31
0.0
  0
LINE
  5
16C
330
1F
100
AcDbEntity
  8
0
  6
Continuous
 62
     7
370
    15
100
AcDbLine
 10
6.139404954618901
 20
6.528023129314375
 30
0.0
 11
4.923329946617005
 21
6.858526259153844
 31
0.0
  0
LINE
  5
16D
330
1F
100
AcDbEntity
  8
0
  6
Continuous
 62
     7
370
    15
100
AcDbLine
 10
4.749173250861546
 20
5.804817399132661
 30
0.0
 11
4.725265818454645
 21
5.851447960697264
 31
0.0
  0
LINE
  5
16E
330
1F
100
AcDbEntity
  8
0
  6
Continuous
 62
     7
370
    15
100
AcDbLine
 10
4.725265818454645
 20
5.851447960697264
 30
0.0
 11
4.749173250861546
 21
5.885083450839542
 31
0.0
  0
LWPOLYLINE
  5
16F
330
1F
100
AcDbEntity
  8
0
  6
Continuous
 62
     7
370
    15
100
AcDbPolyline
 90
       10
 70
   128
 43
0.0
 10
5.544370545384849
 20
5.759220433562656
 10
5.5393824755741
 20
5.752736499962617
 10
5.534995925612638
 20
5.743803679527771
 10
5.531740271298636
 20
5.733499668783387
 10
5.530007855801887
 20
5.723066961273285
 10
5.530007855801887
 20
5.713764103451076
 10
5.531740271298636
 20
5.706713177209931
 10
5.534995925612636
 20
5.702764403299868
 10
5.539382475574099
 20
5.702394397341611
 10
5.54226221420623
 20
5.703871070754307
  0
LWPOLYLINE
  5
170
330
1F
100
AcDbEntity
  8
0
  6
Continuous
 62
     7
370
    15
100
AcDbPolyline
 90
        5
 70
   128
 43
0.0
 10
5.557009854589416
 20
5.758134673402928
 10
5.557000819471061
 20
5.758154738197576
 10
5.553745028261328
 20
5.762103378493207
 10
5.549358615195598
 20
5.762473518065896
 10
5.544370545384849
 20
5.759220433562656
  0
LWPOLYLINE
  5
171
330
1F
100
AcDbEntity
  8
0
  6
Continuous
 62
     7
370
    15
100
AcDbPolyline
 90
       18
 70
   128
 43
0.0
 10
5.548976919101055
 20
5.753504109865183
 10
5.544586536059078
 20
5.747711590136084
 10
5.540789185330961
 20
5.73968677472097
 10
5.538097541435499
 20
5.730513248132289
 10
5.536875199438622
 20
5.721430022442995
 10
5.537287392489647
 20
5.713663974064442
 10
5.539278130233916
 20
5.70826367912442
 10
5.542578960139691
 20
5.705958833689361
 10
5.546743739014253
 20
5.707060398131654
 10
5.551210099187854
 20
5.711419702583689
 10
5.555374878062417
 20
5.718448041858938
 10
5.558675571072461
 20
5.727196176038878
 10
5.560666445712461
 20
5.736482646727918
 10
5.561078638763485
 20
5.745053321214794
 10
5.559856296766611
 20
5.751750460380933
 10
5.557164652871149
 20
5.755669733053357
 10
5.553367302143032
 20
5.756281887020852
 10
5.548976919101055
 20
5.753504109865183
  0
ARC
  5
172
330
1F
100
AcDbEntity
  8
0
  6
Continuous
 62
     7
370
    15
100
AcDbCircle
 10
5.572876602649743
 20
5.724686510082141
 30
0.0
 40
0.045377323370858
100
AcDbArc
 50
133.7084835345391
 51
195.8823857720041
  0
LWPOLYLINE
  5
173
330
1F
100
AcDbEntity
  8
0
  6
Continuous
 62
     7
370
    15
100
AcDbPolyline
 90
       10
 70
   128
 43
0.0
 10
5.535158057378756
 20
5.761724190402972
 10
5.530169987568008
 20
5.755240256802932
 10
5.525783437606544
 20
5.746307436368087
 10
5.522527783292543
 20
5.736003425623702
 10
5.520795367795795
 20
5.725570718113599
 10
5.520795367795795
 20
5.716267860291392
 10
5.522527783292543
 20
5.709216934050247
 10
5.525783437606544
 20
5.705268160140184
 10
5.530169987568008
 20
5.704898154181926
 10
5.532189610311864
 20
5.705814670001467
  0
LWPOLYLINE
  5
174
330
1F
100
AcDbEntity
  8
0
  6
Continuous
 62
     7
370
    15
100
AcDbPolyline
 90
        4
 70
   128
 43
0.0
 10
5.547339176566128
 20
5.761556943052185
 10
5.544532540255236
 20
5.764607135333522
 10
5.540146127189506
 20
5.764977274906213
 10
5.535158057378756
 20
5.761724190402972
  0
ARC
  5
175
330
1F
100
AcDbEntity
  8
0
  6
Continuous
 62
     7
370
    15
100
AcDbCircle
 10
5.563663855217337
 20
5.727190337428967
 30
0.0
 40
0.0453773233708649
100
AcDbArc
 50
133.7084835345401
 51
195.8823857719963
  0
LWPOLYLINE
  5
176
330
1F
100
AcDbEntity
  8
0
  6
Continuous
 62
     7
370
    15
100
AcDbPolyline
 90
       10
 70
   128
 43
0.0
 10
5.525945309946345
 20
5.764228017749804
 10
5.520957240135596
 20
5.757744084149764
 10
5.516570690174133
 20
5.748811263714917
 10
5.513315035860133
 20
5.738507252970533
 10
5.511582620363383
 20
5.72807454546043
 10
5.511582620363383
 20
5.718771687638223
 10
5.513315035860133
 20
5.711720761397077
 10
5.516570690174131
 20
5.707771987487015
 10
5.520957240135595
 20
5.707401981528758
 10
5.522976862879454
 20
5.708318497348299
  0
LWPOLYLINE
  5
177
330
1F
100
AcDbEntity
  8
0
  6
Continuous
 62
     7
370
    15
100
AcDbPolyline
 90
        4
 70
   128
 43
0.0
 10
5.538126429133717
 20
5.764060770399016
 10
5.535319792822825
 20
5.767110962680352
 10
5.530933379757094
 20
5.767481102253043
 10
5.525945309946345
 20
5.764228017749804
  0
ARC
  5
178
330
1F
100
AcDbEntity
  8
0
  6
Continuous
 62
     7
370
    15
100
AcDbCircle
 10
5.554451107784919
 20
5.729694164775803
 30
0.0
 40
0.0453773233708571
100
AcDbArc
 50
133.708483534539
 51
195.8823857720044
  0
LWPOLYLINE
  5
179
330
1F
100
AcDbEntity
  8
0
  6
Continuous
 62
     7
370
    15
100
AcDbPolyline
 90
       10
 70
   128
 43
0.0
 10
5.516732562513933
 20
5.766731845096634
 10
5.511744492703185
 20
5.760247911496593
 10
5.507357942741721
 20
5.751315091061749
 10
5.50410228842772
 20
5.741011080317364
 10
5.502369872930972
 20
5.730578372807261
 10
5.502369872930972
 20
5.721275514985054
 10
5.50410228842772
 20
5.714224588743909
 10
5.507357942741721
 20
5.710275814833845
 10
5.511744492703185
 20
5.709905808875588
 10
5.513764115447042
 20
5.71082232469513
  0
LWPOLYLINE
  5
17A
330
1F
100
AcDbEntity
  8
0
  6
Continuous
 62
     7
370
    15
100
AcDbPolyline
 90
        4
 70
   128
 43
0.0
 10
5.528913681701305
 20
5.766564597745846
 10
5.526107045390413
 20
5.769614790027183
 10
5.521720632324683
 20
5.769984929599874
 10
5.516732562513933
 20
5.766731845096634
  0
ARC
  5
17B
330
1F
100
AcDbEntity
  8
0
  6
Continuous
 62
     7
370
    15
100
AcDbCircle
 10
5.545238360352514
 20
5.732197992122631
 30
0.0
 40
0.0453773233708635
100
AcDbArc
 50
133.7084835345416
 51
195.8823857719998
  0
LWPOLYLINE
  5
17C
330
1F
100
AcDbEntity
  8
0
  6
Continuous
 62
     7
370
    15
100
AcDbPolyline
 90
       10
 70
   128
 43
0.0
 10
5.507519815081522
 20
5.769235672443465
 10
5.502531745270774
 20
5.762751738843425
 10
5.49814519530931
 20
5.75381891840858
 10
5.49488954099531
 20
5.743514907664194
 10
5.49315712549856
 20
5.733082200154092
 10
5.49315712549856
 20
5.723779342331884
 10
5.49488954099531
 20
5.71672841609074
 10
5.498145195309309
 20
5.712779642180676
 10
5.502531745270773
 20
5.712409636222419
 10
5.504551368014632
 20
5.71332615204196
  0
LWPOLYLINE
  5
17D
330
1F
100
AcDbEntity
  8
0
  6
Continuous
 62
     7
370
    15
100
AcDbPolyline
 90
        4
 70
   128
 43
0.0
 10
5.519700934268894
 20
5.769068425092677
 10
5.516894297958002
 20
5.772118617374015
 10
5.512507884892271
 20
5.772488756946704
 10
5.507519815081522
 20
5.769235672443465
  0
ARC
  5
17E
330
1F
100
AcDbEntity
  8
0
  6
Continuous
 62
     7
370
    15
100
AcDbCircle
 10
5.536025612920106
 20
5.734701819469461
 30
0.0
 40
0.0453773233708658
100
AcDbArc
 50
133.708483534544
 51
195.8823857719978
  0
LWPOLYLINE
  5
17F
330
1F
100
AcDbEntity
  8
0
  6
Continuous
 62
     7
370
    15
100
AcDbPolyline
 90
       10
 70
   128
 43
0.0
 10
5.49830732707543
 20
5.771739429283782
 10
5.493319257264682
 20
5.76525549568374
 10
5.488932707303217
 20
5.756322675248894
 10
5.485677052989216
 20
5.74601866450451
 10
5.483944637492467
 20
5.735585956994408
 10
5.483944637492467
 20
5.7262830991722
 10
5.485677052989216
 20
5.719232172931055
 10
5.488932707303217
 20
5.715283399020993
 10
5.49331925726468
 20
5.714913393062734
 10
5.495338880008538
 20
5.715829908882276
  0
LWPOLYLINE
  5
180
330
1F
100
AcDbEntity
  8
0
  6
Continuous
 62
     7
370
    15
100
AcDbPolyline
 90
        4
 70
   128
 43
0.0
 10
5.510488446262802
 20
5.771572181932993
 10
5.507681809951908
 20
5.77462237421433
 10
5.503295396886178
 20
5.774992513787021
 10
5.49830732707543
 20
5.771739429283782
  0
ARC
  5
181
330
1F
100
AcDbEntity
  8
0
  6
Continuous
 62
     7
370
    15
100
AcDbCircle
 10
5.526813124914009
 20
5.737205576309776
 30
0.0
 40
0.045377323370863
100
AcDbArc
 50
133.7084835345392
 51
195.8823857719969
  0
LWPOLYLINE
  5
182
330
1F
100
AcDbEntity
  8
0
  6
Continuous
 62
     7
370
    15
100
AcDbPolyline
 90
       10
 70
   128
 43
0.0
 10
5.489094579643018
 20
5.774243256630612
 10
5.484106509832269
 20
5.767759323030571
 10
5.479719959870807
 20
5.758826502595725
 10
5.476464305556806
 20
5.748522491851342
 10
5.474731890060057
 20
5.738089784341238
 10
5.474731890060057
 20
5.728786926519031
 10
5.476464305556806
 20
5.721736000277886
 10
5.479719959870805
 20
5.717787226367823
 10
5.484106509832269
 20
5.717417220409566
 10
5.486126132576128
 20
5.718333736229108
  0
LWPOLYLINE
  5
183
330
1F
100
AcDbEntity
  8
0
  6
Continuous
 62
     7
370
    15
100
AcDbPolyline
 90
        4
 70
   128
 43
0.0
 10
5.50127569883039
 20
5.774076009279824
 10
5.498469062519498
 20
5.777126201561161
 10
5.494082649453767
 20
5.777496341133852
 10
5.489094579643018
 20
5.774243256630612
  0
ARC
  5
184
330
1F
100
AcDbEntity
  8
0
  6
Continuous
 62
     7
370
    15
100
AcDbCircle
 10
5.517600377481596
 20
5.739709403656608
 30
0.0
 40
0.0453773233708611
100
AcDbArc
 50
133.70848353454
 51
195.882385772001
  0
LWPOLYLINE
  5
185
330
1F
100
AcDbEntity
  8
0
  6
Continuous
 62
     7
370
    15
100
AcDbPolyline
 90
       10
 70
   128
 43
0.0
 10
5.479881832210607
 20
5.776747083977443
 10
5.474893762399858
 20
5.770263150377402
 10
5.470507212438395
 20
5.761330329942557
 10
5.467251558124393
 20
5.751026319198172
 10
5.465519142627644
 20
5.740593611688069
 10
5.465519142627644
 20
5.731290753865861
 10
5.467251558124393
 20
5.724239827624717
 10
5.470507212438395
 20
5.720291053714654
 10
5.474893762399857
 20
5.719921047756396
 10
5.476913385143715
 20
5.720837563575938
  0
LWPOLYLINE
  5
186
330
1F
100
AcDbEntity
  8
0
  6
Continuous
 62
     7
370
    15
100
AcDbPolyline
 90
        4
 70
   128
 43
0.0
 10
5.492062951397978
 20
5.776579836626654
 10
5.489256315087086
 20
5.779630028907991
 10
5.484869902021356
 20
5.780000168480682
 10
5.479881832210607
 20
5.776747083977443
  0
ARC
  5
187
330
1F
100
AcDbEntity
  8
0
  6
Continuous
 62
     7
370
    15
100
AcDbCircle
 10
5.508387630049186
 20
5.742213231003439
 30
0.0
 40
0.0453773233708615
100
AcDbArc
 50
133.70848353454
 51
195.8823857719993
  0
LWPOLYLINE
  5
188
330
1F
100
AcDbEntity
  8
0
  6
Continuous
 62
     7
370
    15
100
AcDbPolyline
 90
       10
 70
   128
 43
0.0
 10
5.470669084778196
 20
5.779250911324273
 10
5.465681014967446
 20
5.772766977724232
 10
5.461294465005983
 20
5.763834157289387
 10
5.458038810691983
 20
5.753530146545003
 10
5.456306395195234
 20
5.743097439034901
 10
5.456306395195234
 20
5.733794581212692
 10
5.458038810691983
 20
5.726743654971548
 10
5.461294465005982
 20
5.722794881061484
 10
5.465681014967446
 20
5.722424875103227
 10
5.467700637711305
 20
5.723341390922769
  0
LWPOLYLINE
  5
189
330
1F
100
AcDbEntity
  8
0
  6
Continuous
 62
     7
370
    15
100
AcDbPolyline
 90
        4
 70
   128
 43
0.0
 10
5.482850203965567
 20
5.779083663973485
 10
5.480043567654675
 20
5.782133856254823
 10
5.475657154588945
 20
5.782503995827513
 10
5.470669084778196
 20
5.779250911324273
  0
ARC
  5
18A
330
1F
100
AcDbEntity
  8
0
  6
Continuous
 62
     7
370
    15
100
AcDbCircle
 10
5.49917488261678
 20
5.744717058350269
 30
0.0
 40
0.0453773233708667
100
AcDbArc
 50
133.7084835345441
 51
195.8823857719975
  0
LWPOLYLINE
  5
18B
330
1F
100
AcDbEntity
  8
0
  6
Continuous
 62
     7
370
    15
100
AcDbPolyline
 90
       10
 70
   128
 43
0.0
 10
5.461456337345784
 20
5.781754738671104
 10
5.456468267535035
 20
5.775270805071063
 10
5.452081717573572
 20
5.766337984636218
 10
5.448826063259571
 20
5.756033973891833
 10
5.447093647762821
 20
5.745601266381731
 10
5.447093647762821
 20
5.736298408559522
 10
5.448826063259571
 20
5.729247482318378
 10
5.452081717573572
 20
5.725298708408315
 10
5.456468267535035
 20
5.724928702450057
 10
5.458487890278893
 20
5.725845218269599
  0
LWPOLYLINE
  5
18C
330
1F
100
AcDbEntity
  8
0
  6
Continuous
 62
     7
370
    15
100
AcDbPolyline
 90
        4
 70
   128
 43
0.0
 10
5.473637456533156
 20
5.781587491320316
 10
5.470830820222263
 20
5.784637683601653
 10
5.466444407156532
 20
5.785007823174343
 10
5.461456337345784
 20
5.781754738671104
  0
ARC
  5
18D
330
1F
100
AcDbEntity
  8
0
  6
Continuous
 62
     7
370
    15
100
AcDbCircle
 10
5.489962394610686
 20
5.747220815190583
 30
0.0
 40
0.0453773233708668
100
AcDbArc
 50
133.7084835345425
 51
195.8823857719957
  0
LWPOLYLINE
  5
18E
330
1F
100
AcDbEntity
  8
0
  6
Continuous
 62
     7
370
    15
100
AcDbPolyline
 90
        8
 70
   128
 43
0.0
 10
5.396974888108468
 20
5.79927941490348
 10
5.391986818297719
 20
5.792795481303439
 10
5.387600268336257
 20
5.783862660868595
 10
5.384344614022255
 20
5.77355865012421
 10
5.382612198525507
 20
5.763125942614107
 10
5.382612198525507
 20
5.753823084791899
 10
5.384344614022255
 20
5.746772158550755
 10
5.385648956562993
 20
5.744562829206798
  0
LWPOLYLINE
  5
18F
330
1F
100
AcDbEntity
  8
0
  6
Continuous
 62
     7
370
    15
100
AcDbPolyline
 90
        3
 70
   128
 43
0.0
 10
5.40450826027647
 20
5.802781931765881
 10
5.401962957919216
 20
5.802532499406719
 10
5.396974888108468
 20
5.79927941490348
  0
ARC
  5
190
330
1F
100
AcDbEntity
  8
0
  6
Continuous
 62
     7
370
    15
100
AcDbCircle
 10
5.433648127201649
 20
5.762154424902881
 30
0.0
 40
0.053423192147082
100
AcDbArc
 50
140.5957070800155
 51
178.9329587477924
  0
LWPOLYLINE
  5
191
330
1F
100
AcDbEntity
  8
0
  6
Continuous
 62
     7
370
    15
100
AcDbPolyline
 90
        3
 70
   128
 43
0.0
 10
5.380234199180311
 20
5.760652842757381
 10
5.380679247207173
 20
5.756226712245582
 10
5.381835879252375
 20
5.752327372418941
  0
LINE
  5
192
330
1F
100
AcDbEntity
  8
0
  6
Continuous
 62
     7
370
    15
100
AcDbLine
 10
5.394125693651474
 20
5.797547163114519
 30
0.0
 11
5.392368773818581
 21
5.796066848046323
 31
0.0
  0
LINE
  5
193
330
1F
100
AcDbEntity
  8
0
  6
Continuous
 62
     7
370
    15
100
AcDbLine
 10
5.398443278955582
 20
5.803660891940399
 30
0.0
 11
5.397552635318929
 21
5.804406360984286
 31
0.0
  0
LINE
  5
194
330
1F
100
AcDbEntity
  8
0
  6
Continuous
 62
     7
370
    15
100
AcDbLine
 10
3.5614127888571
 20
5.332348237288234
 30
0.0
 11
3.561412788857101
 21
6.03135597196765
 31
0.0
  0
LINE
  5
195
330
1F
100
AcDbEntity
  8
0
  6
Continuous
 62
     7
370
    15
100
AcDbLine
 10
3.561412788857102
 20
6.710628122548812
 30
0.0
 11
3.561412788857103
 21
7.04668281797444
 31
0.0
  0
LINE
  5
196
330
1F
100
AcDbEntity
  8
0
  6
Continuous
 62
     7
370
    15
100
AcDbLine
 10
3.561412788857103
 20
7.04668281797444
 30
0.0
 11
4.777487667145839
 21
6.716179723388227
 31
0.0
  0
LINE
  5
197
330
1F
100
AcDbEntity
  8
0
  6
Continuous
 62
     7
370
    15
100
AcDbLine
 10
4.776173413414912
 20
5.002202328705037
 30
0.0
 11
3.5614127888571
 21
5.332348237288234
 31
0.0
  0
LINE
  5
198
330
1F
100
AcDbEntity
  8
0
  6
Continuous
 62
     7
370
    15
100
AcDbLine
 10
3.561412788857103
 20
7.04668281797444
 30
0.0
 11
3.707255068328269
 21
7.189029353740056
 31
0.0
  0
LINE
  5
199
330
1F
100
AcDbEntity
  8
0
  6
Continuous
 62
     7
370
    15
100
AcDbLine
 10
4.923329946617005
 20
6.858526259153844
 30
0.0
 11
3.707255068328269
 21
7.189029353740056
 31
0.0
  0
LINE
  5
19A
330
1F
100
AcDbEntity
  8
0
  6
Continuous
 62
     7
370
    15
100
AcDbLine
 10
2.913495303962115
 20
6.348421645914109
 30
0.0
 11
2.930510348365266
 21
6.365028850871884
 31
0.0
  0
LINE
  5
19B
330
1F
100
AcDbEntity
  8
0
  6
Continuous
 62
     7
370
    15
100
AcDbLine
 10
2.889560048082525
 20
6.395106457237317
 30
0.0
 11
2.913495303962115
 21
6.348421645914109
 31
0.0
  0
LINE
  5
19C
330
1F
100
AcDbEntity
  8
0
  6
Continuous
 62
     7
370
    15
100
AcDbLine
 10
2.889560048082525
 20
6.395106457237317
 30
0.0
 11
2.906575092485677
 21
6.411713662195093
 31
0.0
  0
LINE
  5
19D
330
1F
100
AcDbEntity
  8
0
  6
Continuous
 62
     7
370
    15
100
AcDbLine
 10
2.930510348365266
 20
6.365028850871884
 30
0.0
 11
2.906575092485677
 21
6.411713662195093
 31
0.0
  0
LINE
  5
19E
330
1F
100
AcDbEntity
  8
0
  6
Continuous
 62
     7
370
    15
100
AcDbLine
 10
2.913495303962115
 20
6.348421645914109
 30
0.0
 11
2.889560048082525
 21
6.314747013946056
 31
0.0
  0
LINE
  5
19F
330
1F
100
AcDbEntity
  8
0
  6
Continuous
 62
     7
370
    15
100
AcDbLine
 10
2.889560048082525
 20
6.314747013946056
 30
0.0
 11
2.841689503895055
 21
6.327757202114526
 31
0.0
  0
LINE
  5
1A0
330
1F
100
AcDbEntity
  8
0
  6
Continuous
 62
     7
370
    15
100
AcDbLine
 10
2.841689503895055
 20
6.327757202114526
 30
0.0
 11
2.817754248015466
 21
6.374442013437733
 31
0.0
  0
LINE
  5
1A1
330
1F
100
AcDbEntity
  8
0
  6
Continuous
 62
     7
370
    15
100
AcDbLine
 10
2.817754248015466
 20
6.374442013437733
 30
0.0
 11
2.841689503895056
 21
6.408116645405787
 31
0.0
  0
LINE
  5
1A2
330
1F
100
AcDbEntity
  8
0
  6
Continuous
 62
     7
370
    15
100
AcDbLine
 10
2.841689503895056
 20
6.408116645405787
 30
0.0
 11
2.889560048082525
 21
6.395106457237317
 31
0.0
  0
LINE
  5
1A3
330
1F
100
AcDbEntity
  8
0
  6
Continuous
 62
     7
370
    15
100
AcDbLine
 10
2.841689503895056
 20
6.408116645405787
 30
0.0
 11
2.858704548298207
 21
6.424723850363561
 31
0.0
  0
LINE
  5
1A4
330
1F
100
AcDbEntity
  8
0
  6
Continuous
 62
     7
370
    15
100
AcDbLine
 10
2.906575092485677
 20
6.411713662195093
 30
0.0
 11
2.858704548298207
 21
6.424723850363561
 31
0.0
  0
LINE
  5
1A5
330
1F
100
AcDbEntity
  8
0
  6
Continuous
 62
     7
370
    15
100
AcDbLine
 10
2.889560048082525
 20
6.314747013946056
 30
0.0
 11
2.906575092485676
 21
6.331354218903832
 31
0.0
  0
LINE
  5
1A6
330
1F
100
AcDbEntity
  8
0
  6
Continuous
 62
     7
370
    15
100
AcDbLine
 10
2.906575092485676
 20
6.331354218903832
 30
0.0
 11
2.930510348365266
 21
6.365028850871884
 31
0.0
  0
LINE
  5
1A7
330
1F
100
AcDbEntity
  8
0
  6
Continuous
 62
     7
370
    15
100
AcDbLine
 10
2.345337845711787
 20
7.37718593018728
 30
0.0
 11
3.561412788857103
 21
7.04668281797444
 31
0.0
  0
LINE
  5
1A8
330
1F
100
AcDbEntity
  8
0
  6
Continuous
 62
     7
370
    15
100
AcDbLine
 10
2.345337845711787
 20
7.37718593018728
 30
0.0
 11
2.491180125182953
 21
7.519532465952897
 31
0.0
  0
LINE
  5
1A9
330
1F
100
AcDbEntity
  8
0
  6
Continuous
 62
     7
370
    15
100
AcDbLine
 10
3.707255068328269
 20
7.189029353740056
 30
0.0
 11
2.491180125182953
 21
7.519532465952897
 31
0.0
  0
LINE
  5
1AA
330
1F
100
AcDbEntity
  8
0
  6
Continuous
 62
     7
370
    15
100
AcDbLine
 10
2.345337845711787
 20
7.246916691609071
 30
0.0
 11
2.345337845711787
 21
7.37718593018728
 31
0.0
  0
LINE
  5
1AB
330
1F
100
AcDbEntity
  8
0
  6
Continuous
 62
     7
370
    15
100
AcDbLine
 10
3.5614127888571
 20
5.332348237288234
 30
0.0
 11
2.521395117256395
 21
5.615002755546251
 31
0.0
  0
LWPOLYLINE
  5
1AC
330
1F
100
AcDbEntity
  8
0
  6
Continuous
 62
     7
370
    15
100
AcDbPolyline
 90
       60
 70
   128
 43
0.0
 10
2.516525789888186
 20
7.020245677956244
 10
2.499457949575358
 20
7.005540721767696
 10
2.479451877628962
 20
6.991853304909013
 10
2.456734523922524
 20
6.979338859180721
 10
2.431563080305818
 20
6.968138874800299
 10
2.404222793651018
 20
6.958380384440937
 10
2.375023435187225
 20
6.950173933444985
 10
2.344295877787025
 20
6.943612545616905
 10
2.312388237320125
 20
6.938770465853922
 10
2.279661977880703
 20
6.935702595874083
 10
2.246488074688771
 20
6.934443743449965
 10
2.213242268999417
 20
6.93500811841522
 10
2.180301328182317
 20
6.937389324176261
 10
2.148038390626573
 20
6.941560427129076
 10
2.116819103289637
 20
6.947474152291873
 10
2.086997053006443
 20
6.955063441698334
 10
2.058910329090685
 20
6.964242388608925
 10
2.032876958235224
 20
6.974906880337997
 10
2.009192086735459
 20
6.98693621816389
 10
1.988124017055383
 20
7.000194023685589
 10
1.969911465681387
 20
7.014530094407737
 10
1.95476074534562
 20
7.029782023650744
 10
1.942843476875844
 20
7.045776932749395
 10
1.934294845036935
 20
7.062333653275342
 10
1.929211580580923
 20
7.079264642030739
 10
1.927651322241629
 20
7.096377948051885
 10
1.929631737259428
 20
7.113479672288619
 10
1.935130348145803
 20
7.130376064523102
 10
1.944085025970142
 20
7.146875866191535
 10
1.956394055002892
 20
7.162791830193362
 10
1.971918167981697
 20
7.177943840374361
 10
1.990481316994365
 20
7.192160068575228
 10
2.011873411393514
 20
7.205279646920228
 10
2.035851737245337
 20
7.217153648599496
 10
2.062144877027833
 20
7.22764778061374
 10
2.090454835319372
 20
7.236643001795947
 10
2.120460857727483
 20
7.244037388844263
 10
2.151822889621876
 20
7.249747246149578
 10
2.184185741107271
 20
7.253707852862492
 10
2.217182531391272
 20
7.255874234985524
 10
2.250439581544716
 20
7.256222056282549
 10
2.283579938304703
 20
7.254747173043913
 10
2.316228194795785
 20
7.251466373754816
 10
2.348014266576738
 20
7.246416694486224
 10
2.378578255670622
 20
7.239655634333556
 10
2.407573866415777
 20
7.231259714602295
 10
2.4346721815126
 20
7.221323794198903
 10
2.459566569362458
 20
7.209960760839811
 10
2.481974752509084
 20
7.197299260695776
 10
2.501642965642254
 20
7.183482739155342
 10
2.518348312195793
 20
7.168667775433446
 10
2.531901502902492
 20
7.153022142552553
 10
2.542148952965793
 20
7.136723212457791
 10
2.548974720788034
 20
7.119955720914552
 10
2.55230112801937
 20
7.10290937833564
 10
2.552090806238027
 20
7.08577763025838
 10
2.548345832693891
 20
7.068754305016073
 10
2.541109031138096
 20
7.052032576921344
 10
2.530462095107055
 20
7.035801718282651
 10
2.516525789888186
 20
7.020245677956244
  0
ARC
  5
1AD
330
1F
100
AcDbEntity
  8
0
  6
Continuous
 62
     7
370
    15
100
AcDbCircle
 10
2.448049686510372
 20
6.885122395598891
 30
0.0
 40
0.1046739318431866
100
AcDbArc
 50
310.8578719828317
 51
357.7802583718592
  0
LWPOLYLINE
  5
1AE
330
1F
100
AcDbEntity
  8
0
  6
Continuous
 62
     7
370
    15
100
AcDbPolyline
 90
       26
 70
   128
 43
0.0
 10
1.927645024981462
 20
6.881068144091965
 10
1.929211580580923
 20
6.864972835159515
 10
1.934294845036935
 20
6.848041846404119
 10
1.942843476875843
 20
6.831485125878171
 10
1.95476074534562
 20
6.815490216779521
 10
1.969911465681387
 20
6.800238287536513
 10
1.988124017055383
 20
6.785902216814364
 10
2.009192086735459
 20
6.772644411292667
 10
2.032876958235224
 20
6.760615073466774
 10
2.058910329090684
 20
6.749950581737702
 10
2.086997053006443
 20
6.74077163482711
 10
2.116819103289637
 20
6.733182345420649
 10
2.148038390626572
 20
6.727268620257851
 10
2.180301328182317
 20
6.723097517305037
 10
2.213242268999416
 20
6.720716311543998
 10
2.246488074688771
 20
6.720151936578742
 10
2.279661977880703
 20
6.721410789002859
 10
2.312388237320124
 20
6.724478658982699
 10
2.344295877787025
 20
6.729320738745681
 10
2.375023435187225
 20
6.735882126573763
 10
2.404222793651017
 20
6.744088577569714
 10
2.431563080305817
 20
6.753847067929076
 10
2.456734523922523
 20
6.765047052309498
 10
2.479451877628962
 20
6.777561498037789
 10
2.499457949575358
 20
6.791248914896473
 10
2.516525789888185
 20
6.805953871085022
  0
LINE
  5
1AF
330
1F
100
AcDbEntity
  8
0
  6
Continuous
 62
     8
370
    15
100
AcDbLine
 10
2.521601188468976
 20
6.688865750111938
 30
0.0
 11
2.521601188468976
 21
6.606855084522114
 31
0.0
  0
LINE
  5
1B0
330
1F
100
AcDbEntity
  8
0
  6
Continuous
 62
     8
370
    15
100
AcDbLine
 10
2.521394975706034
 20
6.694407500050586
 30
0.0
 11
2.533923049145785
 21
6.696232797503196
 31
0.0
  0
LINE
  5
1B1
330
1F
100
AcDbEntity
  8
0
  6
Continuous
 62
     8
370
    15
100
AcDbLine
 10
2.521395027428584
 20
6.699693161784447
 30
0.0
 11
2.533923049145785
 21
6.696232797503196
 31
0.0
  0
LINE
  5
1B2
330
1F
100
AcDbEntity
  8
0
  6
Continuous
 62
     8
370
    15
100
AcDbLine
 10
2.633481074464399
 20
6.353722607337591
 30
0.0
 11
2.633481074464399
 21
6.486083452828308
 31
0.0
  0
LINE
  5
1B3
330
1F
100
AcDbEntity
  8
0
  6
Continuous
 62
     8
370
    15
100
AcDbLine
 10
2.62163441844869
 20
6.35188105597141
 30
0.0
 11
2.62163441844869
 21
6.475404351533829
 31
0.0
  0
LINE
  5
1B4
330
1F
100
AcDbEntity
  8
0
  6
Continuous
 62
     8
370
    15
100
AcDbLine
 10
5.340082740685851
 20
5.865569447864172
 30
0.0
 11
5.340082740685851
 21
5.943064191127462
 31
0.0
  0
LINE
  5
1B5
330
1F
100
AcDbEntity
  8
0
  6
Continuous
 62
     8
370
    15
100
AcDbLine
 10
5.352625465113168
 20
5.95033175311963
 30
0.0
 11
5.338673235860494
 21
5.94841914423132
 31
0.0
  0
LINE
  5
1B6
330
1F
100
AcDbEntity
  8
0
  6
Continuous
 62
     8
370
    15
100
AcDbLine
 10
5.454768810741561
 20
5.713999893638762
 30
0.0
 11
5.454768810741561
 21
5.607014231493058
 31
0.0
  0
LINE
  5
1B7
330
1F
100
AcDbEntity
  8
0
  6
Continuous
 62
     8
370
    15
100
AcDbLine
 10
5.442868334214571
 20
5.704080192696693
 30
0.0
 11
5.442868334214571
 21
5.605267763494921
 31
0.0
  0
MTEXT
  5
1B9
330
1F
100
AcDbEntity
  8
OBJ
 62
     7
100
AcDbMText
 10
2.579072302957676
 20
3.705532514034615
 30
0.0
 40
0.25
 41
0.0
 71
     1
 72
     1
  1
USP  PRT2
 73
     1
 44
1.0
  0
MTEXT
  5
1CA
330
1F
100
AcDbEntity
  8
OBJ
 62
     7
100
AcDbMText
 10
1.661472486250751
 20
3.289778861618858
 30
0.0
 40
0.25
 41
0.0
 71
     1
 72
     1
  1
SIMPSON  PGT2E
 73
     1
 44
1.0
  0
ENDSEC
  0
SECTION
  2
OBJECTS
  0
DICTIONARY
  5
C
330
0
100
AcDbDictionary
281
     1
  3
ACAD_COLOR
350
1BC
  3
ACAD_GROUP
350
D
  3
ACAD_LAYOUT
350
1A
  3
ACAD_MATERIAL
350
1BB
  3
ACAD_MLINESTYLE
350
17
  3
ACAD_PLOTSETTINGS
350
19
  3
ACAD_PLOTSTYLENAME
350
E
  0
DICTIONARY
  5
1BC
102
{ACAD_REACTORS
330
C
102
}
330
C
100
AcDbDictionary
281
     1
  0
DICTIONARY
  5
D
102
{ACAD_REACTORS
330
C
102
}
330
C
100
AcDbDictionary
281
     1
  0
DICTIONARY
  5
1A
102
{ACAD_REACTORS
330
C
102
}
330
C
100
AcDbDictionary
281
     1
  3
Layout1
350
1E
  3
Layout2
350
26
  3
Model
350
22
  0
DICTIONARY
  5
1BB
102
{ACAD_REACTORS
330
C
102
}
330
C
100
AcDbDictionary
281
     1
  0
DICTIONARY
  5
17
102
{ACAD_REACTORS
330
C
102
}
330
C
100
AcDbDictionary
281
     1
  3
Standard
350
18
  0
DICTIONARY
  5
19
102
{ACAD_REACTORS
330
C
102
}
330
C
100
AcDbDictionary
281
     1
  0
ACDBDICTIONARYWDFLT
  5
E
102
{ACAD_REACTORS
330
C
102
}
330
C
100
AcDbDictionary
281
     1
  3
Normal
350
F
100
AcDbDictionaryWithDefault
340
F
  0
LAYOUT
  5
1E
102
{ACAD_REACTORS
330
1A
102
}
330
1A
100
AcDbPlotSettings
  1

  2
none_device
  4

  6

 40
0.0
 41
0.0
 42
0.0
 43
0.0
 44
0.0
 45
0.0
 46
0.0
 47
0.0
 48
0.0
 49
0.0
140
0.0
141
0.0
142
1.0
143
1.0
 70
   688
 72
     0
 73
     0
 74
     5
  7

 75
    16
147
1.0
 76
     0
 77
     2
 78
   300
148
0.0
149
0.0
100
AcDbLayout
  1
Layout1
 70
     1
 71
     1
 10
0.0
 20
0.0
 11
12.0
 21
9.0
 12
0.0
 22
0.0
 32
0.0
 14
1.000000000000000E+20
 24
1.000000000000000E+20
 34
1.000000000000000E+20
 15
-1.000000000000000E+20
 25
-1.000000000000000E+20
 35
-1.000000000000000E+20
146
0.0
 13
0.0
 23
0.0
 33
0.0
 16
1.0
 26
0.0
 36
0.0
 17
0.0
 27
1.0
 37
0.0
 76
     0
330
1B
  0
LAYOUT
  5
26
102
{ACAD_REACTORS
330
1A
102
}
330
1A
100
AcDbPlotSettings
  1

  2
none_device
  4

  6

 40
0.0
 41
0.0
 42
0.0
 43
0.0
 44
0.0
 45
0.0
 46
0.0
 47
0.0
 48
0.0
 49
0.0
140
0.0
141
0.0
142
1.0
143
1.0
 70
   688
 72
     0
 73
     0
 74
     5
  7

 75
    16
147
1.0
 76
     0
 77
     2
 78
   300
148
0.0
149
0.0
100
AcDbLayout
  1
Layout2
 70
     1
 71
     2
 10
0.0
 20
0.0
 11
0.0
 21
0.0
 12
0.0
 22
0.0
 32
0.0
 14
0.0
 24
0.0
 34
0.0
 15
0.0
 25
0.0
 35
0.0
146
0.0
 13
0.0
 23
0.0
 33
0.0
 16
1.0
 26
0.0
 36
0.0
 17
0.0
 27
1.0
 37
0.0
 76
     0
330
23
  0
LAYOUT
  5
22
102
{ACAD_REACTORS
330
1A
102
}
330
1A
100
AcDbPlotSettings
  1

  2
none_device
  4

  6

 40
0.0
 41
0.0
 42
0.0
 43
0.0
 44
0.0
 45
0.0
 46
0.0
 47
0.0
 48
0.0
 49
0.0
140
0.0
141
0.0
142
1.0
143
1.0
 70
  1712
 72
     0
 73
     0
 74
     0
  7

 75
     0
147
1.0
 76
     0
 77
     2
 78
   300
148
0.0
149
0.0
100
AcDbLayout
  1
Model
 70
     1
 71
     0
 10
0.0
 20
0.0
 11
8.5
 21
11.0
 12
0.0
 22
0.0
 32
0.0
 14
0.0
 24
0.0
 34
0.0
 15
8.5
 25
11.0
 35
0.0
146
0.0
 13
0.0
 23
0.0
 33
0.0
 16
1.0
 26
0.0
 36
0.0
 17
0.0
 27
1.0
 37
0.0
 76
     0
330
1F
  0
MLINESTYLE
  5
18
102
{ACAD_REACTORS
330
17
102
}
330
17
100
AcDbMlineStyle
  2
STANDARD
 70
     0
  3

 62
   256
 51
90.0
 52
90.0
 71
     2
 49
0.5
 62
   256
  6
BYLAYER
 49
-0.5
 62
   256
  6
BYLAYER
  0
ACDBPLACEHOLDER
  5
F
102
{ACAD_REACTORS
330
E
102
}
330
E
  0
ENDSEC
  0
EOF
