  0
SECTION
  2
HEADER
  9
$ACADVER
  1
AC1018
  9
$ACADMAINTVER
 70
     0
  9
$DWGCODEPAGE
  3
ANSI_1252
  9
$INSBASE
 10
0.0
 20
0.0
 30
0.0
  9
$EXTMIN
 10
1.702744762238855
 20
2.191712807343992
 30
0.0
  9
$EXTMAX
 10
16.09459750262252
 20
8.534047294938275
 30
0.0
  9
$LIMMIN
 10
0.0
 20
0.0
  9
$LIMMAX
 10
8.5
 20
11.0
  9
$ORTHOMODE
 70
     0
  9
$REGENMODE
 70
     1
  9
$FILLMODE
 70
     1
  9
$QTEXTMODE
 70
     0
  9
$MIRRTEXT
 70
     1
  9
$LTSCALE
 40
1.0
  9
$ATTMODE
 70
     1
  9
$TEXTSIZE
 40
0.25
  9
$TRACEWID
 40
0.05
  9
$TEXTSTYLE
  7
Standard
  9
$CLAYER
  8
0
  9
$CELTYPE
  6
ByLayer
  9
$CECOLOR
 62
   256
  9
$CELTSCALE
 40
1.0
  9
$DISPSILH
 70
     0
  9
$DIMSCALE
 40
1.0
  9
$DIMASZ
 40
0.156
  9
$DIMEXO
 40
0.05
  9
$DIMDLI
 40
0.38
  9
$DIMRND
 40
0.0
  9
$DIMDLE
 40
0.0
  9
$DIMEXE
 40
0.125
  9
$DIMTP
 40
0.0
  9
$DIMTM
 40
0.0
  9
$DIMTXT
 40
0.125
  9
$DIMCEN
 40
0.09
  9
$DIMTSZ
 40
0.0
  9
$DIMTOL
 70
     0
  9
$DIMLIM
 70
     0
  9
$DIMTIH
 70
     1
  9
$DIMTOH
 70
     1
  9
$DIMSE1
 70
     0
  9
$DIMSE2
 70
     0
  9
$DIMTAD
 70
     0
  9
$DIMZIN
 70
     0
  9
$DIMBLK
  1

  9
$DIMASO
 70
     1
  9
$DIMSHO
 70
     1
  9
$DIMPOST
  1

  9
$DIMAPOST
  1

  9
$DIMALT
 70
     0
  9
$DIMALTD
 70
     2
  9
$DIMALTF
 40
25.4
  9
$DIMLFAC
 40
12.0
  9
$DIMTOFL
 70
     0
  9
$DIMTVP
 40
0.0
  9
$DIMTIX
 70
     0
  9
$DIMSOXD
 70
     0
  9
$DIMSAH
 70
     0
  9
$DIMBLK1
  1

  9
$DIMBLK2
  1

  9
$DIMSTYLE
  2
Standard
  9
$DIMCLRD
 70
     0
  9
$DIMCLRE
 70
     0
  9
$DIMCLRT
 70
     0
  9
$DIMTFAC
 40
1.0
  9
$DIMGAP
 40
0.06
  9
$DIMJUST
 70
     0
  9
$DIMSD1
 70
     0
  9
$DIMSD2
 70
     0
  9
$DIMTOLJ
 70
     1
  9
$DIMTZIN
 70
     0
  9
$DIMALTZ
 70
     0
  9
$DIMALTTZ
 70
     0
  9
$DIMUPT
 70
     0
  9
$DIMDEC
 70
     3
  9
$DIMTDEC
 70
     3
  9
$DIMALTU
 70
     2
  9
$DIMALTTD
 70
     2
  9
$DIMTXSTY
  7
Standard
  9
$DIMAUNIT
 70
     0
  9
$DIMADEC
 70
     0
  9
$DIMALTRND
 40
0.0
  9
$DIMAZIN
 70
     0
  9
$DIMDSEP
 70
    46
  9
$DIMATFIT
 70
     3
  9
$DIMFRAC
 70
     0
  9
$DIMLDRBLK
  1

  9
$DIMLUNIT
 70
     2
  9
$DIMLWD
 70
    -2
  9
$DIMLWE
 70
    -2
  9
$DIMTMOVE
 70
     0
  9
$LUNITS
 70
     2
  9
$LUPREC
 70
     3
  9
$SKETCHINC
 40
0.1
  9
$FILLETRAD
 40
0.5
  9
$AUNITS
 70
     0
  9
$AUPREC
 70
     0
  9
$MENU
  1
.
  9
$ELEVATION
 40
0.0
  9
$PELEVATION
 40
0.0
  9
$THICKNESS
 40
0.0
  9
$LIMCHECK
 70
     0
  9
$CHAMFERA
 40
0.5
  9
$CHAMFERB
 40
0.5
  9
$CHAMFERC
 40
1.0
  9
$CHAMFERD
 40
0.0
  9
$SKPOLY
 70
     0
  9
$TDCREATE
 40
2456497.577624132
  9
$TDUCREATE
 40
2456497.785957465
  9
$TDUPDATE
 40
2456571.470222165
  9
$TDUUPDATE
 40
2456571.678555498
  9
$TDINDWG
 40
0.0017654977
  9
$TDUSRTIMER
 40
0.0017655093
  9
$USRTIMER
 70
     1
  9
$ANGBASE
 50
0.0
  9
$ANGDIR
 70
     0
  9
$PDMODE
 70
     0
  9
$PDSIZE
 40
-1.0
  9
$PLINEWID
 40
0.0
  9
$SPLFRAME
 70
     0
  9
$SPLINETYPE
 70
     6
  9
$SPLINESEGS
 70
     8
  9
$HANDSEED
  5
1A7
  9
$SURFTAB1
 70
     6
  9
$SURFTAB2
 70
     6
  9
$SURFTYPE
 70
     6
  9
$SURFU
 70
     6
  9
$SURFV
 70
     6
  9
$UCSBASE
  2

  9
$UCSNAME
  2

  9
$UCSORG
 10
0.0
 20
0.0
 30
0.0
  9
$UCSXDIR
 10
1.0
 20
0.0
 30
0.0
  9
$UCSYDIR
 10
0.0
 20
1.0
 30
0.0
  9
$UCSORTHOREF
  2

  9
$UCSORTHOVIEW
 70
     0
  9
$UCSORGTOP
 10
0.0
 20
0.0
 30
0.0
  9
$UCSORGBOTTOM
 10
0.0
 20
0.0
 30
0.0
  9
$UCSORGLEFT
 10
0.0
 20
0.0
 30
0.0
  9
$UCSORGRIGHT
 10
0.0
 20
0.0
 30
0.0
  9
$UCSORGFRONT
 10
0.0
 20
0.0
 30
0.0
  9
$UCSORGBACK
 10
0.0
 20
0.0
 30
0.0
  9
$PUCSBASE
  2

  9
$PUCSNAME
  2

  9
$PUCSORG
 10
0.0
 20
0.0
 30
0.0
  9
$PUCSXDIR
 10
1.0
 20
0.0
 30
0.0
  9
$PUCSYDIR
 10
0.0
 20
1.0
 30
0.0
  9
$PUCSORTHOREF
  2

  9
$PUCSORTHOVIEW
 70
     0
  9
$PUCSORGTOP
 10
0.0
 20
0.0
 30
0.0
  9
$PUCSORGBOTTOM
 10
0.0
 20
0.0
 30
0.0
  9
$PUCSORGLEFT
 10
0.0
 20
0.0
 30
0.0
  9
$PUCSORGRIGHT
 10
0.0
 20
0.0
 30
0.0
  9
$PUCSORGFRONT
 10
0.0
 20
0.0
 30
0.0
  9
$PUCSORGBACK
 10
0.0
 20
0.0
 30
0.0
  9
$USERI1
 70
     0
  9
$USERI2
 70
     0
  9
$USERI3
 70
     0
  9
$USERI4
 70
     0
  9
$USERI5
 70
     0
  9
$USERR1
 40
0.0
  9
$USERR2
 40
0.0
  9
$USERR3
 40
0.0
  9
$USERR4
 40
0.0
  9
$USERR5
 40
0.0
  9
$WORLDVIEW
 70
     1
  9
$SHADEDGE
 70
     3
  9
$SHADEDIF
 70
    70
  9
$TILEMODE
 70
     1
  9
$MAXACTVP
 70
    64
  9
$PINSBASE
 10
0.0
 20
0.0
 30
0.0
  9
$PLIMCHECK
 70
     0
  9
$PEXTMIN
 10
1.000000000000000E+20
 20
1.000000000000000E+20
 30
1.000000000000000E+20
  9
$PEXTMAX
 10
-1.000000000000000E+20
 20
-1.000000000000000E+20
 30
-1.000000000000000E+20
  9
$PLIMMIN
 10
0.0
 20
0.0
  9
$PLIMMAX
 10
12.0
 20
9.0
  9
$UNITMODE
 70
     0
  9
$VISRETAIN
 70
     1
  9
$PLINEGEN
 70
     0
  9
$PSLTSCALE
 70
     1
  9
$TREEDEPTH
 70
  3020
  9
$CMLSTYLE
  2
Standard
  9
$CMLJUST
 70
     0
  9
$CMLSCALE
 40
1.0
  9
$PROXYGRAPHICS
 70
     1
  9
$MEASUREMENT
 70
     0
  9
$CELWEIGHT
370
    -1
  9
$ENDCAPS
280
     0
  9
$JOINSTYLE
280
     0
  9
$LWDISPLAY
290
     1
  9
$INSUNITS
 70
     1
  9
$HYPERLINKBASE
  1

  9
$STYLESHEET
  1

  9
$XEDIT
290
     1
  9
$CEPSNTYPE
380
     0
  9
$PSTYLEMODE
290
     1
  9
$FINGERPRINTGUID
  2
{3B12F633-1AC7-438B-BDAB-71DCBF3FEB6C}
  9
$VERSIONGUID
  2
{1CA16356-DBA8-429B-B4CB-6940DB434A06}
  9
$EXTNAMES
290
     1
  9
$PSVPSCALE
 40
0.0
  9
$OLESTARTUP
290
     0
  9
$SORTENTS
280
   127
  9
$INDEXCTL
280
     0
  9
$HIDETEXT
280
     0
  9
$XCLIPFRAME
290
     0
  9
$HALOGAP
280
     0
  9
$OBSCOLOR
 70
   257
  9
$OBSLTYPE
280
     0
  9
$INTERSECTIONDISPLAY
280
     0
  9
$INTERSECTIONCOLOR
 70
   257
  9
$DIMASSOC
280
     1
  9
$PROJECTNAME
  1

  0
ENDSEC
  0
SECTION
  2
CLASSES
  0
CLASS
  1
ACDBDICTIONARYWDFLT
  2
AcDbDictionaryWithDefault
  3
ObjectDBX Classes
 90
        0
 91
        1
280
     0
281
     0
  0
CLASS
  1
VISUALSTYLE
  2
AcDbVisualStyle
  3
ObjectDBX Classes
 90
     4095
 91
        0
280
     0
281
     0
  0
CLASS
  1
MATERIAL
  2
AcDbMaterial
  3
ObjectDBX Classes
 90
        0
 91
        0
280
     0
281
     0
  0
ENDSEC
  0
SECTION
  2
TABLES
  0
TABLE
  2
VPORT
  5
8
330
0
100
AcDbSymbolTable
 70
     3
  0
VPORT
  5
1A6
330
8
100
AcDbSymbolTableRecord
100
AcDbViewportTableRecord
  2
*Active
 70
     0
 10
0.0
 20
0.0
 11
1.0
 21
1.0
 12
3.888901630905561
 22
5.482085665671236
 13
0.0
 23
0.0
 14
0.5
 24
0.5
 15
0.5
 25
0.5
 16
0.0
 26
0.0
 36
1.0
 17
0.0
 27
0.0
 37
0.0
 40
8.634589310860841
 41
2.247298919567827
 42
50.0
 43
0.0
 44
0.0
 50
0.0
 51
0.0
 71
     0
 72
  2000
 73
     1
 74
     3
 75
     0
 76
     0
 77
     0
 78
     0
281
     0
 65
     1
110
0.0
120
0.0
130
0.0
111
1.0
121
0.0
131
0.0
112
0.0
122
1.0
132
0.0
 79
     0
146
0.0
  0
ENDTAB
  0
TABLE
  2
LTYPE
  5
5
330
0
100
AcDbSymbolTable
 70
     6
  0
LTYPE
  5
14
330
5
100
AcDbSymbolTableRecord
100
AcDbLinetypeTableRecord
  2
ByBlock
 70
     0
  3

 72
    65
 73
     0
 40
0.0
  0
LTYPE
  5
15
330
5
100
AcDbSymbolTableRecord
100
AcDbLinetypeTableRecord
  2
ByLayer
 70
     0
  3

 72
    65
 73
     0
 40
0.0
  0
LTYPE
  5
16
330
5
100
AcDbSymbolTableRecord
100
AcDbLinetypeTableRecord
  2
Continuous
 70
     0
  3
Solid line
 72
    65
 73
     0
 40
0.0
  0
LTYPE
  5
3F
330
5
100
AcDbSymbolTableRecord
100
AcDbLinetypeTableRecord
  2
HIDDEN
 70
     0
  3
Hidden __ __ __ __ __ __ __ __ __ __ __ __ __ __
 72
    65
 73
     2
 40
0.075
 49
0.05
 74
     0
 49
-0.025
 74
     0
  0
LTYPE
  5
40
330
5
100
AcDbSymbolTableRecord
100
AcDbLinetypeTableRecord
  2
PHANTOM
 70
     0
  3
Phantom ______  __  __  ______  __  __  ______
 72
    65
 73
     6
 40
0.5
 49
0.25
 74
     0
 49
-0.05
 74
     0
 49
0.05
 74
     0
 49
-0.05
 74
     0
 49
0.05
 74
     0
 49
-0.05
 74
     0
  0
LTYPE
  5
41
330
5
100
AcDbSymbolTableRecord
100
AcDbLinetypeTableRecord
  2
CENTER
 70
     0
  3
Center ____ _ ____ _ ____ _ ____ _ ____ _ ____
 72
    65
 73
     4
 40
0.4
 49
0.25
 74
     0
 49
-0.05
 74
     0
 49
0.05
 74
     0
 49
-0.05
 74
     0
  0
LTYPE
  5
42
330
5
100
AcDbSymbolTableRecord
100
AcDbLinetypeTableRecord
  2
CENTERX2
 70
     0
  3
Center (2x) ________  __  ________  __  _____
 72
    65
 73
     4
 40
0.8
 49
0.5
 74
     0
 49
-0.1
 74
     0
 49
0.1
 74
     0
 49
-0.1
 74
     0
  0
LTYPE
  5
43
330
5
100
AcDbSymbolTableRecord
100
AcDbLinetypeTableRecord
  2
DOT2
 70
     0
  3
Dot (.5x) ........................................
 72
    65
 73
     2
 40
0.025
 49
0.0
 74
     0
 49
-0.025
 74
     0
  0
ENDTAB
  0
TABLE
  2
LAYER
  5
2
330
0
100
AcDbSymbolTable
 70
     7
  0
LAYER
  5
10
330
2
100
AcDbSymbolTableRecord
100
AcDbLayerTableRecord
  2
0
 70
     0
 62
     7
  6
Continuous
370
    -3
390
F
  0
LAYER
  5
44
330
2
100
AcDbSymbolTableRecord
100
AcDbLayerTableRecord
  2
SLD-0
 70
     0
 62
   179
  6
Continuous
370
    -3
390
F
  0
LAYER
  5
45
330
2
100
AcDbSymbolTableRecord
100
AcDbLayerTableRecord
  2
SLD-DEFPOINTS
 70
     0
 62
   179
  6
Continuous
370
    -3
390
F
  0
LAYER
  5
46
330
2
100
AcDbSymbolTableRecord
100
AcDbLayerTableRecord
  2
OBJ
 70
     0
 62
   179
  6
Continuous
370
    -3
390
F
  0
LAYER
  5
47
330
2
100
AcDbSymbolTableRecord
100
AcDbLayerTableRecord
  2
FORMAT
 70
     0
 62
     7
  6
Continuous
370
    -3
390
F
  0
LAYER
  5
48
330
2
100
AcDbSymbolTableRecord
100
AcDbLayerTableRecord
  2
TOLERANCES
 70
     0
 62
     7
  6
Continuous
370
    -3
390
F
  0
LAYER
  5
49
330
2
100
AcDbSymbolTableRecord
100
AcDbLayerTableRecord
  2
QTY-BLANK-SIZE-1
 70
     0
 62
     7
  6
Continuous
370
    -3
390
F
  0
ENDTAB
  0
TABLE
  2
STYLE
  5
3
330
0
100
AcDbSymbolTable
 70
     2
  0
STYLE
  5
11
330
3
100
AcDbSymbolTableRecord
100
AcDbTextStyleTableRecord
  2
Standard
 70
     0
 40
0.0
 41
1.0
 50
0.0
 71
     0
 42
0.25
  3
txt
  4

  0
STYLE
  5
19B
330
3
100
AcDbSymbolTableRecord
100
AcDbTextStyleTableRecord
  2
SLDTEXTSTYLE0
 70
     0
 40
0.0
 41
0.7
 50
0.0
 71
     0
 42
0.2
  3
TXT
  4

  0
ENDTAB
  0
TABLE
  2
VIEW
  5
6
330
0
100
AcDbSymbolTable
 70
     0
  0
ENDTAB
  0
TABLE
  2
UCS
  5
7
330
0
100
AcDbSymbolTable
 70
     0
  0
ENDTAB
  0
TABLE
  2
APPID
  5
9
330
0
100
AcDbSymbolTable
 70
     1
  0
APPID
  5
12
330
9
100
AcDbSymbolTableRecord
100
AcDbRegAppTableRecord
  2
ACAD
 70
     0
  0
ENDTAB
  0
TABLE
  2
DIMSTYLE
  5
A
330
0
100
AcDbSymbolTable
 70
     1
100
AcDbDimStyleTable
 71
     0
  0
DIMSTYLE
105
27
330
A
100
AcDbSymbolTableRecord
100
AcDbDimStyleTableRecord
  2
Standard
 70
     0
340
11
  0
ENDTAB
  0
TABLE
  2
BLOCK_RECORD
  5
1
330
0
100
AcDbSymbolTable
 70
     1
  0
BLOCK_RECORD
  5
1F
330
1
100
AcDbSymbolTableRecord
100
AcDbBlockTableRecord
  2
*Model_Space
340
22
  0
BLOCK_RECORD
  5
1B
330
1
100
AcDbSymbolTableRecord
100
AcDbBlockTableRecord
  2
*Paper_Space
340
1E
  0
BLOCK_RECORD
  5
23
330
1
100
AcDbSymbolTableRecord
100
AcDbBlockTableRecord
  2
*Paper_Space0
340
26
  0
ENDTAB
  0
ENDSEC
  0
SECTION
  2
BLOCKS
  0
BLOCK
  5
20
330
1F
100
AcDbEntity
  8
0
100
AcDbBlockBegin
  2
*Model_Space
 70
     0
 10
0.0
 20
0.0
 30
0.0
  3
*Model_Space
  1

  0
ENDBLK
  5
21
330
1F
100
AcDbEntity
  8
0
100
AcDbBlockEnd
  0
BLOCK
  5
1C
330
1B
100
AcDbEntity
 67
     1
  8
0
100
AcDbBlockBegin
  2
*Paper_Space
 70
     0
 10
0.0
 20
0.0
 30
0.0
  3
*Paper_Space
  1

  0
ENDBLK
  5
1D
330
1B
100
AcDbEntity
 67
     1
  8
0
100
AcDbBlockEnd
  0
BLOCK
  5
24
330
23
100
AcDbEntity
  8
0
100
AcDbBlockBegin
  2
*Paper_Space0
 70
     0
 10
0.0
 20
0.0
 30
0.0
  3
*Paper_Space0
  1

  0
ENDBLK
  5
25
330
23
100
AcDbEntity
  8
0
100
AcDbBlockEnd
  0
ENDSEC
  0
SECTION
  2
ENTITIES
  0
LINE
  5
4A
330
1F
100
AcDbEntity
  8
0
  6
Continuous
 62
     7
370
    15
100
AcDbLine
 10
3.458739212573687
 20
7.662741337020879
 30
0.0
 11
3.44980488961019
 21
7.665134940883744
 31
0.0
  0
LINE
  5
4B
330
1F
100
AcDbEntity
  8
0
  6
Continuous
 62
     7
370
    15
100
AcDbLine
 10
3.433456120331808
 20
7.604111746772946
 30
0.0
 11
3.442390443295304
 21
7.601718142910081
 31
0.0
  0
LINE
  5
4C
330
1F
100
AcDbEntity
  8
0
  6
Continuous
 62
     7
370
    15
100
AcDbLine
 10
3.118054473003309
 20
6.753247641240639
 30
0.0
 11
3.126988770039857
 21
6.755641238157387
 31
0.0
  0
LINE
  5
4D
330
1F
100
AcDbEntity
  8
0
  6
Continuous
 62
     7
370
    15
100
AcDbLine
 10
3.110640065578847
 20
6.816664414902895
 30
0.0
 11
3.101705768542299
 21
6.814270817986145
 31
0.0
  0
LINE
  5
4E
330
1F
100
AcDbEntity
  8
0
  6
Continuous
 62
     7
370
    15
100
AcDbLine
 10
3.460559375147158
 20
6.990936319902702
 30
0.0
 11
3.469493672183705
 21
6.99332991681945
 31
0.0
  0
LINE
  5
4F
330
1F
100
AcDbEntity
  8
0
  6
Continuous
 62
     7
370
    15
100
AcDbLine
 10
3.453144915868798
 20
7.05435310745719
 30
0.0
 11
3.44421061883225
 21
7.051959510540441
 31
0.0
  0
LINE
  5
50
330
1F
100
AcDbEntity
  8
0
  6
Continuous
 62
     7
370
    15
100
AcDbLine
 10
3.272734132992866
 20
6.711903619774139
 30
0.0
 11
3.281668430029414
 21
6.714297216690888
 31
0.0
  0
LINE
  5
51
330
1F
100
AcDbEntity
  8
0
  6
Continuous
 62
     7
370
    15
100
AcDbLine
 10
3.265319621860607
 20
6.77532042122086
 30
0.0
 11
3.256385324824059
 21
6.772926824304111
 31
0.0
  0
LINE
  5
52
330
1F
100
AcDbEntity
  8
0
  6
Continuous
 62
     7
370
    15
100
AcDbLine
 10
3.195394354851986
 20
7.061976959408172
 30
0.0
 11
3.204328651888534
 21
7.064370556324922
 31
0.0
  0
LINE
  5
53
330
1F
100
AcDbEntity
  8
0
  6
Continuous
 62
     7
370
    15
100
AcDbLine
 10
5.58187969307023
 20
6.422611162182234
 30
0.0
 11
5.590813990106777
 21
6.425004759098982
 31
0.0
  0
LINE
  5
54
330
1F
100
AcDbEntity
  8
0
  6
Continuous
 62
     7
370
    15
100
AcDbLine
 10
5.659219471211109
 20
6.0725378225482
 30
0.0
 11
5.668153768247657
 21
6.074931419464949
 31
0.0
  0
LINE
  5
55
330
1F
100
AcDbEntity
  8
0
  6
Continuous
 62
     7
370
    15
100
AcDbLine
 10
5.651805063786647
 20
6.135954596210456
 30
0.0
 11
5.6428707667501
 21
6.133560999293708
 31
0.0
  0
LINE
  5
56
330
1F
100
AcDbEntity
  8
0
  6
Continuous
 62
     7
370
    15
100
AcDbLine
 10
5.847044765219299
 20
6.35157050878453
 30
0.0
 11
5.855979062255848
 21
6.353964105701279
 31
0.0
  0
LINE
  5
57
330
1F
100
AcDbEntity
  8
0
  6
Continuous
 62
     7
370
    15
100
AcDbLine
 10
5.839630254087041
 20
6.414987310231251
 30
0.0
 11
5.830695957050493
 21
6.412593713314502
 31
0.0
  0
LINE
  5
58
330
1F
100
AcDbEntity
  8
0
  6
Continuous
 62
     7
370
    15
100
AcDbLine
 10
5.504539914929349
 20
6.113881816230234
 30
0.0
 11
5.513474211965896
 21
6.116275413146983
 31
0.0
  0
LINE
  5
59
330
1F
100
AcDbEntity
  8
0
  6
Continuous
 62
     7
370
    15
100
AcDbLine
 10
5.49712540379709
 20
6.177298617676955
 30
0.0
 11
5.488191106760543
 21
6.174905020760206
 31
0.0
  0
LINE
  5
5A
330
1F
100
AcDbEntity
  8
0
  6
Continuous
 62
     7
370
    15
100
AcDbLine
 10
5.845224602645829
 20
7.023375525902707
 30
0.0
 11
5.836290279682334
 21
7.025769129765572
 31
0.0
  0
LINE
  5
5B
330
1F
100
AcDbEntity
  8
0
  6
Continuous
 62
     7
370
    15
100
AcDbLine
 10
5.81994151040395
 20
6.964745935654774
 30
0.0
 11
5.828875833367446
 21
6.962352331791909
 31
0.0
  0
LINE
  5
5C
330
1F
100
AcDbEntity
  8
0
  6
Continuous
 62
     7
370
    15
100
AcDbLine
 10
3.634335503593807
 20
7.079404932703694
 30
0.0
 11
3.63507481054834
 21
7.079603001207536
 31
0.0
  0
LINE
  5
5D
330
1F
100
AcDbEntity
  8
0
  6
Continuous
 62
     7
370
    15
100
AcDbLine
 10
3.589000418148007
 20
7.008491695374095
 30
0.0
 11
3.589507315930509
 21
7.008627498892193
 31
0.0
  0
LINE
  5
5E
330
1F
100
AcDbEntity
  8
0
  6
Continuous
 62
     7
370
    15
100
AcDbLine
 10
3.34439412031409
 20
7.667740032099296
 30
0.0
 11
3.34439412031409
 21
7.184370367165695
 31
0.0
  0
LINE
  5
5F
330
1F
100
AcDbEntity
  8
0
  6
Continuous
 62
     7
370
    15
100
AcDbLine
 10
6.020820841812051
 20
6.440039135477755
 30
0.0
 11
6.021560148766584
 21
6.440237203981596
 31
0.0
  0
LINE
  5
60
330
1F
100
AcDbEntity
  8
0
  6
Continuous
 62
     7
370
    15
100
AcDbLine
 10
5.975485808220149
 20
6.369125884255922
 30
0.0
 11
5.975992706002651
 21
6.369261687774022
 31
0.0
  0
LINE
  5
61
330
1F
100
AcDbEntity
  8
0
  6
Continuous
 62
     7
370
    15
100
AcDbLine
 10
5.730879458532333
 20
7.028374234873357
 30
0.0
 11
5.730879458532333
 21
6.545004569939756
 31
0.0
  0
LINE
  5
62
330
1F
100
AcDbEntity
  8
0
  6
Continuous
 62
     7
370
    15
100
AcDbLine
 10
3.721270171508199
 20
6.394625266528122
 30
0.0
 11
3.711989386723436
 21
6.39213884171429
 31
0.0
  0
LINE
  5
63
330
1F
100
AcDbEntity
  8
0
  6
Continuous
 62
     7
370
    15
100
AcDbLine
 10
3.733112694429015
 20
6.313294385294566
 30
0.0
 11
3.742393479213778
 21
6.315780810108399
 31
0.0
  0
LINE
  5
64
330
1F
100
AcDbEntity
  8
0
  6
Continuous
 62
     7
370
    15
100
AcDbLine
 10
4.347037065551754
 20
6.224832064426027
 30
0.0
 11
4.341756368260106
 21
6.223417307260033
 31
0.0
  0
LINE
  5
65
330
1F
100
AcDbEntity
  8
0
  6
Continuous
 62
     7
370
    15
100
AcDbLine
 10
4.36287966300221
 20
6.144572854313369
 30
0.0
 11
4.372160447786973
 21
6.147059279127201
 31
0.0
  0
LINE
  5
66
330
1F
100
AcDbEntity
  8
0
  6
Continuous
 62
     7
370
    15
100
AcDbLine
 10
4.047202204788833
 20
6.156766291433838
 30
0.0
 11
4.037921420004069
 21
6.154279866620005
 31
0.0
  0
LINE
  5
67
330
1F
100
AcDbEntity
  8
0
  6
Continuous
 62
     7
370
    15
100
AcDbLine
 10
4.059044727709649
 20
6.075435410200282
 30
0.0
 11
4.068325512494412
 21
6.077921835014115
 31
0.0
  0
LINE
  5
68
330
1F
100
AcDbEntity
  8
0
  6
Continuous
 62
     7
370
    15
100
AcDbLine
 10
4.607186582354486
 20
5.037989449306732
 30
0.0
 11
4.616467367139249
 21
5.0355030244929
 31
0.0
  0
LINE
  5
69
330
1F
100
AcDbEntity
  8
0
  6
Continuous
 62
     7
370
    15
100
AcDbLine
 10
4.637590648917879
 20
5.11434733266307
 30
0.0
 11
4.628309864133116
 21
5.116833757476903
 31
0.0
  0
LINE
  5
6A
330
1F
100
AcDbEntity
  8
0
  6
Continuous
 62
     7
370
    15
100
AcDbLine
 10
4.701099203431632
 20
5.304010570531987
 30
0.0
 11
4.710379988216396
 21
5.301524145718156
 31
0.0
  0
LINE
  5
6B
330
1F
100
AcDbEntity
  8
0
  6
Continuous
 62
     7
370
    15
100
AcDbLine
 10
4.731503282958501
 20
5.380368598664819
 30
0.0
 11
4.722222498173737
 21
5.382855023478652
 31
0.0
  0
LINE
  5
6C
330
1F
100
AcDbEntity
  8
0
  6
Continuous
 62
     7
370
    15
100
AcDbLine
 10
4.983102221571857
 20
5.13870140362251
 30
0.0
 11
4.992383006356621
 21
5.136214978808678
 31
0.0
  0
LINE
  5
6D
330
1F
100
AcDbEntity
  8
0
  6
Continuous
 62
     7
370
    15
100
AcDbLine
 10
5.013506301098725
 20
5.215059290451907
 30
0.0
 11
5.004225516313962
 21
5.217545715265739
 31
0.0
  0
LINE
  5
6E
330
1F
100
AcDbEntity
  8
0
  6
Continuous
 62
     7
370
    15
100
AcDbLine
 10
3.688124537489565
 20
6.02716017775697
 30
0.0
 11
3.678843752704802
 21
6.024673752943138
 31
0.0
  0
LINE
  5
6F
330
1F
100
AcDbEntity
  8
0
  6
Continuous
 62
     7
370
    15
100
AcDbLine
 10
3.699967060410381
 20
5.945829296523414
 30
0.0
 11
3.709247845195144
 21
5.948315721337247
 31
0.0
  0
LINE
  5
70
330
1F
100
AcDbEntity
  8
0
  6
Continuous
 62
     7
370
    15
100
AcDbLine
 10
4.345512885029587
 20
5.143509517993243
 30
0.0
 11
4.336232100244824
 21
5.141023093179411
 31
0.0
  0
LINE
  5
71
330
1F
100
AcDbEntity
  8
0
  6
Continuous
 62
     7
370
    15
100
AcDbLine
 10
4.357355394986929
 20
5.062178781536182
 30
0.0
 11
4.366636179771692
 21
5.064665206350015
 31
0.0
  0
LINE
  5
72
330
1F
100
AcDbEntity
  8
0
  6
Continuous
 62
     7
370
    15
100
AcDbLine
 10
4.047202204788833
 20
5.479345041152656
 30
0.0
 11
4.037921420004069
 21
5.476858616338823
 31
0.0
  0
LINE
  5
73
330
1F
100
AcDbEntity
  8
0
  6
Continuous
 62
     7
370
    15
100
AcDbLine
 10
4.059044727709649
 20
5.3980141599191
 30
0.0
 11
4.068325512494412
 21
5.400500584732933
 31
0.0
  0
LINE
  5
74
330
1F
100
AcDbEntity
  8
0
  6
Continuous
 62
     7
370
    15
100
AcDbLine
 10
4.367609970054186
 20
5.8827529954442
 30
0.0
 11
4.358329185269422
 21
5.880266570630367
 31
0.0
  0
LINE
  5
75
330
1F
100
AcDbEntity
  8
0
  6
Continuous
 62
     7
370
    15
100
AcDbLine
 10
4.379452480011527
 20
5.801422117683704
 30
0.0
 11
4.38873326479629
 21
5.803908542497535
 31
0.0
  0
LINE
  5
76
330
1F
100
AcDbEntity
  8
0
  6
Continuous
 62
     7
370
    15
100
AcDbLine
 10
4.721163343411223
 20
5.976204653868395
 30
0.0
 11
4.711882558626459
 21
5.973718229054562
 31
0.0
  0
LINE
  5
77
330
1F
100
AcDbEntity
  8
0
  6
Continuous
 62
     7
370
    15
100
AcDbLine
 10
4.733005866332039
 20
5.894873772634839
 30
0.0
 11
4.742286651116802
 21
5.897360197448672
 31
0.0
  0
LINE
  5
78
330
1F
100
AcDbEntity
  8
0
  6
Continuous
 62
     7
370
    15
100
AcDbLine
 10
5.162754641185644
 20
5.151209533316667
 30
0.0
 11
5.162754641185644
 21
5.344603209864201
 31
0.0
  0
LINE
  5
79
330
1F
100
AcDbEntity
  8
0
  6
Continuous
 62
     7
370
    15
100
AcDbLine
 10
3.899589064420269
 20
5.665999013935105
 30
0.0
 11
3.899589064420269
 21
5.154169565172317
 31
0.0
  0
LWPOLYLINE
  5
7A
330
1F
100
AcDbEntity
  8
0
  6
Continuous
 62
     7
370
    15
100
AcDbPolyline
 90
        6
 70
   128
 43
0.0
 10
3.421463532229409
 20
7.642301837183141
 10
3.42596351722876
 20
7.652116486066015
 10
3.432353161988733
 20
7.659821303860846
 10
3.439861787946346
 20
7.664486626275494
 10
3.4475837538049
 20
7.665550193624329
 10
3.44980488961019
 20
7.665134940883744
  0
ARC
  5
7B
330
1F
100
AcDbEntity
  8
0
  6
Continuous
 62
     7
370
    15
100
AcDbCircle
 10
3.447351673444316
 20
7.629453300615963
 30
0.0
 40
0.028901223978944
100
AcDbArc
 50
153.6043475599262
 51
241.2626869814499
  0
LWPOLYLINE
  5
7C
330
1F
100
AcDbEntity
  8
0
  6
Continuous
 62
     7
370
    15
100
AcDbPolyline
 90
       19
 70
   128
 43
0.0
 10
3.430397855192906
 20
7.639908233320276
 10
3.434897840192257
 20
7.64972288220315
 10
3.44128748495223
 20
7.657427699997981
 10
3.448796110909842
 20
7.662093022412629
 10
3.456518076768397
 20
7.663156589761464
 10
3.463521995770708
 20
7.660489828980264
 10
3.468963090133169
 20
7.654414389490926
 10
3.472185083955848
 20
7.645663311429944
 10
3.472799345234711
 20
7.635291729380854
 10
3.470731800676086
 20
7.62455096400381
 10
3.46623182864021
 20
7.614736318593995
 10
3.459842183880236
 20
7.607031783406037
 10
3.452333531995675
 20
7.602366171438399
 10
3.444611579100595
 20
7.601302890169495
 10
3.437607647134809
 20
7.603969647477638
 10
3.432166565735822
 20
7.610044807833161
 10
3.428944571913144
 20
7.618796168501015
 10
3.42833031063428
 20
7.629167467943233
 10
3.430397855192906
 20
7.639908233320276
  0
LWPOLYLINE
  5
7D
330
1F
100
AcDbEntity
  8
0
  6
Continuous
 62
     7
370
    15
100
AcDbPolyline
 90
       11
 70
   128
 43
0.0
 10
3.110640065578847
 20
6.816664414902895
 10
3.114134914614203
 20
6.817164031742784
 10
3.12188686498943
 20
6.815473239552083
 10
3.129268267407645
 20
6.810245983834809
 10
3.13538868672782
 20
6.802112797738885
 10
3.139510138269827
 20
6.792054781767832
 10
3.141135343149291
 20
6.781284438078129
 10
3.140068293630766
 20
6.771101706045215
 10
3.136437691089749
 20
6.762734227442453
 10
3.130681493550997
 20
6.757191422076897
 10
3.126988770039857
 20
6.755641238157387
  0
LWPOLYLINE
  5
7E
330
1F
100
AcDbEntity
  8
0
  6
Continuous
 62
     7
370
    15
100
AcDbPolyline
 90
       19
 70
   128
 43
0.0
 10
3.093305851854336
 20
6.767799258404647
 10
3.08918440031233
 20
6.777857556982574
 10
3.087559299140662
 20
6.788627590280938
 10
3.08862624495139
 20
6.798810350098318
 10
3.092256847492408
 20
6.80717782870108
 10
3.09801304503116
 20
6.812720634066636
 10
3.105200617577656
 20
6.814770434826034
 10
3.112952567952882
 20
6.813079642635335
 10
3.120333970371099
 20
6.80785238691806
 10
3.126454389691272
 20
6.799719200822137
 10
3.130575841233279
 20
6.789661184851083
 10
3.132201046112743
 20
6.77889084116138
 10
3.131133996594218
 20
6.768708109128466
 10
3.127503394053201
 20
6.760340630525703
 10
3.12174719651445
 20
6.754797825160149
 10
3.11455972767575
 20
6.752747996616285
 10
3.106807777300523
 20
6.754438788806985
 10
3.099426374882307
 20
6.75966604452426
 10
3.093305851854336
 20
6.767799258404647
  0
LWPOLYLINE
  5
7F
330
1F
100
AcDbEntity
  8
0
  6
Continuous
 62
     7
370
    15
100
AcDbPolyline
 90
       11
 70
   128
 43
0.0
 10
3.453144915868798
 20
7.05435310745719
 10
3.456639713050255
 20
7.054852738189311
 10
3.464391715279381
 20
7.053161932106378
 10
3.471773065843697
 20
7.047934690281337
 10
3.477893588871669
 20
7.039801476400949
 10
3.482014988559777
 20
7.029743474322127
 10
3.483640141585343
 20
7.01897342713153
 10
3.482573143920716
 20
7.008790398599511
 10
3.478942541379699
 20
7.000422919996749
 10
3.473186395694845
 20
6.994880100738961
 10
3.469493672183705
 20
6.99332991681945
  0
LWPOLYLINE
  5
80
330
1F
100
AcDbEntity
  8
0
  6
Continuous
 62
     7
370
    15
100
AcDbPolyline
 90
       19
 70
   128
 43
0.0
 10
3.435810702144287
 20
7.005487950958943
 10
3.431689302456178
 20
7.015546235644638
 10
3.430064097576714
 20
7.026316296727467
 10
3.431131147095239
 20
7.036499028760381
 10
3.434761697782358
 20
7.044866521255376
 10
3.44051789532111
 20
7.050409326620932
 10
3.447705416013707
 20
7.052459141272563
 10
3.455457418242833
 20
7.050768335189631
 10
3.46283876880715
 20
7.045541093364588
 10
3.468959291835121
 20
7.0374078794842
 10
3.47308069152323
 20
7.027349877405379
 10
3.474705844548795
 20
7.016579830214782
 10
3.473638846884169
 20
7.006396801682762
 10
3.470008244343151
 20
6.998029323079999
 10
3.464252098658298
 20
6.992486503822212
 10
3.457064526111802
 20
6.990436703062814
 10
3.449312575736575
 20
6.992127495253513
 10
3.441931173318359
 20
6.997354750970788
 10
3.435810702144287
 20
7.005487950958943
  0
LWPOLYLINE
  5
81
330
1F
100
AcDbEntity
  8
0
  6
Continuous
 62
     7
370
    15
100
AcDbPolyline
 90
       11
 70
   128
 43
0.0
 10
3.265319621860607
 20
6.77532042122086
 10
3.268814470895962
 20
6.775820038060748
 10
3.27656642127119
 20
6.774129245870049
 10
3.283947823689406
 20
6.768901990152774
 10
3.290068346717376
 20
6.760768776272387
 10
3.294189694551587
 20
6.750710505478924
 10
3.29581489943105
 20
6.739940444396095
 10
3.294747849912526
 20
6.729757712363181
 10
3.291117351079305
 20
6.721390205975954
 10
3.285361153540554
 20
6.715847400610398
 10
3.281668430029414
 20
6.714297216690888
  0
LWPOLYLINE
  5
82
330
1F
100
AcDbEntity
  8
0
  6
Continuous
 62
     7
370
    15
100
AcDbPolyline
 90
       19
 70
   128
 43
0.0
 10
3.247985408136096
 20
6.726455264722613
 10
3.243864060301886
 20
6.736513252909202
 10
3.242238855422422
 20
6.747283313992032
 10
3.243305904940947
 20
6.757466328631818
 10
3.246936507481965
 20
6.765833807234581
 10
3.252692705020716
 20
6.771376612600136
 10
3.259880173859416
 20
6.773426441144
 10
3.267632124234642
 20
6.771735648953299
 10
3.275013526652858
 20
6.766508393236025
 10
3.281134049680829
 20
6.758375179355638
 10
3.28525539751504
 20
6.748316908562175
 10
3.286880602394504
 20
6.737546847479346
 10
3.285813552875978
 20
6.727364115446433
 10
3.282183054042757
 20
6.718996609059205
 10
3.276426856504006
 20
6.713453803693649
 10
3.26923928395751
 20
6.711404002934251
 10
3.261487333582283
 20
6.71309479512495
 10
3.254105931164067
 20
6.718322050842225
 10
3.247985408136096
 20
6.726455264722613
  0
LWPOLYLINE
  5
83
330
1F
100
AcDbEntity
  8
0
  6
Continuous
 62
     7
370
    15
100
AcDbPolyline
 90
        9
 70
   128
 43
0.0
 10
3.202934300564151
 20
7.122062727017778
 10
3.206608045548525
 20
7.118975329786808
 10
3.212728568576497
 20
7.11084211590642
 10
3.216849916410707
 20
7.100784127719831
 10
3.218475121290171
 20
7.090014066637002
 10
3.217408071771646
 20
7.079831051997214
 10
3.213777469230629
 20
7.071463573394452
 10
3.208021375399674
 20
7.065920740244433
 10
3.204328651888534
 20
7.064370556324922
  0
ARC
  5
84
330
1F
100
AcDbEntity
  8
0
  6
Continuous
 62
     7
370
    15
100
AcDbCircle
 10
3.205775914272148
 20
7.097506880382478
 30
0.0
 40
0.0409172938791661
100
AcDbArc
 50
158.2957655082994
 51
210.8438098207963
  0
LWPOLYLINE
  5
85
330
1F
100
AcDbEntity
  8
0
  6
Continuous
 62
     7
370
    15
100
AcDbPolyline
 90
       13
 70
   128
 43
0.0
 10
3.194000003527603
 20
7.119669130101029
 10
3.197673748511978
 20
7.116581732870059
 10
3.203794271539949
 20
7.108448518989672
 10
3.207915619374159
 20
7.098390530803082
 10
3.209540824253624
 20
7.087620469720253
 10
3.208473774735098
 20
7.077437455080465
 10
3.204843172194081
 20
7.069069976477702
 10
3.199087078363126
 20
7.063527143327683
 10
3.19189950581663
 20
7.061477342568284
 10
3.184147555441403
 20
7.063168134758984
 10
3.176766153023187
 20
7.068395390476259
 10
3.170645629995216
 20
7.076528604356646
 10
3.170645629995216
 20
7.076528604356646
  0
LWPOLYLINE
  5
86
330
1F
100
AcDbEntity
  8
0
  6
Continuous
 62
     7
370
    15
100
AcDbPolyline
 90
        9
 70
   128
 43
0.0
 10
5.589419742490192
 20
6.482696902007374
 10
5.593093383766769
 20
6.47960953256087
 10
5.599213906794741
 20
6.471476318680482
 10
5.603335358336747
 20
6.461418302709426
 10
5.604960459508414
 20
6.450648269411062
 10
5.603893513697686
 20
6.440465226986811
 10
5.600262911156669
 20
6.432097748384048
 10
5.594506713617917
 20
6.426554943018492
 10
5.590813990106777
 20
6.425004759098982
  0
ARC
  5
87
330
1F
100
AcDbEntity
  8
0
  6
Continuous
 62
     7
370
    15
100
AcDbCircle
 10
5.592260847716405
 20
6.458141135554899
 30
0.0
 40
0.0409168984239361
100
AcDbArc
 50
158.2956240670745
 51
210.844271275505
  0
LWPOLYLINE
  5
88
330
1F
100
AcDbEntity
  8
0
  6
Continuous
 62
     7
370
    15
100
AcDbPolyline
 90
       13
 70
   128
 43
0.0
 10
5.580485445453644
 20
6.480303305090624
 10
5.584159086730221
 20
6.47721593564412
 10
5.590279609758193
 20
6.469082721763732
 10
5.594401061300199
 20
6.459024705792678
 10
5.596026162471867
 20
6.448254672494313
 10
5.594959216661139
 20
6.438071630070062
 10
5.591328614120121
 20
6.4297041514673
 10
5.585572416581369
 20
6.424161346101745
 10
5.578384844034873
 20
6.422111545342345
 10
5.570632893659647
 20
6.423802337533046
 10
5.56325149124143
 20
6.42902959325032
 10
5.557131071921257
 20
6.437162779346242
 10
5.557131071921257
 20
6.437162779346242
  0
LWPOLYLINE
  5
89
330
1F
100
AcDbEntity
  8
0
  6
Continuous
 62
     7
370
    15
100
AcDbPolyline
 90
       11
 70
   128
 43
0.0
 10
5.651805063786647
 20
6.135954596210456
 10
5.655299912822003
 20
6.136454213050344
 10
5.66305186319723
 20
6.134763420859645
 10
5.670433265615447
 20
6.12953616514237
 10
5.67655368493562
 20
6.121402979046448
 10
5.680675136477627
 20
6.111344680468519
 10
5.682300341357092
 20
6.100574619385691
 10
5.681233291838567
 20
6.090391887352777
 10
5.677602689297549
 20
6.082024408750014
 10
5.671846491758797
 20
6.076481603384459
 10
5.668153768247657
 20
6.074931419464949
  0
LWPOLYLINE
  5
8A
330
1F
100
AcDbEntity
  8
0
  6
Continuous
 62
     7
370
    15
100
AcDbPolyline
 90
       19
 70
   128
 43
0.0
 10
5.634470850062136
 20
6.087089439712208
 10
5.63034939852013
 20
6.097147455683263
 10
5.628724297348463
 20
6.107917488981628
 10
5.629791243159191
 20
6.11810053140588
 10
5.633421845700208
 20
6.126468010008641
 10
5.639178043238959
 20
6.132010815374197
 10
5.646365615785456
 20
6.134060616133596
 10
5.654117566160683
 20
6.132369823942895
 10
5.661498968578898
 20
6.127142568225621
 10
5.667619387899073
 20
6.119009382129698
 10
5.671740839441079
 20
6.108951083551771
 10
5.673366044320543
 20
6.098181022468941
 10
5.672298994802019
 20
6.087998290436027
 10
5.668668392261
 20
6.079630811833265
 10
5.66291219472225
 20
6.074088006467711
 10
5.655724725883549
 20
6.072038177923847
 10
5.647972671800526
 20
6.073728997899012
 10
5.640591373090107
 20
6.078956225831821
 10
5.634470850062136
 20
6.087089439712208
  0
LWPOLYLINE
  5
8B
330
1F
100
AcDbEntity
  8
0
  6
Continuous
 62
     7
370
    15
100
AcDbPolyline
 90
       11
 70
   128
 43
0.0
 10
5.839630254087041
 20
6.414987310231251
 10
5.843125103122397
 20
6.41548692707114
 10
5.850877053497623
 20
6.41379613488044
 10
5.858258455915841
 20
6.408568879163166
 10
5.864378978943811
 20
6.400435665282777
 10
5.868500326778021
 20
6.390377677096187
 10
5.870125531657484
 20
6.379607616013358
 10
5.869058482138959
 20
6.369424601373571
 10
5.865427983305739
 20
6.361057094986344
 10
5.859671785766987
 20
6.355514289620789
 10
5.855979062255848
 20
6.353964105701279
  0
LWPOLYLINE
  5
8C
330
1F
100
AcDbEntity
  8
0
  6
Continuous
 62
     7
370
    15
100
AcDbPolyline
 90
       19
 70
   128
 43
0.0
 10
5.82229604036253
 20
6.366122153733003
 10
5.818174692528319
 20
6.376180424526466
 10
5.816549487648856
 20
6.386950485609296
 10
5.817616537167381
 20
6.39713321764221
 10
5.821247139708398
 20
6.405500696244972
 10
5.827003233539353
 20
6.411043529394992
 10
5.834190806085849
 20
6.413093330154391
 10
5.841942756461077
 20
6.411402537963691
 10
5.849324158879293
 20
6.406175282246416
 10
5.855444681907263
 20
6.398042068366029
 10
5.859566029741473
 20
6.387984080179439
 10
5.861191234620937
 20
6.37721401909661
 10
5.860124185102412
 20
6.367031004456823
 10
5.856493686269192
 20
6.358663498069596
 10
5.850737488730441
 20
6.353120692704041
 10
5.843549916183944
 20
6.351070891944641
 10
5.835797965808717
 20
6.352761684135342
 10
5.828416563390502
 20
6.357988939852616
 10
5.82229604036253
 20
6.366122153733003
  0
LWPOLYLINE
  5
8D
330
1F
100
AcDbEntity
  8
0
  6
Continuous
 62
     7
370
    15
100
AcDbPolyline
 90
       11
 70
   128
 43
0.0
 10
5.49712540379709
 20
6.177298617676955
 10
5.500620252832447
 20
6.177798234516844
 10
5.508372203207674
 20
6.176107442326144
 10
5.51575360562589
 20
6.17088018660887
 10
5.52187412865386
 20
6.162746972728482
 10
5.525995476488071
 20
6.152688984541892
 10
5.527620681367535
 20
6.14191864085219
 10
5.52655363184901
 20
6.131735908819275
 10
5.522923133015789
 20
6.123368402432049
 10
5.517166935477037
 20
6.117825597066494
 10
5.513474211965896
 20
6.116275413146983
  0
LWPOLYLINE
  5
8E
330
1F
100
AcDbEntity
  8
0
  6
Continuous
 62
     7
370
    15
100
AcDbPolyline
 90
       19
 70
   128
 43
0.0
 10
5.479791190072579
 20
6.128433461178708
 10
5.47566984223837
 20
6.13849173197217
 10
5.474044637358906
 20
6.149261793055
 10
5.475111686877431
 20
6.159444525087914
 10
5.478742289418448
 20
6.167812003690676
 10
5.484498486957199
 20
6.173354809056232
 10
5.491685955795899
 20
6.175404637600095
 10
5.499437906171126
 20
6.173713845409395
 10
5.506819308589342
 20
6.168486589692121
 10
5.512939831617313
 20
6.160353375811733
 10
5.517061179451523
 20
6.150295387625143
 10
5.518686384330987
 20
6.139525043935441
 10
5.517619334812462
 20
6.129342311902528
 10
5.513988835979241
 20
6.120974805515301
 10
5.50823263844049
 20
6.115432000149745
 10
5.501045065893993
 20
6.113382199390346
 10
5.493293115518767
 20
6.115072991581047
 10
5.485911713100551
 20
6.12030024729832
 10
5.479791190072579
 20
6.128433461178708
  0
LWPOLYLINE
  5
8F
330
1F
100
AcDbEntity
  8
0
  6
Continuous
 62
     7
370
    15
100
AcDbPolyline
 90
        6
 70
   128
 43
0.0
 10
5.807948922301552
 20
7.002936026064969
 10
5.812448907300901
 20
7.012750674947843
 10
5.818838552060876
 20
7.020455492742675
 10
5.826347178018489
 20
7.025120815157323
 10
5.834069143877042
 20
7.026184382506158
 10
5.836290279682334
 20
7.025769129765572
  0
ARC
  5
90
330
1F
100
AcDbEntity
  8
0
  6
Continuous
 62
     7
370
    15
100
AcDbCircle
 10
5.833837063516453
 20
6.990087489497789
 30
0.0
 40
0.0289012239789396
100
AcDbArc
 50
153.6043475599163
 51
241.262686981455
  0
LWPOLYLINE
  5
91
330
1F
100
AcDbEntity
  8
0
  6
Continuous
 62
     7
370
    15
100
AcDbPolyline
 90
       19
 70
   128
 43
0.0
 10
5.816883245265048
 20
7.000542422202104
 10
5.821383230264399
 20
7.010357071084978
 10
5.827772875024372
 20
7.01806188887981
 10
5.835281500981984
 20
7.022727211294458
 10
5.843003466840539
 20
7.023790778643292
 10
5.85000738584285
 20
7.021124017862092
 10
5.855448480205311
 20
7.015048578372755
 10
5.858670474027991
 20
7.006297500311773
 10
5.859284735306853
 20
6.995925918262683
 10
5.857217190748228
 20
6.985185152885638
 10
5.852717218712352
 20
6.975370507475823
 10
5.846327573952378
 20
6.967665972287865
 10
5.838818922067816
 20
6.963000360320227
 10
5.831096969172737
 20
6.961937079051324
 10
5.82409303720695
 20
6.964603836359467
 10
5.818651955807964
 20
6.97067899671499
 10
5.815429961985286
 20
6.979430357382844
 10
5.814815700706422
 20
6.989801656825061
 10
5.816883245265048
 20
7.000542422202104
  0
LINE
  5
92
330
1F
100
AcDbEntity
  8
0
  6
Continuous
 62
     7
370
    15
100
AcDbLine
 10
6.210550470234073
 20
5.673328741704406
 30
0.0
 11
6.343133006308608
 21
5.690734464943367
 31
0.0
  0
LINE
  5
93
330
1F
100
AcDbEntity
  8
0
  6
Continuous
 62
     7
370
    15
100
AcDbLine
 10
6.210550470234073
 20
5.063887161658334
 30
0.0
 11
6.210550470234073
 21
5.673328741704406
 31
0.0
  0
LINE
  5
94
330
1F
100
AcDbEntity
  8
0
  6
Continuous
 62
     7
370
    15
100
AcDbLine
 10
2.233074802829204
 20
6.129496851486032
 30
0.0
 11
3.926583166779769
 21
5.675787244355384
 31
0.0
  0
LINE
  5
95
330
1F
100
AcDbEntity
  8
0
  6
Continuous
 62
     7
370
    15
100
AcDbLine
 10
4.509359666058908
 20
5.519654979430455
 30
0.0
 11
6.210550470234073
 21
5.063887161658334
 31
0.0
  0
LINE
  5
96
330
1F
100
AcDbEntity
  8
0
  6
Continuous
 62
     7
370
    15
100
AcDbLine
 10
2.233074802829204
 20
6.738938431532101
 30
0.0
 11
2.233074802829204
 21
6.129496851486032
 31
0.0
  0
LINE
  5
97
330
1F
100
AcDbEntity
  8
0
  6
Continuous
 62
     7
370
    15
100
AcDbLine
 10
2.101218013914805
 20
6.826900700439011
 30
0.0
 11
2.233074802829204
 21
6.738938431532101
 31
0.0
  0
LINE
  5
98
330
1F
100
AcDbEntity
  8
0
  6
Continuous
 62
     7
370
    15
100
AcDbLine
 10
3.337929131839935
 20
7.158229284705882
 30
0.0
 11
3.37171573189504
 21
7.149177481146128
 31
0.0
  0
LINE
  5
99
330
1F
100
AcDbEntity
  8
0
  6
Continuous
 62
     7
370
    15
100
AcDbLine
 10
3.674096657953263
 20
7.068166289181514
 30
0.0
 11
4.177618463241574
 21
6.933267232689022
 31
0.0
  0
LINE
  5
9A
330
1F
100
AcDbEntity
  8
0
  6
Continuous
 62
     7
370
    15
100
AcDbLine
 10
5.724414573765975
 20
6.518863459695478
 30
0.0
 11
5.758201121967181
 21
6.509811670027956
 31
0.0
  0
LINE
  5
9B
330
1F
100
AcDbEntity
  8
0
  6
Continuous
 62
     7
370
    15
100
AcDbLine
 10
6.060581944317608
 20
6.428800505847807
 30
0.0
 11
6.254744718064116
 21
6.37678215290007
 31
0.0
  0
LINE
  5
9C
330
1F
100
AcDbEntity
  8
0
  6
Continuous
 62
     7
370
    15
100
AcDbLine
 10
6.254744718064116
 20
5.780267435129497
 30
0.0
 11
6.254744718064116
 21
6.37678215290007
 31
0.0
  0
LINE
  5
9D
330
1F
100
AcDbEntity
  8
0
  6
Continuous
 62
     7
370
    15
100
AcDbLine
 10
6.343133006308608
 20
5.690734464943367
 30
0.0
 11
6.254744718064116
 21
5.780267435129497
 31
0.0
  0
LINE
  5
9E
330
1F
100
AcDbEntity
  8
0
  6
Continuous
 62
     7
370
    15
100
AcDbLine
 10
3.956647564382571
 20
7.323990790777546
 30
0.0
 11
4.504659939843437
 21
7.177172218831987
 31
0.0
  0
LINE
  5
9F
330
1F
100
AcDbEntity
  8
0
  6
Continuous
 62
     7
370
    15
100
AcDbLine
 10
6.34313300630861
 20
6.684624965767143
 30
0.0
 11
6.873463150606752
 21
6.542543658971736
 31
0.0
  0
LINE
  5
A0
330
1F
100
AcDbEntity
  8
0
  6
Continuous
 62
     7
370
    15
100
AcDbLine
 10
6.254744718064116
 20
6.37678215290007
 30
0.0
 11
6.873463150606752
 21
6.542543658971736
 31
0.0
  0
LINE
  5
A1
330
1F
100
AcDbEntity
  8
0
  6
Continuous
 62
     7
370
    15
100
AcDbLine
 10
6.254744718064116
 20
5.780267435129497
 30
0.0
 11
6.873463150606752
 21
5.946028941201161
 31
0.0
  0
LINE
  5
A2
330
1F
100
AcDbEntity
  8
0
  6
Continuous
 62
     7
370
    15
100
AcDbLine
 10
6.873463150606752
 20
5.946028941201161
 30
0.0
 11
6.873463150606752
 21
6.542543658971736
 31
0.0
  0
LINE
  5
A3
330
1F
100
AcDbEntity
  8
0
  6
Continuous
 62
     7
370
    15
100
AcDbLine
 10
6.343133006308608
 20
5.690734464943367
 30
0.0
 11
6.961851438851243
 21
5.856495971015031
 31
0.0
  0
LINE
  5
A4
330
1F
100
AcDbEntity
  8
0
  6
Continuous
 62
     7
370
    15
100
AcDbLine
 10
6.961851438851243
 20
5.856495971015031
 30
0.0
 11
6.873463150606752
 21
5.946028941201161
 31
0.0
  0
LINE
  5
A5
330
1F
100
AcDbEntity
  8
0
  6
Continuous
 62
     7
370
    15
100
AcDbLine
 10
6.210550470234073
 20
5.063887161658334
 30
0.0
 11
6.829268902776708
 21
5.229648667729999
 31
0.0
  0
LINE
  5
A6
330
1F
100
AcDbEntity
  8
0
  6
Continuous
 62
     7
370
    15
100
AcDbLine
 10
6.829268902776708
 20
5.229648667729999
 30
0.0
 11
6.829268902776708
 21
5.820975429831817
 31
0.0
  0
LINE
  5
A7
330
1F
100
AcDbEntity
  8
0
  6
Continuous
 62
     7
370
    15
100
AcDbLine
 10
3.300641978820666
 20
7.14823953118089
 30
0.0
 11
3.355253259981234
 21
7.133608565401388
 31
0.0
  0
LWPOLYLINE
  5
A8
330
1F
100
AcDbEntity
  8
0
  6
Continuous
 62
     7
370
    15
100
AcDbPolyline
 90
        9
 70
   128
 43
0.0
 10
3.355253259981234
 20
7.133608565401388
 10
3.361595406570395
 20
7.133628249238406
 10
3.366972033573837
 20
7.137082825087444
 10
3.370564523499628
 20
7.143446092691205
 10
3.37182607699055
 20
7.151749378920288
 10
3.370564523499628
 20
7.16072863339485
 10
3.366972033573837
 20
7.169016553901415
 10
3.361595406570395
 20
7.175352045342425
 10
3.355253259981234
 20
7.17876999150703
  0
LINE
  5
A9
330
1F
100
AcDbEntity
  8
0
  6
Continuous
 62
     7
370
    15
100
AcDbLine
 10
3.355253259981234
 20
7.17876999150703
 30
0.0
 11
3.351496756175226
 21
7.179776400393037
 31
0.0
  0
LINE
  5
AA
330
1F
100
AcDbEntity
  8
0
  6
Continuous
 62
     7
370
    15
100
AcDbLine
 10
3.351496756175226
 20
7.649714608479628
 30
0.0
 11
3.664904258138095
 21
7.138726898773121
 31
0.0
  0
LINE
  5
AB
330
1F
100
AcDbEntity
  8
0
  6
Continuous
 62
     7
370
    15
100
AcDbLine
 10
3.664904258138095
 20
7.053569817591076
 30
0.0
 11
3.664904258138095
 21
7.138726898773121
 31
0.0
  0
LINE
  5
AC
330
1F
100
AcDbEntity
  8
0
  6
Continuous
 62
     7
370
    15
100
AcDbLine
 10
3.664904258138095
 20
7.053569817591076
 30
0.0
 11
3.227404258863841
 21
6.574680486493273
 31
0.0
  0
LINE
  5
AD
330
1F
100
AcDbEntity
  8
0
  6
Continuous
 62
     7
370
    15
100
AcDbLine
 10
3.164904236744419
 20
6.591424933160965
 30
0.0
 11
3.227404258863841
 21
6.574680486493273
 31
0.0
  0
LINE
  5
AE
330
1F
100
AcDbEntity
  8
0
  6
Continuous
 62
     7
370
    15
100
AcDbLine
 10
3.164904236744419
 20
6.591424933160965
 30
0.0
 11
2.890743861447491
 21
7.038423314001605
 31
0.0
  0
LWPOLYLINE
  5
AF
330
1F
100
AcDbEntity
  8
0
  6
Continuous
 62
     7
370
    15
100
AcDbPolyline
 90
        9
 70
   128
 43
0.0
 10
3.618606919902165
 20
7.088042439485965
 10
3.623362077934885
 20
7.082441768871951
 10
3.628970543717476
 20
7.079421317390582
 10
3.634578387253287
 20
7.079440752140619
 10
3.63933193781516
 20
7.082497325915637
 10
3.642507418691094
 20
7.08812562466146
 10
3.643621551549245
 20
7.095468543391112
 10
3.642504566726689
 20
7.103408637991695
 10
3.639326545009741
 20
7.110736849445228
  0
LINE
  5
B0
330
1F
100
AcDbEntity
  8
0
  6
Continuous
 62
     7
370
    15
100
AcDbLine
 10
3.639326545009741
 20
7.110736849445228
 30
0.0
 11
3.397076592020844
 21
7.505537161357794
 31
0.0
  0
SPLINE
  5
B1
330
1F
100
AcDbEntity
  8
0
  6
Continuous
 62
     7
370
    15
100
AcDbSpline
210
0.0
220
0.0
230
1.0
 70
     8
 71
     3
 72
    15
 73
    11
 74
     0
 42
0.0000000001
 43
0.0000000001
 40
0.0
 40
0.0
 40
0.0
 40
0.0
 40
0.1250003101226637
 40
0.249999720506793
 40
0.3750003956814432
 40
0.5000007750614419
 40
0.6249976313771657
 40
0.7499970417612952
 40
0.8749999379660007
 40
0.9999999999999998
 40
0.9999999999999998
 40
0.9999999999999998
 40
0.9999999999999998
 10
3.39709914846659
 20
7.50556192238583
 30
0.0
 10
3.395585168281365
 20
7.507604528571608
 30
0.0
 10
3.392557218808381
 20
7.511689726240708
 30
0.0
 10
3.386704874112025
 20
7.514691825347462
 30
0.0
 10
3.380968800643927
 20
7.514698354999763
 30
0.0
 10
3.376081528443549
 20
7.511553283916569
 30
0.0
 10
3.372814779955968
 20
7.505767240545247
 30
0.0
 10
3.371694670437623
 20
7.498251075925728
 30
0.0
 10
3.372750281724981
 20
7.489995060610593
 30
0.0
 10
3.375154713033892
 20
7.485226845712338
 30
0.0
 10
3.376356915059369
 20
7.482842765290762
 30
0.0
  0
LINE
  5
B2
330
1F
100
AcDbEntity
  8
0
  6
Continuous
 62
     7
370
    15
100
AcDbLine
 10
3.376356915059369
 20
7.482842765290762
 30
0.0
 11
3.618606919902165
 21
7.088042439485965
 31
0.0
  0
LWPOLYLINE
  5
B3
330
1F
100
AcDbEntity
  8
0
  6
Continuous
 62
     7
370
    15
100
AcDbPolyline
 90
       22
 70
   128
 43
0.0
 10
3.168488689315979
 20
6.943253517170042
 10
3.169717834120485
 20
6.954035187506424
 10
3.17329585680866
 20
6.963199856477598
 10
3.178905100399725
 20
6.969933938043682
 10
3.186046834100154
 20
6.973638530681683
 10
3.194086781026352
 20
6.973985045654909
 10
3.20231039446021
 20
6.970942223710398
 10
3.209987052975154
 20
6.964780414617494
 10
3.216434566685593
 20
6.956047230058898
 10
3.22108005372348
 20
6.945519016966285
 10
3.223510757058613
 20
6.934130721757949
 10
3.223510757058613
 20
6.922894555099412
 10
3.22108005372348
 20
6.91280868446566
 10
3.216434566685593
 20
6.904769343403677
 10
3.209987052975154
 20
6.899491161812129
 10
3.20231039446021
 20
6.897442676034342
 10
3.194086781026352
 20
6.898806247940245
 10
3.186046834100154
 20
6.903460461582497
 10
3.178905100399725
 20
6.910992035603033
 10
3.17329585680866
 20
6.920731673870433
 10
3.169717834120485
 20
6.931813526485589
 10
3.168488689315979
 20
6.943253517170042
  0
LWPOLYLINE
  5
B4
330
1F
100
AcDbEntity
  8
0
  6
Continuous
 62
     7
370
    15
100
AcDbPolyline
 90
       17
 70
   128
 43
0.0
 10
3.507524928643097
 20
7.244758583321853
 10
3.506421529541887
 20
7.252612516950662
 10
3.503279235160845
 20
7.259861917972199
 10
3.498576501419272
 20
7.265403043832697
 10
3.493029223236635
 20
7.268392689529285
 10
3.487481996907897
 20
7.268375384206277
 10
3.482779263166325
 20
7.265354087032484
 10
3.479636968785282
 20
7.259788396796746
 10
3.478533569684072
 20
7.252525688795605
 10
3.479636968785282
 20
7.244671755166796
 10
3.482779263166325
 20
7.23742235414526
 10
3.487481996907897
 20
7.231881228284762
 10
3.493029223236635
 20
7.228891596480407
 10
3.498576501419272
 20
7.228908887911182
 10
3.503279235160845
 20
7.231930185084975
 10
3.506421529541887
 20
7.237495875320713
 10
3.507524928643097
 20
7.244758583321853
  0
LWPOLYLINE
  5
B5
330
1F
100
AcDbEntity
  8
0
  6
Continuous
 62
     7
370
    15
100
AcDbPolyline
 90
        9
 70
   128
 43
0.0
 10
3.573295324272279
 20
7.017152300089854
 10
3.578050793428388
 20
7.01155211133619
 10
3.583659311064877
 20
7.008532493783207
 10
3.589267102746791
 20
7.008552507639222
 10
3.594020342185274
 20
7.011609729981381
 10
3.59719546008392
 20
7.017238408579704
 10
3.59830902254919
 20
7.024581762730786
 10
3.59719157104155
 20
7.032521982361461
 10
3.594013134493415
 20
7.039849739739108
  0
LINE
  5
B6
330
1F
100
AcDbEntity
  8
0
  6
Continuous
 62
     7
370
    15
100
AcDbLine
 10
3.594013134493415
 20
7.039849739739108
 30
0.0
 11
3.41395062832519
 21
7.33325815473643
 31
0.0
  0
SPLINE
  5
B7
330
1F
100
AcDbEntity
  8
0
  6
Continuous
 62
     7
370
    15
100
AcDbSpline
210
0.0
220
0.0
230
1.0
 70
     8
 71
     3
 72
    15
 73
    11
 74
     0
 42
0.0000000001
 43
0.0000000001
 40
0.0
 40
0.0
 40
0.0
 40
0.0
 40
0.1250017784012017
 40
0.2499984496481489
 40
0.3750007641594065
 40
0.4999999412917956
 40
0.6250010959678286
 40
0.7500017666413257
 40
0.8750020803789325
 40
1.0
 40
1.0
 40
1.0
 40
1.0
 10
3.393210261658308
 20
7.310535954059139
 30
0.0
 10
3.392007934764725
 20
7.312919957672683
 30
0.0
 10
3.389603330100613
 20
7.317687867497365
 30
0.0
 10
3.388547040840229
 20
7.325943822366684
 30
0.0
 10
3.389666755406232
 20
7.333460151285206
 30
0.0
 10
3.392932925443959
 20
7.339246973074423
 30
0.0
 10
3.3978199834673
 20
7.342392676606422
 30
0.0
 10
3.403555985779364
 20
7.342386755321308
 30
0.0
 10
3.409408325463354
 20
7.339385184991735
 30
0.0
 10
3.412436537037835
 20
7.335300485115776
 30
0.0
 10
3.41395062832519
 20
7.33325815473643
 30
0.0
  0
LINE
  5
B8
330
1F
100
AcDbEntity
  8
0
  6
Continuous
 62
     7
370
    15
100
AcDbLine
 10
3.393232869957952
 20
7.310560701194942
 30
0.0
 11
3.573295324272279
 21
7.017152300089854
 31
0.0
  0
LINE
  5
B9
330
1F
100
AcDbEntity
  8
0
  6
Continuous
 62
     7
370
    15
100
AcDbLine
 10
3.664904258138095
 20
7.138726898773121
 30
0.0
 11
3.674096657953263
 21
7.141189644276781
 31
0.0
  0
LINE
  5
BA
330
1F
100
AcDbEntity
  8
0
  6
Continuous
 62
     7
370
    15
100
AcDbLine
 10
3.360689155990394
 20
7.652177353983288
 30
0.0
 11
3.351496756175226
 21
7.649714608479628
 31
0.0
  0
LINE
  5
BB
330
1F
100
AcDbEntity
  8
0
  6
Continuous
 62
     7
370
    15
100
AcDbLine
 10
3.360689155990394
 20
7.652177353983288
 30
0.0
 11
3.674096657953263
 21
7.141189644276781
 31
0.0
  0
LINE
  5
BC
330
1F
100
AcDbEntity
  8
0
  6
Continuous
 62
     7
370
    15
100
AcDbLine
 10
3.383514827176058
 20
7.494170749499954
 30
0.0
 11
3.397091448162697
 21
7.505549798286452
 31
0.0
  0
ARC
  5
BD
330
1F
100
AcDbEntity
  8
0
  6
Continuous
 62
     7
370
    15
100
AcDbCircle
 10
3.383586376247829
 20
7.494076691259018
 30
0.0
 40
0.0001181787728788
100
AcDbArc
 50
127.2598499755009
 51
129.2285586686491
  0
ARC
  5
BE
330
1F
100
AcDbEntity
  8
0
  6
Continuous
 62
     7
370
    15
100
AcDbCircle
 10
3.623770740892712
 20
7.097170989367392
 30
0.0
 40
0.0000110380629478
100
AcDbArc
 50
146.0337078440374
 51
159.238722124992
  0
LINE
  5
BF
330
1F
100
AcDbEntity
  8
0
  6
Continuous
 62
     7
370
    15
100
AcDbLine
 10
3.618606919902165
 20
7.088042439485965
 30
0.0
 11
3.623760419581367
 21
7.097174902085853
 31
0.0
  0
LINE
  5
C0
330
1F
100
AcDbEntity
  8
0
  6
Continuous
 62
     7
370
    15
100
AcDbLine
 10
3.674096657953263
 20
7.056032563094734
 30
0.0
 11
3.664904258138095
 21
7.053569817591076
 31
0.0
  0
LINE
  5
C1
330
1F
100
AcDbEntity
  8
0
  6
Continuous
 62
     7
370
    15
100
AcDbLine
 10
3.674096657953263
 20
7.141189644276781
 30
0.0
 11
3.674096657953263
 21
7.056032563094734
 31
0.0
  0
LINE
  5
C2
330
1F
100
AcDbEntity
  8
0
  6
Continuous
 62
     7
370
    15
100
AcDbLine
 10
3.227404258863841
 20
6.574680486493273
 30
0.0
 11
3.236596658679009
 21
6.577143231996934
 31
0.0
  0
LINE
  5
C3
330
1F
100
AcDbEntity
  8
0
  6
Continuous
 62
     7
370
    15
100
AcDbLine
 10
3.674096657953263
 20
7.056032563094734
 30
0.0
 11
3.236596658679009
 21
6.577143231996934
 31
0.0
  0
LWPOLYLINE
  5
C4
330
1F
100
AcDbEntity
  8
0
  6
Continuous
 62
     7
370
    15
100
AcDbPolyline
 90
        9
 70
   128
 43
0.0
 10
3.618629476347911
 20
7.088067200514002
 10
3.623379500844702
 20
7.082472709547836
 10
3.6289817960134
 20
7.079455324276492
 10
3.634583572643114
 20
7.079474971383358
 10
3.639331885961262
 20
7.082528143957015
 10
3.642503996333808
 20
7.088150280526121
 10
3.643616832844502
 20
7.095485350962271
 10
3.642501092515505
 20
7.10341663394309
 10
3.639326545009741
 20
7.110736849445228
  0
LINE
  5
C5
330
1F
100
AcDbEntity
  8
0
  6
Continuous
 62
     7
370
    15
100
AcDbLine
 10
3.618629476347911
 20
7.088067200514002
 30
0.0
 11
3.623760419581367
 21
7.097174902085853
 31
0.0
  0
LINE
  5
C6
330
1F
100
AcDbEntity
  8
0
  6
Continuous
 62
     7
370
    15
100
AcDbLine
 10
3.580429642865256
 20
7.02845721415002
 30
0.0
 11
3.594013134493415
 21
7.039849739739108
 31
0.0
  0
LINE
  5
C7
330
1F
100
AcDbEntity
  8
0
  6
Continuous
 62
     7
370
    15
100
AcDbLine
 10
3.580426453850512
 20
7.028454700656521
 30
0.0
 11
3.580429642865256
 21
7.02845721415002
 31
0.0
  0
LINE
  5
C8
330
1F
100
AcDbEntity
  8
0
  6
Continuous
 62
     7
370
    15
100
AcDbLine
 10
3.618606919902165
 20
7.088042439485965
 30
0.0
 11
3.618639354515531
 21
7.088051129077348
 31
0.0
  0
ARC
  5
C9
330
1F
100
AcDbEntity
  8
0
  6
Continuous
 62
     7
370
    15
100
AcDbCircle
 10
3.398356123381339
 20
7.319674924011218
 30
0.0
 40
0.0000085395123151
100
AcDbArc
 50
322.8701562850825
 51
340.0460277198781
  0
LINE
  5
CA
330
1F
100
AcDbEntity
  8
0
  6
Continuous
 62
     7
370
    15
100
AcDbLine
 10
3.39322724380999
 20
7.310550847474995
 30
0.0
 11
3.398362931675137
 21
7.319669769362236
 31
0.0
  0
LINE
  5
CB
330
1F
100
AcDbEntity
  8
0
  6
Continuous
 62
     7
370
    15
100
AcDbLine
 10
3.580429642865256
 20
7.02845721415002
 30
0.0
 11
3.593990578047669
 21
7.039824978711071
 31
0.0
  0
LWPOLYLINE
  5
CC
330
1F
100
AcDbEntity
  8
0
  6
Continuous
 62
     7
370
    15
100
AcDbPolyline
 90
        9
 70
   128
 43
0.0
 10
3.593990578047669
 20
7.039824978711071
 10
3.597165488530722
 20
7.032505231177051
 10
3.598281747398702
 20
7.024573809273908
 10
3.597169377573092
 20
7.017238331200792
 10
3.59399773388563
 20
7.01161578699472
 10
3.589249679836973
 20
7.008561979746157
 10
3.583648058768954
 20
7.008541725748846
 10
3.578045608038561
 20
7.011558304876271
 10
3.573295324272279
 20
7.017152300089854
  0
LINE
  5
CD
330
1F
100
AcDbEntity
  8
0
  6
Continuous
 62
     7
370
    15
100
AcDbLine
 10
3.593990578047669
 20
7.039824978711071
 30
0.0
 11
3.594023012661035
 21
7.039833668302455
 31
0.0
  0
ARC
  5
CE
330
1F
100
AcDbEntity
  8
0
  6
Continuous
 62
     7
370
    15
100
AcDbCircle
 10
3.505036887636267
 20
7.256335419662806
 30
0.0
 40
0.0173632444064011
100
AcDbArc
 50
135.5695678433519
 51
184.4492950277473
  0
ARC
  5
CF
330
1F
100
AcDbEntity
  8
0
  6
Continuous
 62
     7
370
    15
100
AcDbCircle
 10
3.510894836882818
 20
7.252987033585143
 30
0.0
 40
0.0232551504113877
100
AcDbArc
 50
175.0628637450903
 51
249.1376532805078
  0
LINE
  5
D0
330
1F
100
AcDbEntity
  8
0
  6
Continuous
 62
     7
370
    15
100
AcDbLine
 10
3.432436465276299
 20
7.817731213109282
 30
0.0
 11
3.351496756175226
 21
7.685765173112092
 31
0.0
  0
LINE
  5
D1
330
1F
100
AcDbEntity
  8
0
  6
Continuous
 62
     7
370
    15
100
AcDbLine
 10
3.441628865091467
 20
7.815268467605623
 30
0.0
 11
3.432436465276299
 21
7.817731213109282
 31
0.0
  0
LINE
  5
D2
330
1F
100
AcDbEntity
  8
0
  6
Continuous
 62
     7
370
    15
100
AcDbLine
 10
3.441628865091467
 20
7.815268467605623
 30
0.0
 11
3.360689155990394
 21
7.683302427608434
 31
0.0
  0
LINE
  5
D3
330
1F
100
AcDbEntity
  8
0
  6
Continuous
 62
     7
370
    15
100
AcDbLine
 10
3.360689155990394
 20
7.683302427608434
 30
0.0
 11
3.351496756175226
 21
7.685765173112092
 31
0.0
  0
LINE
  5
D4
330
1F
100
AcDbEntity
  8
0
  6
Continuous
 62
     7
370
    15
100
AcDbLine
 10
3.479743567436643
 20
7.825479817602496
 30
0.0
 11
3.441628865091467
 21
7.815268467605623
 31
0.0
  0
LINE
  5
D5
330
1F
100
AcDbEntity
  8
0
  6
Continuous
 62
     7
370
    15
100
AcDbLine
 10
3.479743567436643
 20
7.458067991711567
 30
0.0
 11
3.479743567436643
 21
7.825479817602496
 31
0.0
  0
LINE
  5
D6
330
1F
100
AcDbEntity
  8
0
  6
Continuous
 62
     7
370
    15
100
AcDbLine
 10
3.397084292324736
 20
7.505549595848512
 30
0.0
 11
3.383514801249108
 21
7.494170742553837
 31
0.0
  0
LWPOLYLINE
  5
D7
330
1F
100
AcDbEntity
  8
0
  6
Continuous
 62
     7
370
    15
100
AcDbPolyline
 90
        5
 70
   128
 43
0.0
 10
3.351496756175226
 20
7.179776400393037
 10
3.348480985305952
 20
7.180760901228507
 10
3.346240015384575
 20
7.181884129897001
 10
3.344860027590013
 20
7.183102909340134
 10
3.34439412031409
 20
7.184370367165695
  0
SPLINE
  5
D8
330
1F
100
AcDbEntity
  8
0
  6
Continuous
 62
     7
370
    15
100
AcDbSpline
210
0.0
220
0.0
230
1.0
 70
     8
 71
     3
 72
    11
 73
     7
 74
     0
 42
0.0000000001
 43
0.0000000001
 40
0.0
 40
0.0
 40
0.0
 40
0.0
 40
0.2499990808483244
 40
0.499998149490132
 40
0.7500009191516757
 40
1.0
 40
1.0
 40
1.0
 40
1.0
 10
3.351496756175226
 20
7.685765173112093
 30
0.0
 10
3.349507565280016
 20
7.682855605549495
 30
0.0
 10
3.345529183586721
 20
7.677036470566365
 30
0.0
 10
3.343826593820516
 20
7.667740038702606
 30
0.0
 10
3.345529154668883
 20
7.658443291965216
 30
0.0
 10
3.349507565456818
 20
7.65262415533107
 30
0.0
 10
3.351496756175226
 20
7.649714608479629
 30
0.0
  0
SPLINE
  5
D9
330
1F
100
AcDbEntity
  8
0
  6
Continuous
 62
     7
370
    15
100
AcDbSpline
210
0.0
220
0.0
230
1.0
 70
     8
 71
     3
 72
    11
 73
     7
 74
     0
 42
0.0000000001
 43
0.0000000001
 40
0.0
 40
0.0
 40
0.0
 40
0.0
 40
0.2499983457307801
 40
0.4999961265622614
 40
0.7500017699549408
 40
1.0
 40
1.0
 40
1.0
 40
1.0
 10
3.360689155990394
 20
7.683302427608434
 30
0.0
 10
3.359766339759219
 20
7.680752591214425
 30
0.0
 10
3.357920709382075
 20
7.675652924188051
 30
0.0
 10
3.357130810510595
 20
7.667739964610692
 30
0.0
 10
3.357920641510926
 20
7.659826913455167
 30
0.0
 10
3.359766326952306
 20
7.654727181936719
 30
0.0
 10
3.360689155990394
 20
7.652177353983288
 30
0.0
  0
LINE
  5
DA
330
1F
100
AcDbEntity
  8
0
  6
Continuous
 62
     7
370
    15
100
AcDbLine
 10
3.398362905748188
 20
7.31966976241612
 30
0.0
 11
3.393215939660168
 21
7.310545821671318
 31
0.0
  0
LINE
  5
DB
330
1F
100
AcDbEntity
  8
0
  6
Continuous
 62
     7
370
    15
100
AcDbLine
 10
3.470551167621475
 20
7.827942563106154
 30
0.0
 11
3.479743567436643
 21
7.825479817602496
 31
0.0
  0
LINE
  5
DC
330
1F
100
AcDbEntity
  8
0
  6
Continuous
 62
     7
370
    15
100
AcDbLine
 10
3.432436465276299
 20
7.817731213109282
 30
0.0
 11
3.470551167621475
 21
7.827942563106154
 31
0.0
  0
LINE
  5
DD
330
1F
100
AcDbEntity
  8
0
  6
Continuous
 62
     7
370
    15
100
AcDbLine
 10
3.364445659796402
 20
7.136071310905046
 30
0.0
 11
3.3656391291189
 21
7.135810349513044
 31
0.0
  0
LINE
  5
DE
330
1F
100
AcDbEntity
  8
0
  6
Continuous
 62
     7
370
    15
100
AcDbLine
 10
3.309834378635834
 20
7.15070227668455
 30
0.0
 11
3.364445659796402
 21
7.136071310905046
 31
0.0
  0
ARC
  5
DF
330
1F
100
AcDbEntity
  8
0
  6
Continuous
 62
     7
370
    15
100
AcDbCircle
 10
3.208610012054541
 20
6.948793663757033
 30
0.0
 40
0.0310816452368413
100
AcDbArc
 50
124.9869881643121
 51
185.6821784242515
  0
ARC
  5
E0
330
1F
100
AcDbEntity
  8
0
  6
Continuous
 62
     7
370
    15
100
AcDbCircle
 10
3.219726722194566
 20
6.941203160506497
 30
0.0
 40
0.0422871534969575
100
AcDbArc
 50
173.8734319104589
 51
257.6923377002528
  0
LINE
  5
E1
330
1F
100
AcDbEntity
  8
0
  6
Continuous
 62
     7
370
    15
100
AcDbLine
 10
5.687127317038909
 20
6.508873733954952
 30
0.0
 11
5.741738701907274
 21
6.494242740390984
 31
0.0
  0
LWPOLYLINE
  5
E2
330
1F
100
AcDbEntity
  8
0
  6
Continuous
 62
     7
370
    15
100
AcDbPolyline
 90
        9
 70
   128
 43
0.0
 10
5.741738701907274
 20
6.494242740390984
 10
5.748080744788639
 20
6.494262452012466
 10
5.75345737179208
 20
6.497717027861504
 10
5.757049913571769
 20
6.504080281573034
 10
5.758311415208794
 20
6.51238358169435
 10
5.757049913571769
 20
6.521362822276678
 10
5.75345737179208
 20
6.529650756675477
 10
5.748080744788639
 20
6.535986248116487
 10
5.741738701907274
 20
6.539404166496625
  0
LINE
  5
E3
330
1F
100
AcDbEntity
  8
0
  6
Continuous
 62
     7
370
    15
100
AcDbLine
 10
5.741738701907274
 20
6.539404166496625
 30
0.0
 11
5.737982198101266
 21
6.540410575382633
 31
0.0
  0
LINE
  5
E4
330
1F
100
AcDbEntity
  8
0
  6
Continuous
 62
     7
370
    15
100
AcDbLine
 10
5.737982198101266
 20
7.010348783469224
 30
0.0
 11
6.05138954450244
 21
6.499361115439414
 31
0.0
  0
LINE
  5
E5
330
1F
100
AcDbEntity
  8
0
  6
Continuous
 62
     7
370
    15
100
AcDbLine
 10
6.05138954450244
 20
6.414204034257369
 30
0.0
 11
6.05138954450244
 21
6.499361115439414
 31
0.0
  0
LINE
  5
E6
330
1F
100
AcDbEntity
  8
0
  6
Continuous
 62
     7
370
    15
100
AcDbLine
 10
6.05138954450244
 20
6.414204034257369
 30
0.0
 11
5.613889597082085
 21
5.935314689267335
 31
0.0
  0
LINE
  5
E7
330
1F
100
AcDbEntity
  8
0
  6
Continuous
 62
     7
370
    15
100
AcDbLine
 10
5.551389574962662
 20
5.952059135935027
 30
0.0
 11
5.613889597082085
 21
5.935314689267335
 31
0.0
  0
LINE
  5
E8
330
1F
100
AcDbEntity
  8
0
  6
Continuous
 62
     7
370
    15
100
AcDbLine
 10
5.551389574962662
 20
5.952059135935027
 30
0.0
 11
5.277229199665735
 21
6.399057516775666
 31
0.0
  0
LWPOLYLINE
  5
E9
330
1F
100
AcDbEntity
  8
0
  6
Continuous
 62
     7
370
    15
100
AcDbPolyline
 90
        9
 70
   128
 43
0.0
 10
6.005092309974306
 20
6.448676628367794
 10
6.009847519860925
 20
6.443075943861547
 10
6.015455830081821
 20
6.440055534056875
 10
6.021063725471531
 20
6.440074954914678
 10
6.025817276033404
 20
6.443131528689699
 10
6.028992808763236
 20
6.448759813543288
 10
6.03010683791359
 20
6.456102760057405
 10
6.028989904944933
 20
6.464042840765756
 10
6.025811883227984
 20
6.471371052219289
  0
LINE
  5
EA
330
1F
100
AcDbEntity
  8
0
  6
Continuous
 62
     7
370
    15
100
AcDbLine
 10
6.025811883227984
 20
6.471371052219289
 30
0.0
 11
5.783561982092986
 21
6.866171350239623
 31
0.0
  0
SPLINE
  5
EB
330
1F
100
AcDbEntity
  8
0
  6
Continuous
 62
     7
370
    15
100
AcDbSpline
210
0.0
220
0.0
230
1.0
 70
     8
 71
     3
 72
    15
 73
    11
 74
     0
 42
0.0000000001
 43
0.0000000001
 40
0.0
 40
0.0
 40
0.0
 40
0.0
 40
0.124999447120143
 40
0.249998936151988
 40
0.3749996899751494
 40
0.5000010893286865
 40
0.6249973954314158
 40
0.7499968844632608
 40
0.8749998593178752
 40
1.0
 40
1.0
 40
1.0
 40
1.0
 10
5.783584486684833
 20
6.866196125159892
 30
0.0
 10
5.782070524641492
 20
6.868238726877489
 30
0.0
 10
5.779042600047188
 20
6.872323930997561
 30
0.0
 10
5.773190260018893
 20
6.875326017077173
 30
0.0
 10
5.767454187116302
 20
6.87533252416951
 30
0.0
 10
5.762566864210739
 20
6.872187534392555
 30
0.0
 10
5.759300181475426
 20
6.866401399405097
 30
0.0
 10
5.758180056956095
 20
6.858885269452466
 30
0.0
 10
5.759235672685528
 20
6.85062924833121
 30
0.0
 10
5.761640103402166
 20
6.8458610342071
 30
0.0
 10
5.762842305131512
 20
6.84347695417259
 30
0.0
  0
LINE
  5
EC
330
1F
100
AcDbEntity
  8
0
  6
Continuous
 62
     7
370
    15
100
AcDbLine
 10
5.762842305131512
 20
6.84347695417259
 30
0.0
 11
6.005092309974306
 21
6.448676628367794
 31
0.0
  0
LWPOLYLINE
  5
ED
330
1F
100
AcDbEntity
  8
0
  6
Continuous
 62
     7
370
    15
100
AcDbPolyline
 90
       22
 70
   128
 43
0.0
 10
5.554974027534223
 20
6.303887719944102
 10
5.556203172338729
 20
6.314669390280486
 10
5.559781298734701
 20
6.323834031467194
 10
5.565390438617969
 20
6.330568140817743
 10
5.572532276026193
 20
6.334272705671279
 10
5.580572222952392
 20
6.334619220644506
 10
5.588795836386251
 20
6.331576398699994
 10
5.596472391193398
 20
6.325414617391555
 10
5.602919904903837
 20
6.316681432832959
 10
5.607565391941723
 20
6.306153219740346
 10
5.609996198984653
 20
6.294764896747546
 10
5.609996198984653
 20
6.283528730089008
 10
5.607565391941723
 20
6.27344288723972
 10
5.602919904903837
 20
6.265403546177738
 10
5.596472391193398
 20
6.26012536458619
 10
5.588795836386251
 20
6.258076851023937
 10
5.580572222952392
 20
6.259440422929841
 10
5.572532276026193
 20
6.264094636572093
 10
5.565390438617969
 20
6.271626238377094
 10
5.559781298734701
 20
6.281365848860028
 10
5.556203172338729
 20
6.29244772925965
 10
5.554974027534223
 20
6.303887719944102
  0
LWPOLYLINE
  5
EE
330
1F
100
AcDbEntity
  8
0
  6
Continuous
 62
     7
370
    15
100
AcDbPolyline
 90
       17
 70
   128
 43
0.0
 10
5.89401026686134
 20
6.605392786095915
 10
5.892906919614029
 20
6.613246705832491
 10
5.889764677086885
 20
6.620496092961795
 10
5.885061839637515
 20
6.626037246606759
 10
5.879514613308777
 20
6.629026878411114
 10
5.87396738698004
 20
6.629009573088104
 10
5.869264653238467
 20
6.625988275914312
 10
5.866122307003526
 20
6.620422599570806
 10
5.865018959756215
 20
6.613159877677433
 10
5.866122307003526
 20
6.605305957940856
 10
5.869264653238467
 20
6.598056543027087
 10
5.87396738698004
 20
6.592515417166589
 10
5.879514613308777
 20
6.589525785362235
 10
5.885061839637515
 20
6.589543090685244
 10
5.889764677086885
 20
6.592564360074571
 10
5.892906919614029
 20
6.598130064202542
 10
5.89401026686134
 20
6.605392786095915
  0
LWPOLYLINE
  5
EF
330
1F
100
AcDbEntity
  8
0
  6
Continuous
 62
     7
370
    15
100
AcDbPolyline
 90
        9
 70
   128
 43
0.0
 10
5.959780714344421
 20
6.377786488971682
 10
5.964536131646632
 20
6.372186314110251
 10
5.97014464928312
 20
6.369166696557268
 10
5.975752544672831
 20
6.369186682628818
 10
5.980505680403519
 20
6.372243932755443
 10
5.983680798302164
 20
6.377872611353764
 10
5.984794412621332
 20
6.385215951612614
 10
5.983676857405895
 20
6.393156199027754
 10
5.980498628273354
 20
6.400483900836471
  0
LINE
  5
F0
330
1F
100
AcDbEntity
  8
0
  6
Continuous
 62
     7
370
    15
100
AcDbLine
 10
5.980498628273354
 20
6.400483900836471
 30
0.0
 11
5.80043607025123
 21
6.693892329726025
 31
0.0
  0
SPLINE
  5
F1
330
1F
100
AcDbEntity
  8
0
  6
Continuous
 62
     7
370
    15
100
AcDbSpline
210
0.0
220
0.0
230
1.0
 70
     8
 71
     3
 72
    15
 73
    11
 74
     0
 42
0.0000000001
 43
0.0000000001
 40
0.0
 40
0.0
 40
0.0
 40
0.0
 40
0.1250016909646133
 40
0.2499982747785446
 40
0.3750002813379885
 40
0.5000006285744295
 40
0.6250016958143107
 40
0.7500000580501345
 40
0.8750002843521777
 40
1.0
 40
1.0
 40
1.0
 40
1.0
 10
5.77969565173045
 20
6.671170142940967
 30
0.0
 10
5.778493322820453
 20
6.673554147987116
 30
0.0
 10
5.776088714123593
 20
6.678322060676949
 30
0.0
 10
5.775032455729442
 20
6.68657798920318
 30
0.0
 10
5.776152056537863
 20
6.694094421217575
 30
0.0
 10
5.779418384228582
 20
6.699881102848376
 30
0.0
 10
5.784305386988617
 20
6.70302683685203
 30
0.0
 10
5.790041361842012
 20
6.703020958831591
 30
0.0
 10
5.795893682640953
 20
6.700019349965173
 30
0.0
 10
5.798921943109663
 20
6.695934667024594
 30
0.0
 10
5.80043607025123
 20
6.693892329726027
 30
0.0
  0
LINE
  5
F2
330
1F
100
AcDbEntity
  8
0
  6
Continuous
 62
     7
370
    15
100
AcDbLine
 10
5.779718260030094
 20
6.671194890076771
 30
0.0
 11
5.959780714344421
 21
6.377786488971682
 31
0.0
  0
LINE
  5
F3
330
1F
100
AcDbEntity
  8
0
  6
Continuous
 62
     7
370
    15
100
AcDbLine
 10
6.05138954450244
 20
6.499361115439414
 30
0.0
 11
6.060581944317608
 21
6.501823860943074
 31
0.0
  0
LINE
  5
F4
330
1F
100
AcDbEntity
  8
0
  6
Continuous
 62
     7
370
    15
100
AcDbLine
 10
5.747174597916434
 20
7.012811528972883
 30
0.0
 11
5.737982198101266
 21
7.010348783469224
 31
0.0
  0
LINE
  5
F5
330
1F
100
AcDbEntity
  8
0
  6
Continuous
 62
     7
370
    15
100
AcDbLine
 10
5.747174597916434
 20
7.012811528972883
 30
0.0
 11
6.060581944317608
 21
6.501823860943074
 31
0.0
  0
LINE
  5
F6
330
1F
100
AcDbEntity
  8
0
  6
Continuous
 62
     7
370
    15
100
AcDbLine
 10
5.770000217248199
 20
6.854804938381781
 30
0.0
 11
5.783576890088736
 21
6.866183973276048
 31
0.0
  0
ARC
  5
F7
330
1F
100
AcDbEntity
  8
0
  6
Continuous
 62
     7
370
    15
100
AcDbCircle
 10
5.770001632648877
 20
6.854799862790402
 30
0.0
 40
0.0000052692491808
100
AcDbArc
 50
105.5818826814177
 51
150.9065259611104
  0
ARC
  5
F8
330
1F
100
AcDbEntity
  8
0
  6
Continuous
 62
     7
370
    15
100
AcDbCircle
 10
6.010241609843816
 20
6.45781244613575
 30
0.0
 40
0.0000054246852986
100
AcDbArc
 50
321.6063465962158
 51
348.4410980789032
  0
LINE
  5
F9
330
1F
100
AcDbEntity
  8
0
  6
Continuous
 62
     7
370
    15
100
AcDbLine
 10
6.005092309974306
 20
6.448676628367794
 30
0.0
 11
6.010245861507407
 21
6.45780907707545
 31
0.0
  0
LINE
  5
FA
330
1F
100
AcDbEntity
  8
0
  6
Continuous
 62
     7
370
    15
100
AcDbLine
 10
6.060581944317608
 20
6.416666779761027
 30
0.0
 11
6.05138954450244
 21
6.414204034257369
 31
0.0
  0
LINE
  5
FB
330
1F
100
AcDbEntity
  8
0
  6
Continuous
 62
     7
370
    15
100
AcDbLine
 10
6.060581944317608
 20
6.501823860943074
 30
0.0
 11
6.060581944317608
 21
6.416666779761027
 31
0.0
  0
LINE
  5
FC
330
1F
100
AcDbEntity
  8
0
  6
Continuous
 62
     7
370
    15
100
AcDbLine
 10
5.613889597082085
 20
5.935314689267335
 30
0.0
 11
5.623081996897252
 21
5.937777434770993
 31
0.0
  0
LINE
  5
FD
330
1F
100
AcDbEntity
  8
0
  6
Continuous
 62
     7
370
    15
100
AcDbLine
 10
6.060581944317608
 20
6.416666779761027
 30
0.0
 11
5.623081996897252
 21
5.937777434770993
 31
0.0
  0
LWPOLYLINE
  5
FE
330
1F
100
AcDbEntity
  8
0
  6
Continuous
 62
     7
370
    15
100
AcDbPolyline
 90
        9
 70
   128
 43
0.0
 10
6.00511491827395
 20
6.448701375503598
 10
6.009864942770741
 20
6.443106884537432
 10
6.015467237939438
 20
6.440089499266087
 10
6.021068910861357
 20
6.440109174157417
 10
6.025817276033404
 20
6.443162332838841
 10
6.028989282698153
 20
6.448784497192415
 10
6.030102274770543
 20
6.456119525951867
 10
6.028986378879851
 20
6.464050850609383
 10
6.025811883227984
 20
6.471371052219289
  0
LINE
  5
FF
330
1F
100
AcDbEntity
  8
0
  6
Continuous
 62
     7
370
    15
100
AcDbLine
 10
6.00511491827395
 20
6.448701375503598
 30
0.0
 11
6.010245861507407
 21
6.45780907707545
 31
0.0
  0
LINE
  5
100
330
1F
100
AcDbEntity
  8
0
  6
Continuous
 62
     7
370
    15
100
AcDbLine
 10
5.966915084791295
 20
6.389091389139617
 30
0.0
 11
5.980498628273354
 21
6.400483900836471
 31
0.0
  0
LINE
  5
101
330
1F
100
AcDbEntity
  8
0
  6
Continuous
 62
     7
370
    15
100
AcDbLine
 10
5.966911792068756
 20
6.389088903430582
 30
0.0
 11
5.966915084791295
 21
6.389091389139617
 31
0.0
  0
LINE
  5
102
330
1F
100
AcDbEntity
  8
0
  6
Continuous
 62
     7
370
    15
100
AcDbLine
 10
6.005092309974306
 20
6.448676628367794
 30
0.0
 11
6.005124744587672
 21
6.448685317959178
 31
0.0
  0
ARC
  5
103
330
1F
100
AcDbEntity
  8
0
  6
Continuous
 62
     7
370
    15
100
AcDbCircle
 10
5.784765890497382
 20
6.680348062477513
 30
0.0
 40
0.0000935407474051
100
AcDbArc
 50
331.858800498431
 51
333.4136294700397
  0
LINE
  5
104
330
1F
100
AcDbEntity
  8
0
  6
Continuous
 62
     7
370
    15
100
AcDbLine
 10
5.779712633882132
 20
6.671185036356823
 30
0.0
 11
5.784848373601176
 21
6.680303944351832
 31
0.0
  0
LINE
  5
105
330
1F
100
AcDbEntity
  8
0
  6
Continuous
 62
     7
370
    15
100
AcDbLine
 10
5.966915084791295
 20
6.389091389139617
 30
0.0
 11
5.98047601997371
 21
6.400459153700667
 31
0.0
  0
LWPOLYLINE
  5
106
330
1F
100
AcDbEntity
  8
0
  6
Continuous
 62
     7
370
    15
100
AcDbPolyline
 90
        9
 70
   128
 43
0.0
 10
5.98047601997371
 20
6.400459153700667
 10
5.983650930456762
 20
6.393139406166646
 10
5.984767241178641
 20
6.385207970371271
 10
5.983654871353031
 20
6.377872492298156
 10
5.980483072103874
 20
6.372249989768782
 10
5.975735121763013
 20
6.369196154735753
 10
5.970133448841096
 20
6.369175914630676
 10
5.964530946256805
 20
6.372192507650333
 10
5.959780714344421
 20
6.377786488971682
  0
LINE
  5
107
330
1F
100
AcDbEntity
  8
0
  6
Continuous
 62
     7
370
    15
100
AcDbLine
 10
5.98047601997371
 20
6.400459153700667
 30
0.0
 11
5.980508454587075
 21
6.400467843292051
 31
0.0
  0
ARC
  5
108
330
1F
100
AcDbEntity
  8
0
  6
Continuous
 62
     7
370
    15
100
AcDbCircle
 10
5.891521955058672
 20
6.616969725919391
 30
0.0
 40
0.0173629318351514
100
AcDbArc
 50
135.5690990899814
 51
184.4497637811164
  0
ARC
  5
109
330
1F
100
AcDbEntity
  8
0
  6
Continuous
 62
     7
370
    15
100
AcDbCircle
 10
5.897380124620305
 20
6.613621158271921
 30
0.0
 40
0.0232550539813361
100
AcDbArc
 50
175.0626844690596
 51
249.1378325565428
  0
LINE
  5
10A
330
1F
100
AcDbEntity
  8
0
  6
Continuous
 62
     7
370
    15
100
AcDbLine
 10
5.828114255163608
 20
7.175902656487451
 30
0.0
 11
5.747174546062536
 21
7.043936616490262
 31
0.0
  0
LINE
  5
10B
330
1F
100
AcDbEntity
  8
0
  6
Continuous
 62
     7
370
    15
100
AcDbLine
 10
5.866228957508785
 20
7.186114006484325
 30
0.0
 11
5.828114255163608
 21
7.175902656487451
 31
0.0
  0
LINE
  5
10C
330
1F
100
AcDbEntity
  8
0
  6
Continuous
 62
     7
370
    15
100
AcDbLine
 10
5.866228957508785
 20
6.818702180593396
 30
0.0
 11
5.866228957508785
 21
7.186114006484325
 31
0.0
  0
LINE
  5
10D
330
1F
100
AcDbEntity
  8
0
  6
Continuous
 62
     7
370
    15
100
AcDbLine
 10
5.818921907202338
 20
7.178365388098877
 30
0.0
 11
5.737982198101266
 21
7.046399348101687
 31
0.0
  0
LINE
  5
10E
330
1F
100
AcDbEntity
  8
0
  6
Continuous
 62
     7
370
    15
100
AcDbLine
 10
5.828114255163608
 20
7.175902656487451
 30
0.0
 11
5.818921907202338
 21
7.178365388098877
 31
0.0
  0
LINE
  5
10F
330
1F
100
AcDbEntity
  8
0
  6
Continuous
 62
     7
370
    15
100
AcDbLine
 10
5.747174546062536
 20
7.043936616490262
 30
0.0
 11
5.737982198101266
 21
7.046399348101687
 31
0.0
  0
LINE
  5
110
330
1F
100
AcDbEntity
  8
0
  6
Continuous
 62
     7
370
    15
100
AcDbLine
 10
5.783569734250776
 20
6.866183770838107
 30
0.0
 11
5.77000019132125
 21
6.854804931435666
 31
0.0
  0
SPLINE
  5
111
330
1F
100
AcDbEntity
  8
0
  6
Continuous
 62
     7
370
    15
100
AcDbSpline
210
0.0
220
0.0
230
1.0
 70
     8
 71
     3
 72
    11
 73
     7
 74
     0
 42
0.0000000001
 43
0.0000000001
 40
0.0
 40
0.0
 40
0.0
 40
0.0
 40
0.2499981810089274
 40
0.4999964560106991
 40
0.7500019346767174
 40
1.0
 40
1.0
 40
1.0
 40
1.0
 10
5.747174546062536
 20
7.043936616490262
 30
0.0
 10
5.746251723875115
 20
7.041386779303963
 30
0.0
 10
5.744406079153317
 20
7.036287103972693
 30
0.0
 10
5.743616271539836
 20
7.028374148981035
 30
0.0
 10
5.744406078487807
 20
7.020461087837534
 30
0.0
 10
5.746251767228643
 20
7.015361356723909
 30
0.0
 10
5.747174597916434
 20
7.012811528972883
 30
0.0
  0
SPLINE
  5
112
330
1F
100
AcDbEntity
  8
0
  6
Continuous
 62
     7
370
    15
100
AcDbSpline
210
0.0
220
0.0
230
1.0
 70
     8
 71
     3
 72
    11
 73
     7
 74
     0
 42
0.0000000001
 43
0.0000000001
 40
0.0
 40
0.0
 40
0.0
 40
0.0
 40
0.2499989075936151
 40
0.4999964074438789
 40
0.750001092406385
 40
1.0
 40
1.0
 40
1.0
 40
1.0
 10
5.737982198101266
 20
7.046399348101689
 30
0.0
 10
5.735993021713484
 20
7.043489784739437
 30
0.0
 10
5.73201468013897
 20
7.037670674398683
 30
0.0
 10
5.730311859283543
 20
7.028374172523867
 30
0.0
 10
5.732014623997803
 20
7.019077510371358
 30
0.0
 10
5.73599302205645
 20
7.013258336690422
 30
0.0
 10
5.737982198101266
 20
7.010348783469225
 30
0.0
  0
LWPOLYLINE
  5
113
330
1F
100
AcDbEntity
  8
0
  6
Continuous
 62
     7
370
    15
100
AcDbPolyline
 90
        5
 70
   128
 43
0.0
 10
5.737982198101266
 20
6.540410575382633
 10
5.734966375378093
 20
6.541395090110335
 10
5.732725457310616
 20
6.542518304886597
 10
5.731345469516053
 20
6.54373708432973
 10
5.730879458532333
 20
6.545004569939756
  0
LINE
  5
114
330
1F
100
AcDbEntity
  8
0
  6
Continuous
 62
     7
370
    15
100
AcDbLine
 10
5.784848347674228
 20
6.680303937405716
 30
0.0
 11
5.77970132973231
 21
6.671180010553147
 31
0.0
  0
LINE
  5
115
330
1F
100
AcDbEntity
  8
0
  6
Continuous
 62
     7
370
    15
100
AcDbLine
 10
5.857036609547515
 20
7.188576738095751
 30
0.0
 11
5.866228957508785
 21
7.186114006484325
 31
0.0
  0
LINE
  5
116
330
1F
100
AcDbEntity
  8
0
  6
Continuous
 62
     7
370
    15
100
AcDbLine
 10
5.818921907202338
 20
7.178365388098877
 30
0.0
 11
5.857036609547515
 21
7.188576738095751
 31
0.0
  0
LINE
  5
117
330
1F
100
AcDbEntity
  8
0
  6
Continuous
 62
     7
370
    15
100
AcDbLine
 10
5.750931101722442
 20
6.496705485894644
 30
0.0
 11
5.75212457104494
 21
6.496444524502639
 31
0.0
  0
LINE
  5
118
330
1F
100
AcDbEntity
  8
0
  6
Continuous
 62
     7
370
    15
100
AcDbLine
 10
5.696319716854078
 20
6.51133647945861
 30
0.0
 11
5.750931101722442
 21
6.496705485894644
 31
0.0
  0
ARC
  5
119
330
1F
100
AcDbEntity
  8
0
  6
Continuous
 62
     7
370
    15
100
AcDbCircle
 10
5.595094986814616
 20
6.309427943894194
 30
0.0
 40
0.031081291224501
100
AcDbArc
 50
124.9863937541525
 51
185.6823866733151
  0
ARC
  5
11A
330
1F
100
AcDbEntity
  8
0
  6
Continuous
 62
     7
370
    15
100
AcDbCircle
 10
5.606212101311133
 20
6.301837388108713
 30
0.0
 40
0.0422871915119157
100
AcDbArc
 50
173.8734712725653
 51
257.6924360415822
  0
LINE
  5
11B
330
1F
100
AcDbEntity
  8
0
  6
Continuous
 62
     7
370
    15
100
AcDbLine
 10
7.447987335319345
 20
7.823640844314632
 30
0.0
 11
7.447987335319345
 21
7.456140562472493
 31
0.0
  0
LINE
  5
11C
330
1F
100
AcDbEntity
  8
0
  6
Continuous
 62
     7
370
    15
100
AcDbLine
 10
7.447987335319345
 20
7.456140562472493
 30
0.0
 11
7.536375727271635
 21
7.425814333520412
 31
0.0
  0
LINE
  5
11D
330
1F
100
AcDbEntity
  8
0
  6
Continuous
 62
     7
370
    15
100
AcDbLine
 10
7.536375727271635
 20
7.425814333520412
 30
0.0
 11
7.4037931911971
 21
7.321505515716289
 31
0.0
  0
LINE
  5
11E
330
1F
100
AcDbEntity
  8
0
  6
Continuous
 62
     7
370
    15
100
AcDbLine
 10
7.4037931911971
 20
7.321505515716289
 30
0.0
 11
7.4037931911971
 21
6.968787551573492
 31
0.0
  0
LINE
  5
11F
330
1F
100
AcDbEntity
  8
0
  6
Continuous
 62
     7
370
    15
100
AcDbLine
 10
4.486977708680705
 20
6.187340447552148
 30
0.0
 11
5.754895435952701
 21
6.527029619545721
 31
0.0
  0
LINE
  5
120
330
1F
100
AcDbEntity
  8
0
  6
Continuous
 62
     7
370
    15
100
AcDbLine
 10
6.004162968205235
 20
6.593811146307654
 30
0.0
 11
7.4037931911971
 21
6.968787551573492
 31
0.0
  0
LINE
  5
121
330
1F
100
AcDbEntity
  8
0
  6
Continuous
 62
     7
370
    15
100
AcDbLine
 10
4.486977708680705
 20
6.187340447552148
 30
0.0
 11
4.486977708680705
 21
6.540058411694945
 31
0.0
  0
LINE
  5
122
330
1F
100
AcDbEntity
  8
0
  6
Continuous
 62
     7
370
    15
100
AcDbLine
 10
4.486977708680705
 20
6.540058411694945
 30
0.0
 11
4.354395172606169
 21
6.573326576101364
 31
0.0
  0
LINE
  5
123
330
1F
100
AcDbEntity
  8
0
  6
Continuous
 62
     7
370
    15
100
AcDbLine
 10
4.354395172606169
 20
6.573326576101364
 30
0.0
 11
4.442783564558459
 21
6.651013259174892
 31
0.0
  0
LINE
  5
124
330
1F
100
AcDbEntity
  8
0
  6
Continuous
 62
     7
370
    15
100
AcDbLine
 10
4.442783564558459
 20
6.651013259174892
 30
0.0
 11
4.442783564558459
 21
7.01851354101703
 31
0.0
  0
LINE
  5
125
330
1F
100
AcDbEntity
  8
0
  6
Continuous
 62
     7
370
    15
100
AcDbLine
 10
4.442783564558459
 20
7.01851354101703
 30
0.0
 11
7.447987335319345
 21
7.823640844314632
 31
0.0
  0
LINE
  5
126
330
1F
100
AcDbEntity
  8
0
  6
Continuous
 62
     7
370
    15
100
AcDbLine
 10
7.182822263170275
 20
7.894681497712336
 30
0.0
 11
7.447987335319345
 21
7.823640844314632
 31
0.0
  0
LINE
  5
127
330
1F
100
AcDbEntity
  8
0
  6
Continuous
 62
     7
370
    15
100
AcDbLine
 10
4.177618492409388
 20
7.089554194414734
 30
0.0
 11
4.442783564558459
 21
7.01851354101703
 31
0.0
  0
LINE
  5
128
330
1F
100
AcDbEntity
  8
0
  6
Continuous
 62
     7
370
    15
100
AcDbLine
 10
4.177618492409388
 20
7.089554194414734
 30
0.0
 11
7.182822263170275
 21
7.894681497712336
 31
0.0
  0
LINE
  5
129
330
1F
100
AcDbEntity
  8
0
  6
Continuous
 62
     7
370
    15
100
AcDbLine
 10
4.177618492409388
 20
6.722053912572595
 30
0.0
 11
4.442783564558459
 21
6.651013259174892
 31
0.0
  0
LINE
  5
12A
330
1F
100
AcDbEntity
  8
0
  6
Continuous
 62
     7
370
    15
100
AcDbLine
 10
4.177618492409388
 20
6.722053912572595
 30
0.0
 11
4.177618492409388
 21
7.089554194414734
 31
0.0
  0
LINE
  5
12B
330
1F
100
AcDbEntity
  8
0
  6
Continuous
 62
     7
370
    15
100
AcDbLine
 10
4.089230100457099
 20
6.644367229499069
 30
0.0
 11
4.354395172606169
 21
6.573326576101364
 31
0.0
  0
LINE
  5
12C
330
1F
100
AcDbEntity
  8
0
  6
Continuous
 62
     7
370
    15
100
AcDbLine
 10
4.089230100457099
 20
6.644367229499069
 30
0.0
 11
4.177618492409388
 21
6.722053912572595
 31
0.0
  0
LINE
  5
12D
330
1F
100
AcDbEntity
  8
0
  6
Continuous
 62
     7
370
    15
100
AcDbLine
 10
4.221812636531635
 20
6.258381100949852
 30
0.0
 11
4.486977708680705
 21
6.187340447552148
 31
0.0
  0
LINE
  5
12E
330
1F
100
AcDbEntity
  8
0
  6
Continuous
 62
     7
370
    15
100
AcDbLine
 10
4.221812636531635
 20
6.258381100949852
 30
0.0
 11
4.221812636531635
 21
6.608846970922728
 31
0.0
  0
LINE
  5
12F
330
1F
100
AcDbEntity
  8
0
  6
Continuous
 62
     7
370
    15
100
AcDbLine
 10
5.061501893393305
 20
8.463006669325036
 30
0.0
 11
5.061501893393305
 21
8.095506387482897
 31
0.0
  0
LINE
  5
130
330
1F
100
AcDbEntity
  8
0
  6
Continuous
 62
     7
370
    15
100
AcDbLine
 10
5.061501893393305
 20
8.095506387482897
 30
0.0
 11
5.149890285345595
 21
8.065180158530816
 31
0.0
  0
LINE
  5
131
330
1F
100
AcDbEntity
  8
0
  6
Continuous
 62
     7
370
    15
100
AcDbLine
 10
5.149890285345595
 20
8.065180158530816
 30
0.0
 11
5.01730774927106
 21
7.960871340726693
 31
0.0
  0
LINE
  5
132
330
1F
100
AcDbEntity
  8
0
  6
Continuous
 62
     7
370
    15
100
AcDbLine
 10
5.01730774927106
 20
7.960871340726693
 30
0.0
 11
5.01730774927106
 21
7.608153376583896
 31
0.0
  0
LINE
  5
133
330
1F
100
AcDbEntity
  8
0
  6
Continuous
 62
     7
370
    15
100
AcDbLine
 10
2.100492266754665
 20
6.826706272562551
 30
0.0
 11
3.368409994026661
 21
7.166395444556124
 31
0.0
  0
LINE
  5
134
330
1F
100
AcDbEntity
  8
0
  6
Continuous
 62
     7
370
    15
100
AcDbLine
 10
3.617677526279195
 20
7.233176971318058
 30
0.0
 11
5.01730774927106
 21
7.608153376583896
 31
0.0
  0
LINE
  5
135
330
1F
100
AcDbEntity
  8
0
  6
Continuous
 62
     7
370
    15
100
AcDbLine
 10
2.100492266754665
 20
6.826706272562551
 30
0.0
 11
2.100492266754665
 21
7.179424236705348
 31
0.0
  0
LINE
  5
136
330
1F
100
AcDbEntity
  8
0
  6
Continuous
 62
     7
370
    15
100
AcDbLine
 10
2.100492266754665
 20
7.179424236705348
 30
0.0
 11
1.967909730680129
 21
7.212692401111769
 31
0.0
  0
LINE
  5
137
330
1F
100
AcDbEntity
  8
0
  6
Continuous
 62
     7
370
    15
100
AcDbLine
 10
1.967909730680129
 20
7.212692401111769
 30
0.0
 11
2.056298122632418
 21
7.290379084185296
 31
0.0
  0
LINE
  5
138
330
1F
100
AcDbEntity
  8
0
  6
Continuous
 62
     7
370
    15
100
AcDbLine
 10
2.056298122632418
 20
7.290379084185296
 30
0.0
 11
2.056298122632418
 21
7.657879366027435
 31
0.0
  0
LINE
  5
139
330
1F
100
AcDbEntity
  8
0
  6
Continuous
 62
     7
370
    15
100
AcDbLine
 10
2.056298122632418
 20
7.657879366027435
 30
0.0
 11
5.061501893393305
 21
8.463006669325036
 31
0.0
  0
LINE
  5
13A
330
1F
100
AcDbEntity
  8
0
  6
Continuous
 62
     7
370
    15
100
AcDbLine
 10
1.791133154191144
 20
7.361419709798536
 30
0.0
 11
2.056298122632418
 21
7.290379084185296
 31
0.0
  0
LINE
  5
13B
330
1F
100
AcDbEntity
  8
0
  6
Continuous
 62
     7
370
    15
100
AcDbLine
 10
1.791133154191144
 20
7.361419709798536
 30
0.0
 11
1.791133154191144
 21
7.728919991640673
 31
0.0
  0
LINE
  5
13C
330
1F
100
AcDbEntity
  8
0
  6
Continuous
 62
     7
370
    15
100
AcDbLine
 10
1.791133154191144
 20
7.728919991640673
 30
0.0
 11
2.056298122632418
 21
7.657879366027435
 31
0.0
  0
LINE
  5
13D
330
1F
100
AcDbEntity
  8
0
  6
Continuous
 62
     7
370
    15
100
AcDbLine
 10
4.796336924952032
 20
8.534047294938275
 30
0.0
 11
5.061501893393305
 21
8.463006669325036
 31
0.0
  0
LINE
  5
13E
330
1F
100
AcDbEntity
  8
0
  6
Continuous
 62
     7
370
    15
100
AcDbLine
 10
1.791133154191144
 20
7.728919991640673
 30
0.0
 11
4.796336924952032
 21
8.534047294938275
 31
0.0
  0
LINE
  5
13F
330
1F
100
AcDbEntity
  8
0
  6
Continuous
 62
     7
370
    15
100
AcDbLine
 10
1.702744762238855
 20
7.283733026725008
 30
0.0
 11
1.967909730680129
 21
7.212692401111769
 31
0.0
  0
LINE
  5
140
330
1F
100
AcDbEntity
  8
0
  6
Continuous
 62
     7
370
    15
100
AcDbLine
 10
1.702744762238855
 20
7.283733026725008
 30
0.0
 11
1.791133154191144
 21
7.361419709798536
 31
0.0
  0
LINE
  5
141
330
1F
100
AcDbEntity
  8
0
  6
Continuous
 62
     7
370
    15
100
AcDbLine
 10
1.835327298313391
 20
6.897746898175791
 30
0.0
 11
2.100492266754665
 21
6.826706272562551
 31
0.0
  0
LINE
  5
142
330
1F
100
AcDbEntity
  8
0
  6
Continuous
 62
     7
370
    15
100
AcDbLine
 10
1.835327298313391
 20
6.897746898175791
 30
0.0
 11
1.835327298313391
 21
7.248212768148666
 31
0.0
  0
LWPOLYLINE
  5
143
330
1F
100
AcDbEntity
  8
0
  6
Continuous
 62
     7
370
    15
100
AcDbPolyline
 90
       13
 70
   128
 43
0.0
 10
3.711989386723436
 20
6.39213884171429
 10
3.712007743003422
 20
6.39214381510456
 10
3.720394436947328
 20
6.392504823331234
 10
3.728972731045328
 20
6.389330804837188
 10
3.736980424846804
 20
6.382903395830045
 10
3.743706031013645
 20
6.373793600481837
 10
3.748551933368331
 20
6.36281123997203
 10
3.75108748528576
 20
6.350931662005088
 10
3.75108748528576
 20
6.339210824559575
 10
3.748551933368331
 20
6.328690133962026
 10
3.743706031013645
 20
6.320304032439517
 10
3.736980424846804
 20
6.314798248143378
 10
3.733112694429015
 20
6.313294385294566
  0
LWPOLYLINE
  5
144
330
1F
100
AcDbEntity
  8
0
  6
Continuous
 62
     7
370
    15
100
AcDbPolyline
 90
       22
 70
   128
 43
0.0
 10
3.693692246108119
 20
6.35997446208684
 10
3.694935080341767
 20
6.348406739435835
 10
3.698553186093302
 20
6.337200540162117
 10
3.704225069193472
 20
6.327352272844263
 10
3.711446761605027
 20
6.319736538275543
 10
3.71957662319082
 20
6.315030257421847
 10
3.727892173586304
 20
6.313651380614654
 10
3.735654598448981
 20
6.315722670953411
 10
3.742174240931908
 20
6.321060093160311
 10
3.746871685575857
 20
6.329189230927743
 10
3.749329612207581
 20
6.33938763345357
 10
3.749329612207581
 20
6.350749560170536
 10
3.746871685575857
 20
6.362265256721866
 10
3.742174240931908
 20
6.37291138916059
 10
3.735654598448981
 20
6.381741897311405
 10
3.727892173586304
 20
6.387972466470151
 10
3.71957662319082
 20
6.391049527976435
 10
3.711446761605027
 20
6.390699406660696
 10
3.704225069193472
 20
6.38695321451245
 10
3.698553186093302
 20
6.380143784922583
 10
3.694935080341767
 20
6.370876529291053
 10
3.693692246108119
 20
6.35997446208684
  0
LWPOLYLINE
  5
145
330
1F
100
AcDbEntity
  8
0
  6
Continuous
 62
     7
370
    15
100
AcDbPolyline
 90
       13
 70
   128
 43
0.0
 10
3.742393479213778
 20
6.315780810108399
 10
3.746261209631567
 20
6.31728467295721
 10
3.752986815798409
 20
6.32279045725335
 10
3.757832718153094
 20
6.331176558775858
 10
3.760368270070522
 20
6.341697249373407
 10
3.760368270070522
 20
6.35341808681892
 10
3.757832718153094
 20
6.365297664785862
 10
3.752986815798409
 20
6.376280025295669
 10
3.746261209631567
 20
6.385389820643878
 10
3.73825351583009
 20
6.391817229651019
 10
3.729675221732091
 20
6.394991248145065
 10
3.721288527788185
 20
6.394630239918392
 10
3.721270171508199
 20
6.394625266528122
  0
LWPOLYLINE
  5
146
330
1F
100
AcDbEntity
  8
0
  6
Continuous
 62
     7
370
    15
100
AcDbPolyline
 90
       13
 70
   128
 43
0.0
 10
4.341756368260106
 20
6.223417307260033
 10
4.341774711576617
 20
6.223422284123362
 10
4.350161392557048
 20
6.223783295823094
 10
4.358739699618523
 20
6.220609273855989
 10
4.366747419346948
 20
6.214181857902731
 10
4.373473012550315
 20
6.205072066027581
 10
4.378318888978052
 20
6.19408971246389
 10
4.380854479785903
 20
6.182210124077774
 10
4.380854479785903
 20
6.17048928663226
 10
4.378318888978052
 20
6.159968606453886
 10
4.373473012550315
 20
6.151582497985261
 10
4.366747419346948
 20
6.146076710216063
 10
4.36287966300221
 20
6.144572854313369
  0
LWPOLYLINE
  5
147
330
1F
100
AcDbEntity
  8
0
  6
Continuous
 62
     7
370
    15
100
AcDbPolyline
 90
       22
 70
   128
 43
0.0
 10
4.323459227644788
 20
6.191252927632584
 10
4.324702074841911
 20
6.179685201508521
 10
4.328320180593446
 20
6.168479002234803
 10
4.33399207665709
 20
6.158630731443889
 10
4.341213756105172
 20
6.151015000348229
 10
4.349343578800541
 20
6.146308729913709
 10
4.357659142159499
 20
6.144929849633456
 10
4.365421592949124
 20
6.147001133026097
 10
4.371941209505103
 20
6.152338562179113
 10
4.376638667112526
 20
6.160467696473488
 10
4.37909659374425
 20
6.170666098999315
 10
4.37909659374425
 20
6.18202802571628
 10
4.376638667112526
 20
6.193543722267611
 10
4.371941209505103
 20
6.204189858179391
 10
4.365421592949124
 20
6.213020359384091
 10
4.357659142159499
 20
6.219250935488953
 10
4.349343578800541
 20
6.222328000468296
 10
4.341213756105172
 20
6.221977868733381
 10
4.33399207665709
 20
6.218231673112078
 10
4.328320180593446
 20
6.211422246995268
 10
4.324702074841911
 20
6.202154991363739
 10
4.323459227644788
 20
6.191252927632584
  0
LWPOLYLINE
  5
148
330
1F
100
AcDbEntity
  8
0
  6
Continuous
 62
     7
370
    15
100
AcDbPolyline
 90
       10
 70
   128
 43
0.0
 10
4.372160447786973
 20
6.147059279127201
 10
4.376028204131711
 20
6.148563135029896
 10
4.382753797335078
 20
6.154068922799094
 10
4.387599673762815
 20
6.162455031267718
 10
4.390135264570667
 20
6.172975711446093
 10
4.390135264570667
 20
6.184696548891606
 10
4.387599673762815
 20
6.196576137277722
 10
4.382753797335078
 20
6.207558490841414
 10
4.376028204131711
 20
6.216668282716564
 10
4.375511713378029
 20
6.217203436347173
  0
LWPOLYLINE
  5
149
330
1F
100
AcDbEntity
  8
0
  6
Continuous
 62
     7
370
    15
100
AcDbPolyline
 90
       13
 70
   128
 43
0.0
 10
4.037921420004069
 20
6.154279866620005
 10
4.037939776284056
 20
6.154284840010276
 10
4.046326457264487
 20
6.15464613431688
 10
4.054904764325961
 20
6.151471829742901
 10
4.062912471090912
 20
6.145044417262703
 10
4.069638064294279
 20
6.135934907994426
 10
4.07448395368549
 20
6.124952268350804
 10
4.077019544493342
 20
6.11307296257156
 10
4.077019544493342
 20
6.101352125126046
 10
4.07448395368549
 20
6.090831162340799
 10
4.069638064294279
 20
6.082445339952106
 10
4.062912471090912
 20
6.076939269576035
 10
4.059044727709649
 20
6.075435410200282
  0
LWPOLYLINE
  5
14A
330
1F
100
AcDbEntity
  8
0
  6
Continuous
 62
     7
370
    15
100
AcDbPolyline
 90
       22
 70
   128
 43
0.0
 10
4.019624292352227
 20
6.122115766126371
 10
4.020867126585875
 20
6.110547760868493
 10
4.024485245300884
 20
6.099341840728589
 10
4.030157128401055
 20
6.089493290803861
 10
4.037378820812611
 20
6.081877556235142
 10
4.045508630544505
 20
6.077171289273679
 10
4.053824206866937
 20
6.075792688127243
 10
4.061586657656564
 20
6.077863971519883
 10
4.068106261249067
 20
6.083201121539085
 10
4.072803718856491
 20
6.09133025583346
 10
4.075261658451689
 20
6.101528937493101
 10
4.075261658451689
 20
6.112890864210067
 10
4.072803718856491
 20
6.124406281627582
 10
4.068106261249067
 20
6.135052417539363
 10
4.061586657656564
 20
6.143883197877878
 10
4.053824206866937
 20
6.15011377398274
 10
4.045508630544505
 20
6.153190559828267
 10
4.037378820812611
 20
6.152840424620297
 10
4.030157128401055
 20
6.14909423247205
 10
4.024485245300884
 20
6.142285085489055
 10
4.020867126585875
 20
6.133017550723711
 10
4.019624292352227
 20
6.122115766126371
  0
LWPOLYLINE
  5
14B
330
1F
100
AcDbEntity
  8
0
  6
Continuous
 62
     7
370
    15
100
AcDbPolyline
 90
       13
 70
   128
 43
0.0
 10
4.068325512494412
 20
6.077921835014115
 10
4.072193255875676
 20
6.079425694389868
 10
4.078918849079042
 20
6.084931764765938
 10
4.083764738470254
 20
6.093317587154632
 10
4.086300329278105
 20
6.103838549939879
 10
4.086300329278105
 20
6.115559387385393
 10
4.083764738470254
 20
6.127438693164636
 10
4.078918849079042
 20
6.138421332808258
 10
4.072193255875676
 20
6.147530842076534
 10
4.064185549110725
 20
6.153958254556735
 10
4.055607242049251
 20
6.157132559130713
 10
4.047220561068819
 20
6.156771264824109
 10
4.047202204788833
 20
6.156766291433838
  0
LWPOLYLINE
  5
14C
330
1F
100
AcDbEntity
  8
0
  6
Continuous
 62
     7
370
    15
100
AcDbPolyline
 90
        8
 70
   128
 43
0.0
 10
4.598170226523932
 20
5.067193662721213
 10
4.599452340085517
 20
5.079127004274046
 10
4.60318475775578
 20
5.090687131236717
 10
4.609035847928359
 20
5.100846658411924
 10
4.616485697492286
 20
5.108702974167599
 10
4.624872391436192
 20
5.113558040993533
 10
4.633450685534192
 20
5.11498032078608
 10
4.637590648917879
 20
5.11434733266307
  0
ARC
  5
14D
330
1F
100
AcDbEntity
  8
0
  6
Continuous
 62
     7
370
    15
100
AcDbCircle
 10
4.628376349951801
 20
5.063506287782215
 30
0.0
 40
0.0304303569890395
100
AcDbArc
 50
173.0401246982334
 51
246.9613454523726
  0
LWPOLYLINE
  5
14E
330
1F
100
AcDbEntity
  8
0
  6
Continuous
 62
     7
370
    15
100
AcDbPolyline
 90
       22
 70
   128
 43
0.0
 10
4.599937977769731
 20
5.067193662721213
 10
4.601180812003379
 20
5.056291595516999
 10
4.604798917754914
 20
5.047024198582034
 10
4.610470826782034
 20
5.040214917241719
 10
4.617692493266639
 20
5.036468859450793
 10
4.625822328925482
 20
5.0361185898855
 10
4.634137879320967
 20
5.039195510088348
 10
4.641900356037542
 20
5.045426093139326
 10
4.648419946666571
 20
5.054256870004783
 10
4.653117417237469
 20
5.064902868086186
 10
4.655575343869193
 20
5.076418564637516
 10
4.655575343869193
 20
5.087780350051045
 10
4.653117417237469
 20
5.097979035183744
 10
4.648419946666571
 20
5.106108024701625
 10
4.641900356037542
 20
5.111445460800757
 10
4.634137879320967
 20
5.113516737247282
 10
4.625822328925482
 20
5.112138001743525
 10
4.617692493266639
 20
5.107431586532509
 10
4.610470826782034
 20
5.099816000213343
 10
4.604798917754914
 20
5.089967584645935
 10
4.601180812003379
 20
5.078761526675654
 10
4.599937977769731
 20
5.067193662721213
  0
ARC
  5
14F
330
1F
100
AcDbEntity
  8
0
  6
Continuous
 62
     7
370
    15
100
AcDbCircle
 10
4.619095565167036
 20
5.065992712596047
 30
0.0
 40
0.0304303569890379
100
AcDbArc
 50
173.0401246982347
 51
246.9613454523757
  0
LWPOLYLINE
  5
150
330
1F
100
AcDbEntity
  8
0
  6
Continuous
 62
     7
370
    15
100
AcDbPolyline
 90
        8
 70
   128
 43
0.0
 10
4.628309864133116
 20
5.116833757476903
 10
4.624169900749429
 20
5.117466745599912
 10
4.615591606651429
 20
5.116044465807365
 10
4.607204912707524
 20
5.111189398981431
 10
4.599755063143596
 20
5.103333083225756
 10
4.593903972971017
 20
5.093173556050549
 10
4.590171555300754
 20
5.081613429087878
 10
4.588889441739169
 20
5.069680087535044
  0
LWPOLYLINE
  5
151
330
1F
100
AcDbEntity
  8
0
  6
Continuous
 62
     7
370
    15
100
AcDbPolyline
 90
        8
 70
   128
 43
0.0
 10
4.692082834637604
 20
5.33321478047341
 10
4.693364948199189
 20
5.345148122026243
 10
4.697097378832927
 20
5.356708252461973
 10
4.702948469005506
 20
5.366867779637179
 10
4.710398331532908
 20
5.374724098865913
 10
4.718785012513339
 20
5.379579162218789
 10
4.727363319574813
 20
5.381001445484393
 10
4.731503282958501
 20
5.380368598664819
  0
ARC
  5
152
330
1F
100
AcDbEntity
  8
0
  6
Continuous
 62
     7
370
    15
100
AcDbCircle
 10
4.722288968717752
 20
5.329527419625172
 30
0.0
 40
0.030430365855393
100
AcDbArc
 50
173.0401534638543
 51
246.9613572806467
  0
LWPOLYLINE
  5
153
330
1F
100
AcDbEntity
  8
0
  6
Continuous
 62
     7
370
    15
100
AcDbPolyline
 90
       22
 70
   128
 43
0.0
 10
4.693850598846877
 20
5.333214783946468
 10
4.695093446043999
 20
5.322312720215313
 10
4.698711551795534
 20
5.313045464583783
 10
4.704383434895705
 20
5.306236176297352
 10
4.711605127307261
 20
5.302489984149105
 10
4.719734937039155
 20
5.302139707637699
 10
4.728050513361588
 20
5.305216634786662
 10
4.735812964151214
 20
5.311447352194959
 10
4.742332567743718
 20
5.320277991230038
 10
4.747030025351142
 20
5.330924127141819
 10
4.749487964946339
 20
5.342439685862772
 10
4.749487964946339
 20
5.3538014712763
 10
4.747030025351142
 20
5.364000152935942
 10
4.742332567743718
 20
5.372129287230317
 10
4.735812964151214
 20
5.377466578552955
 10
4.728050513361588
 20
5.379537861945596
 10
4.719734937039155
 20
5.378159119495721
 10
4.711605127307261
 20
5.373452711230823
 10
4.704383434895705
 20
5.36583711796554
 10
4.698711551795534
 20
5.355988709344249
 10
4.695093446043999
 20
5.344782651373968
 10
4.693850598846877
 20
5.333214783946468
  0
ARC
  5
154
330
1F
100
AcDbEntity
  8
0
  6
Continuous
 62
     7
370
    15
100
AcDbCircle
 10
4.713008183932991
 20
5.332013844439003
 30
0.0
 40
0.0304303658553941
100
AcDbArc
 50
173.0401534638547
 51
246.9613572806421
  0
LWPOLYLINE
  5
155
330
1F
100
AcDbEntity
  8
0
  6
Continuous
 62
     7
370
    15
100
AcDbPolyline
 90
        8
 70
   128
 43
0.0
 10
4.722222498173737
 20
5.382855023478652
 10
4.71808253479005
 20
5.383487870298226
 10
4.709504227728575
 20
5.38206558703262
 10
4.701117546748144
 20
5.377210523679745
 10
4.693667684220742
 20
5.369354204451012
 10
4.687816594048164
 20
5.359194677275804
 10
4.684084163414426
 20
5.347634546840075
 10
4.682802049852841
 20
5.335701205287241
  0
LWPOLYLINE
  5
156
330
1F
100
AcDbEntity
  8
0
  6
Continuous
 62
     7
370
    15
100
AcDbPolyline
 90
        8
 70
   128
 43
0.0
 10
4.974085852777828
 20
5.167905613563934
 10
4.975367979302887
 20
5.179838958589824
 10
4.979100396973151
 20
5.191399085552495
 10
4.984951487145729
 20
5.201558612727702
 10
4.992401349673132
 20
5.209414931956436
 10
5.000788030653563
 20
5.214269995309311
 10
5.009366337715037
 20
5.215692278574916
 10
5.013506301098725
 20
5.215059290451907
  0
ARC
  5
157
330
1F
100
AcDbEntity
  8
0
  6
Continuous
 62
     7
370
    15
100
AcDbCircle
 10
5.004292015485309
 20
5.164218269244195
 30
0.0
 40
0.0304303922689656
100
AcDbArc
 50
173.0401908865475
 51
246.9613198579514
  0
LWPOLYLINE
  5
158
330
1F
100
AcDbEntity
  8
0
  6
Continuous
 62
     7
370
    15
100
AcDbPolyline
 90
       22
 70
   128
 43
0.0
 10
4.975853616987101
 20
5.167905617036991
 10
4.977096464184224
 20
5.157003553305836
 10
4.980714569935759
 20
5.147736156370871
 10
4.98638645303593
 20
5.14092686808444
 10
4.993608145447484
 20
5.137180817239629
 10
5.001737968142853
 20
5.13683054420128
 10
5.010053531501812
 20
5.139907467877185
 10
5.017815982291438
 20
5.146138043982046
 10
5.024335585883942
 20
5.154968824320561
 10
5.02903305645484
 20
5.165614822401964
 10
5.031490983086563
 20
5.177130518953294
 10
5.031490983086563
 20
5.188492304366823
 10
5.02903305645484
 20
5.198690989499524
 10
5.024335585883942
 20
5.206819979017403
 10
5.017815982291438
 20
5.212157411643477
 10
5.010053531501812
 20
5.214228695036118
 10
5.001737968142853
 20
5.212849956059303
 10
4.993608145447484
 20
5.208143544321345
 10
4.98638645303593
 20
5.200527951056063
 10
4.980714569935759
 20
5.190679542434772
 10
4.977096464184224
 20
5.179473484464491
 10
4.975853616987101
 20
5.167905617036991
  0
ARC
  5
159
330
1F
100
AcDbEntity
  8
0
  6
Continuous
 62
     7
370
    15
100
AcDbCircle
 10
4.995011230700547
 20
5.166704694058029
 30
0.0
 40
0.0304303922689671
100
AcDbArc
 50
173.040190886551
 51
246.961319857949
  0
LWPOLYLINE
  5
15A
330
1F
100
AcDbEntity
  8
0
  6
Continuous
 62
     7
370
    15
100
AcDbPolyline
 90
        8
 70
   128
 43
0.0
 10
5.004225516313962
 20
5.217545715265739
 10
5.000085552930274
 20
5.218178703388749
 10
4.9915072458688
 20
5.216756420123143
 10
4.983120564888369
 20
5.211901356770268
 10
4.975670702360967
 20
5.204045037541535
 10
4.969819612188388
 20
5.193885510366327
 10
4.966087194518125
 20
5.182325383403656
 10
4.964805067993065
 20
5.170392038377765
  0
LWPOLYLINE
  5
15B
330
1F
100
AcDbEntity
  8
0
  6
Continuous
 62
     7
370
    15
100
AcDbPolyline
 90
       13
 70
   128
 43
0.0
 10
3.678843752704802
 20
6.024673752943138
 10
3.678862108984788
 20
6.024678585029972
 10
3.687248802928694
 20
6.025039875863519
 10
3.695827097026694
 20
6.021865716066035
 10
3.703834790828171
 20
6.015438307058893
 10
3.710560396995012
 20
6.006328511710686
 10
3.715406299349697
 20
5.995346151200878
 10
3.717941903121024
 20
5.98346670064514
 10
3.717941903121024
 20
5.971745863199626
 10
3.715406299349697
 20
5.961225045190873
 10
3.710560396995012
 20
5.952839084971802
 10
3.703834790828171
 20
5.947333159372227
 10
3.699967060410381
 20
5.945829296523414
  0
LWPOLYLINE
  5
15C
330
1F
100
AcDbEntity
  8
0
  6
Continuous
 62
     7
370
    15
100
AcDbPolyline
 90
       22
 70
   128
 43
0.0
 10
3.660546612089485
 20
5.992509514619125
 10
3.661789446323133
 20
5.980941509361247
 10
3.665407603928566
 20
5.969735437498733
 10
3.671079487028737
 20
5.959887170180877
 10
3.678301127586394
 20
5.952271449504392
 10
3.686430989172186
 20
5.94756502734726
 10
3.69474653956767
 20
5.946186291843502
 10
3.702509016284246
 20
5.948257709593463
 10
3.709028606913274
 20
5.953595004389159
 10
3.713726051557224
 20
5.961724142156592
 10
3.716183978188947
 20
5.971922685985856
 10
3.716183978188947
 20
5.983284471399384
 10
3.713726051557224
 20
5.994800167950716
 10
3.709028606913274
 20
6.005446159086003
 10
3.702509016284246
 20
6.014276935951458
 10
3.69474653956767
 20
6.020507519002435
 10
3.686430989172186
 20
6.023584439205284
 10
3.678301127586394
 20
6.023234176586108
 10
3.671079487028737
 20
6.019488111849065
 10
3.665407603928566
 20
6.012678823562634
 10
3.661789446323133
 20
6.003411440519901
 10
3.660546612089485
 20
5.992509514619125
  0
LWPOLYLINE
  5
15D
330
1F
100
AcDbEntity
  8
0
  6
Continuous
 62
     7
370
    15
100
AcDbPolyline
 90
       13
 70
   128
 43
0.0
 10
3.709247845195144
 20
5.948315721337247
 10
3.713115575612934
 20
5.94981958418606
 10
3.719841181779775
 20
5.955325509785634
 10
3.724687084134461
 20
5.963711470004706
 10
3.727222687905787
 20
5.974232288013459
 10
3.727222687905787
 20
5.985953125458973
 10
3.724687084134461
 20
5.99783257601471
 10
3.719841181779775
 20
6.008814936524519
 10
3.713115575612934
 20
6.017924731872725
 10
3.705107881811457
 20
6.024352140879868
 10
3.696529587713457
 20
6.027526300677351
 10
3.688142893769552
 20
6.027165009843804
 10
3.688124537489565
 20
6.02716017775697
  0
LWPOLYLINE
  5
15E
330
1F
100
AcDbEntity
  8
0
  6
Continuous
 62
     7
370
    15
100
AcDbPolyline
 90
       13
 70
   128
 43
0.0
 10
4.336232100244824
 20
5.141023093179411
 10
4.336250443561336
 20
5.141028070042739
 10
4.344637124541767
 20
5.141389364349344
 10
4.353215431603241
 20
5.138215201078804
 10
4.361223138368193
 20
5.131787788598603
 10
4.367948744535034
 20
5.122677993250395
 10
4.37279462096277
 20
5.111695498383268
 10
4.375330211770623
 20
5.099816192604024
 10
4.375330211770623
 20
5.088095213855074
 10
4.37279462096277
 20
5.077574533676699
 10
4.367948744535034
 20
5.069188566511511
 10
4.361223138368193
 20
5.063682499608499
 10
4.357355394986929
 20
5.062178781536182
  0
LWPOLYLINE
  5
15F
330
1F
100
AcDbEntity
  8
0
  6
Continuous
 62
     7
370
    15
100
AcDbPolyline
 90
       22
 70
   128
 43
0.0
 10
4.317934959629507
 20
5.108858996158835
 10
4.31917780682663
 20
5.097290987427898
 10
4.322795912578165
 20
5.086084929457617
 10
4.328467795678336
 20
5.076236520836325
 10
4.335689488089891
 20
5.068620927571044
 10
4.343819297821784
 20
5.063914519306144
 10
4.352134874144218
 20
5.06253577685627
 10
4.359897324933844
 20
5.064607060248911
 10
4.366416928526348
 20
5.069944492874986
 10
4.371114399097246
 20
5.078073482392865
 10
4.373572325728969
 20
5.088272167525565
 10
4.373572325728969
 20
5.099633952939094
 10
4.371114399097246
 20
5.111149649490425
 10
4.366416928526348
 20
5.121795647571827
 10
4.359897324933844
 20
5.130626427910342
 10
4.352134874144218
 20
5.136857004015203
 10
4.343819297821784
 20
5.139933931164168
 10
4.335689488089891
 20
5.13958365465276
 10
4.328467795678336
 20
5.135837603807949
 10
4.322795912578165
 20
5.129028315521518
 10
4.31917780682663
 20
5.119760918586553
 10
4.317934959629507
 20
5.108858996158835
  0
LWPOLYLINE
  5
160
330
1F
100
AcDbEntity
  8
0
  6
Continuous
 62
     7
370
    15
100
AcDbPolyline
 90
       13
 70
   128
 43
0.0
 10
4.366636179771692
 20
5.064665206350015
 10
4.370503923152956
 20
5.066168924422332
 10
4.377229529319797
 20
5.071674991325344
 10
4.382075405747534
 20
5.080060958490531
 10
4.384610996555386
 20
5.090581638668906
 10
4.384610996555386
 20
5.102302617417857
 10
4.382075405747534
 20
5.1141819231971
 10
4.377229529319797
 20
5.125164418064227
 10
4.370503923152956
 20
5.134274213412435
 10
4.362496216388005
 20
5.140701625892636
 10
4.35391790932653
 20
5.143875789163177
 10
4.345531228346099
 20
5.143514494856573
 10
4.345512885029587
 20
5.143509517993243
  0
LWPOLYLINE
  5
161
330
1F
100
AcDbEntity
  8
0
  6
Continuous
 62
     7
370
    15
100
AcDbPolyline
 90
       13
 70
   128
 43
0.0
 10
4.037921420004069
 20
5.476858616338823
 10
4.037939776284056
 20
5.476863448425658
 10
4.046326457264487
 20
5.477224742732262
 10
4.054904764325961
 20
5.47405057946172
 10
4.062912471090912
 20
5.467623166981521
 10
4.069638064294279
 20
5.458513516409809
 10
4.07448395368549
 20
5.447531018069621
 10
4.077019544493342
 20
5.435651570986942
 10
4.077019544493342
 20
5.423930733541428
 10
4.07448395368549
 20
5.413409912059617
 10
4.069638064294279
 20
5.405023948367488
 10
4.062912471090912
 20
5.399518019294854
 10
4.059044727709649
 20
5.3980141599191
  0
LWPOLYLINE
  5
162
330
1F
100
AcDbEntity
  8
0
  6
Continuous
 62
     7
370
    15
100
AcDbPolyline
 90
       22
 70
   128
 43
0.0
 10
4.019624292352227
 20
5.444694374541753
 10
4.020867126585875
 20
5.433126510587311
 10
4.024485245300884
 20
5.421920449143971
 10
4.030157128401055
 20
5.41207204052268
 10
4.037378820812611
 20
5.404456305953962
 10
4.045508630544505
 20
5.399750038992499
 10
4.053824206866937
 20
5.398371296542625
 10
4.061586657656564
 20
5.400442579935265
 10
4.068106261249067
 20
5.405779871257903
 10
4.072803718856491
 20
5.413909005552278
 10
4.075261658451689
 20
5.424107545908483
 10
4.075261658451689
 20
5.435469472625449
 10
4.072803718856491
 20
5.4469850313464
 10
4.068106261249067
 20
5.457631167258182
 10
4.061586657656564
 20
5.46646180629326
 10
4.053824206866937
 20
5.472692382398122
 10
4.045508630544505
 20
5.475769309547086
 10
4.037378820812611
 20
5.475419174339115
 10
4.030157128401055
 20
5.471672982190868
 10
4.024485245300884
 20
5.464863693904436
 10
4.020867126585875
 20
5.455596300442529
 10
4.019624292352227
 20
5.444694374541753
  0
LWPOLYLINE
  5
163
330
1F
100
AcDbEntity
  8
0
  6
Continuous
 62
     7
370
    15
100
AcDbPolyline
 90
       13
 70
   128
 43
0.0
 10
4.068325512494412
 20
5.400500584732933
 10
4.072193255875676
 20
5.402004444108686
 10
4.078918849079042
 20
5.40751037318132
 10
4.083764738470254
 20
5.41589633687345
 10
4.086300329278105
 20
5.426417158355261
 10
4.086300329278105
 20
5.438137995800775
 10
4.083764738470254
 20
5.450017442883455
 10
4.078918849079042
 20
5.46099994122364
 10
4.072193255875676
 20
5.470109591795353
 10
4.064185549110725
 20
5.476537004275553
 10
4.055607242049251
 20
5.479711167546095
 10
4.047220561068819
 20
5.479349873239491
 10
4.047202204788833
 20
5.479345041152656
  0
LWPOLYLINE
  5
164
330
1F
100
AcDbEntity
  8
0
  6
Continuous
 62
     7
370
    15
100
AcDbPolyline
 90
       13
 70
   128
 43
0.0
 10
4.358329185269422
 20
5.880266570630367
 10
4.358347528585934
 20
5.880271406190261
 10
4.366734209566365
 20
5.880632700496864
 10
4.37531251662784
 20
5.877458537226323
 10
4.383320236356265
 20
5.871031121273065
 10
4.390045829559632
 20
5.861921470701352
 10
4.394891705987368
 20
5.850938975834225
 10
4.39742729679522
 20
5.839059528751545
 10
4.39742729679522
 20
5.827338691306032
 10
4.394891705987368
 20
5.81681786982422
 10
4.390045829559632
 20
5.808431902659031
 10
4.383320236356265
 20
5.802925973586399
 10
4.379452480011527
 20
5.801422117683704
  0
LWPOLYLINE
  5
165
330
1F
100
AcDbEntity
  8
0
  6
Continuous
 62
     7
370
    15
100
AcDbPolyline
 90
       22
 70
   128
 43
0.0
 10
4.340032044654105
 20
5.848102332306354
 10
4.341274891851227
 20
5.83653432357542
 10
4.344892997602762
 20
5.825328406908575
 10
4.350564880702933
 20
5.815479998287282
 10
4.357786573114489
 20
5.807864263718563
 10
4.365916395809857
 20
5.803157993284043
 10
4.374231959168816
 20
5.801779254307227
 10
4.381994409958442
 20
5.803850537699868
 10
4.388514013550945
 20
5.809187829022506
 10
4.393211484121843
 20
5.817316959843823
 10
4.395669410753567
 20
5.827515503673086
 10
4.395669410753567
 20
5.838877430390051
 10
4.393211484121843
 20
5.850392985637945
 10
4.388514013550945
 20
5.861039125022784
 10
4.381994409958442
 20
5.869869764057862
 10
4.374231959168816
 20
5.876100340162723
 10
4.365916395809857
 20
5.879177263838631
 10
4.357786573114489
 20
5.878827132103717
 10
4.350564880702933
 20
5.87508093995547
 10
4.344892997602762
 20
5.868271651669039
 10
4.341274891851227
 20
5.859004254734073
 10
4.340032044654105
 20
5.848102332306354
  0
LWPOLYLINE
  5
166
330
1F
100
AcDbEntity
  8
0
  6
Continuous
 62
     7
370
    15
100
AcDbPolyline
 90
       13
 70
   128
 43
0.0
 10
4.38873326479629
 20
5.803908542497535
 10
4.392601021141028
 20
5.805412398400232
 10
4.399326614344395
 20
5.810918327472864
 10
4.404172490772132
 20
5.819304294638052
 10
4.406708081579983
 20
5.829825116119864
 10
4.406708081579983
 20
5.841545953565376
 10
4.404172490772132
 20
5.853425400648057
 10
4.399326614344395
 20
5.864407895515185
 10
4.392601021141028
 20
5.873517546086898
 10
4.384593301412603
 20
5.879944962040156
 10
4.376014994351129
 20
5.883119125310697
 10
4.367628313370697
 20
5.882757831004092
 10
4.367609970054186
 20
5.8827529954442
  0
LWPOLYLINE
  5
167
330
1F
100
AcDbEntity
  8
0
  6
Continuous
 62
     7
370
    15
100
AcDbPolyline
 90
       13
 70
   128
 43
0.0
 10
4.711882558626459
 20
5.973718229054562
 10
4.711900914906446
 20
5.973723202444833
 10
4.720287608850351
 20
5.974084493278379
 10
4.728865902948351
 20
5.97091019217746
 10
4.736873596749828
 20
5.964482783170318
 10
4.743599202916669
 20
5.955373270428983
 10
4.748445105271355
 20
5.944390627312302
 10
4.750980709042681
 20
5.932511318060001
 10
4.750980709042681
 20
5.920790480614487
 10
4.748445105271355
 20
5.910269521302298
 10
4.743599202916669
 20
5.901883702386663
 10
4.736873596749828
 20
5.89637763548365
 10
4.733005866332039
 20
5.894873772634839
  0
LWPOLYLINE
  5
168
330
1F
100
AcDbEntity
  8
0
  6
Continuous
 62
     7
370
    15
100
AcDbPolyline
 90
       22
 70
   128
 43
0.0
 10
4.693585418011142
 20
5.941554132033985
 10
4.694828304098688
 20
5.929986112883876
 10
4.698446409850223
 20
5.91878019621703
 10
4.704118292950394
 20
5.908931646292302
 10
4.711339985361949
 20
5.901315911723584
 10
4.719469795093843
 20
5.89660964476212
 10
4.727785345489328
 20
5.895231050561799
 10
4.735547822205902
 20
5.897302327008325
 10
4.742067412834932
 20
5.902639480500583
 10
4.746764857478881
 20
5.910768618268017
 10
4.749222784110605
 20
5.920967303400716
 10
4.749222784110605
 20
5.932329230117681
 10
4.746764857478881
 20
5.943844644062139
 10
4.742067412834932
 20
5.954490776500862
 10
4.735547822205902
 20
5.963321553366319
 10
4.727785345489328
 20
5.969552136417297
 10
4.719469795093843
 20
5.972628915316708
 10
4.711339985361949
 20
5.972278780108736
 10
4.704118292950394
 20
5.968532587960489
 10
4.698446409850223
 20
5.961723440977495
 10
4.694828304098688
 20
5.952455902739094
 10
4.693585418011142
 20
5.941554132033985
  0
LWPOLYLINE
  5
169
330
1F
100
AcDbEntity
  8
0
  6
Continuous
 62
     7
370
    15
100
AcDbPolyline
 90
       13
 70
   128
 43
0.0
 10
4.742286651116802
 20
5.897360197448672
 10
4.746154381534591
 20
5.898864060297484
 10
4.752879987701432
 20
5.904370127200495
 10
4.757725890056118
 20
5.91275594611613
 10
4.760261493827445
 20
5.92327690542832
 10
4.760261493827445
 20
5.934997742873832
 10
4.757725890056118
 20
5.946877052126135
 10
4.752879987701432
 20
5.957859695242815
 10
4.746154381534591
 20
5.96696920798415
 10
4.738146687733114
 20
5.973396616991291
 10
4.729568393635115
 20
5.97657091809221
 10
4.721181699691209
 20
5.976209627258666
 10
4.721163343411223
 20
5.976204653868395
  0
LINE
  5
16A
330
1F
100
AcDbEntity
  8
0
  6
Continuous
 62
     7
370
    15
100
AcDbLine
 10
3.912453420260322
 20
5.679572759608016
 30
0.0
 11
3.926583166779769
 21
5.675787244355384
 31
0.0
  0
LINE
  5
16B
330
1F
100
AcDbEntity
  8
0
  6
Continuous
 62
     7
370
    15
100
AcDbLine
 10
4.509359666058908
 20
5.519654979430455
 30
0.0
 11
4.531171852802955
 21
5.51381125353635
 31
0.0
  0
LINE
  5
16C
330
1F
100
AcDbEntity
  8
0
  6
Continuous
 62
     7
370
    15
100
AcDbLine
 10
3.912453420260322
 20
5.679572759608016
 30
0.0
 11
3.912453420260322
 21
5.664518998007281
 31
0.0
  0
LINE
  5
16D
330
1F
100
AcDbEntity
  8
0
  6
Continuous
 62
     7
370
    15
100
AcDbLine
 10
3.912453420260322
 20
5.14814296987372
 30
0.0
 11
3.912453420260322
 21
3.752685481273052
 31
0.0
  0
LINE
  5
16E
330
1F
100
AcDbEntity
  8
0
  6
Continuous
 62
     7
370
    15
100
AcDbLine
 10
4.531171852802955
 20
5.51381125353635
 30
0.0
 11
4.531171852802955
 21
5.498757491935616
 31
0.0
  0
LINE
  5
16F
330
1F
100
AcDbEntity
  8
0
  6
Continuous
 62
     7
370
    15
100
AcDbLine
 10
4.531171852802955
 20
4.983659835991494
 30
0.0
 11
4.531171852802955
 21
3.586923975201387
 31
0.0
  0
LINE
  5
170
330
1F
100
AcDbEntity
  8
0
  6
Continuous
 62
     7
370
    15
100
AcDbLine
 10
3.912453420260322
 20
3.752685481273052
 30
0.0
 11
4.531171852802955
 21
3.586923975201387
 31
0.0
  0
LINE
  5
171
330
1F
100
AcDbEntity
  8
0
  6
Continuous
 62
     7
370
    15
100
AcDbLine
 10
5.14989028534559
 20
5.145182945487253
 30
0.0
 11
5.14989028534559
 21
3.752685481273052
 31
0.0
  0
LINE
  5
172
330
1F
100
AcDbEntity
  8
0
  6
Continuous
 62
     7
370
    15
100
AcDbLine
 10
4.531171852802955
 20
3.586923975201387
 30
0.0
 11
5.14989028534559
 21
3.752685481273052
 31
0.0
  0
LINE
  5
173
330
1F
100
AcDbEntity
  8
0
  6
Continuous
 62
     7
370
    15
100
AcDbLine
 10
4.904391646739881
 20
5.079411124628126
 30
0.0
 11
5.155944876141916
 21
5.14680501491763
 31
0.0
  0
LINE
  5
174
330
1F
100
AcDbEntity
  8
0
  6
Continuous
 62
     7
370
    15
100
AcDbLine
 10
4.904391646739881
 20
5.41382153293937
 30
0.0
 11
4.904391646739881
 21
5.079411124628126
 31
0.0
  0
LINE
  5
175
330
1F
100
AcDbEntity
  8
0
  6
Continuous
 62
     7
370
    15
100
AcDbLine
 10
4.895906378535372
 20
5.41609483006941
 30
0.0
 11
4.895906378535372
 21
5.081684421758165
 31
0.0
  0
LINE
  5
176
330
1F
100
AcDbEntity
  8
0
  6
Continuous
 62
     7
370
    15
100
AcDbLine
 10
4.895906378535372
 20
5.081684421758165
 30
0.0
 11
4.904391646739881
 21
5.079411124628126
 31
0.0
  0
LWPOLYLINE
  5
177
330
1F
100
AcDbEntity
  8
0
  6
Continuous
 62
     7
370
    15
100
AcDbPolyline
 90
        5
 70
   128
 43
0.0
 10
5.155944876141916
 20
5.14680501491763
 10
5.158836327290096
 20
5.14774892959606
 10
5.160984841710863
 20
5.148825827669408
 10
5.16230789392513
 20
5.149994331123384
 10
5.162754641185644
 20
5.151209533316667
  0
LWPOLYLINE
  5
178
330
1F
100
AcDbEntity
  8
0
  6
Continuous
 62
     7
370
    15
100
AcDbPolyline
 90
        9
 70
   128
 43
0.0
 10
3.910155307343056
 20
5.660588079703942
 10
3.916497453932217
 20
5.660607763540959
 10
3.92187405500871
 20
5.664062205032678
 10
3.9254665967884
 20
5.670425458744207
 10
3.926728124352372
 20
5.678728751919407
 10
3.9254665967884
 20
5.687707999447851
 10
3.92187405500871
 20
5.695996216453522
 10
3.916497453932217
 20
5.70233155964498
 10
3.910155307343056
 20
5.705749505809584
  0
LINE
  5
179
330
1F
100
AcDbEntity
  8
0
  6
Continuous
 62
     7
370
    15
100
AcDbLine
 10
3.910155307343056
 20
5.705749505809584
 30
0.0
 11
3.638803105833691
 21
5.778447759542237
 31
0.0
  0
LINE
  5
17A
330
1F
100
AcDbEntity
  8
0
  6
Continuous
 62
     7
370
    15
100
AcDbLine
 10
3.638803105833691
 20
5.778447759542237
 30
0.0
 11
3.638803105833691
 21
6.455869151126855
 31
0.0
  0
LINE
  5
17B
330
1F
100
AcDbEntity
  8
0
  6
Continuous
 62
     7
370
    15
100
AcDbLine
 10
3.638803105833691
 20
6.455869151126855
 30
0.0
 11
4.221812623568164
 21
6.299674457982455
 31
0.0
  0
LINE
  5
17C
330
1F
100
AcDbEntity
  8
0
  6
Continuous
 62
     7
370
    15
100
AcDbLine
 10
4.564043050065015
 20
6.207987144438975
 30
0.0
 11
4.787851578966669
 21
6.148026366044248
 31
0.0
  0
LINE
  5
17D
330
1F
100
AcDbEntity
  8
0
  6
Continuous
 62
     7
370
    15
100
AcDbLine
 10
4.787851578966669
 20
6.148026366044248
 30
0.0
 11
4.787851578966669
 21
5.470604974459631
 31
0.0
  0
LINE
  5
17E
330
1F
100
AcDbEntity
  8
0
  6
Continuous
 62
     7
370
    15
100
AcDbLine
 10
4.787851578966669
 20
5.470604974459631
 30
0.0
 11
4.516499377457304
 21
5.543303228192284
 31
0.0
  0
LWPOLYLINE
  5
17F
330
1F
100
AcDbEntity
  8
0
  6
Continuous
 62
     7
370
    15
100
AcDbPolyline
 90
        9
 70
   128
 43
0.0
 10
4.516499377457304
 20
5.543303228192284
 10
4.510157230868142
 20
5.543283544355267
 10
4.50478062979165
 20
5.539829102863548
 10
4.50118808801196
 20
5.533465849152019
 10
4.499926560447987
 20
5.52516255597682
 10
4.50118808801196
 20
5.516183308448375
 10
4.50478062979165
 20
5.507895091442704
 10
4.510157230868142
 20
5.501559748251247
 10
4.516499377457304
 20
5.498141802086643
  0
LINE
  5
180
330
1F
100
AcDbEntity
  8
0
  6
Continuous
 62
     7
370
    15
100
AcDbLine
 10
4.516499377457304
 20
5.498141802086643
 30
0.0
 11
4.520255881263311
 21
5.497135393200634
 31
0.0
  0
LINE
  5
181
330
1F
100
AcDbEntity
  8
0
  6
Continuous
 62
     7
370
    15
100
AcDbLine
 10
4.520255881263311
 20
4.985305944437846
 30
0.0
 11
3.906398803537047
 21
5.149765039827162
 31
0.0
  0
LINE
  5
182
330
1F
100
AcDbEntity
  8
0
  6
Continuous
 62
     7
370
    15
100
AcDbLine
 10
3.906398803537047
 20
5.66159448858995
 30
0.0
 11
3.910155307343056
 21
5.660588079703942
 31
0.0
  0
LWPOLYLINE
  5
183
330
1F
100
AcDbEntity
  8
0
  6
Continuous
 62
     7
370
    15
100
AcDbPolyline
 90
       22
 70
   128
 43
0.0
 10
4.18575017860423
 20
5.345892275726418
 10
4.186975353344649
 20
5.356639259917429
 10
4.190542020029105
 20
5.365774754103997
 10
4.196133262215299
 20
5.372487234702781
 10
4.203252272565247
 20
5.376180110944519
 10
4.211266498337471
 20
5.376525321299849
 10
4.219463838859468
 20
5.373492222924083
 10
4.227115924298154
 20
5.367350138449475
 10
4.233542834186204
 20
5.358645082432438
 10
4.238173508833964
 20
5.348150370161059
 10
4.240596494040428
 20
5.336798479459749
 10
4.240596494040428
 20
5.325598203874067
 10
4.238173508833964
 20
5.315544602203396
 10
4.233542834186204
 20
5.307530966460046
 10
4.227115924298154
 20
5.302269590819726
 10
4.219463838859468
 20
5.300227804166256
 10
4.211266498337471
 20
5.301586880730564
 10
4.203252272565247
 20
5.306226290398957
 10
4.196133262215299
 20
5.313733689742901
 10
4.190542020029105
 20
5.323442081492372
 10
4.186975353344649
 20
5.334488815828556
 10
4.18575017860423
 20
5.345892275726418
  0
LINE
  5
184
330
1F
100
AcDbEntity
  8
0
  6
Continuous
 62
     7
370
    15
100
AcDbLine
 10
3.64728839996515
 20
6.458142455203011
 30
0.0
 11
3.638803105833691
 21
6.455869151126855
 31
0.0
  0
LINE
  5
185
330
1F
100
AcDbEntity
  8
0
  6
Continuous
 62
     7
370
    15
100
AcDbLine
 10
3.64728839996515
 20
6.458142455203011
 30
0.0
 11
4.221812636531636
 21
6.304221062661708
 31
0.0
  0
LINE
  5
186
330
1F
100
AcDbEntity
  8
0
  6
Continuous
 62
     7
370
    15
100
AcDbLine
 10
4.572528344196474
 20
6.210260448515131
 30
0.0
 11
4.796336873098128
 21
6.150299670120404
 31
0.0
  0
LINE
  5
187
330
1F
100
AcDbEntity
  8
0
  6
Continuous
 62
     7
370
    15
100
AcDbLine
 10
4.796336873098128
 20
6.150299670120404
 30
0.0
 11
4.787851578966669
 21
6.148026366044248
 31
0.0
  0
LINE
  5
188
330
1F
100
AcDbEntity
  8
0
  6
Continuous
 62
     7
370
    15
100
AcDbLine
 10
4.796336873098128
 20
6.150299670120404
 30
0.0
 11
4.796336873098128
 21
5.472878278535785
 31
0.0
  0
LINE
  5
189
330
1F
100
AcDbEntity
  8
0
  6
Continuous
 62
     7
370
    15
100
AcDbLine
 10
4.796336873098128
 20
5.472878278535785
 30
0.0
 11
4.787851578966669
 21
5.470604974459631
 31
0.0
  0
ARC
  5
18A
330
1F
100
AcDbEntity
  8
0
  6
Continuous
 62
     7
370
    15
100
AcDbCircle
 10
4.536696105794407
 20
5.568252931174483
 30
0.0
 40
0.0729930489162815
100
AcDbArc
 50
256.9835965462214
 51
283.0164276616486
  0
ARC
  5
18B
330
1F
100
AcDbEntity
  8
0
  6
Continuous
 62
     7
370
    15
100
AcDbCircle
 10
4.53669613378171
 20
5.533820338378136
 30
0.0
 40
0.0353191507007994
100
AcDbArc
 50
256.9835532313625
 51
283.0164467686405
  0
ARC
  5
18C
330
1F
100
AcDbEntity
  8
0
  6
Continuous
 62
     7
370
    15
100
AcDbCircle
 10
4.536696105794407
 20
5.056423482411675
 30
0.0
 40
0.0729930489162625
100
AcDbArc
 50
256.983596546218
 51
283.0164276616521
  0
ARC
  5
18D
330
1F
100
AcDbEntity
  8
0
  6
Continuous
 62
     7
370
    15
100
AcDbCircle
 10
4.535030402340139
 20
5.525536362019233
 30
0.0
 40
0.0270553913690723
100
AcDbArc
 50
138.0429740619182
 51
248.2040401684217
  0
LINE
  5
18E
330
1F
100
AcDbEntity
  8
0
  6
Continuous
 62
     7
370
    15
100
AcDbLine
 10
4.804689589775195
 20
5.052699841673467
 30
0.0
 11
4.804689589775195
 21
5.440532840198161
 31
0.0
  0
LINE
  5
18F
330
1F
100
AcDbEntity
  8
0
  6
Continuous
 62
     7
370
    15
100
AcDbLine
 10
4.55313636037316
 20
4.985305951383963
 30
0.0
 11
4.804689589775195
 21
5.052699841673467
 31
0.0
  0
LINE
  5
190
330
1F
100
AcDbEntity
  8
0
  6
Continuous
 62
     7
370
    15
100
AcDbLine
 10
4.573276181117271
 20
5.502531080706707
 30
0.0
 11
4.55313636037316
 21
5.497135400146751
 31
0.0
  0
LINE
  5
191
330
1F
100
AcDbEntity
  8
0
  6
Continuous
 62
     7
370
    15
100
AcDbLine
 10
4.56479091291276
 20
5.504804377836747
 30
0.0
 11
4.54465109216865
 21
5.49940869727679
 31
0.0
  0
LINE
  5
192
330
1F
100
AcDbEntity
  8
0
  6
Continuous
 62
     7
370
    15
100
AcDbLine
 10
4.524984671588763
 20
5.500415106162797
 30
0.0
 11
4.52874117539477
 21
5.49940869727679
 31
0.0
  0
ARC
  5
193
330
1F
100
AcDbEntity
  8
0
  6
Continuous
 62
     7
370
    15
100
AcDbCircle
 10
4.224910690441523
 20
5.351269223770309
 30
0.0
 40
0.0308318275030652
100
AcDbArc
 50
124.1199898634758
 51
185.7773870579464
  0
ARC
  5
194
330
1F
100
AcDbEntity
  8
0
  6
Continuous
 62
     7
370
    15
100
AcDbCircle
 10
4.235963774738209
 20
5.343606810215554
 30
0.0
 40
0.0419765835694265
100
AcDbArc
 50
173.7652273804846
 51
258.4007267155294
  0
LINE
  5
195
330
1F
100
AcDbEntity
  8
0
  6
Continuous
 62
     7
370
    15
100
AcDbLine
 10
3.918640601474515
 20
5.662861383780098
 30
0.0
 11
3.920229223428752
 21
5.662539773730538
 31
0.0
  0
LINE
  5
196
330
1F
100
AcDbEntity
  8
0
  6
Continuous
 62
     7
370
    15
100
AcDbLine
 10
3.914884097668506
 20
5.663867792666106
 30
0.0
 11
3.918640601474515
 21
5.662861383780098
 31
0.0
  0
LWPOLYLINE
  5
197
330
1F
100
AcDbEntity
  8
0
  6
Continuous
 62
     7
370
    15
100
AcDbPolyline
 90
        5
 70
   128
 43
0.0
 10
3.899589064420269
 20
5.154169565172317
 10
3.900035785753834
 20
5.152954356032918
 10
3.9013588379681
 20
5.151785852578941
 10
3.903507378315817
 20
5.150708947559476
 10
3.906398803537047
 20
5.149765039827162
  0
LWPOLYLINE
  5
198
330
1F
100
AcDbEntity
  8
0
  6
Continuous
 62
     7
370
    15
100
AcDbPolyline
 90
        9
 70
   128
 43
0.0
 10
3.906398803537047
 20
5.66159448858995
 10
3.903507378315817
 20
5.662538396322265
 10
3.9013588379681
 20
5.663615301341729
 10
3.900035785753834
 20
5.664783804795706
 10
3.899589064420269
 20
5.665999013935105
 10
3.900035811680783
 20
5.667214216128388
 10
3.90135886389505
 20
5.668382719582365
 10
3.903507378315817
 20
5.669459617655713
 10
3.906398829463997
 20
5.670403532334144
  0
LWPOLYLINE
  5
199
330
1F
100
AcDbEntity
  8
0
  6
Continuous
 62
     7
370
    15
100
AcDbPolyline
 90
        7
 70
   128
 43
0.0
 10
3.912453420260322
 20
5.664840436481198
 10
3.912445382906091
 20
5.664845604391661
 10
3.911805220605044
 20
5.665411011305361
 10
3.911589041703171
 20
5.665999013935105
 10
3.911805220605044
 20
5.666587016564849
 10
3.91244540883304
 20
5.667152416532434
 10
3.912453420260322
 20
5.667157591389012
  0
LINE
  5
19A
330
1F
100
AcDbEntity
  8
0
  6
Continuous
 62
     7
370
    15
100
AcDbLine
 10
3.912453420260322
 20
5.672025624123008
 30
0.0
 11
3.906398829463997
 21
5.670403532334144
 31
0.0
  0
TEXT
  5
1A2
330
1F
100
AcDbEntity
  8
0
100
AcDbText
 10
3.389814753380171
 20
2.667526232933173
 30
0.0
 40
0.25
  1
USP  PBS
100
AcDbText
  0
TEXT
  5
1A3
330
1F
100
AcDbEntity
  8
0
100
AcDbText
 10
2.458620884441195
 20
2.191712807343993
 30
0.0
 40
0.25
  1
SIMPSON  AC
100
AcDbText
  0
TEXT
  5
1A4
330
1F
100
AcDbEntity
  8
0
100
AcDbText
 10
5.45354803736852
 20
2.713675720583335
 30
0.0
 40
0.125
  1
(WITH RT15 TIEDOWNS)
100
AcDbText
  0
ENDSEC
  0
SECTION
  2
OBJECTS
  0
DICTIONARY
  5
C
330
0
100
AcDbDictionary
281
     1
  3
ACAD_COLOR
350
19F
  3
ACAD_GROUP
350
D
  3
ACAD_LAYOUT
350
1A
  3
ACAD_MATERIAL
350
19E
  3
ACAD_MLINESTYLE
350
17
  3
ACAD_PLOTSETTINGS
350
19
  3
ACAD_PLOTSTYLENAME
350
E
  0
DICTIONARY
  5
19F
102
{ACAD_REACTORS
330
C
102
}
330
C
100
AcDbDictionary
281
     1
  0
DICTIONARY
  5
D
102
{ACAD_REACTORS
330
C
102
}
330
C
100
AcDbDictionary
281
     1
  0
DICTIONARY
  5
1A
102
{ACAD_REACTORS
330
C
102
}
330
C
100
AcDbDictionary
281
     1
  3
Layout1
350
1E
  3
Layout2
350
26
  3
Model
350
22
  0
DICTIONARY
  5
19E
102
{ACAD_REACTORS
330
C
102
}
330
C
100
AcDbDictionary
281
     1
  0
DICTIONARY
  5
17
102
{ACAD_REACTORS
330
C
102
}
330
C
100
AcDbDictionary
281
     1
  3
Standard
350
18
  0
DICTIONARY
  5
19
102
{ACAD_REACTORS
330
C
102
}
330
C
100
AcDbDictionary
281
     1
  0
ACDBDICTIONARYWDFLT
  5
E
102
{ACAD_REACTORS
330
C
102
}
330
C
100
AcDbDictionary
281
     1
  3
Normal
350
F
100
AcDbDictionaryWithDefault
340
F
  0
LAYOUT
  5
1E
102
{ACAD_REACTORS
330
1A
102
}
330
1A
100
AcDbPlotSettings
  1

  2
none_device
  4

  6

 40
0.0
 41
0.0
 42
0.0
 43
0.0
 44
0.0
 45
0.0
 46
0.0
 47
0.0
 48
0.0
 49
0.0
140
0.0
141
0.0
142
1.0
143
1.0
 70
   688
 72
     0
 73
     0
 74
     5
  7

 75
    16
147
1.0
 76
     0
 77
     2
 78
   300
148
0.0
149
0.0
100
AcDbLayout
  1
Layout1
 70
     1
 71
     1
 10
0.0
 20
0.0
 11
12.0
 21
9.0
 12
0.0
 22
0.0
 32
0.0
 14
1.000000000000000E+20
 24
1.000000000000000E+20
 34
1.000000000000000E+20
 15
-1.000000000000000E+20
 25
-1.000000000000000E+20
 35
-1.000000000000000E+20
146
0.0
 13
0.0
 23
0.0
 33
0.0
 16
1.0
 26
0.0
 36
0.0
 17
0.0
 27
1.0
 37
0.0
 76
     0
330
1B
  0
LAYOUT
  5
26
102
{ACAD_REACTORS
330
1A
102
}
330
1A
100
AcDbPlotSettings
  1

  2
none_device
  4

  6

 40
0.0
 41
0.0
 42
0.0
 43
0.0
 44
0.0
 45
0.0
 46
0.0
 47
0.0
 48
0.0
 49
0.0
140
0.0
141
0.0
142
1.0
143
1.0
 70
   688
 72
     0
 73
     0
 74
     5
  7

 75
    16
147
1.0
 76
     0
 77
     2
 78
   300
148
0.0
149
0.0
100
AcDbLayout
  1
Layout2
 70
     1
 71
     2
 10
0.0
 20
0.0
 11
0.0
 21
0.0
 12
0.0
 22
0.0
 32
0.0
 14
0.0
 24
0.0
 34
0.0
 15
0.0
 25
0.0
 35
0.0
146
0.0
 13
0.0
 23
0.0
 33
0.0
 16
1.0
 26
0.0
 36
0.0
 17
0.0
 27
1.0
 37
0.0
 76
     0
330
23
  0
LAYOUT
  5
22
102
{ACAD_REACTORS
330
1A
102
}
330
1A
100
AcDbPlotSettings
  1

  2
none_device
  4

  6

 40
0.0
 41
0.0
 42
0.0
 43
0.0
 44
0.0
 45
0.0
 46
0.0
 47
0.0
 48
0.0
 49
0.0
140
0.0
141
0.0
142
1.0
143
1.0
 70
  1712
 72
     0
 73
     0
 74
     0
  7

 75
     0
147
1.0
 76
     0
 77
     2
 78
   300
148
0.0
149
0.0
100
AcDbLayout
  1
Model
 70
     1
 71
     0
 10
0.0
 20
0.0
 11
8.5
 21
11.0
 12
0.0
 22
0.0
 32
0.0
 14
0.0
 24
0.0
 34
0.0
 15
8.5
 25
11.0
 35
0.0
146
0.0
 13
0.0
 23
0.0
 33
0.0
 16
1.0
 26
0.0
 36
0.0
 17
0.0
 27
1.0
 37
0.0
 76
     0
330
1F
  0
MLINESTYLE
  5
18
102
{ACAD_REACTORS
330
17
102
}
330
17
100
AcDbMlineStyle
  2
STANDARD
 70
     0
  3

 62
   256
 51
90.0
 52
90.0
 71
     2
 49
0.5
 62
   256
  6
BYLAYER
 49
-0.5
 62
   256
  6
BYLAYER
  0
ACDBPLACEHOLDER
  5
F
102
{ACAD_REACTORS
330
E
102
}
330
E
  0
ENDSEC
  0
EOF
