  0
SECTION
  2
HEADER
  9
$ACADVER
  1
AC1018
  9
$ACADMAINTVER
 70
     0
  9
$DWGCODEPAGE
  3
ANSI_1252
  9
$INSBASE
 10
0.0
 20
0.0
 30
0.0
  9
$EXTMIN
 10
0.2584915362048079
 20
3.119934111274705
 30
-0.0015258207003583
  9
$EXTMAX
 10
8.431518574398381
 20
7.610672018735989
 30
0.0000000349246037
  9
$LIMMIN
 10
0.0
 20
0.0
  9
$LIMMAX
 10
8.5
 20
11.0
  9
$ORTHOMODE
 70
     0
  9
$REGENMODE
 70
     1
  9
$FILLMODE
 70
     1
  9
$QTEXTMODE
 70
     0
  9
$MIRRTEXT
 70
     1
  9
$LTSCALE
 40
1.0
  9
$ATTMODE
 70
     1
  9
$TEXTSIZE
 40
0.25
  9
$TRACEWID
 40
0.05
  9
$TEXTSTYLE
  7
Standard
  9
$CLAYER
  8
0
  9
$CELTYPE
  6
ByLayer
  9
$CECOLOR
 62
   256
  9
$CELTSCALE
 40
1.0
  9
$DISPSILH
 70
     0
  9
$DIMSCALE
 40
1.0
  9
$DIMASZ
 40
0.156
  9
$DIMEXO
 40
0.05
  9
$DIMDLI
 40
0.38
  9
$DIMRND
 40
0.0
  9
$DIMDLE
 40
0.0
  9
$DIMEXE
 40
0.125
  9
$DIMTP
 40
0.0
  9
$DIMTM
 40
0.0
  9
$DIMTXT
 40
0.125
  9
$DIMCEN
 40
0.09
  9
$DIMTSZ
 40
0.0
  9
$DIMTOL
 70
     0
  9
$DIMLIM
 70
     0
  9
$DIMTIH
 70
     1
  9
$DIMTOH
 70
     1
  9
$DIMSE1
 70
     0
  9
$DIMSE2
 70
     0
  9
$DIMTAD
 70
     0
  9
$DIMZIN
 70
     0
  9
$DIMBLK
  1

  9
$DIMASO
 70
     1
  9
$DIMSHO
 70
     1
  9
$DIMPOST
  1

  9
$DIMAPOST
  1

  9
$DIMALT
 70
     0
  9
$DIMALTD
 70
     2
  9
$DIMALTF
 40
25.4
  9
$DIMLFAC
 40
32.0
  9
$DIMTOFL
 70
     0
  9
$DIMTVP
 40
0.0
  9
$DIMTIX
 70
     0
  9
$DIMSOXD
 70
     0
  9
$DIMSAH
 70
     0
  9
$DIMBLK1
  1

  9
$DIMBLK2
  1

  9
$DIMSTYLE
  2
Standard
  9
$DIMCLRD
 70
     0
  9
$DIMCLRE
 70
     0
  9
$DIMCLRT
 70
     0
  9
$DIMTFAC
 40
1.0
  9
$DIMGAP
 40
0.06
  9
$DIMJUST
 70
     0
  9
$DIMSD1
 70
     0
  9
$DIMSD2
 70
     0
  9
$DIMTOLJ
 70
     1
  9
$DIMTZIN
 70
     0
  9
$DIMALTZ
 70
     0
  9
$DIMALTTZ
 70
     0
  9
$DIMUPT
 70
     0
  9
$DIMDEC
 70
     3
  9
$DIMTDEC
 70
     3
  9
$DIMALTU
 70
     2
  9
$DIMALTTD
 70
     2
  9
$DIMTXSTY
  7
Standard
  9
$DIMAUNIT
 70
     0
  9
$DIMADEC
 70
     0
  9
$DIMALTRND
 40
0.0
  9
$DIMAZIN
 70
     0
  9
$DIMDSEP
 70
    46
  9
$DIMATFIT
 70
     3
  9
$DIMFRAC
 70
     0
  9
$DIMLDRBLK
  1

  9
$DIMLUNIT
 70
     2
  9
$DIMLWD
 70
    -2
  9
$DIMLWE
 70
    -2
  9
$DIMTMOVE
 70
     0
  9
$LUNITS
 70
     2
  9
$LUPREC
 70
     3
  9
$SKETCHINC
 40
0.1
  9
$FILLETRAD
 40
0.5
  9
$AUNITS
 70
     0
  9
$AUPREC
 70
     0
  9
$MENU
  1
.
  9
$ELEVATION
 40
0.0
  9
$PELEVATION
 40
0.0
  9
$THICKNESS
 40
0.0
  9
$LIMCHECK
 70
     0
  9
$CHAMFERA
 40
0.5
  9
$CHAMFERB
 40
0.5
  9
$CHAMFERC
 40
1.0
  9
$CHAMFERD
 40
0.0
  9
$SKPOLY
 70
     0
  9
$TDCREATE
 40
2456568.623939769
  9
$TDUCREATE
 40
2456568.832273102
  9
$TDUPDATE
 40
2456568.625422327
  9
$TDUUPDATE
 40
2456568.833755660
  9
$TDINDWG
 40
0.0013939583
  9
$TDUSRTIMER
 40
0.0013939583
  9
$USRTIMER
 70
     1
  9
$ANGBASE
 50
0.0
  9
$ANGDIR
 70
     0
  9
$PDMODE
 70
     0
  9
$PDSIZE
 40
-1.0
  9
$PLINEWID
 40
0.0
  9
$SPLFRAME
 70
     0
  9
$SPLINETYPE
 70
     6
  9
$SPLINESEGS
 70
     8
  9
$HANDSEED
  5
299
  9
$SURFTAB1
 70
     6
  9
$SURFTAB2
 70
     6
  9
$SURFTYPE
 70
     6
  9
$SURFU
 70
     6
  9
$SURFV
 70
     6
  9
$UCSBASE
  2

  9
$UCSNAME
  2

  9
$UCSORG
 10
0.0
 20
0.0
 30
0.0
  9
$UCSXDIR
 10
1.0
 20
0.0
 30
0.0
  9
$UCSYDIR
 10
0.0
 20
1.0
 30
0.0
  9
$UCSORTHOREF
  2

  9
$UCSORTHOVIEW
 70
     0
  9
$UCSORGTOP
 10
0.0
 20
0.0
 30
0.0
  9
$UCSORGBOTTOM
 10
0.0
 20
0.0
 30
0.0
  9
$UCSORGLEFT
 10
0.0
 20
0.0
 30
0.0
  9
$UCSORGRIGHT
 10
0.0
 20
0.0
 30
0.0
  9
$UCSORGFRONT
 10
0.0
 20
0.0
 30
0.0
  9
$UCSORGBACK
 10
0.0
 20
0.0
 30
0.0
  9
$PUCSBASE
  2

  9
$PUCSNAME
  2

  9
$PUCSORG
 10
0.0
 20
0.0
 30
0.0
  9
$PUCSXDIR
 10
1.0
 20
0.0
 30
0.0
  9
$PUCSYDIR
 10
0.0
 20
1.0
 30
0.0
  9
$PUCSORTHOREF
  2

  9
$PUCSORTHOVIEW
 70
     0
  9
$PUCSORGTOP
 10
0.0
 20
0.0
 30
0.0
  9
$PUCSORGBOTTOM
 10
0.0
 20
0.0
 30
0.0
  9
$PUCSORGLEFT
 10
0.0
 20
0.0
 30
0.0
  9
$PUCSORGRIGHT
 10
0.0
 20
0.0
 30
0.0
  9
$PUCSORGFRONT
 10
0.0
 20
0.0
 30
0.0
  9
$PUCSORGBACK
 10
0.0
 20
0.0
 30
0.0
  9
$USERI1
 70
     0
  9
$USERI2
 70
     0
  9
$USERI3
 70
     0
  9
$USERI4
 70
     0
  9
$USERI5
 70
     0
  9
$USERR1
 40
0.0
  9
$USERR2
 40
0.0
  9
$USERR3
 40
0.0
  9
$USERR4
 40
0.0
  9
$USERR5
 40
0.0
  9
$WORLDVIEW
 70
     1
  9
$SHADEDGE
 70
     3
  9
$SHADEDIF
 70
    70
  9
$TILEMODE
 70
     1
  9
$MAXACTVP
 70
    64
  9
$PINSBASE
 10
0.0
 20
0.0
 30
0.0
  9
$PLIMCHECK
 70
     0
  9
$PEXTMIN
 10
1.000000000000000E+20
 20
1.000000000000000E+20
 30
1.000000000000000E+20
  9
$PEXTMAX
 10
-1.000000000000000E+20
 20
-1.000000000000000E+20
 30
-1.000000000000000E+20
  9
$PLIMMIN
 10
0.0
 20
0.0
  9
$PLIMMAX
 10
12.0
 20
9.0
  9
$UNITMODE
 70
     0
  9
$VISRETAIN
 70
     1
  9
$PLINEGEN
 70
     0
  9
$PSLTSCALE
 70
     1
  9
$TREEDEPTH
 70
  3020
  9
$CMLSTYLE
  2
Standard
  9
$CMLJUST
 70
     0
  9
$CMLSCALE
 40
1.0
  9
$PROXYGRAPHICS
 70
     1
  9
$MEASUREMENT
 70
     0
  9
$CELWEIGHT
370
    -1
  9
$ENDCAPS
280
     0
  9
$JOINSTYLE
280
     0
  9
$LWDISPLAY
290
     1
  9
$INSUNITS
 70
     1
  9
$HYPERLINKBASE
  1

  9
$STYLESHEET
  1

  9
$XEDIT
290
     1
  9
$CEPSNTYPE
380
     0
  9
$PSTYLEMODE
290
     1
  9
$FINGERPRINTGUID
  2
{CC89D2A7-C58D-4FF0-86EF-31A243257EF2}
  9
$VERSIONGUID
  2
{AF74C09D-AD3F-4CB9-8DCC-B61EAC4F93B8}
  9
$EXTNAMES
290
     1
  9
$PSVPSCALE
 40
0.0
  9
$OLESTARTUP
290
     0
  9
$SORTENTS
280
   127
  9
$INDEXCTL
280
     0
  9
$HIDETEXT
280
     0
  9
$XCLIPFRAME
290
     0
  9
$HALOGAP
280
     0
  9
$OBSCOLOR
 70
   257
  9
$OBSLTYPE
280
     0
  9
$INTERSECTIONDISPLAY
280
     0
  9
$INTERSECTIONCOLOR
 70
   257
  9
$DIMASSOC
280
     1
  9
$PROJECTNAME
  1

  0
ENDSEC
  0
SECTION
  2
CLASSES
  0
CLASS
  1
ACDBDICTIONARYWDFLT
  2
AcDbDictionaryWithDefault
  3
ObjectDBX Classes
 90
        0
 91
        1
280
     0
281
     0
  0
CLASS
  1
VISUALSTYLE
  2
AcDbVisualStyle
  3
ObjectDBX Classes
 90
     4095
 91
        0
280
     0
281
     0
  0
CLASS
  1
MATERIAL
  2
AcDbMaterial
  3
ObjectDBX Classes
 90
        0
 91
        0
280
     0
281
     0
  0
ENDSEC
  0
SECTION
  2
TABLES
  0
TABLE
  2
VPORT
  5
8
330
0
100
AcDbSymbolTable
 70
     3
  0
VPORT
  5
298
330
8
100
AcDbSymbolTableRecord
100
AcDbViewportTableRecord
  2
*Active
 70
     0
 10
0.0
 20
0.0
 11
1.0
 21
1.0
 12
4.372081947619388
 22
5.339435554891297
 13
0.0
 23
0.0
 14
0.5
 24
0.5
 15
0.5
 25
0.5
 16
0.0
 26
0.0
 36
1.0
 17
0.0
 27
0.0
 37
0.0
 40
5.077864739650753
 41
2.144329896907216
 42
50.0
 43
0.0
 44
0.0
 50
0.0
 51
0.0
 71
     0
 72
  2000
 73
     1
 74
     3
 75
     0
 76
     0
 77
     0
 78
     0
281
     0
 65
     1
110
0.0
120
0.0
130
0.0
111
1.0
121
0.0
131
0.0
112
0.0
122
1.0
132
0.0
 79
     0
146
0.0
  0
ENDTAB
  0
TABLE
  2
LTYPE
  5
5
330
0
100
AcDbSymbolTable
 70
     6
  0
LTYPE
  5
14
330
5
100
AcDbSymbolTableRecord
100
AcDbLinetypeTableRecord
  2
ByBlock
 70
     0
  3

 72
    65
 73
     0
 40
0.0
  0
LTYPE
  5
15
330
5
100
AcDbSymbolTableRecord
100
AcDbLinetypeTableRecord
  2
ByLayer
 70
     0
  3

 72
    65
 73
     0
 40
0.0
  0
LTYPE
  5
16
330
5
100
AcDbSymbolTableRecord
100
AcDbLinetypeTableRecord
  2
Continuous
 70
     0
  3
Solid line
 72
    65
 73
     0
 40
0.0
  0
LTYPE
  5
3F
330
5
100
AcDbSymbolTableRecord
100
AcDbLinetypeTableRecord
  2
HIDDEN
 70
     0
  3
Hidden __ __ __ __ __ __ __ __ __ __ __ __ __ __
 72
    65
 73
     2
 40
0.075
 49
0.05
 74
     0
 49
-0.025
 74
     0
  0
LTYPE
  5
40
330
5
100
AcDbSymbolTableRecord
100
AcDbLinetypeTableRecord
  2
PHANTOM
 70
     0
  3
Phantom ______  __  __  ______  __  __  ______
 72
    65
 73
     6
 40
0.5
 49
0.25
 74
     0
 49
-0.05
 74
     0
 49
0.05
 74
     0
 49
-0.05
 74
     0
 49
0.05
 74
     0
 49
-0.05
 74
     0
  0
LTYPE
  5
41
330
5
100
AcDbSymbolTableRecord
100
AcDbLinetypeTableRecord
  2
CENTER
 70
     0
  3
Center ____ _ ____ _ ____ _ ____ _ ____ _ ____
 72
    65
 73
     4
 40
0.4
 49
0.25
 74
     0
 49
-0.05
 74
     0
 49
0.05
 74
     0
 49
-0.05
 74
     0
  0
LTYPE
  5
42
330
5
100
AcDbSymbolTableRecord
100
AcDbLinetypeTableRecord
  2
CENTERX2
 70
     0
  3
Center (2x) ________  __  ________  __  _____
 72
    65
 73
     4
 40
0.8
 49
0.5
 74
     0
 49
-0.1
 74
     0
 49
0.1
 74
     0
 49
-0.1
 74
     0
  0
LTYPE
  5
43
330
5
100
AcDbSymbolTableRecord
100
AcDbLinetypeTableRecord
  2
DOT2
 70
     0
  3
Dot (.5x) ........................................
 72
    65
 73
     2
 40
0.025
 49
0.0
 74
     0
 49
-0.025
 74
     0
  0
ENDTAB
  0
TABLE
  2
LAYER
  5
2
330
0
100
AcDbSymbolTable
 70
     8
  0
LAYER
  5
10
330
2
100
AcDbSymbolTableRecord
100
AcDbLayerTableRecord
  2
0
 70
     0
 62
     7
  6
Continuous
370
    -3
390
F
  0
LAYER
  5
44
330
2
100
AcDbSymbolTableRecord
100
AcDbLayerTableRecord
  2
SLD-0
 70
     0
 62
   179
  6
Continuous
370
    -3
390
F
  0
LAYER
  5
45
330
2
100
AcDbSymbolTableRecord
100
AcDbLayerTableRecord
  2
SLD-DEFPOINTS
 70
     0
 62
   179
  6
Continuous
370
    -3
390
F
  0
LAYER
  5
46
330
2
100
AcDbSymbolTableRecord
100
AcDbLayerTableRecord
  2
OBJ
 70
     0
 62
   179
  6
Continuous
370
    -3
390
F
  0
LAYER
  5
47
330
2
100
AcDbSymbolTableRecord
100
AcDbLayerTableRecord
  2
FORMAT
 70
     0
 62
     7
  6
Continuous
370
    -3
390
F
  0
LAYER
  5
48
330
2
100
AcDbSymbolTableRecord
100
AcDbLayerTableRecord
  2
BLANK-SIZE-1
 70
     0
 62
     7
  6
Continuous
370
    -3
390
F
  0
LAYER
  5
49
330
2
100
AcDbSymbolTableRecord
100
AcDbLayerTableRecord
  2
TOLERANCES
 70
     0
 62
     7
  6
Continuous
370
    -3
390
F
  0
LAYER
  5
4A
330
2
100
AcDbSymbolTableRecord
100
AcDbLayerTableRecord
  2
QTY-BLANK-SIZE-1
 70
     0
 62
     7
  6
Continuous
370
    -3
390
F
  0
ENDTAB
  0
TABLE
  2
STYLE
  5
3
330
0
100
AcDbSymbolTable
 70
     2
  0
STYLE
  5
11
330
3
100
AcDbSymbolTableRecord
100
AcDbTextStyleTableRecord
  2
Standard
 70
     0
 40
0.0
 41
1.0
 50
0.0
 71
     0
 42
0.25
  3
txt
  4

  0
STYLE
  5
28E
330
3
100
AcDbSymbolTableRecord
100
AcDbTextStyleTableRecord
  2
SLDTEXTSTYLE0
 70
     0
 40
0.0
 41
0.7
 50
0.0
 71
     0
 42
0.2
  3
TXT
  4

  0
ENDTAB
  0
TABLE
  2
VIEW
  5
6
330
0
100
AcDbSymbolTable
 70
     0
  0
ENDTAB
  0
TABLE
  2
UCS
  5
7
330
0
100
AcDbSymbolTable
 70
     0
  0
ENDTAB
  0
TABLE
  2
APPID
  5
9
330
0
100
AcDbSymbolTable
 70
     1
  0
APPID
  5
12
330
9
100
AcDbSymbolTableRecord
100
AcDbRegAppTableRecord
  2
ACAD
 70
     0
  0
ENDTAB
  0
TABLE
  2
DIMSTYLE
  5
A
330
0
100
AcDbSymbolTable
 70
     1
100
AcDbDimStyleTable
 71
     0
  0
DIMSTYLE
105
27
330
A
100
AcDbSymbolTableRecord
100
AcDbDimStyleTableRecord
  2
Standard
 70
     0
340
11
  0
ENDTAB
  0
TABLE
  2
BLOCK_RECORD
  5
1
330
0
100
AcDbSymbolTable
 70
     1
  0
BLOCK_RECORD
  5
1F
330
1
100
AcDbSymbolTableRecord
100
AcDbBlockTableRecord
  2
*Model_Space
340
22
  0
BLOCK_RECORD
  5
1B
330
1
100
AcDbSymbolTableRecord
100
AcDbBlockTableRecord
  2
*Paper_Space
340
1E
  0
BLOCK_RECORD
  5
23
330
1
100
AcDbSymbolTableRecord
100
AcDbBlockTableRecord
  2
*Paper_Space0
340
26
  0
ENDTAB
  0
ENDSEC
  0
SECTION
  2
BLOCKS
  0
BLOCK
  5
20
330
1F
100
AcDbEntity
  8
0
100
AcDbBlockBegin
  2
*Model_Space
 70
     0
 10
0.0
 20
0.0
 30
0.0
  3
*Model_Space
  1

  0
ENDBLK
  5
21
330
1F
100
AcDbEntity
  8
0
100
AcDbBlockEnd
  0
BLOCK
  5
1C
330
1B
100
AcDbEntity
 67
     1
  8
0
100
AcDbBlockBegin
  2
*Paper_Space
 70
     0
 10
0.0
 20
0.0
 30
0.0
  3
*Paper_Space
  1

  0
ENDBLK
  5
1D
330
1B
100
AcDbEntity
 67
     1
  8
0
100
AcDbBlockEnd
  0
BLOCK
  5
24
330
23
100
AcDbEntity
  8
0
100
AcDbBlockBegin
  2
*Paper_Space0
 70
     0
 10
0.0
 20
0.0
 30
0.0
  3
*Paper_Space0
  1

  0
ENDBLK
  5
25
330
23
100
AcDbEntity
  8
0
100
AcDbBlockEnd
  0
ENDSEC
  0
SECTION
  2
ENTITIES
  0
LINE
  5
4B
330
1F
100
AcDbEntity
  8
0
  6
Continuous
 62
     7
370
    15
100
AcDbLine
 10
7.415570387996476
 20
4.725485834335021
 30
0.0
 11
7.471451769686702
 21
4.779463104118327
 31
0.0
  0
ARC
  5
4C
330
1F
100
AcDbEntity
  8
0
  6
Continuous
 62
     7
370
    15
100
AcDbCircle
 10
7.431042274719856
 20
4.903111640123117
 30
0.0
 40
0.0160909090909092
100
AcDbArc
 50
53.69134761517369
 51
64.90794503729741
  0
ARC
  5
4D
330
1F
100
AcDbEntity
  8
0
  6
Continuous
 62
     7
370
    15
100
AcDbCircle
 10
7.431042274719856
 20
4.903111640123117
 30
0.0
 40
0.0160909090909088
100
AcDbArc
 50
287.1577933610295
 51
22.16851354368551
  0
LINE
  5
4E
330
1F
100
AcDbEntity
  8
0
  6
Continuous
 62
     7
370
    15
100
AcDbLine
 10
7.43789947525672
 20
4.917666070061009
 30
0.0
 11
7.437901709669021
 21
4.917661823680926
 31
0.0
  0
LINE
  5
4F
330
1F
100
AcDbEntity
  8
0
  6
Continuous
 62
     7
370
    15
100
AcDbLine
 10
7.435788138803387
 20
4.887735473199056
 30
0.0
 11
7.435806394623118
 21
4.887736465965641
 31
0.0
  0
SPLINE
  5
50
330
1F
100
AcDbEntity
  8
0
  6
Continuous
 62
     7
370
    15
100
AcDbSpline
210
0.0
220
0.0
230
1.0
 70
     8
 71
     3
 72
     9
 73
     5
 74
     0
 42
0.0000000001
 43
0.0000000001
 40
0.0
 40
0.0
 40
0.0
 40
0.0
 40
0.4844821210678515
 40
1.0
 40
1.0
 40
1.0
 40
1.0
 10
7.483368543620226
 20
4.924440885268933
 30
0.0
 10
7.48349660027353
 20
4.92475904266825
 30
0.0
 10
7.483760916845257
 20
4.925415738520342
 30
0.0
 10
7.484156609344593
 20
4.926068338484033
 30
0.0
 10
7.484360595902558
 20
4.926404765433107
 30
0.0
  0
LINE
  5
51
330
1F
100
AcDbEntity
  8
0
  6
Continuous
 62
     7
370
    15
100
AcDbLine
 10
0.2634286860160475
 20
5.416999767170913
 30
0.0
 11
0.381801399785972
 21
5.408790577552703
 31
0.0
  0
LINE
  5
52
330
1F
100
AcDbEntity
  8
0
  6
Continuous
 62
     7
370
    15
100
AcDbLine
 10
1.072968260180226
 20
5.36085791102765
 30
0.0
 11
1.096019156909127
 21
5.359259323176694
 31
0.0
  0
LINE
  5
53
330
1F
100
AcDbEntity
  8
0
  6
Continuous
 62
     7
370
    15
100
AcDbLine
 10
1.280306673231266
 20
5.346478918659672
 30
0.0
 11
1.336162575659394
 21
5.342605292046533
 31
0.0
  0
LINE
  5
54
330
1F
100
AcDbEntity
  8
0
  6
Continuous
 62
     7
370
    15
100
AcDbLine
 10
2.01965746562044
 20
5.295204679387829
 30
0.0
 11
2.195280328126244
 21
5.283025171681305
 31
0.0
  0
LINE
  5
55
330
1F
100
AcDbEntity
  8
0
  6
Continuous
 62
     7
370
    15
100
AcDbLine
 10
2.198425063978204
 20
5.328370804166913
 30
0.0
 11
2.022802201472399
 21
5.340550311873437
 31
0.0
  0
LINE
  5
56
330
1F
100
AcDbEntity
  8
0
  6
Continuous
 62
     7
370
    15
100
AcDbLine
 10
1.31969546380569
 20
5.389311013115495
 30
0.0
 11
1.280306674259316
 21
5.392042639618935
 31
0.0
  0
LINE
  5
57
330
1F
100
AcDbEntity
  8
0
  6
Continuous
 62
     7
370
    15
100
AcDbLine
 10
1.096019157937177
 20
5.404823044135957
 30
0.0
 11
1.068023731144125
 21
5.406764536897824
 31
0.0
  0
LINE
  5
58
330
1F
100
AcDbEntity
  8
0
  6
Continuous
 62
     7
370
    15
100
AcDbLine
 10
0.381801426571746
 20
5.454354296725657
 30
0.0
 11
0.2665734218680069
 21
5.46234539965652
 31
0.0
  0
LINE
  5
59
330
1F
100
AcDbEntity
  8
0
  6
Continuous
 62
     7
370
    15
100
AcDbLine
 10
6.491993546461211
 20
5.608177572712224
 30
0.0
 11
6.611609121952693
 21
5.5998821901935
 31
0.0
  0
LINE
  5
5A
330
1F
100
AcDbEntity
  8
0
  6
Continuous
 62
     7
370
    15
100
AcDbLine
 10
8.248222377581052
 20
5.486382481356526
 30
0.0
 11
8.423845549179551
 21
5.474202952214315
 31
0.0
  0
LINE
  5
5B
330
1F
100
AcDbEntity
  8
0
  6
Continuous
 62
     7
370
    15
100
AcDbLine
 10
8.426990285031511
 20
5.519548575040776
 30
0.0
 11
8.251367113433012
 21
5.531728104182988
 31
0.0
  0
LINE
  5
5C
330
1F
100
AcDbEntity
  8
0
  6
Continuous
 62
     7
370
    15
100
AcDbLine
 10
7.622262099253651
 20
5.575356759695631
 30
0.0
 11
7.506081161775089
 21
5.583413948851882
 31
0.0
  0
LINE
  5
5D
330
1F
100
AcDbEntity
  8
0
  6
Continuous
 62
     7
370
    15
100
AcDbLine
 10
7.313519710559237
 20
5.596768153683758
 30
0.0
 11
7.19128385327196
 21
5.605245253672917
 31
0.0
  0
LINE
  5
5E
330
1F
100
AcDbEntity
  8
0
  6
Continuous
 62
     7
370
    15
100
AcDbLine
 10
6.611608942676672
 20
5.645445913997767
 30
0.0
 11
6.49513828231317
 21
5.653523195538685
 31
0.0
  0
LINE
  5
5F
330
1F
100
AcDbEntity
  8
0
  6
Continuous
 62
     7
370
    15
100
AcDbLine
 10
3.545284726530929
 20
5.812532872865908
 30
0.0
 11
3.66489988989882
 21
5.804237518928101
 31
0.0
  0
LINE
  5
60
330
1F
100
AcDbEntity
  8
0
  6
Continuous
 62
     7
370
    15
100
AcDbLine
 10
5.30151355765077
 20
5.69073778151021
 30
0.0
 11
5.477136317125677
 21
5.678558280948916
 31
0.0
  0
LINE
  5
61
330
1F
100
AcDbEntity
  8
0
  6
Continuous
 62
     7
370
    15
100
AcDbLine
 10
5.480281052977637
 20
5.723903903775376
 30
0.0
 11
5.30465829350273
 21
5.736083404336671
 31
0.0
  0
LINE
  5
62
330
1F
100
AcDbEntity
  8
0
  6
Continuous
 62
     7
370
    15
100
AcDbLine
 10
4.675553279323369
 20
5.779712059849316
 30
0.0
 11
4.559372341844807
 21
5.787769249005566
 31
0.0
  0
LINE
  5
63
330
1F
100
AcDbEntity
  8
0
  6
Continuous
 62
     7
370
    15
100
AcDbLine
 10
4.366810684567159
 20
5.8011234681279
 30
0.0
 11
4.244574621218086
 21
5.809600582407518
 31
0.0
  0
LINE
  5
64
330
1F
100
AcDbEntity
  8
0
  6
Continuous
 62
     7
370
    15
100
AcDbLine
 10
3.664899916684594
 20
5.84980122844191
 30
0.0
 11
3.548429462382888
 21
5.857878495692368
 31
0.0
  0
SPLINE
  5
65
330
1F
100
AcDbEntity
  8
0
  6
Continuous
 62
     7
370
    15
100
AcDbSpline
210
0.0
220
0.0
230
1.0
 70
     8
 71
     3
 72
    27
 73
    23
 74
     0
 42
0.0000000001
 43
0.0000000001
 40
0.0
 40
0.0
 40
0.0
 40
0.0
 40
0.0397673315780136
 40
0.0900730931836569
 40
0.1407298356801006
 40
0.1916381791789313
 40
0.2427300368354354
 40
0.2939574326203714
 40
0.3506540267122879
 40
0.4067964708307303
 40
0.4622479592038673
 40
0.517037551473003
 40
0.5711889456339785
 40
0.6247143624455772
 40
0.6776198871236935
 40
0.7299033975560132
 40
0.7815532804107203
 40
0.8325466447523195
 40
0.8828468614431489
 40
0.9323991768940537
 40
0.9811239752048901
 40
0.9999999999999998
 40
0.9999999999999998
 40
0.9999999999999998
 40
0.9999999999999998
 10
1.140297181523787
 20
5.249275652571498
 30
0.0
 10
1.14133091415839
 20
5.248252684646896
 30
0.0
 10
1.143672320841434
 20
5.245935660055596
 30
0.0
 10
1.147668894037072
 20
5.242656023086823
 30
0.0
 10
1.152204983318049
 20
5.239402509302668
 30
0.0
 10
1.157006477779274
 20
5.236479901298932
 30
0.0
 10
1.162030416806059
 20
5.233902760582073
 30
0.0
 10
1.167430593847996
 20
5.231617311730031
 30
0.0
 10
1.173171987126609
 20
5.229695276917909
 30
0.0
 10
1.179202997594066
 20
5.228205074183793
 30
0.0
 10
1.185265276153235
 20
5.227211736842742
 30
0.0
 10
1.191314023202568
 20
5.226705035850151
 30
0.0
 10
1.197312381589298
 20
5.226670949016707
 30
0.0
 10
1.203225172992421
 20
5.227093469712286
 30
0.0
 10
1.209018782179938
 20
5.227954240656391
 30
0.0
 10
1.214661113759384
 20
5.229232986293825
 30
0.0
 10
1.220122123663339
 20
5.230906376651634
 30
0.0
 10
1.225371333657513
 20
5.232950850451498
 30
0.0
 10
1.230386613499622
 20
5.23533171580213
 30
0.0
 10
1.23512159644806
 20
5.238041020729212
 30
0.0
 10
1.238732627945262
 20
5.240379781318337
 30
0.0
 10
1.240673070180587
 20
5.241906196548076
 30
0.0
 10
1.241214895473012
 20
5.242332414017041
 30
0.0
  0
LINE
  5
66
330
1F
100
AcDbEntity
  8
0
  6
Continuous
 62
     7
370
    15
100
AcDbLine
 10
1.254488600892283
 20
5.246072120097267
 30
0.0
 11
1.281612534395883
 21
5.244191065703637
 31
0.0
  0
SPLINE
  5
67
330
1F
100
AcDbEntity
  8
0
  6
Continuous
 62
     7
370
    15
100
AcDbSpline
210
0.0
220
0.0
230
1.0
 70
     8
 71
     3
 72
    13
 73
     9
 74
     0
 42
0.0000000001
 43
0.0000000001
 40
0.0
 40
0.0
 40
0.0
 40
0.0
 40
0.1492110255985053
 40
0.3273273239382147
 40
0.5144048656369873
 40
0.7068933674791551
 40
0.9219432426250369
 40
1.0
 40
1.0
 40
1.0
 40
1.0
 10
1.241229777176044
 20
5.242274836348213
 30
0.0
 10
1.241713706694153
 20
5.242623051738104
 30
0.0
 10
1.242775312922658
 20
5.243386939066602
 30
0.0
 10
1.244854115650559
 20
5.244459522559186
 30
0.0
 10
1.247340054039398
 20
5.245380488294435
 30
0.0
 10
1.250198914080559
 20
5.245980386941866
 30
0.0
 10
1.252633116932827
 20
5.246214125179545
 30
0.0
 10
1.254093197330226
 20
5.246057983555319
 30
0.0
 10
1.254482028999942
 20
5.246016401729709
 30
0.0
  0
SPLINE
  5
68
330
1F
100
AcDbEntity
  8
0
  6
Continuous
 62
     7
370
    15
100
AcDbSpline
210
0.0
220
0.0
230
1.0
 70
     8
 71
     3
 72
    13
 73
     9
 74
     0
 42
0.0000000001
 43
0.0000000001
 40
0.0
 40
0.0
 40
0.0
 40
0.0
 40
0.1306173863417077
 40
0.3315543324263893
 40
0.5243681229762862
 40
0.7086105500485288
 40
0.8830968735098338
 40
1.0
 40
1.0
 40
1.0
 40
1.0
 10
1.127622993532541
 20
5.254814037486459
 30
0.0
 10
1.12828013783735
 20
5.254772408239626
 30
0.0
 10
1.129948208584982
 20
5.254666738102366
 30
0.0
 10
1.1325012663829
 20
5.253995408223388
 30
0.0
 10
1.135143406666477
 20
5.252948060075636
 30
0.0
 10
1.137401398801972
 20
5.251647949058245
 30
0.0
 10
1.139125430493687
 20
5.250365979359596
 30
0.0
 10
1.139933202552188
 20
5.249561410162967
 30
0.0
 10
1.140257274268394
 20
5.249238623409434
 30
0.0
  0
LINE
  5
69
330
1F
100
AcDbEntity
  8
0
  6
Continuous
 62
     7
370
    15
100
AcDbLine
 10
1.100501454217057
 20
5.256751183249277
 30
0.0
 11
1.127625394160089
 21
5.254870128409071
 31
0.0
  0
LINE
  5
6A
330
1F
100
AcDbEntity
  8
0
  6
Continuous
 62
     7
370
    15
100
AcDbLine
 10
4.611621282917146
 20
5.849261729244414
 30
0.0
 11
4.584497368731839
 21
5.851142782298313
 31
0.0
  0
SPLINE
  5
6B
330
1F
100
AcDbEntity
  8
0
  6
Continuous
 62
     7
370
    15
100
AcDbSpline
210
0.0
220
0.0
230
1.0
 70
     8
 71
     3
 72
    27
 73
    23
 74
     0
 42
0.0000000001
 43
0.0000000001
 40
0.0
 40
0.0
 40
0.0
 40
0.0
 40
0.0402903086458666
 40
0.0905765327392918
 40
0.1412132376149545
 40
0.1921020312632206
 40
0.2431737975064242
 40
0.2943814867380661
 40
0.3510574576006225
 40
0.4071773538149082
 40
0.4626085450789917
 40
0.5173754799398364
 40
0.5715070970965743
 40
0.625011992827856
 40
0.6778969409639382
 40
0.7301603416281742
 40
0.7817906375935824
 40
0.832764615610001
 40
0.8830448889384019
 40
0.9325782520249576
 40
0.9812844145066456
 40
0.9999999999999998
 40
0.9999999999999998
 40
0.9999999999999998
 40
0.9999999999999998
 10
4.571868188041944
 20
5.856696308730204
 30
0.0
 10
4.570820547755333
 20
5.857733219888507
 30
0.0
 10
4.568465350490575
 20
5.860064297029246
 30
0.0
 10
4.5644540456325
 20
5.86335701857078
 30
0.0
 10
4.559917827737421
 20
5.866610368790057
 30
0.0
 10
4.55511641251524
 20
5.869533011404912
 30
0.0
 10
4.550092479954612
 20
5.872110168821477
 30
0.0
 10
4.544692264507404
 20
5.874395589312678
 30
0.0
 10
4.5389508610686
 20
5.876317620782483
 30
0.0
 10
4.53291980268233
 20
5.877807865764638
 30
0.0
 10
4.526857575672347
 20
5.878801165940082
 30
0.0
 10
4.520808806431293
 20
5.879307890571182
 30
0.0
 10
4.514810461910509
 20
5.879341992947125
 30
0.0
 10
4.508897636276635
 20
5.878919479916874
 30
0.0
 10
4.503104029219216
 20
5.878058688709494
 30
0.0
 10
4.497461696678261
 20
5.876779926400524
 30
0.0
 10
4.492000669495008
 20
5.875106536905578
 30
0.0
 10
4.486751426254792
 20
5.873062142800065
 30
0.0
 10
4.481736205956374
 20
5.870681153870362
 30
0.0
 10
4.477001251722111
 20
5.867971851541533
 30
0.0
 10
4.473394759070869
 20
5.865636365583998
 30
0.0
 10
4.471458611904962
 20
5.864113531591717
 30
0.0
 10
4.470921157316499
 20
5.863690808499678
 30
0.0
  0
SPLINE
  5
6C
330
1F
100
AcDbEntity
  8
0
  6
Continuous
 62
     7
370
    15
100
AcDbSpline
210
0.0
220
0.0
230
1.0
 70
     8
 71
     3
 72
    13
 73
     9
 74
     0
 42
0.0000000001
 43
0.0000000001
 40
0.0
 40
0.0
 40
0.0
 40
0.0
 40
0.1313619809476745
 40
0.3330307324970014
 40
0.5265396995371613
 40
0.7114371232643481
 40
0.886556880130019
 40
1.0
 40
1.0
 40
1.0
 40
1.0
 10
4.584504040204197
 20
5.851198535263363
 30
0.0
 10
4.583845523135255
 20
5.851240236188165
 30
0.0
 10
4.582176041446189
 20
5.851345956956322
 30
0.0
 10
4.579621581063905
 20
5.852017455041221
 30
0.0
 10
4.576979250256855
 20
5.853064848392576
 30
0.0
 10
4.574721888651831
 20
5.854365044504966
 30
0.0
 10
4.573010242164794
 20
5.855636373087676
 30
0.0
 10
4.572212600071837
 20
5.85643028076435
 30
0.0
 10
4.571899021940831
 20
5.856742390779156
 30
0.0
  0
SPLINE
  5
6D
330
1F
100
AcDbEntity
  8
0
  6
Continuous
 62
     7
370
    15
100
AcDbSpline
210
0.0
220
0.0
230
1.0
 70
     8
 71
     3
 72
    13
 73
     9
 74
     0
 42
0.0000000001
 43
0.0000000001
 40
0.0
 40
0.0
 40
0.0
 40
0.0
 40
0.1499855380395706
 40
0.327882275920226
 40
0.5147307639759971
 40
0.7069714795832141
 40
0.9217652590459232
 40
1.0
 40
1.0
 40
1.0
 40
1.0
 10
4.470902716485808
 20
5.863744693523194
 30
0.0
 10
4.470415733843449
 20
5.863394210041224
 30
0.0
 10
4.469351144689071
 20
5.862628020692285
 30
0.0
 10
4.467268686513585
 20
5.861553417098955
 30
0.0
 10
4.464782723545302
 20
5.860632446731087
 30
0.0
 10
4.461923945976951
 20
5.860032425265587
 30
0.0
 10
4.459488303631535
 20
5.859798764310169
 30
0.0
 10
4.458026827740106
 20
5.859955143964628
 30
0.0
 10
4.457636632998604
 20
5.859996895264942
 30
0.0
  0
LINE
  5
6E
330
1F
100
AcDbEntity
  8
0
  6
Continuous
 62
     7
370
    15
100
AcDbLine
 10
4.457634187757369
 20
5.85994078882381
 30
0.0
 11
4.430510273572061
 21
5.861821841877709
 31
0.0
  0
LINE
  5
6F
330
1F
100
AcDbEntity
  8
0
  6
Continuous
 62
     7
370
    15
100
AcDbLine
 10
7.55833051497102
 20
5.644906400509813
 30
0.0
 11
7.531206600785713
 21
5.646787453563712
 31
0.0
  0
SPLINE
  5
70
330
1F
100
AcDbEntity
  8
0
  6
Continuous
 62
     7
370
    15
100
AcDbSpline
210
0.0
220
0.0
230
1.0
 70
     8
 71
     3
 72
    27
 73
    23
 74
     0
 42
0.0000000001
 43
0.0000000001
 40
0.0
 40
0.0
 40
0.0
 40
0.0
 40
0.0402888795534591
 40
0.090575170215502
 40
0.1412119421237469
 40
0.1921008031383088
 40
0.2431743880368264
 40
0.2943803469722497
 40
0.3510582307692849
 40
0.4071782012747704
 40
0.4626094659183499
 40
0.5173764732793518
 40
0.571508162095217
 40
0.6250112510928756
 40
0.6778962692377517
 40
0.7301615585461701
 40
0.7817919228594708
 40
0.832764243390558
 40
0.8830445832796987
 40
0.9325796111713009
 40
0.9812858381299298
 40
1.0
 40
1.0
 40
1.0
 40
1.0
 10
7.518577007972226
 20
5.652341008576521
 30
0.0
 10
7.517529442624931
 20
5.653377921920371
 30
0.0
 10
7.515174365722946
 20
5.655709051593346
 30
0.0
 10
7.511163063314461
 20
5.65900169613701
 30
0.0
 10
7.506626852536228
 20
5.662255048510249
 30
0.0
 10
7.501825396653257
 20
5.665177762109337
 30
0.0
 10
7.496801396859759
 20
5.66775475983618
 30
0.0
 10
7.491401182841008
 20
5.67004037329693
 30
0.0
 10
7.48565973766749
 20
5.671962274403705
 30
0.0
 10
7.479628625029296
 20
5.673452573289246
 30
0.0
 10
7.473566395008331
 20
5.674445864520465
 30
0.0
 10
7.467517626365739
 20
5.674952587985726
 30
0.0
 10
7.461519351745598
 20
5.674986703180148
 30
0.0
 10
7.455606592240173
 20
5.674564152240359
 30
0.0
 10
7.449812992145321
 20
5.67370334556679
 30
0.0
 10
7.444170580330327
 20
5.672424656749923
 30
0.0
 10
7.438709541015183
 20
5.670751280501429
 30
0.0
 10
7.433460400502035
 20
5.668706782023677
 30
0.0
 10
7.42844519037754
 20
5.666325791026021
 30
0.0
 10
7.423710126030816
 20
5.663616585552548
 30
0.0
 10
7.420103561923967
 20
5.661281178913684
 30
0.0
 10
7.418167565896621
 20
5.659758226409604
 30
0.0
 10
7.417630183308578
 20
5.659335494055536
 30
0.0
  0
SPLINE
  5
71
330
1F
100
AcDbEntity
  8
0
  6
Continuous
 62
     7
370
    15
100
AcDbSpline
210
0.0
220
0.0
230
1.0
 70
     8
 71
     3
 72
    13
 73
     9
 74
     0
 42
0.0000000001
 43
0.0000000001
 40
0.0
 40
0.0
 40
0.0
 40
0.0
 40
0.1313738068460417
 40
0.3330422834012567
 40
0.5265509865739304
 40
0.7114375167466868
 40
0.8865570348202711
 40
1.0
 40
1.0
 40
1.0
 40
1.0
 10
7.531213066196275
 20
5.646843220819222
 30
0.0
 10
7.530554477764476
 20
5.646884923700409
 30
0.0
 10
7.528884907547907
 20
5.646990643577977
 30
0.0
 10
7.526330413182505
 20
5.647662161110182
 30
0.0
 10
7.523688086757044
 20
5.64870950437102
 30
0.0
 10
7.521430901164682
 20
5.650009778030556
 30
0.0
 10
7.519719264486765
 20
5.651281055795233
 30
0.0
 10
7.518921625028238
 20
5.652074965516438
 30
0.0
 10
7.51860804793291
 20
5.652387076335014
 30
0.0
  0
SPLINE
  5
72
330
1F
100
AcDbEntity
  8
0
  6
Continuous
 62
     7
370
    15
100
AcDbSpline
210
0.0
220
0.0
230
1.0
 70
     8
 71
     3
 72
    13
 73
     9
 74
     0
 42
0.0000000001
 43
0.0000000001
 40
0.0
 40
0.0
 40
0.0
 40
0.0
 40
0.1499778635514459
 40
0.3278760454504664
 40
0.5147152318054636
 40
0.706968980974825
 40
0.921752615355631
 40
0.9999999999999998
 40
0.9999999999999998
 40
0.9999999999999998
 40
0.9999999999999998
 10
7.41761153641609
 20
5.65938939336951
 30
0.0
 10
7.417124631899693
 20
5.659038897807177
 30
0.0
 10
7.416060179296034
 20
5.658272657402062
 30
0.0
 10
7.413977719848268
 20
5.657198158604604
 30
0.0
 10
7.411491897976584
 20
5.656277041777357
 30
0.0
 10
7.40863304258574
 20
5.655677166281015
 30
0.0
 10
7.406197443126125
 20
5.65544343590204
 30
0.0
 10
7.40473592479686
 20
5.655599821533106
 30
0.0
 10
7.404345658990682
 20
5.655641580820801
 30
0.0
  0
LINE
  5
73
330
1F
100
AcDbEntity
  8
0
  6
Continuous
 62
     7
370
    15
100
AcDbLine
 10
7.404343007687651
 20
5.655585488670127
 30
0.0
 11
7.377219093502344
 21
5.657466541724026
 31
0.0
  0
LINE
  5
74
330
1F
100
AcDbEntity
  8
0
  6
Continuous
 62
     7
370
    15
100
AcDbLine
 10
6.750192383528927
 20
4.895634060022378
 30
0.0
 11
6.82702746958782
 21
4.890305519595274
 31
0.0
  0
LINE
  5
75
330
1F
100
AcDbEntity
  8
0
  6
Continuous
 62
     7
370
    15
100
AcDbLine
 10
6.750192383528927
 20
5.049304077593819
 30
0.0
 11
6.750192383528927
 21
4.895634060022378
 31
0.0
  0
LINE
  5
76
330
1F
100
AcDbEntity
  8
0
  6
Continuous
 62
     7
370
    15
100
AcDbLine
 10
6.947768142484544
 20
5.035602128744518
 30
0.0
 11
6.750192383528927
 21
5.049304077593819
 31
0.0
  0
LINE
  5
77
330
1F
100
AcDbEntity
  8
0
  6
Continuous
 62
     7
370
    15
100
AcDbLine
 10
6.947768142484544
 20
4.881932111173077
 30
0.0
 11
6.947768142484544
 21
5.035602128744518
 31
0.0
  0
LINE
  5
78
330
1F
100
AcDbEntity
  8
0
  6
Continuous
 62
     7
370
    15
100
AcDbLine
 10
6.870933056425649
 20
4.887260651600181
 30
0.0
 11
6.947768142484544
 21
4.881932111173077
 31
0.0
  0
LINE
  5
79
330
1F
100
AcDbEntity
  8
0
  6
Continuous
 62
     7
370
    15
100
AcDbLine
 10
6.870933056425649
 20
4.448203463138513
 30
0.0
 11
6.870933056425649
 21
4.887260651600181
 31
0.0
  0
LINE
  5
7A
330
1F
100
AcDbEntity
  8
0
  6
Continuous
 62
     7
370
    15
100
AcDbLine
 10
6.947768142484544
 20
4.442874922711411
 30
0.0
 11
6.870933056425649
 21
4.448203463138513
 31
0.0
  0
LINE
  5
7B
330
1F
100
AcDbEntity
  8
0
  6
Continuous
 62
     7
370
    15
100
AcDbLine
 10
6.947768142484544
 20
4.289204905139969
 30
0.0
 11
6.947768142484544
 21
4.442874922711411
 31
0.0
  0
LINE
  5
7C
330
1F
100
AcDbEntity
  8
0
  6
Continuous
 62
     7
370
    15
100
AcDbLine
 10
6.750192383528927
 20
4.302906853989269
 30
0.0
 11
6.947768142484544
 21
4.289204905139969
 31
0.0
  0
LINE
  5
7D
330
1F
100
AcDbEntity
  8
0
  6
Continuous
 62
     7
370
    15
100
AcDbLine
 10
6.750192383528927
 20
4.45657687156071
 30
0.0
 11
6.750192383528927
 21
4.302906853989269
 31
0.0
  0
LINE
  5
7E
330
1F
100
AcDbEntity
  8
0
  6
Continuous
 62
     7
370
    15
100
AcDbLine
 10
6.82702746958782
 20
4.451248331133608
 30
0.0
 11
6.750192383528927
 21
4.45657687156071
 31
0.0
  0
LINE
  5
7F
330
1F
100
AcDbEntity
  8
0
  6
Continuous
 62
     7
370
    15
100
AcDbLine
 10
6.82702746958782
 20
4.890305519595274
 30
0.0
 11
6.82702746958782
 21
4.451248331133608
 31
0.0
  0
LINE
  5
80
330
1F
100
AcDbEntity
  8
0
  6
Continuous
 62
     7
370
    15
100
AcDbLine
 10
7.465406257491756
 20
5.535602152701576
 30
0.0
 11
6.947768142484544
 21
5.035602128744518
 31
0.0
  0
LINE
  5
81
330
1F
100
AcDbEntity
  8
0
  6
Continuous
 62
     7
370
    15
100
AcDbLine
 10
7.465406257491756
 20
5.507773867782668
 30
0.0
 11
7.465406257491756
 21
5.535602152701576
 31
0.0
  0
LINE
  5
82
330
1F
100
AcDbEntity
  8
0
  6
Continuous
 62
     7
370
    15
100
AcDbLine
 10
7.442806798440027
 20
5.360102733971907
 30
0.0
 11
6.947768142484544
 21
4.881932111173077
 31
0.0
  0
LINE
  5
83
330
1F
100
AcDbEntity
  8
0
  6
Continuous
 62
     7
370
    15
100
AcDbLine
 10
6.825593520266402
 20
5.122135982900101
 30
0.0
 11
6.750192383528927
 21
5.049304077593819
 31
0.0
  0
LINE
  5
84
330
1F
100
AcDbEntity
  8
0
  6
Continuous
 62
     7
370
    15
100
AcDbLine
 10
7.465406257491756
 20
5.535602152701576
 30
0.0
 11
7.457174088748286
 21
5.53617305651912
 31
0.0
  0
LINE
  5
85
330
1F
100
AcDbEntity
  8
0
  6
Continuous
 62
     7
370
    15
100
AcDbLine
 10
6.870933056425649
 20
4.448203463138513
 30
0.0
 11
7.388571171432862
 21
4.948203487095571
 31
0.0
  0
LINE
  5
86
330
1F
100
AcDbEntity
  8
0
  6
Continuous
 62
     7
370
    15
100
AcDbLine
 10
7.388571171432862
 20
4.948203487095571
 30
0.0
 11
7.388571171432862
 21
5.307715207182322
 31
0.0
  0
LINE
  5
87
330
1F
100
AcDbEntity
  8
0
  6
Continuous
 62
     7
370
    15
100
AcDbLine
 10
7.428654311958015
 20
4.945423707105869
 30
0.0
 11
7.388571171432862
 21
4.948203487095571
 31
0.0
  0
LINE
  5
88
330
1F
100
AcDbEntity
  8
0
  6
Continuous
 62
     7
370
    15
100
AcDbLine
 10
7.420863531262103
 20
4.899849977029922
 30
0.0
 11
6.947768142484544
 21
4.442874922711411
 31
0.0
  0
LINE
  5
89
330
1F
100
AcDbEntity
  8
0
  6
Continuous
 62
     7
370
    15
100
AcDbLine
 10
7.413395549277862
 20
4.73896644278964
 30
0.0
 11
6.947768142484544
 21
4.289204905139969
 31
0.0
  0
LINE
  5
8A
330
1F
100
AcDbEntity
  8
0
  6
Continuous
 62
     7
370
    15
100
AcDbLine
 10
6.827027430230033
 20
4.530793827533436
 30
0.0
 11
6.750192383528927
 21
4.45657687156071
 31
0.0
  0
LINE
  5
8B
330
1F
100
AcDbEntity
  8
0
  6
Continuous
 62
     7
370
    15
100
AcDbLine
 10
7.452036781588077
 20
4.868328130036161
 30
0.0
 11
7.4525591345034
 21
4.868832684207508
 31
0.0
  0
LINE
  5
8C
330
1F
100
AcDbEntity
  8
0
  6
Continuous
 62
     7
370
    15
100
AcDbLine
 10
7.456196169550347
 20
4.856822775284046
 30
0.0
 11
7.452036781588077
 21
4.868328130036161
 31
0.0
  0
LINE
  5
8D
330
1F
100
AcDbEntity
  8
0
  6
Continuous
 62
     7
370
    15
100
AcDbLine
 10
7.460355543709094
 20
4.876363437211606
 30
0.0
 11
7.456196169550347
 21
4.856822775284046
 31
0.0
  0
LINE
  5
8E
330
1F
100
AcDbEntity
  8
0
  6
Continuous
 62
     7
370
    15
100
AcDbLine
 10
7.459833204597296
 20
4.875858896373439
 30
0.0
 11
7.460355543709094
 21
4.876363437211606
 31
0.0
  0
LINE
  5
8F
330
1F
100
AcDbEntity
  8
0
  6
Continuous
 62
     7
370
    15
100
AcDbLine
 10
7.459833204597296
 20
4.875858896373439
 30
0.0
 11
7.459833204597296
 21
4.877602629926352
 31
0.0
  0
LINE
  5
90
330
1F
100
AcDbEntity
  8
0
  6
Continuous
 62
     7
370
    15
100
AcDbLine
 10
7.459833204597296
 20
4.877602629926352
 30
0.0
 11
7.459649672956206
 21
4.877425351974282
 31
0.0
  0
LINE
  5
91
330
1F
100
AcDbEntity
  8
0
  6
Continuous
 62
     7
370
    15
100
AcDbLine
 10
7.459649672956206
 20
4.877425351974282
 30
0.0
 11
7.459649672956206
 21
4.876740428322662
 31
0.0
  0
LINE
  5
92
330
1F
100
AcDbEntity
  8
0
  6
Continuous
 62
     7
370
    15
100
AcDbLine
 10
7.452742652340966
 20
4.870068758727692
 30
0.0
 11
7.459649672956206
 21
4.876740428322662
 31
0.0
  0
LINE
  5
93
330
1F
100
AcDbEntity
  8
0
  6
Continuous
 62
     7
370
    15
100
AcDbLine
 10
7.452742652340966
 20
4.870068758727692
 30
0.0
 11
7.452742652340966
 21
4.870753682379312
 31
0.0
  0
LINE
  5
94
330
1F
100
AcDbEntity
  8
0
  6
Continuous
 62
     7
370
    15
100
AcDbLine
 10
7.452742652340966
 20
4.870753682379312
 30
0.0
 11
7.4525591345034
 21
4.870576417760421
 31
0.0
  0
LINE
  5
95
330
1F
100
AcDbEntity
  8
0
  6
Continuous
 62
     7
370
    15
100
AcDbLine
 10
7.4525591345034
 20
4.870576417760421
 30
0.0
 11
7.4525591345034
 21
4.868832684207508
 31
0.0
  0
ARC
  5
96
330
1F
100
AcDbEntity
  8
0
  6
Continuous
 62
     7
370
    15
100
AcDbCircle
 10
7.482279906528902
 20
4.899453448116042
 30
0.0
 40
0.0509695759812217
100
AcDbArc
 50
160.8444532065469
 51
189.803373860084
  0
ARC
  5
97
330
1F
100
AcDbEntity
  8
0
  6
Continuous
 62
     7
370
    15
100
AcDbCircle
 10
7.504366604986462
 20
5.256594104636315
 30
0.0
 40
0.0268926170568625
100
AcDbArc
 50
168.387393113437
 51
191.6126068865638
  0
LINE
  5
98
330
1F
100
AcDbEntity
  8
0
  6
Continuous
 62
     7
370
    15
100
AcDbLine
 10
7.478024453382131
 20
5.251180796865509
 30
0.0
 11
7.478024453382131
 21
4.899878636679567
 31
0.0
  0
ARC
  5
99
330
1F
100
AcDbEntity
  8
0
  6
Continuous
 62
     7
370
    15
100
AcDbCircle
 10
8.360980397869859
 20
4.830630893029355
 30
0.0
 40
0.8856672342967538
100
AcDbArc
 50
175.515632810788
 51
179.9513468845234
  0
LINE
  5
9A
330
1F
100
AcDbEntity
  8
0
  6
Continuous
 62
     7
370
    15
100
AcDbLine
 10
7.473842910765532
 20
4.829962499929931
 30
0.0
 11
7.475313482886106
 21
4.831382963520614
 31
0.0
  0
LINE
  5
9B
330
1F
100
AcDbEntity
  8
0
  6
Continuous
 62
     7
370
    15
100
AcDbLine
 10
7.473842910765532
 20
4.785214928093292
 30
0.0
 11
7.473842910765532
 21
4.829962499929931
 31
0.0
  0
LINE
  5
9C
330
1F
100
AcDbEntity
  8
0
  6
Continuous
 62
     7
370
    15
100
AcDbLine
 10
7.417961529075306
 20
4.731237658309986
 30
0.0
 11
7.473842910765532
 21
4.785214928093292
 31
0.0
  0
LINE
  5
9D
330
1F
100
AcDbEntity
  8
0
  6
Continuous
 62
     7
370
    15
100
AcDbLine
 10
7.417961529075306
 20
4.731237658309986
 30
0.0
 11
7.417961529075306
 21
4.775985230146624
 31
0.0
  0
LINE
  5
9E
330
1F
100
AcDbEntity
  8
0
  6
Continuous
 62
     7
370
    15
100
AcDbLine
 10
7.417961529075306
 20
4.775985230146624
 30
0.0
 11
7.416490970758254
 21
4.77456477988912
 31
0.0
  0
ARC
  5
9F
330
1F
100
AcDbEntity
  8
0
  6
Continuous
 62
     7
370
    15
100
AcDbCircle
 10
8.281746679412171
 20
4.775157856973757
 30
0.0
 40
0.8652559119119725
100
AcDbArc
 50
169.4943369881432
 51
180.0392725621049
  0
ARC
  5
A0
330
1F
100
AcDbEntity
  8
0
  6
Continuous
 62
     7
370
    15
100
AcDbCircle
 10
6.466398650954849
 20
5.11142710079905
 30
0.0
 40
0.9809741892058156
100
AcDbArc
 50
349.5156553012491
 51
0.0179461034629021
  0
LINE
  5
A1
330
1F
100
AcDbEntity
  8
0
  6
Continuous
 62
     7
370
    15
100
AcDbLine
 10
7.447372792040994
 20
5.111734360149664
 30
0.0
 11
7.447372792040994
 21
5.485627821986629
 31
0.0
  0
LINE
  5
A2
330
1F
100
AcDbEntity
  8
0
  6
Continuous
 62
     7
370
    15
100
AcDbLine
 10
7.447372792040994
 20
5.485627821986629
 30
0.0
 11
7.477895763137706
 21
5.515110748064018
 31
0.0
  0
ARC
  5
A3
330
1F
100
AcDbEntity
  8
0
  6
Continuous
 62
     7
370
    15
100
AcDbCircle
 10
7.486313754963497
 20
5.517031947794421
 30
0.0
 40
0.0086344423550791
100
AcDbArc
 50
192.8561597011521
 51
196.2545889823573
  0
LINE
  5
A4
330
1F
100
AcDbEntity
  8
0
  6
Continuous
 62
     7
370
    15
100
AcDbLine
 10
7.478024453382131
 20
5.514615116381941
 30
0.0
 11
7.478024453382131
 21
5.262007412407121
 31
0.0
  0
LINE
  5
A5
330
1F
100
AcDbEntity
  8
0
  6
Continuous
 62
     7
370
    15
100
AcDbLine
 10
7.442806874768956
 20
5.112051008129366
 30
0.0
 11
7.447372792040994
 21
5.111734360149664
 31
0.0
  0
LINE
  5
A6
330
1F
100
AcDbEntity
  8
0
  6
Continuous
 62
     7
370
    15
100
AcDbLine
 10
7.442806874768956
 20
5.485944469966332
 30
0.0
 11
7.447372792040994
 21
5.485627821986629
 31
0.0
  0
LINE
  5
A7
330
1F
100
AcDbEntity
  8
0
  6
Continuous
 62
     7
370
    15
100
AcDbLine
 10
7.442806874768956
 20
5.112051008129366
 30
0.0
 11
7.442806874768956
 21
5.485944469966332
 31
0.0
  0
LINE
  5
A8
330
1F
100
AcDbEntity
  8
0
  6
Continuous
 62
     7
370
    15
100
AcDbLine
 10
7.477895763137706
 20
5.515110748064018
 30
0.0
 11
7.473329845865668
 21
5.515427396043721
 31
0.0
  0
LINE
  5
A9
330
1F
100
AcDbEntity
  8
0
  6
Continuous
 62
     7
370
    15
100
AcDbLine
 10
7.473329845865668
 20
5.515427396043721
 30
0.0
 11
7.442806874768956
 21
5.485944469966332
 31
0.0
  0
LINE
  5
AA
330
1F
100
AcDbEntity
  8
0
  6
Continuous
 62
     7
370
    15
100
AcDbLine
 10
7.411925053486219
 20
4.774881427868823
 30
0.0
 11
7.416490970758254
 21
4.77456477988912
 31
0.0
  0
LINE
  5
AB
330
1F
100
AcDbEntity
  8
0
  6
Continuous
 62
     7
370
    15
100
AcDbLine
 10
7.426429229453426
 20
4.933238958268637
 30
0.0
 11
7.430995146725463
 21
4.932922310288934
 31
0.0
  0
ARC
  5
AC
330
1F
100
AcDbEntity
  8
0
  6
Continuous
 62
     7
370
    15
100
AcDbCircle
 10
8.277180762140243
 20
4.775474504953455
 30
0.0
 40
0.8652559119120809
100
AcDbArc
 50
169.4943369881442
 51
180.0392725621044
  0
ARC
  5
AD
330
1F
100
AcDbEntity
  8
0
  6
Continuous
 62
     7
370
    15
100
AcDbCircle
 10
6.461832733683067
 20
5.111743748778724
 30
0.0
 40
0.9809741892055605
100
AcDbArc
 50
349.515655301248
 51
0.0179461034645667
  0
LINE
  5
AE
330
1F
100
AcDbEntity
  8
0
  6
Continuous
 62
     7
370
    15
100
AcDbLine
 10
7.220434051426564
 20
5.506854302366746
 30
0.0
 11
7.218711786937003
 21
5.506973742018987
 31
0.0
  0
LINE
  5
AF
330
1F
100
AcDbEntity
  8
0
  6
Continuous
 62
     7
370
    15
100
AcDbLine
 10
7.218711786937003
 20
5.505191101423248
 30
0.0
 11
7.218711786937003
 21
5.506973742018987
 31
0.0
  0
LINE
  5
B0
330
1F
100
AcDbEntity
  8
0
  6
Continuous
 62
     7
370
    15
100
AcDbLine
 10
7.230983022211329
 20
5.518826845090928
 30
0.0
 11
7.232705286700889
 21
5.518707405438687
 31
0.0
  0
LINE
  5
B1
330
1F
100
AcDbEntity
  8
0
  6
Continuous
 62
     7
370
    15
100
AcDbLine
 10
7.218711786937003
 20
5.506973742018987
 30
0.0
 11
7.230983022211329
 21
5.518826845090928
 31
0.0
  0
LINE
  5
B2
330
1F
100
AcDbEntity
  8
0
  6
Continuous
 62
     7
370
    15
100
AcDbLine
 10
7.413395611803269
 20
4.731554306289688
 30
0.0
 11
7.417961529075306
 21
4.731237658309986
 31
0.0
  0
LINE
  5
B3
330
1F
100
AcDbEntity
  8
0
  6
Continuous
 62
     7
370
    15
100
AcDbLine
 10
7.413395611803269
 20
4.731554306289688
 30
0.0
 11
7.413395611803269
 21
4.774779439648488
 31
0.0
  0
LINE
  5
B4
330
1F
100
AcDbEntity
  8
0
  6
Continuous
 62
     7
370
    15
100
AcDbLine
 10
7.402419112062915
 20
4.728364018603083
 30
0.0
 11
7.409444170806404
 21
4.727876828291502
 31
0.0
  0
ARC
  5
B5
330
1F
100
AcDbEntity
  8
0
  6
Continuous
 62
     7
370
    15
100
AcDbCircle
 10
7.410098936794359
 20
4.731146446681573
 30
0.0
 40
0.0078631213228307
100
AcDbArc
 50
265.2234212044941
 51
0.6646417299571428
  0
ARC
  5
B6
330
1F
100
AcDbEntity
  8
0
  6
Continuous
 62
     7
370
    15
100
AcDbCircle
 10
7.465894574772362
 20
4.785146267326024
 30
0.0
 40
0.0079486325466262
100
AcDbArc
 50
314.3579253121083
 51
0.4949305536641394
  0
LINE
  5
B7
330
1F
100
AcDbEntity
  8
0
  6
Continuous
 62
     7
370
    15
100
AcDbLine
 10
7.409444170806404
 20
4.727876828291502
 30
0.0
 11
7.409444170806404
 21
4.723310634123928
 31
0.0
  0
ARC
  5
B8
330
1F
100
AcDbEntity
  8
0
  6
Continuous
 62
     7
370
    15
100
AcDbCircle
 10
7.409747679825291
 20
4.731512354381901
 30
0.0
 40
0.0036481731974406
100
AcDbArc
 50
265.2277735118344
 51
0.6588832567388229
  0
LINE
  5
B9
330
1F
100
AcDbEntity
  8
0
  6
Continuous
 62
     7
370
    15
100
AcDbLine
 10
7.487345890780254
 20
5.515928353086156
 30
0.0
 11
7.579306324776776
 21
5.509550864423376
 31
0.0
  0
LINE
  5
BA
330
1F
100
AcDbEntity
  8
0
  6
Continuous
 62
     7
370
    15
100
AcDbLine
 10
7.579306324776776
 20
5.114562598969889
 30
0.0
 11
7.579306324776776
 21
5.509550864423376
 31
0.0
  0
ARC
  5
BB
330
1F
100
AcDbEntity
  8
0
  6
Continuous
 62
     7
370
    15
100
AcDbCircle
 10
7.374994263813684
 20
5.123043900903929
 30
0.0
 40
0.2044880210121914
100
AcDbArc
 50
315.8856490999972
 51
357.6229305057649
  0
ARC
  5
BC
330
1F
100
AcDbEntity
  8
0
  6
Continuous
 62
     7
370
    15
100
AcDbCircle
 10
7.664375393476302
 20
4.841192823097641
 30
0.0
 40
0.1994703121663723
100
AcDbArc
 50
135.6215425997855
 51
154.6258589174249
  0
LINE
  5
BD
330
1F
100
AcDbEntity
  8
0
  6
Continuous
 62
     7
370
    15
100
AcDbLine
 10
7.48414822383254
 20
5.249998301456932
 30
0.0
 11
7.48414822383254
 21
4.92667131605317
 31
0.0
  0
ARC
  5
BE
330
1F
100
AcDbEntity
  8
0
  6
Continuous
 62
     7
370
    15
100
AcDbCircle
 10
7.480550905656361
 20
5.257509163762957
 30
0.0
 40
0.0083278899272703
100
AcDbArc
 50
295.5920328054822
 51
64.40796719451859
  0
LINE
  5
BF
330
1F
100
AcDbEntity
  8
0
  6
Continuous
 62
     7
370
    15
100
AcDbLine
 10
7.48414822383254
 20
5.513432620973364
 30
0.0
 11
7.48414822383254
 21
5.265020026068982
 31
0.0
  0
ARC
  5
C0
330
1F
100
AcDbEntity
  8
0
  6
Continuous
 62
     7
370
    15
100
AcDbCircle
 10
7.481268415961133
 20
5.520418764518361
 30
0.0
 40
0.0075564207802063
100
AcDbArc
 50
292.402294396417
 51
323.5407362136363
  0
LWPOLYLINE
  5
C1
330
1F
100
AcDbEntity
  8
0
  6
Continuous
 62
     7
370
    15
100
AcDbPolyline
 90
       25
 70
   128
 43
0.0
 10
7.529912075945178
 20
5.207356309980587
 10
7.531957857454193
 20
5.206945137299055
 10
7.533863929065636
 20
5.206023450544818
 10
7.53550047184813
 20
5.204654009077724
 10
7.536756624555518
 20
5.202930119840622
 10
7.537545841233552
 20
5.200969341530805
 10
7.537815370062499
 20
5.19890517719475
 10
7.537545841233552
 20
5.196878422455885
 10
7.536756624555518
 20
5.195027083300543
 10
7.53550047184813
 20
5.193477449091341
 10
7.533863929065636
 20
5.192334997267249
 10
7.531957857454193
 20
5.191677658237753
 10
7.529912075945178
 20
5.191550262658155
 10
7.527866706559753
 20
5.191961381001044
 10
7.525960634948312
 20
5.192883093513008
 10
7.524324092165818
 20
5.1942525349801
 10
7.523067939458428
 20
5.195976398459477
 10
7.522278310656801
 20
5.197937231107936
 10
7.522009193951445
 20
5.200001341105351
 10
7.522278310656801
 20
5.202028150182855
 10
7.523067939458428
 20
5.203879434999556
 10
7.524324092165818
 20
5.205429094966484
 10
7.525960634948312
 20
5.206571546790576
 10
7.527866706559753
 20
5.207228860062347
 10
7.529912075945178
 20
5.207356309980587
  0
LWPOLYLINE
  5
C2
330
1F
100
AcDbEntity
  8
0
  6
Continuous
 62
     7
370
    15
100
AcDbPolyline
 90
       25
 70
   128
 43
0.0
 10
7.513447738458236
 20
5.120686686362772
 10
7.515493107843661
 20
5.120275542262157
 10
7.517399179455102
 20
5.119353829750195
 10
7.519035722237596
 20
5.117984414040827
 10
7.520291874944986
 20
5.116260524803724
 10
7.521081503746612
 20
5.114299692155265
 10
7.521350620451968
 20
5.112235582157852
 10
7.521081503746612
 20
5.11020879883807
 10
7.520291874944986
 20
5.108357488263646
 10
7.519035722237596
 20
5.106807828296719
 10
7.517399179455102
 20
5.10566540223035
 10
7.515493107843661
 20
5.105008063200854
 10
7.513447738458236
 20
5.104880613282616
 10
7.511401956949221
 20
5.105291785964147
 10
7.509495885337778
 20
5.106213498476108
 10
7.507859342555284
 20
5.107582914185478
 10
7.506603189847895
 20
5.10930680342258
 10
7.505813973169861
 20
5.111267607490121
 10
7.505544444340913
 20
5.113331746068452
 10
7.505813973169861
 20
5.115358500807317
 10
7.506603189847895
 20
5.117209839962659
 10
7.507859342555284
 20
5.118759499929585
 10
7.509495885337778
 20
5.119901925995954
 10
7.511401956949221
 20
5.120559265025449
 10
7.513447738458236
 20
5.120686686362772
  0
LWPOLYLINE
  5
C3
330
1F
100
AcDbEntity
  8
0
  6
Continuous
 62
     7
370
    15
100
AcDbPolyline
 90
       25
 70
   128
 43
0.0
 10
7.513447738458236
 20
5.384121005879203
 10
7.515493107843661
 20
5.383709836020864
 10
7.517399179455102
 20
5.382788175024351
 10
7.519035722237596
 20
5.381418733557257
 10
7.520291874944986
 20
5.379694818562431
 10
7.521081503746612
 20
5.377734037429421
 10
7.521350620451968
 20
5.375669901674283
 10
7.521081503746612
 20
5.373643092596777
 10
7.520291874944986
 20
5.371791782022352
 10
7.519035722237596
 20
5.37024214781315
 10
7.517399179455102
 20
5.369099695989057
 10
7.515493107843661
 20
5.368442356959562
 10
7.513447738458236
 20
5.368314932799046
 10
7.511401956949221
 20
5.368726079722853
 10
7.509495885337778
 20
5.369647792234816
 10
7.507859342555284
 20
5.371017233701909
 10
7.506603189847895
 20
5.372741097181287
 10
7.505813973169861
 20
5.374701901248829
 10
7.505544444340913
 20
5.376766065584884
 10
7.505813973169861
 20
5.378792846081473
 10
7.506603189847895
 20
5.380644133721365
 10
7.507859342555284
 20
5.382193819446016
 10
7.509495885337778
 20
5.383336271270111
 10
7.511401956949221
 20
5.383993558784156
 10
7.513447738458236
 20
5.384121005879203
  0
LWPOLYLINE
  5
C4
330
1F
100
AcDbEntity
  8
0
  6
Continuous
 62
     7
370
    15
100
AcDbPolyline
 90
       25
 70
   128
 43
0.0
 10
7.529912075945178
 20
5.470790629497018
 10
7.531957857454193
 20
5.470379482573211
 10
7.533863929065636
 20
5.469457770061249
 10
7.53550047184813
 20
5.468088328594156
 10
7.536756624555518
 20
5.466364413599329
 10
7.537545841233552
 20
5.464403661047237
 10
7.537815370062499
 20
5.46233949671118
 10
7.537545841233552
 20
5.460312716214592
 10
7.536756624555518
 20
5.458461428574699
 10
7.53550047184813
 20
5.456911742850047
 10
7.533863929065636
 20
5.455769291025955
 10
7.531957857454193
 20
5.455112003511908
 10
7.529912075945178
 20
5.454984556416861
 10
7.527866706559753
 20
5.455395726275201
 10
7.525960634948312
 20
5.456317387271714
 10
7.524324092165818
 20
5.457686828738808
 10
7.523067939458428
 20
5.459410743733633
 10
7.522278310656801
 20
5.461371524866644
 10
7.522009193951445
 20
5.463435660621781
 10
7.522278310656801
 20
5.465462469699287
 10
7.523067939458428
 20
5.467313728758263
 10
7.524324092165818
 20
5.468863414482915
 10
7.525960634948312
 20
5.470005866307008
 10
7.527866706559753
 20
5.470663205336503
 10
7.529912075945178
 20
5.470790629497018
  0
LWPOLYLINE
  5
C5
330
1F
100
AcDbEntity
  8
0
  6
Continuous
 62
     7
370
    15
100
AcDbPolyline
 90
       25
 70
   128
 43
0.0
 10
7.546376825555709
 20
5.294025930775209
 10
7.548422194941134
 20
5.29361476091687
 10
7.550328266552575
 20
5.292693048404908
 10
7.551965221458662
 20
5.291323629872347
 10
7.55322096204246
 20
5.289599743458436
 10
7.554010590844086
 20
5.287638910809977
 10
7.554280119673033
 20
5.285574797989372
 10
7.554010590844086
 20
5.283548017492784
 10
7.55322096204246
 20
5.281696706918358
 10
7.551965221458662
 20
5.28014704412824
 10
7.550328266552575
 20
5.279004620885063
 10
7.548422194941134
 20
5.278347281855568
 10
7.546376825555709
 20
5.278219857695052
 10
7.544331456170286
 20
5.278630976037942
 10
7.542425384558844
 20
5.279552688549905
 10
7.540788429652757
 20
5.280922158597915
 10
7.539532689068961
 20
5.282645993496376
 10
7.538743060267334
 20
5.284606826144835
 10
7.538473943561978
 20
5.286670961899972
 10
7.538743060267334
 20
5.28869771946203
 10
7.539532689068961
 20
5.290549030036454
 10
7.540788429652757
 20
5.292098744342022
 10
7.542425384558844
 20
5.293241116069751
 10
7.544331456170286
 20
5.293898455099244
 10
7.546376825555709
 20
5.294025930775209
  0
LINE
  5
C6
330
1F
100
AcDbEntity
  8
0
  6
Continuous
 62
     7
370
    15
100
AcDbLine
 10
7.579306324776776
 20
5.509550864423376
 30
0.0
 11
7.580529827640139
 21
5.510732677437637
 31
0.0
  0
LINE
  5
C7
330
1F
100
AcDbEntity
  8
0
  6
Continuous
 62
     7
370
    15
100
AcDbLine
 10
7.487345890780254
 20
5.515928353086156
 30
0.0
 11
7.488569393643618
 21
5.517110166100418
 31
0.0
  0
LINE
  5
C8
330
1F
100
AcDbEntity
  8
0
  6
Continuous
 62
     7
370
    15
100
AcDbLine
 10
7.580529827640139
 20
5.510732677437637
 30
0.0
 11
7.488569393643618
 21
5.517110166100418
 31
0.0
  0
LINE
  5
C9
330
1F
100
AcDbEntity
  8
0
  6
Continuous
 62
     7
370
    15
100
AcDbLine
 10
7.580529827640139
 20
5.115744411984151
 30
0.0
 11
7.580529827640139
 21
5.510732677437637
 31
0.0
  0
LINE
  5
CA
330
1F
100
AcDbEntity
  8
0
  6
Continuous
 62
     7
370
    15
100
AcDbLine
 10
7.579306324776776
 20
5.114562598969889
 30
0.0
 11
7.580529827640139
 21
5.115744411984151
 31
0.0
  0
LWPOLYLINE
  5
CB
330
1F
100
AcDbEntity
  8
0
  6
Continuous
 62
     7
370
    15
100
AcDbPolyline
 90
       24
 70
   128
 43
0.0
 10
7.446103835602898
 20
4.905904255772854
 10
7.446433256769593
 20
4.906584659220861
 10
7.446410851659903
 20
4.90762298280426
 10
7.446038587377474
 20
4.908942150725792
 10
7.445343499707635
 20
4.91044440358905
 10
7.444378046133863
 20
4.912018227121936
 10
7.443212736952093
 20
4.913547021732419
 10
7.441934861453564
 20
4.914917307719238
 10
7.440638914439642
 20
4.916027483830956
 10
7.439420988169629
 20
4.916795218925123
 10
7.438370991280317
 20
4.917163614164235
 10
7.437567845231153
 20
4.9171052551062
 10
7.437070173014859
 20
4.916624540659454
 10
7.436914885251791
 20
4.915757123745466
 10
7.4371144470924
 20
4.91456727132923
 10
7.437652991570057
 20
4.913143303815916
 10
7.438491020513768
 20
4.911590812813857
 10
7.439566370723635
 20
4.910024902420242
 10
7.440799620845344
 20
4.908561733718308
 10
7.442098374284169
 20
4.907309853132978
 10
7.443367467652195
 20
4.906362047198034
 10
7.444511831990609
 20
4.905788670661056
 10
7.445447188304423
 20
4.905632190223863
 10
7.446103835602898
 20
4.905904255772854
  0
LINE
  5
CC
330
1F
100
AcDbEntity
  8
0
  6
Continuous
 62
     7
370
    15
100
AcDbLine
 10
7.398008565384937
 20
4.724103697409494
 30
0.0
 11
7.409444170806404
 21
4.723310634123928
 31
0.0
  0
ARC
  5
CD
330
1F
100
AcDbEntity
  8
0
  6
Continuous
 62
     7
370
    15
100
AcDbCircle
 10
7.429732036919086
 20
4.90209094319936
 30
0.0
 40
0.01298425260188
100
AcDbArc
 50
27.60450391513903
 51
48.25344412380171
  0
LINE
  5
CE
330
1F
100
AcDbEntity
  8
0
  6
Continuous
 62
     7
370
    15
100
AcDbLine
 10
7.23585180082484
 20
5.523529724096203
 30
0.0
 11
7.2375740653144
 21
5.523410284443961
 31
0.0
  0
LWPOLYLINE
  5
CF
330
1F
100
AcDbEntity
  8
0
  6
Continuous
 62
     7
370
    15
100
AcDbPolyline
 90
        3
 70
   128
 43
0.0
 10
7.235168471224922
 20
5.521087037792035
 10
7.235316334562719
 20
5.521545549479989
 10
7.23585180082484
 20
5.523529724096203
  0
SPLINE
  5
D0
330
1F
100
AcDbEntity
  8
0
  6
Continuous
 62
     7
370
    15
100
AcDbSpline
210
0.0
220
0.0
230
1.0
 70
     8
 71
     3
 72
    14
 73
    10
 74
     0
 42
0.0000000001
 43
0.0000000001
 40
0.0
 40
0.0
 40
0.0
 40
0.0
 40
0.2862266274409926
 40
0.4156085392170845
 40
0.5249257922617924
 40
0.625963939936768
 40
0.7366038447753582
 40
0.8604492323446057
 40
1.0
 40
1.0
 40
1.0
 40
1.0
 10
7.478024453382131
 20
5.514615116381941
 30
0.0
 10
7.478202297134258
 20
5.514086887355933
 30
0.0
 10
7.478460530907583
 20
5.513319885012951
 30
0.0
 10
7.479347087875446
 20
5.512784446109199
 30
0.0
 10
7.480101358707011
 20
5.512576676137768
 30
0.0
 10
7.480964083581053
 20
5.512590001388871
 30
0.0
 10
7.481938028231203
 20
5.512750323311358
 30
0.0
 10
7.483043857028478
 20
5.513038855263443
 30
0.0
 10
7.483765753520622
 20
5.513296249893264
 30
0.0
 10
7.48414822383254
 20
5.513432620973364
 30
0.0
  0
SPLINE
  5
D1
330
1F
100
AcDbEntity
  8
0
  6
Continuous
 62
     7
370
    15
100
AcDbSpline
210
0.0
220
0.0
230
1.0
 70
     8
 71
     3
 72
    14
 73
    10
 74
     0
 42
0.0000000001
 43
0.0000000001
 40
0.0
 40
0.0
 40
0.0
 40
0.0
 40
0.1238990534274825
 40
0.2404634742671423
 40
0.3537999499861906
 40
0.4596673291953265
 40
0.5684826490727043
 40
0.6928310446887634
 40
1.0
 40
1.0
 40
1.0
 40
1.0
 10
7.48414822383254
 20
5.265020026068982
 30
0.0
 10
7.483824386070653
 20
5.265207913469214
 30
0.0
 10
7.483195881242187
 20
5.265572565625798
 30
0.0
 10
7.48215176182195
 20
5.265838133799887
 30
0.0
 10
7.48116287690167
 20
5.265854104113089
 30
0.0
 10
7.480262688365919
 20
5.265632090715561
 30
0.0
 10
7.479493944715214
 20
5.26510602462988
 30
0.0
 10
7.478549210155962
 20
5.263984683870595
 30
0.0
 10
7.478242663722094
 20
5.262829623953042
 30
0.0
 10
7.478024453382131
 20
5.262007412407121
 30
0.0
  0
LINE
  5
D2
330
1F
100
AcDbEntity
  8
0
  6
Continuous
 62
     7
370
    15
100
AcDbLine
 10
7.48414822383254
 20
5.513432620973364
 30
0.0
 11
7.485371726695905
 21
5.514614433987626
 31
0.0
  0
SPLINE
  5
D3
330
1F
100
AcDbEntity
  8
0
  6
Continuous
 62
     7
370
    15
100
AcDbSpline
210
0.0
220
0.0
230
1.0
 70
     8
 71
     3
 72
    11
 73
     7
 74
     0
 42
0.0000000001
 43
0.0000000001
 40
0.0
 40
0.0
 40
0.0
 40
0.0
 40
0.1020744298928226
 40
0.3740776504673978
 40
0.6728066177262036
 40
1.0
 40
1.0
 40
1.0
 40
1.0
 10
7.478503897904984
 20
5.51369875127054
 30
0.0
 10
7.478716100827152
 20
5.513711394643131
 30
0.0
 10
7.479493772283467
 20
5.513757729490334
 30
0.0
 10
7.481059782619294
 20
5.513964917564182
 30
0.0
 10
7.483186027284219
 20
5.514267618834597
 30
0.0
 10
7.484621401883
 20
5.514495376438625
 30
0.0
 10
7.485371726695905
 20
5.514614433987626
 30
0.0
  0
ARC
  5
D4
330
1F
100
AcDbEntity
  8
0
  6
Continuous
 62
     7
370
    15
100
AcDbCircle
 10
7.531553193571959
 20
5.464434310019039
 30
0.0
 40
0.0082784807577187
100
AcDbArc
 50
143.7739791276664
 51
267.108440045117
  0
ARC
  5
D5
330
1F
100
AcDbEntity
  8
0
  6
Continuous
 62
     7
370
    15
100
AcDbCircle
 10
7.531712477344083
 20
5.463579982909029
 30
0.0
 40
0.0074360255997468
100
AcDbArc
 50
265.550432290496
 51
306.8590415121366
  0
ARC
  5
D6
330
1F
100
AcDbEntity
  8
0
  6
Continuous
 62
     7
370
    15
100
AcDbCircle
 10
7.482474762148441
 20
5.521630386994786
 30
0.0
 40
0.0075905204161469
100
AcDbArc
 50
292.4362714732766
 51
307.5084276582674
  0
LINE
  5
D7
330
1F
100
AcDbEntity
  8
0
  6
Continuous
 62
     7
370
    15
100
AcDbLine
 10
7.248836678235475
 20
5.536072152538332
 30
0.0
 11
7.250558942725036
 21
5.535952712886091
 31
0.0
  0
LINE
  5
D8
330
1F
100
AcDbEntity
  8
0
  6
Continuous
 62
     7
370
    15
100
AcDbLine
 10
7.23585180082484
 20
5.523529724096203
 30
0.0
 11
7.248836678235475
 21
5.536072152538332
 31
0.0
  0
ARC
  5
D9
330
1F
100
AcDbEntity
  8
0
  6
Continuous
 62
     7
370
    15
100
AcDbCircle
 10
7.515089100178872
 20
5.377765022291048
 30
0.0
 40
0.0082788285365096
100
AcDbArc
 50
143.7783787224026
 51
267.1068701481301
  0
ARC
  5
DA
330
1F
100
AcDbEntity
  8
0
  6
Continuous
 62
     7
370
    15
100
AcDbCircle
 10
7.515247856698052
 20
5.376909961765083
 30
0.0
 40
0.0074356073080824
100
AcDbArc
 50
265.5523699775825
 51
306.8602159478882
  0
ARC
  5
DB
330
1F
100
AcDbEntity
  8
0
  6
Continuous
 62
     7
370
    15
100
AcDbCircle
 10
7.548017958190786
 20
5.287669618436925
 30
0.0
 40
0.0082784886454432
100
AcDbArc
 50
143.7740803757331
 51
267.1083387970311
  0
ARC
  5
DC
330
1F
100
AcDbEntity
  8
0
  6
Continuous
 62
     7
370
    15
100
AcDbCircle
 10
7.548176460580414
 20
5.286817921250737
 30
0.0
 40
0.0074385953217311
100
AcDbArc
 50
265.5578933314985
 51
306.851580471147
  0
LWPOLYLINE
  5
DD
330
1F
100
AcDbEntity
  8
0
  6
Continuous
 62
     7
370
    15
100
AcDbPolyline
 90
        3
 70
   128
 43
0.0
 10
7.201988489241551
 20
5.493953214686388
 10
7.204033858626974
 20
5.493542096343497
 10
7.205793626363377
 20
5.492712903259961
  0
ARC
  5
DE
330
1F
100
AcDbEntity
  8
0
  6
Continuous
 62
     7
370
    15
100
AcDbCircle
 10
7.201531991072417
 20
5.486476599414669
 30
0.0
 40
0.0074905384652725
100
AcDbArc
 50
86.5060407514389
 51
212.2628203343101
  0
LINE
  5
DF
330
1F
100
AcDbEntity
  8
0
  6
Continuous
 62
     7
370
    15
100
AcDbLine
 10
7.152594652533545
 20
5.545052636682581
 30
0.0
 11
7.152594652533545
 21
5.44132643475222
 31
0.0
  0
LINE
  5
E0
330
1F
100
AcDbEntity
  8
0
  6
Continuous
 62
     7
370
    15
100
AcDbLine
 10
7.243069380982121
 20
5.538778182225669
 30
0.0
 11
7.152594652533545
 21
5.545052636682581
 31
0.0
  0
ARC
  5
E1
330
1F
100
AcDbEntity
  8
0
  6
Continuous
 62
     7
370
    15
100
AcDbCircle
 10
7.251861458522952
 20
5.538113405025252
 30
0.0
 40
0.0088171739355755
100
AcDbArc
 50
175.6760400801401
 51
219.8896137373145
  0
LINE
  5
E2
330
1F
100
AcDbEntity
  8
0
  6
Continuous
 62
     7
370
    15
100
AcDbLine
 10
7.243069380982121
 20
5.538778182225669
 30
0.0
 11
7.244292883845485
 21
5.539959995239931
 31
0.0
  0
ARC
  5
E3
330
1F
100
AcDbEntity
  8
0
  6
Continuous
 62
     7
370
    15
100
AcDbCircle
 10
7.253084961386288
 20
5.539295218039505
 30
0.0
 40
0.0088171739355474
100
AcDbArc
 50
175.6760400800686
 51
219.8896137374005
  0
LINE
  5
E4
330
1F
100
AcDbEntity
  8
0
  6
Continuous
 62
     7
370
    15
100
AcDbLine
 10
7.152594652533545
 20
5.545052636682581
 30
0.0
 11
7.153818155396908
 21
5.546234449696842
 31
0.0
  0
LINE
  5
E5
330
1F
100
AcDbEntity
  8
0
  6
Continuous
 62
     7
370
    15
100
AcDbLine
 10
7.244292883845485
 20
5.539959995239931
 30
0.0
 11
7.153818155396908
 21
5.546234449696842
 31
0.0
  0
LINE
  5
E6
330
1F
100
AcDbEntity
  8
0
  6
Continuous
 62
     7
370
    15
100
AcDbLine
 10
7.48414822383254
 20
5.249998301456932
 30
0.0
 11
7.485371726695905
 21
5.251180114471194
 31
0.0
  0
LINE
  5
E7
330
1F
100
AcDbEntity
  8
0
  6
Continuous
 62
     7
370
    15
100
AcDbLine
 10
7.487096463927015
 20
5.25217478249441
 30
0.0
 11
7.485371726695905
 21
5.251180114471194
 31
0.0
  0
SPLINE
  5
E8
330
1F
100
AcDbEntity
  8
0
  6
Continuous
 62
     7
370
    15
100
AcDbSpline
210
0.0
220
0.0
230
1.0
 70
     8
 71
     3
 72
    14
 73
    10
 74
     0
 42
0.0000000001
 43
0.0000000001
 40
0.0
 40
0.0
 40
0.0
 40
0.0
 40
0.2862247051175777
 40
0.4156098430117116
 40
0.5249251349827456
 40
0.6259637274916975
 40
0.736603956625052
 40
0.8604480496898855
 40
1.0
 40
1.0
 40
1.0
 40
1.0
 10
7.478024453382131
 20
5.251180796865509
 30
0.0
 10
7.478202306177563
 20
5.2506526004073
 30
0.0
 10
7.478460555626567
 20
5.249885637796628
 30
0.0
 10
7.479347067298824
 20
5.249350068374492
 30
0.0
 10
7.480101370708585
 20
5.249142413443126
 30
0.0
 10
7.480964082280868
 20
5.249155654515053
 30
0.0
 10
7.481938019167576
 20
5.249316060276242
 30
0.0
 10
7.483043870950172
 20
5.249604483076772
 30
0.0
 10
7.483765756117152
 20
5.249861911342375
 30
0.0
 10
7.48414822383254
 20
5.249998301456932
 30
0.0
  0
ARC
  5
E9
330
1F
100
AcDbEntity
  8
0
  6
Continuous
 62
     7
370
    15
100
AcDbCircle
 10
7.573351933983757
 20
4.892186629110134
 30
0.0
 40
0.0956373124795006
100
AcDbArc
 50
158.8643181418128
 51
175.3867784206034
  0
SPLINE
  5
EA
330
1F
100
AcDbEntity
  8
0
  6
Continuous
 62
     7
370
    15
100
AcDbSpline
210
0.0
220
0.0
230
1.0
 70
     8
 71
     3
 72
    11
 73
     7
 74
     0
 42
0.0000000001
 43
0.0000000001
 40
0.0
 40
0.0
 40
0.0
 40
0.0
 40
0.1020744356134703
 40
0.3740778207258147
 40
0.6728058725444514
 40
1.0
 40
1.0
 40
1.0
 40
1.0
 10
7.478503897904984
 20
5.25026443175411
 30
0.0
 10
7.478716100892281
 20
5.250277074226606
 30
0.0
 10
7.479493772897641
 20
5.250323405793682
 30
0.0
 10
7.481059777187645
 20
5.250530652969904
 30
0.0
 10
7.483186035018739
 20
5.250833245365162
 30
0.0
 10
7.484621403281911
 20
5.251061038201396
 30
0.0
 10
7.485371726695905
 20
5.251180114471194
 30
0.0
  0
ARC
  5
EB
330
1F
100
AcDbEntity
  8
0
  6
Continuous
 62
     7
370
    15
100
AcDbCircle
 10
7.531553182494891
 20
5.201000001415326
 30
0.0
 40
0.0082784653728278
100
AcDbArc
 50
143.7739947482559
 51
267.1085114296199
  0
ARC
  5
EC
330
1F
100
AcDbEntity
  8
0
  6
Continuous
 62
     7
370
    15
100
AcDbCircle
 10
7.531712558218666
 20
5.200145515543822
 30
0.0
 40
0.0074358587914681
100
AcDbArc
 50
265.5497072224246
 51
306.859226270595
  0
SPLINE
  5
ED
330
1F
100
AcDbEntity
  8
0
  6
Continuous
 62
     7
370
    15
100
AcDbSpline
210
0.0
220
0.0
230
1.0
 70
     8
 71
     3
 72
    10
 73
     6
 74
     0
 42
0.0000000001
 43
0.0000000001
 40
0.0
 40
0.0
 40
0.0
 40
0.0
 40
0.2537543752056689
 40
0.5075253339578218
 40
1.0
 40
1.0
 40
1.0
 40
1.0
 10
7.459649672956206
 20
4.876740428322662
 30
0.0
 10
7.459610695403402
 20
4.876341746748782
 30
0.0
 10
7.459532737750505
 20
4.875544357546085
 30
0.0
 10
7.459145894267949
 20
4.874007858010617
 30
0.0
 10
7.458590996301323
 20
4.872970961560173
 30
0.0
 10
7.458224798923781
 20
4.872286675828791
 30
0.0
  0
SPLINE
  5
EE
330
1F
100
AcDbEntity
  8
0
  6
Continuous
 62
     7
370
    15
100
AcDbSpline
210
0.0
220
0.0
230
1.0
 70
     8
 71
     3
 72
     9
 73
     5
 74
     0
 42
0.0000000001
 43
0.0000000001
 40
0.0
 40
0.0
 40
0.0
 40
0.0
 40
0.2710461764316395
 40
1.0
 40
1.0
 40
1.0
 40
1.0
 10
7.452392468358694
 20
4.867344661319751
 30
0.0
 10
7.452468868473107
 20
4.867577410545593
 30
0.0
 10
7.452750739685682
 20
4.868436117460065
 30
0.0
 10
7.452746062091287
 20
4.86938041177572
 30
0.0
 10
7.452742652340967
 20
4.870068758727692
 30
0.0
  0
LINE
  5
EF
330
1F
100
AcDbEntity
  8
0
  6
Continuous
 62
     7
370
    15
100
AcDbLine
 10
7.452559257342676
 20
4.870081477235768
 30
0.0
 11
7.452742652340966
 21
4.870068758727692
 31
0.0
  0
LINE
  5
F0
330
1F
100
AcDbEntity
  8
0
  6
Continuous
 62
     7
370
    15
100
AcDbLine
 10
7.453189952099788
 20
4.865138931776642
 30
0.0
 11
7.458224798923781
 21
4.872286675828791
 31
0.0
  0
LINE
  5
F1
330
1F
100
AcDbEntity
  8
0
  6
Continuous
 62
     7
370
    15
100
AcDbLine
 10
7.521806841267938
 20
4.980701293653952
 30
0.0
 11
7.523030344131304
 21
4.981883106668213
 31
0.0
  0
ARC
  5
F2
330
1F
100
AcDbEntity
  8
0
  6
Continuous
 62
     7
370
    15
100
AcDbCircle
 10
7.376217766677036
 20
5.124225713918193
 30
0.0
 40
0.2044880210122035
100
AcDbArc
 50
315.8856490999995
 51
357.6229305057649
  0
ARC
  5
F3
330
1F
100
AcDbEntity
  8
0
  6
Continuous
 62
     7
370
    15
100
AcDbCircle
 10
7.203155900753432
 20
5.487686252022063
 30
0.0
 40
0.0078462922804416
100
AcDbArc
 50
142.2559240020137
 51
210.8738116712023
  0
LINE
  5
F4
330
1F
100
AcDbEntity
  8
0
  6
Continuous
 62
     7
370
    15
100
AcDbLine
 10
7.453394922258772
 20
4.865429820916722
 30
0.0
 11
7.453280007930247
 21
4.864889965745561
 31
0.0
  0
ARC
  5
F5
330
1F
100
AcDbEntity
  8
0
  6
Continuous
 62
     7
370
    15
100
AcDbCircle
 10
7.515089129411162
 20
5.114330716681787
 30
0.0
 40
0.008278843901451
100
AcDbArc
 50
143.7785759158537
 51
267.1066729546703
  0
ARC
  5
F6
330
1F
100
AcDbEntity
  8
0
  6
Continuous
 62
     7
370
    15
100
AcDbCircle
 10
7.515247730197684
 20
5.113476077487337
 30
0.0
 40
0.0074360314279905
100
AcDbArc
 50
265.5536018104737
 51
306.8589841150018
  0
LINE
  5
F7
330
1F
100
AcDbEntity
  8
0
  6
Continuous
 62
     7
370
    15
100
AcDbLine
 10
7.459543893835947
 20
4.875878960177189
 30
0.0
 11
7.459833204597296
 21
4.875858896373439
 31
0.0
  0
LINE
  5
F8
330
1F
100
AcDbEntity
  8
0
  6
Continuous
 62
     7
370
    15
100
AcDbLine
 10
7.485371726695905
 20
4.927853129067433
 30
0.0
 11
7.48414822383254
 21
4.92667131605317
 31
0.0
  0
ARC
  5
F9
330
1F
100
AcDbEntity
  8
0
  6
Continuous
 62
     7
370
    15
100
AcDbCircle
 10
7.665598896339639
 20
4.842374636111918
 30
0.0
 40
0.1994703121663408
100
AcDbArc
 50
135.6215425997828
 51
154.6258589174248
  0
LINE
  5
FA
330
1F
100
AcDbEntity
  8
0
  6
Continuous
 62
     7
370
    15
100
AcDbLine
 10
7.485371726695905
 20
4.927853129067433
 30
0.0
 11
7.484348324357197
 21
4.926364891417905
 31
0.0
  0
LINE
  5
FB
330
1F
100
AcDbEntity
  8
0
  6
Continuous
 62
     7
370
    15
100
AcDbLine
 10
6.664126721928933
 20
5.242827106409174
 30
0.0
 11
6.620221135091105
 21
5.221017418776454
 31
0.0
  0
LINE
  5
FC
330
1F
100
AcDbEntity
  8
0
  6
Continuous
 62
     7
370
    15
100
AcDbLine
 10
6.664126721928933
 20
5.591171172242781
 30
0.0
 11
6.664126721928933
 21
5.242827106409174
 31
0.0
  0
LINE
  5
FD
330
1F
100
AcDbEntity
  8
0
  6
Continuous
 62
     7
370
    15
100
AcDbLine
 10
6.664126721928933
 20
5.591171172242781
 30
0.0
 11
7.264612225408842
 21
5.549527289931913
 31
0.0
  0
LINE
  5
FE
330
1F
100
AcDbEntity
  8
0
  6
Continuous
 62
     7
370
    15
100
AcDbLine
 10
7.457174088748286
 20
5.53617305651912
 30
0.0
 11
8.069110034098962
 21
5.493735082009672
 31
0.0
  0
LINE
  5
FF
330
1F
100
AcDbEntity
  8
0
  6
Continuous
 62
     7
370
    15
100
AcDbLine
 10
8.069110034098962
 20
5.145391016176065
 30
0.0
 11
8.069110034098962
 21
5.493735082009672
 31
0.0
  0
LINE
  5
100
330
1F
100
AcDbEntity
  8
0
  6
Continuous
 62
     7
370
    15
100
AcDbLine
 10
8.113015620936792
 20
5.117491592553156
 30
0.0
 11
8.069110034098962
 21
5.145391016176065
 31
0.0
  0
LINE
  5
101
330
1F
100
AcDbEntity
  8
0
  6
Continuous
 62
     7
370
    15
100
AcDbLine
 10
8.047157034618251
 20
5.103811698934057
 30
0.0
 11
8.113015620936792
 21
5.117491592553156
 31
0.0
  0
LINE
  5
102
330
1F
100
AcDbEntity
  8
0
  6
Continuous
 62
     7
370
    15
100
AcDbLine
 10
8.047157034618251
 20
4.748860306693129
 30
0.0
 11
8.047157034618251
 21
5.103811698934057
 31
0.0
  0
LINE
  5
103
330
1F
100
AcDbEntity
  8
0
  6
Continuous
 62
     7
370
    15
100
AcDbLine
 10
8.047157034618251
 20
4.748860306693129
 30
0.0
 11
7.473843251660283
 21
4.788619820563723
 31
0.0
  0
LINE
  5
104
330
1F
100
AcDbEntity
  8
0
  6
Continuous
 62
     7
370
    15
100
AcDbLine
 10
6.8270272261292
 20
4.833476740985451
 30
0.0
 11
6.686079721409644
 21
4.843251500350225
 31
0.0
  0
LINE
  5
105
330
1F
100
AcDbEntity
  8
0
  6
Continuous
 62
     7
370
    15
100
AcDbLine
 10
6.686079721409644
 20
5.198202892591154
 30
0.0
 11
6.686079721409644
 21
4.843251500350225
 31
0.0
  0
LINE
  5
106
330
1F
100
AcDbEntity
  8
0
  6
Continuous
 62
     7
370
    15
100
AcDbLine
 10
6.620221135091105
 20
5.221017418776454
 30
0.0
 11
6.686079721409644
 21
5.198202892591154
 31
0.0
  0
LINE
  5
107
330
1F
100
AcDbEntity
  8
0
  6
Continuous
 62
     7
370
    15
100
AcDbLine
 10
8.069110034098962
 20
5.493735082009672
 30
0.0
 11
8.104403544136378
 21
5.527825994855205
 31
0.0
  0
LINE
  5
108
330
1F
100
AcDbEntity
  8
0
  6
Continuous
 62
     7
370
    15
100
AcDbLine
 10
6.664126721928933
 20
5.591171172242781
 30
0.0
 11
6.699420231966349
 21
5.625262085088313
 31
0.0
  0
LINE
  5
109
330
1F
100
AcDbEntity
  8
0
  6
Continuous
 62
     7
370
    15
100
AcDbLine
 10
6.699420231966349
 20
5.625262085088313
 30
0.0
 11
7.299905735446257
 21
5.583618202777445
 31
0.0
  0
LINE
  5
10A
330
1F
100
AcDbEntity
  8
0
  6
Continuous
 62
     7
370
    15
100
AcDbLine
 10
7.492467598785702
 20
5.570263969364653
 30
0.0
 11
8.104403544136378
 21
5.527825994855205
 31
0.0
  0
LINE
  5
10B
330
1F
100
AcDbEntity
  8
0
  6
Continuous
 62
     7
370
    15
100
AcDbLine
 10
8.069110034098962
 20
5.145391016176065
 30
0.0
 11
8.104403544136378
 21
5.179481929021598
 31
0.0
  0
LINE
  5
10C
330
1F
100
AcDbEntity
  8
0
  6
Continuous
 62
     7
370
    15
100
AcDbLine
 10
8.104403544136378
 20
5.179481929021598
 30
0.0
 11
8.104403544136378
 21
5.527825994855205
 31
0.0
  0
LINE
  5
10D
330
1F
100
AcDbEntity
  8
0
  6
Continuous
 62
     7
370
    15
100
AcDbLine
 10
8.113015620936792
 20
5.117491592553156
 30
0.0
 11
8.148309130974206
 21
5.151582505398689
 31
0.0
  0
LINE
  5
10E
330
1F
100
AcDbEntity
  8
0
  6
Continuous
 62
     7
370
    15
100
AcDbLine
 10
8.148309130974206
 20
5.151582505398689
 30
0.0
 11
8.104403544136378
 21
5.179481929021598
 31
0.0
  0
LINE
  5
10F
330
1F
100
AcDbEntity
  8
0
  6
Continuous
 62
     7
370
    15
100
AcDbLine
 10
8.047157034618251
 20
4.748860306693129
 30
0.0
 11
8.082450544655667
 21
4.782951219538661
 31
0.0
  0
LINE
  5
110
330
1F
100
AcDbEntity
  8
0
  6
Continuous
 62
     7
370
    15
100
AcDbLine
 10
8.082450544655667
 20
4.782951219538661
 30
0.0
 11
8.082450544655667
 21
5.111142731514343
 31
0.0
  0
LINE
  5
111
330
1F
100
AcDbEntity
  8
0
  6
Continuous
 62
     7
370
    15
100
AcDbLine
 10
6.620221135091105
 20
5.221017418776454
 30
0.0
 11
6.65551464512852
 21
5.255108331621985
 31
0.0
  0
LINE
  5
112
330
1F
100
AcDbEntity
  8
0
  6
Continuous
 62
     7
370
    15
100
AcDbLine
 10
6.664126791823504
 20
5.259386369499698
 30
0.0
 11
6.65551464512852
 21
5.255108331621985
 31
0.0
  0
LINE
  5
113
330
1F
100
AcDbEntity
  8
0
  6
Continuous
 62
     7
370
    15
100
AcDbLine
 10
3.717417901998651
 20
5.447182406562857
 30
0.0
 11
3.673512109099027
 21
5.425372733220596
 31
0.0
  0
LINE
  5
114
330
1F
100
AcDbEntity
  8
0
  6
Continuous
 62
     7
370
    15
100
AcDbLine
 10
3.717417901998651
 20
5.795526472396463
 30
0.0
 11
3.717417901998651
 21
5.447182406562857
 31
0.0
  0
LINE
  5
115
330
1F
100
AcDbEntity
  8
0
  6
Continuous
 62
     7
370
    15
100
AcDbLine
 10
3.717417901998651
 20
5.795526472396463
 30
0.0
 11
4.317903199416765
 21
5.753882604376054
 31
0.0
  0
LINE
  5
116
330
1F
100
AcDbEntity
  8
0
  6
Continuous
 62
     7
370
    15
100
AcDbLine
 10
4.510464856694412
 20
5.74052838525372
 30
0.0
 11
5.122400802045087
 21
5.698090410744272
 31
0.0
  0
LINE
  5
117
330
1F
100
AcDbEntity
  8
0
  6
Continuous
 62
     7
370
    15
100
AcDbLine
 10
5.122400802045087
 20
5.349746344910665
 30
0.0
 11
5.122400802045087
 21
5.698090410744272
 31
0.0
  0
LINE
  5
118
330
1F
100
AcDbEntity
  8
0
  6
Continuous
 62
     7
370
    15
100
AcDbLine
 10
5.166306801006508
 20
5.321846892706839
 30
0.0
 11
5.122400802045087
 21
5.349746344910665
 31
0.0
  0
LINE
  5
119
330
1F
100
AcDbEntity
  8
0
  6
Continuous
 62
     7
370
    15
100
AcDbLine
 10
5.100448214687969
 20
5.308166999087741
 30
0.0
 11
5.166306801006508
 21
5.321846892706839
 31
0.0
  0
LINE
  5
11A
330
1F
100
AcDbEntity
  8
0
  6
Continuous
 62
     7
370
    15
100
AcDbLine
 10
5.100448214687969
 20
4.953215606846812
 30
0.0
 11
5.100448214687969
 21
5.308166999087741
 31
0.0
  0
LINE
  5
11B
330
1F
100
AcDbEntity
  8
0
  6
Continuous
 62
     7
370
    15
100
AcDbLine
 10
5.100448214687969
 20
4.953215606846812
 30
0.0
 11
4.518697231499678
 21
4.993560243541169
 31
0.0
  0
LINE
  5
11C
330
1F
100
AcDbEntity
  8
0
  6
Continuous
 62
     7
370
    15
100
AcDbLine
 10
3.821130246273242
 20
5.041936760989751
 30
0.0
 11
3.739370695417566
 21
5.047606814794367
 31
0.0
  0
LINE
  5
11D
330
1F
100
AcDbEntity
  8
0
  6
Continuous
 62
     7
370
    15
100
AcDbLine
 10
3.739370695417566
 20
5.402558207035296
 30
0.0
 11
3.739370695417566
 21
5.047606814794367
 31
0.0
  0
LINE
  5
11E
330
1F
100
AcDbEntity
  8
0
  6
Continuous
 62
     7
370
    15
100
AcDbLine
 10
3.673512109099027
 20
5.425372733220596
 30
0.0
 11
3.739370695417566
 21
5.402558207035296
 31
0.0
  0
LINE
  5
11F
330
1F
100
AcDbEntity
  8
0
  6
Continuous
 62
     7
370
    15
100
AcDbLine
 10
5.122400802045087
 20
5.698090410744272
 30
0.0
 11
5.157694312082504
 21
5.732181323589805
 31
0.0
  0
LINE
  5
120
330
1F
100
AcDbEntity
  8
0
  6
Continuous
 62
     7
370
    15
100
AcDbLine
 10
3.717417901998651
 20
5.795526472396463
 30
0.0
 11
3.752711412036068
 21
5.829617385241996
 31
0.0
  0
LINE
  5
121
330
1F
100
AcDbEntity
  8
0
  6
Continuous
 62
     7
370
    15
100
AcDbLine
 10
3.752711412036068
 20
5.829617385241996
 30
0.0
 11
4.35319670945418
 21
5.787973517221588
 31
0.0
  0
LINE
  5
122
330
1F
100
AcDbEntity
  8
0
  6
Continuous
 62
     7
370
    15
100
AcDbLine
 10
4.545758366731828
 20
5.774619298099254
 30
0.0
 11
5.157694312082504
 21
5.732181323589805
 31
0.0
  0
LINE
  5
123
330
1F
100
AcDbEntity
  8
0
  6
Continuous
 62
     7
370
    15
100
AcDbLine
 10
5.122400802045087
 20
5.349746344910665
 30
0.0
 11
5.157694312082504
 21
5.383837257756198
 31
0.0
  0
LINE
  5
124
330
1F
100
AcDbEntity
  8
0
  6
Continuous
 62
     7
370
    15
100
AcDbLine
 10
5.157694312082504
 20
5.383837257756198
 30
0.0
 11
5.157694312082504
 21
5.732181323589805
 31
0.0
  0
LINE
  5
125
330
1F
100
AcDbEntity
  8
0
  6
Continuous
 62
     7
370
    15
100
AcDbLine
 10
5.166306801006508
 20
5.321846892706839
 30
0.0
 11
5.201600311043924
 21
5.355937805552374
 31
0.0
  0
LINE
  5
126
330
1F
100
AcDbEntity
  8
0
  6
Continuous
 62
     7
370
    15
100
AcDbLine
 10
5.201600311043924
 20
5.355937805552374
 30
0.0
 11
5.157694312082504
 21
5.383837257756198
 31
0.0
  0
LINE
  5
127
330
1F
100
AcDbEntity
  8
0
  6
Continuous
 62
     7
370
    15
100
AcDbLine
 10
5.100448214687969
 20
4.953215606846812
 30
0.0
 11
5.135741724725385
 21
4.987306519692344
 31
0.0
  0
LINE
  5
128
330
1F
100
AcDbEntity
  8
0
  6
Continuous
 62
     7
370
    15
100
AcDbLine
 10
5.135741724725385
 20
4.987306519692344
 30
0.0
 11
5.135741724725385
 21
5.315498031668027
 31
0.0
  0
LINE
  5
129
330
1F
100
AcDbEntity
  8
0
  6
Continuous
 62
     7
370
    15
100
AcDbLine
 10
3.673512109099027
 20
5.425372733220596
 30
0.0
 11
3.708805619136443
 21
5.459463646066128
 31
0.0
  0
LINE
  5
12A
330
1F
100
AcDbEntity
  8
0
  6
Continuous
 62
     7
370
    15
100
AcDbLine
 10
3.717417971893222
 20
5.463741669653383
 30
0.0
 11
3.708805619136443
 21
5.459463646066128
 31
0.0
  0
LINE
  5
12B
330
1F
100
AcDbEntity
  8
0
  6
Continuous
 62
     7
370
    15
100
AcDbLine
 10
4.518697231499678
 20
4.993560243541169
 30
0.0
 11
4.518697231499678
 21
5.739957467145718
 31
0.0
  0
LINE
  5
12C
330
1F
100
AcDbEntity
  8
0
  6
Continuous
 62
     7
370
    15
100
AcDbLine
 10
4.012823638242968
 20
4.504923874976861
 30
0.0
 11
4.518697231499678
 21
4.993560243541169
 31
0.0
  0
LINE
  5
12D
330
1F
100
AcDbEntity
  8
0
  6
Continuous
 62
     7
370
    15
100
AcDbLine
 10
4.012823638242968
 20
4.504923874976861
 30
0.0
 11
4.012823638242968
 21
4.857039547814453
 31
0.0
  0
LINE
  5
12E
330
1F
100
AcDbEntity
  8
0
  6
Continuous
 62
     7
370
    15
100
AcDbLine
 10
4.012823638242968
 20
4.857039547814453
 30
0.0
 11
4.001059116492466
 21
4.866758821727239
 31
0.0
  0
LINE
  5
12F
330
1F
100
AcDbEntity
  8
0
  6
Continuous
 62
     7
370
    15
100
AcDbLine
 10
4.001059116492466
 20
4.866758821727239
 30
0.0
 11
4.018705871511174
 21
4.906932576840966
 31
0.0
  0
LINE
  5
130
330
1F
100
AcDbEntity
  8
0
  6
Continuous
 62
     7
370
    15
100
AcDbLine
 10
4.018705871511174
 20
4.906932576840966
 30
0.0
 11
4.018705871511174
 21
5.257002899611427
 31
0.0
  0
LINE
  5
131
330
1F
100
AcDbEntity
  8
0
  6
Continuous
 62
     7
370
    15
100
AcDbLine
 10
4.018705871511174
 20
5.257002899611427
 30
0.0
 11
4.518697231499678
 21
5.739957467145718
 31
0.0
  0
LINE
  5
132
330
1F
100
AcDbEntity
  8
0
  6
Continuous
 62
     7
370
    15
100
AcDbLine
 10
4.518697231499678
 20
5.739957467145718
 30
0.0
 11
4.510464856694412
 21
5.74052838525372
 31
0.0
  0
LINE
  5
133
330
1F
100
AcDbEntity
  8
0
  6
Continuous
 62
     7
370
    15
100
AcDbLine
 10
3.821130112555557
 20
5.270704848460727
 30
0.0
 11
4.018705871511174
 21
5.257002899611427
 31
0.0
  0
LINE
  5
134
330
1F
100
AcDbEntity
  8
0
  6
Continuous
 62
     7
370
    15
100
AcDbLine
 10
3.821130112555557
 20
5.270704848460727
 30
0.0
 11
3.878884494274325
 21
5.326491297344243
 31
0.0
  0
LINE
  5
135
330
1F
100
AcDbEntity
  8
0
  6
Continuous
 62
     7
370
    15
100
AcDbLine
 10
3.821130112555557
 20
4.920634525690266
 30
0.0
 11
4.018705871511174
 21
4.906932576840966
 31
0.0
  0
LINE
  5
136
330
1F
100
AcDbEntity
  8
0
  6
Continuous
 62
     7
370
    15
100
AcDbLine
 10
3.821130112555557
 20
4.920634525690266
 30
0.0
 11
3.821130112555557
 21
5.270704848460727
 31
0.0
  0
LINE
  5
137
330
1F
100
AcDbEntity
  8
0
  6
Continuous
 62
     7
370
    15
100
AcDbLine
 10
3.803483357536849
 20
4.88046077057654
 30
0.0
 11
4.001059116492466
 21
4.866758821727239
 31
0.0
  0
LINE
  5
138
330
1F
100
AcDbEntity
  8
0
  6
Continuous
 62
     7
370
    15
100
AcDbLine
 10
3.803483357536849
 20
4.88046077057654
 30
0.0
 11
3.821130112555557
 21
4.920634525690266
 31
0.0
  0
LINE
  5
139
330
1F
100
AcDbEntity
  8
0
  6
Continuous
 62
     7
370
    15
100
AcDbLine
 10
3.815247879287351
 20
4.870741496663754
 30
0.0
 11
4.012823638242968
 21
4.857039547814453
 31
0.0
  0
LINE
  5
13A
330
1F
100
AcDbEntity
  8
0
  6
Continuous
 62
     7
370
    15
100
AcDbLine
 10
3.815247879287351
 20
4.870741496663754
 30
0.0
 11
3.803483357536849
 21
4.88046077057654
 31
0.0
  0
LINE
  5
13B
330
1F
100
AcDbEntity
  8
0
  6
Continuous
 62
     7
370
    15
100
AcDbLine
 10
3.815247879287351
 20
4.518625823826162
 30
0.0
 11
4.012823638242968
 21
4.504923874976861
 31
0.0
  0
LINE
  5
13C
330
1F
100
AcDbEntity
  8
0
  6
Continuous
 62
     7
370
    15
100
AcDbLine
 10
3.815247879287351
 20
4.518625823826162
 30
0.0
 11
3.815247879287351
 21
4.870741496663754
 31
0.0
  0
LINE
  5
13D
330
1F
100
AcDbEntity
  8
0
  6
Continuous
 62
     7
370
    15
100
AcDbLine
 10
5.245505897881752
 20
5.879761576590141
 30
0.0
 11
5.339621911419819
 21
5.970670664733931
 31
0.0
  0
LINE
  5
13E
330
1F
100
AcDbEntity
  8
0
  6
Continuous
 62
     7
370
    15
100
AcDbLine
 10
5.245505897881752
 20
5.879761576590141
 30
0.0
 11
3.664900032298614
 21
5.989377153094086
 31
0.0
  0
LINE
  5
13F
330
1F
100
AcDbEntity
  8
0
  6
Continuous
 62
     7
370
    15
100
AcDbLine
 10
3.664900032298614
 20
5.989377153094086
 30
0.0
 11
3.759016045836681
 21
6.080286241237875
 31
0.0
  0
LINE
  5
140
330
1F
100
AcDbEntity
  8
0
  6
Continuous
 62
     7
370
    15
100
AcDbLine
 10
5.339621911419819
 20
5.970670664733931
 30
0.0
 11
3.759016045836681
 21
6.080286241237875
 31
0.0
  0
LINE
  5
141
330
1F
100
AcDbEntity
  8
0
  6
Continuous
 62
     7
370
    15
100
AcDbLine
 10
3.664900032298614
 20
4.935639887907222
 30
0.0
 11
3.821130110106018
 21
4.924805276686925
 31
0.0
  0
LINE
  5
142
330
1F
100
AcDbEntity
  8
0
  6
Continuous
 62
     7
370
    15
100
AcDbLine
 10
4.405557011774978
 20
4.884275064098335
 30
0.0
 11
5.245505897881752
 21
4.826024311403278
 31
0.0
  0
LINE
  5
143
330
1F
100
AcDbEntity
  8
0
  6
Continuous
 62
     7
370
    15
100
AcDbLine
 10
3.664900032298614
 20
5.989377153094086
 30
0.0
 11
3.664900032298614
 21
4.935639887907222
 31
0.0
  0
LINE
  5
144
330
1F
100
AcDbEntity
  8
0
  6
Continuous
 62
     7
370
    15
100
AcDbLine
 10
5.245505897881752
 20
4.826024311403278
 30
0.0
 11
5.245505897881752
 21
5.879761576590141
 31
0.0
  0
SPLINE
  5
145
330
1F
100
AcDbEntity
  8
0
  6
Continuous
 62
     7
370
    15
100
AcDbSpline
210
0.0
220
0.0
230
1.0
 70
     8
 71
     3
 72
    38
 73
    34
 74
     0
 42
0.0000000001
 43
0.0000000001
 40
0.0
 40
0.0
 40
0.0
 40
0.0
 40
0.0185860815429005
 40
0.0378310234129398
 40
0.0579708068261529
 40
0.0790924081458404
 40
0.101173717424298
 40
0.1241186420875532
 40
0.1477817634398687
 40
0.171987345179997
 40
0.2236164352158733
 40
0.2754406703350971
 40
0.3270433033928883
 40
0.3726647876915763
 40
0.4176139525561874
 40
0.4616662131859962
 40
0.5046283540050048
 40
0.5463605136088218
 40
0.586801972976819
 40
0.6168466968217792
 40
0.6462490377392709
 40
0.6751513322873047
 40
0.7037667928460204
 40
0.7323852365635642
 40
0.7608471611380164
 40
0.7900668297789398
 40
0.8202542694084977
 40
0.8511514847401926
 40
0.8829581884166167
 40
0.9146919108698394
 40
0.9459179767399543
 40
0.9764838029062973
 40
1.0
 40
1.0
 40
1.0
 40
1.0
 10
4.634739765346013
 20
5.897061412824399
 30
0.0
 10
4.63193651608732
 20
5.898922084393751
 30
0.0
 10
4.626230644836671
 20
5.902709386711427
 30
0.0
 10
4.616644402734655
 20
5.906861877511808
 30
0.0
 10
4.606365912009219
 20
5.910180726884584
 30
0.0
 10
4.595399054992178
 20
5.912694325973124
 30
0.0
 10
4.583862965375781
 20
5.914593613611814
 30
0.0
 10
4.571845443471608
 20
5.916015367135843
 30
0.0
 10
4.559445812396045
 20
5.91711024944124
 30
0.0
 10
4.542021862032433
 20
5.918354715002094
 30
0.0
 10
4.519664383376
 20
5.919860726284896
 30
0.0
 10
4.492521110246472
 20
5.92261893652579
 30
0.0
 10
4.46644964946989
 20
5.925668767951243
 30
0.0
 10
4.441584547836241
 20
5.928660733604855
 30
0.0
 10
4.418030441466102
 20
5.931303770509366
 30
0.0
 10
4.394924943357173
 20
5.933445615718169
 30
0.0
 10
4.372374116808702
 20
5.934813746116128
 30
0.0
 10
4.350483216555066
 20
5.935134711640587
 30
0.0
 10
4.330947076372897
 20
5.934207768281446
 30
0.0
 10
4.313745656247895
 20
5.932155809176242
 30
0.0
 10
4.298771588348917
 20
5.929240912255132
 30
0.0
 10
4.284409011598103
 20
5.92513660575126
 30
0.0
 10
4.270709713582626
 20
5.919714170989698
 30
0.0
 10
4.257808577910632
 20
5.912885754732909
 30
0.0
 10
4.245748082190705
 20
5.904562630849543
 30
0.0
 10
4.234605392894636
 20
5.894675374987795
 30
0.0
 10
4.224419907369777
 20
5.883248619949537
 30
0.0
 10
4.21517711665715
 20
5.870476295367423
 30
0.0
 10
4.207035575293535
 20
5.856622091568667
 30
0.0
 10
4.200138567744562
 20
5.841980981831966
 30
0.0
 10
4.194709268592593
 20
5.82688654070813
 30
0.0
 10
4.190957664008228
 20
5.812656765706526
 30
0.0
 10
4.189498251980449
 20
5.803396614286388
 30
0.0
 10
4.188863663649293
 20
5.799370072141941
 30
0.0
  0
SPLINE
  5
146
330
1F
100
AcDbEntity
  8
0
  6
Continuous
 62
     7
370
    15
100
AcDbSpline
210
0.0
220
0.0
230
1.0
 70
     8
 71
     3
 72
    18
 73
    14
 74
     0
 42
0.0000000001
 43
0.0000000001
 40
0.0
 40
0.0
 40
0.0
 40
0.0
 40
0.0245195619875117
 40
0.1843720994773914
 40
0.3402707131919402
 40
0.4455438181659492
 40
0.5467381339578397
 40
0.643323897450056
 40
0.7351146220765696
 40
0.8040645348630983
 40
0.8706524966565806
 40
0.935608031419928
 40
1.0
 40
1.0
 40
1.0
 40
1.0
 10
4.676031046180127
 20
5.76558484164722
 30
0.0
 10
4.676028022076396
 20
5.766728862908234
 30
0.0
 10
4.67600528266717
 20
5.775331202617531
 30
0.0
 10
4.675211306660892
 20
5.791249766447036
 30
0.0
 10
4.673423692073765
 20
5.81094214946755
 30
0.0
 10
4.670782961944883
 20
5.827831877130114
 30
0.0
 10
4.667692310554951
 20
5.841852979597235
 30
0.0
 10
4.66369301490899
 20
5.855051270017129
 30
0.0
 10
4.659008115417606
 20
5.866455193700425
 30
0.0
 10
4.653813789470103
 20
5.876086313747389
 30
0.0
 10
4.648308401045907
 20
5.884048318504211
 30
0.0
 10
4.642049122391232
 20
5.891209457825602
 30
0.0
 10
4.63716913033046
 20
5.895116435382923
 30
0.0
 10
4.634739765346013
 20
5.897061412824399
 30
0.0
  0
LINE
  5
147
330
1F
100
AcDbEntity
  8
0
  6
Continuous
 62
     7
370
    15
100
AcDbLine
 10
5.245505897881752
 20
4.826024311403278
 30
0.0
 11
5.339621911419819
 21
4.916933399547067
 31
0.0
  0
LINE
  5
148
330
1F
100
AcDbEntity
  8
0
  6
Continuous
 62
     7
370
    15
100
AcDbLine
 10
5.339621911419819
 20
4.916933399547067
 30
0.0
 11
5.339621911419819
 21
5.688094981667737
 31
0.0
  0
LINE
  5
149
330
1F
100
AcDbEntity
  8
0
  6
Continuous
 62
     7
370
    15
100
AcDbLine
 10
5.339621911419819
 20
5.733658696261174
 30
0.0
 11
5.339621911419819
 21
5.970670664733931
 31
0.0
  0
SPLINE
  5
14A
330
1F
100
AcDbEntity
  8
0
  6
Continuous
 62
     7
370
    15
100
AcDbSpline
210
0.0
220
0.0
230
1.0
 70
     8
 71
     3
 72
    14
 73
    10
 74
     0
 42
0.0000000001
 43
0.0000000001
 40
0.0
 40
0.0
 40
0.0
 40
0.0
 40
0.0528909759838094
 40
0.1902695479381764
 40
0.3247434059900935
 40
0.4581279623529585
 40
0.6340126489487168
 40
0.8139630367907786
 40
1.0
 40
1.0
 40
1.0
 40
1.0
 10
4.28236393829441
 20
5.924063838875402
 30
0.0
 10
4.28147112496088
 20
5.922218407146304
 30
0.0
 10
4.278259325855189
 20
5.915579666712512
 30
0.0
 10
4.274148618749198
 20
5.90356944973241
 30
0.0
 10
4.270137224225874
 20
5.88821524328816
 30
0.0
 10
4.267224397408554
 20
5.870975338723435
 30
0.0
 10
4.265457028219342
 20
5.851689221535754
 30
0.0
 10
4.264744616615248
 20
5.830174947387303
 30
0.0
 10
4.264687242584268
 20
5.815610914970698
 30
0.0
 10
4.264658078487585
 20
5.808207794739677
 30
0.0
  0
LINE
  5
14B
330
1F
100
AcDbEntity
  8
0
  6
Continuous
 62
     7
370
    15
100
AcDbLine
 10
8.192214717812035
 20
4.621669011249594
 30
0.0
 11
8.286330731350101
 21
4.712578099393384
 31
0.0
  0
LINE
  5
14C
330
1F
100
AcDbEntity
  8
0
  6
Continuous
 62
     7
370
    15
100
AcDbLine
 10
8.192214717812035
 20
4.621669011249594
 30
0.0
 11
8.192214717812035
 21
5.675406276436457
 31
0.0
  0
LINE
  5
14D
330
1F
100
AcDbEntity
  8
0
  6
Continuous
 62
     7
370
    15
100
AcDbLine
 10
8.192214717812035
 20
5.675406276436457
 30
0.0
 11
8.286330731350101
 21
5.766315364580248
 31
0.0
  0
LINE
  5
14E
330
1F
100
AcDbEntity
  8
0
  6
Continuous
 62
     7
370
    15
100
AcDbLine
 10
8.286330731350101
 20
4.712578099393384
 30
0.0
 11
8.286330731350101
 21
5.483739681514053
 31
0.0
  0
LINE
  5
14F
330
1F
100
AcDbEntity
  8
0
  6
Continuous
 62
     7
370
    15
100
AcDbLine
 10
8.286330731350101
 20
5.52930339610749
 30
0.0
 11
8.286330731350101
 21
5.766315364580248
 31
0.0
  0
LINE
  5
150
330
1F
100
AcDbEntity
  8
0
  6
Continuous
 62
     7
370
    15
100
AcDbLine
 10
6.611609058290692
 20
4.731284573463081
 30
0.0
 11
6.827027296023771
 21
4.716345242392166
 31
0.0
  0
LINE
  5
151
330
1F
100
AcDbEntity
  8
0
  6
Continuous
 62
     7
370
    15
100
AcDbLine
 10
7.352266037767056
 20
4.679919749654192
 30
0.0
 11
8.192214717812035
 21
4.621669011249594
 31
0.0
  0
LINE
  5
152
330
1F
100
AcDbEntity
  8
0
  6
Continuous
 62
     7
370
    15
100
AcDbLine
 10
6.611609058290692
 20
5.785021838649942
 30
0.0
 11
6.611609058290692
 21
4.731284573463081
 31
0.0
  0
LINE
  5
153
330
1F
100
AcDbEntity
  8
0
  6
Continuous
 62
     7
370
    15
100
AcDbLine
 10
8.192214717812035
 20
5.675406276436457
 30
0.0
 11
6.611609058290692
 21
5.785021838649942
 31
0.0
  0
SPLINE
  5
154
330
1F
100
AcDbEntity
  8
0
  6
Continuous
 62
     7
370
    15
100
AcDbSpline
210
0.0
220
0.0
230
1.0
 70
     8
 71
     3
 72
    38
 73
    34
 74
     0
 42
0.0000000001
 43
0.0000000001
 40
0.0
 40
0.0
 40
0.0
 40
0.0
 40
0.018586080624021
 40
0.0378313880459761
 40
0.0579707905147326
 40
0.0790923907901868
 40
0.1011740893143347
 40
0.124119012843213
 40
0.1477821330256447
 40
0.1719877135690703
 40
0.2236160165995765
 40
0.2754406412212432
 40
0.3270436635501707
 40
0.3726647538345014
 40
0.4176143083795984
 40
0.4616661746886272
 40
0.5046283133836253
 40
0.5463608625061179
 40
0.5868023198747249
 40
0.6168470422343005
 40
0.6462490026788021
 40
0.6751512957979317
 40
0.7037667549419244
 40
0.7323855335667874
 40
0.7608474567341073
 40
0.7900668401578509
 40
0.8202542782949683
 40
0.8511514920991324
 40
0.8829581942030609
 40
0.9146919150873964
 40
0.945917979413722
 40
0.9764838040689173
 40
1.0
 40
1.0
 40
1.0
 40
1.0
 10
7.581448791338091
 20
5.692706098380257
 30
0.0
 10
7.578645544741287
 20
5.69456677731035
 30
0.0
 10
7.572939623630883
 20
5.698354131301614
 30
0.0
 10
7.563353333191273
 20
5.702506487908626
 30
0.0
 10
7.553074880508754
 20
5.705825454778574
 30
0.0
 10
7.542108011541349
 20
5.70833902449229
 30
0.0
 10
7.530571853434655
 20
5.710238298967107
 30
0.0
 10
7.518554263447525
 20
5.711660068761846
 30
0.0
 10
7.506154632314361
 20
5.712754948891819
 30
0.0
 10
7.488730819340423
 20
5.713999404808896
 30
0.0
 10
7.466373409440284
 20
5.715505417146818
 30
0.0
 10
7.439230136426098
 20
5.718263624636543
 30
0.0
 10
7.413158606088941
 20
5.721313443774997
 30
0.0
 10
7.388293437068702
 20
5.724305442746924
 30
0.0
 10
7.364739398450659
 20
5.7269484501741
 30
0.0
 10
7.34163390061754
 20
5.729090310538037
 30
0.0
 10
7.319083074682279
 20
5.730458428665564
 30
0.0
 10
7.297192103828628
 20
5.730779420438929
 30
0.0
 10
7.277655898515238
 20
5.729852459395623
 30
0.0
 10
7.260454535630219
 20
5.72780053856866
 30
0.0
 10
7.245480557484424
 20
5.724885560387978
 30
0.0
 10
7.231118031460574
 20
5.720781304876421
 30
0.0
 10
7.217418704748485
 20
5.715358800613151
 30
0.0
 10
7.204517435605188
 20
5.708530509247879
 30
0.0
 10
7.192456911015034
 20
5.700207389239454
 30
0.0
 10
7.181314421485861
 20
5.690319986802433
 30
0.0
 10
7.17112892372485
 20
5.678893316041244
 30
0.0
 10
7.161886145342599
 20
5.6661209779787
 30
0.0
 10
7.153744600556517
 20
5.652266777921625
 30
0.0
 10
7.14684759392853
 20
5.637625667178035
 30
0.0
 10
7.141418294534606
 20
5.622531226318723
 30
0.0
 10
7.137666690009434
 20
5.608301451252406
 30
0.0
 10
7.136207277975294
 20
5.599041299839222
 30
0.0
 10
7.135572689641371
 20
5.595014757697799
 30
0.0
  0
SPLINE
  5
155
330
1F
100
AcDbEntity
  8
0
  6
Continuous
 62
     7
370
    15
100
AcDbSpline
210
0.0
220
0.0
230
1.0
 70
     8
 71
     3
 72
    18
 73
    14
 74
     0
 42
0.0000000001
 43
0.0000000001
 40
0.0
 40
0.0
 40
0.0
 40
0.0
 40
0.0245195729906156
 40
0.1843722000707768
 40
0.3402708390487037
 40
0.4455437283461988
 40
0.5467380605366332
 40
0.6433238396805772
 40
0.7351139991497899
 40
0.8040646480820129
 40
0.8706526206660777
 40
0.9356091815716737
 40
1.0
 40
1.0
 40
1.0
 40
1.0
 10
7.622740278234001
 20
5.561229512912619
 30
0.0
 10
7.622737181144819
 20
5.56237353923524
 30
0.0
 10
7.622713892927432
 20
5.570975917837883
 30
0.0
 10
7.621920249606248
 20
5.586894457331233
 30
0.0
 10
7.620132388722857
 20
5.606586831038756
 30
0.0
 10
7.617492048227096
 20
5.623476576128425
 30
0.0
 10
7.614401346120314
 20
5.637497674685152
 30
0.0
 10
7.610401958731288
 20
5.650695891326716
 30
0.0
 10
7.60571744861581
 20
5.662099980900075
 30
0.0
 10
7.600522758774243
 20
5.671730928595355
 30
0.0
 10
7.595017459161513
 20
5.679693092600847
 30
0.0
 10
7.588757956547541
 20
5.686854025419302
 30
0.0
 10
7.583878065148319
 20
5.690761103682203
 30
0.0
 10
7.581448791338091
 20
5.692706098380257
 30
0.0
  0
LINE
  5
156
330
1F
100
AcDbEntity
  8
0
  6
Continuous
 62
     7
370
    15
100
AcDbLine
 10
6.611609058290692
 20
5.785021838649942
 30
0.0
 11
6.705725071828758
 21
5.875930926793733
 31
0.0
  0
LINE
  5
157
330
1F
100
AcDbEntity
  8
0
  6
Continuous
 62
     7
370
    15
100
AcDbLine
 10
8.286330731350101
 20
5.766315364580248
 30
0.0
 11
6.705725071828758
 21
5.875930926793733
 31
0.0
  0
SPLINE
  5
158
330
1F
100
AcDbEntity
  8
0
  6
Continuous
 62
     7
370
    15
100
AcDbSpline
210
0.0
220
0.0
230
1.0
 70
     8
 71
     3
 72
    14
 73
    10
 74
     0
 42
0.0000000001
 43
0.0000000001
 40
0.0
 40
0.0
 40
0.0
 40
0.0
 40
0.0528902989783357
 40
0.1902689691326384
 40
0.3247429233081649
 40
0.4581275750159929
 40
0.6340123873363432
 40
0.8139629038092113
 40
1.0
 40
1.0
 40
1.0
 40
1.0
 10
7.229072758224692
 20
5.719708538721718
 30
0.0
 10
7.228180022815955
 20
5.717863097397969
 30
0.0
 10
7.224968472697887
 20
5.711224257666538
 30
0.0
 10
7.220857598801691
 20
5.699214159395407
 30
0.0
 10
7.216846262193794
 20
5.683859922559604
 30
0.0
 10
7.21393341905504
 20
5.666620026559676
 30
0.0
 10
7.212166055533444
 20
5.64733390639787
 30
0.0
 10
7.211453642260494
 20
5.625819633125163
 30
0.0
 10
7.21139626845946
 20
5.611255600587893
 30
0.0
 10
7.211367104479661
 20
5.603852480295535
 30
0.0
  0
LINE
  5
159
330
1F
100
AcDbEntity
  8
0
  6
Continuous
 62
     7
370
    15
100
AcDbLine
 10
1.299515418107531
 20
5.600912317048495
 30
0.0
 11
1.428924943408453
 21
5.725912319704464
 31
0.0
  0
LINE
  5
15A
330
1F
100
AcDbEntity
  8
0
  6
Continuous
 62
     7
370
    15
100
AcDbLine
 10
1.299515418107531
 20
7.488858346563139
 30
0.0
 11
1.299515418107531
 21
5.600912317048495
 31
0.0
  0
LINE
  5
15B
330
1F
100
AcDbEntity
  8
0
  6
Continuous
 62
     7
370
    15
100
AcDbLine
 10
1.299515418107531
 20
7.488858346563139
 30
0.0
 11
1.35857102342561
 21
7.545901680927006
 31
0.0
  0
LINE
  5
15C
330
1F
100
AcDbEntity
  8
0
  6
Continuous
 62
     7
370
    15
100
AcDbLine
 10
1.35857102342561
 20
7.545901680927006
 30
0.0
 11
1.364220180757992
 21
7.595263934728952
 31
0.0
  0
LINE
  5
15D
330
1F
100
AcDbEntity
  8
0
  6
Continuous
 62
     7
370
    15
100
AcDbLine
 10
1.364220180757992
 20
7.595263934728952
 30
0.0
 11
1.37041738626366
 21
7.535391389259159
 31
0.0
  0
LINE
  5
15E
330
1F
100
AcDbEntity
  8
0
  6
Continuous
 62
     7
370
    15
100
AcDbLine
 10
1.37041738626366
 20
7.535391389259159
 30
0.0
 11
1.428924943408453
 21
7.591905349738398
 31
0.0
  0
LINE
  5
15F
330
1F
100
AcDbEntity
  8
0
  6
Continuous
 62
     7
370
    15
100
AcDbLine
 10
1.428924943408453
 20
7.591905349738398
 30
0.0
 11
1.428924943408453
 21
5.725912319704464
 31
0.0
  0
LINE
  5
160
330
1F
100
AcDbEntity
  8
0
  6
Continuous
 62
     7
370
    15
100
AcDbLine
 10
1.079986814217551
 20
7.504082732982601
 30
0.0
 11
1.299515418107531
 21
7.488858346563139
 31
0.0
  0
LINE
  5
161
330
1F
100
AcDbEntity
  8
0
  6
Continuous
 62
     7
370
    15
100
AcDbLine
 10
1.079986814217551
 20
7.504082732982601
 30
0.0
 11
1.13904241953563
 21
7.561126067346468
 31
0.0
  0
LINE
  5
162
330
1F
100
AcDbEntity
  8
0
  6
Continuous
 62
     7
370
    15
100
AcDbLine
 10
1.13904241953563
 20
7.561126067346468
 30
0.0
 11
1.35857102342561
 21
7.545901680927006
 31
0.0
  0
LINE
  5
163
330
1F
100
AcDbEntity
  8
0
  6
Continuous
 62
     7
370
    15
100
AcDbLine
 10
1.079986814217551
 20
5.616136703467957
 30
0.0
 11
1.096019168907255
 21
5.615024853992832
 31
0.0
  0
LINE
  5
164
330
1F
100
AcDbEntity
  8
0
  6
Continuous
 62
     7
370
    15
100
AcDbLine
 10
1.280306665911101
 20
5.60224445081554
 30
0.0
 11
1.299515418107531
 21
5.600912317048495
 31
0.0
  0
LINE
  5
165
330
1F
100
AcDbEntity
  8
0
  6
Continuous
 62
     7
370
    15
100
AcDbLine
 10
1.079986814217551
 20
7.504082732982601
 30
0.0
 11
1.079986814217551
 21
5.616136703467957
 31
0.0
  0
LINE
  5
166
330
1F
100
AcDbEntity
  8
0
  6
Continuous
 62
     7
370
    15
100
AcDbLine
 10
1.144691576868011
 20
7.610488321148414
 30
0.0
 11
1.364220180757992
 21
7.595263934728952
 31
0.0
  0
LINE
  5
167
330
1F
100
AcDbEntity
  8
0
  6
Continuous
 62
     7
370
    15
100
AcDbLine
 10
1.13904241953563
 20
7.561126067346468
 30
0.0
 11
1.144691576868011
 21
7.610488321148414
 31
0.0
  0
LINE
  5
168
330
1F
100
AcDbEntity
  8
0
  6
Continuous
 62
     7
370
    15
100
AcDbLine
 10
1.209396339518473
 20
7.60712973615786
 30
0.0
 11
1.428924943408453
 21
7.591905349738398
 31
0.0
  0
LINE
  5
169
330
1F
100
AcDbEntity
  8
0
  6
Continuous
 62
     7
370
    15
100
AcDbLine
 10
1.208306078611226
 20
7.606076624990157
 30
0.0
 11
1.209396339518473
 21
7.60712973615786
 31
0.0
  0
LINE
  5
16A
330
1F
100
AcDbEntity
  8
0
  6
Continuous
 62
     7
370
    15
100
AcDbLine
 10
1.999699323825491
 20
5.68632891429934
 30
0.0
 11
1.428924943408453
 21
5.725912319704464
 31
0.0
  0
LINE
  5
16B
330
1F
100
AcDbEntity
  8
0
  6
Continuous
 62
     7
370
    15
100
AcDbLine
 10
1.079986827175188
 20
5.750111301631561
 30
0.0
 11
0.6386220106168846
 21
5.780720107956437
 31
0.0
  0
LINE
  5
16C
330
1F
100
AcDbEntity
  8
0
  6
Continuous
 62
     7
370
    15
100
AcDbLine
 10
1.999699323825491
 20
5.68632891429934
 30
0.0
 11
1.939883891508767
 21
5.628551643413969
 31
0.0
  0
LINE
  5
16D
330
1F
100
AcDbEntity
  8
0
  6
Continuous
 62
     7
370
    15
100
AcDbLine
 10
1.939883891508767
 20
5.628551643413969
 30
0.0
 11
2.00085309597812
 21
5.61926160026087
 31
0.0
  0
LINE
  5
16E
330
1F
100
AcDbEntity
  8
0
  6
Continuous
 62
     7
370
    15
100
AcDbLine
 10
2.00085309597812
 20
5.61926160026087
 30
0.0
 11
1.950287654902448
 21
5.615873649713745
 31
0.0
  0
LINE
  5
16F
330
1F
100
AcDbEntity
  8
0
  6
Continuous
 62
     7
370
    15
100
AcDbLine
 10
1.950287654902448
 20
5.615873649713745
 30
0.0
 11
1.892242643458932
 21
5.559806474073209
 31
0.0
  0
LINE
  5
170
330
1F
100
AcDbEntity
  8
0
  6
Continuous
 62
     7
370
    15
100
AcDbLine
 10
0.4872596403815984
 20
5.657242542870629
 30
0.0
 11
1.096019168907255
 21
5.615024853992832
 31
0.0
  0
LINE
  5
171
330
1F
100
AcDbEntity
  8
0
  6
Continuous
 62
     7
370
    15
100
AcDbLine
 10
1.280306665911101
 20
5.60224445081554
 30
0.0
 11
1.892242643458932
 21
5.559806474073209
 31
0.0
  0
LINE
  5
172
330
1F
100
AcDbEntity
  8
0
  6
Continuous
 62
     7
370
    15
100
AcDbLine
 10
0.4872596403815984
 20
5.657242542870629
 30
0.0
 11
0.5453046518251137
 21
5.713309718511164
 31
0.0
  0
LINE
  5
173
330
1F
100
AcDbEntity
  8
0
  6
Continuous
 62
     7
370
    15
100
AcDbLine
 10
0.5453046518251137
 20
5.713309718511164
 30
0.0
 11
0.5080586101324354
 21
5.722787426484167
 31
0.0
  0
LINE
  5
174
330
1F
100
AcDbEntity
  8
0
  6
Continuous
 62
     7
370
    15
100
AcDbLine
 10
0.5080586101324354
 20
5.722787426484167
 30
0.0
 11
0.57880657830016
 21
5.722942837071067
 31
0.0
  0
LINE
  5
175
330
1F
100
AcDbEntity
  8
0
  6
Continuous
 62
     7
370
    15
100
AcDbLine
 10
0.57880657830016
 20
5.722942837071067
 30
0.0
 11
0.6386220106168846
 21
5.780720107956437
 31
0.0
  0
LINE
  5
176
330
1F
100
AcDbEntity
  8
0
  6
Continuous
 62
     7
370
    15
100
AcDbLine
 10
1.892242643458932
 20
5.428089327193855
 30
0.0
 11
1.892242643458932
 21
5.559806474073209
 31
0.0
  0
LINE
  5
177
330
1F
100
AcDbEntity
  8
0
  6
Continuous
 62
     7
370
    15
100
AcDbLine
 10
0.4872596403815984
 20
5.525525395991275
 30
0.0
 11
1.096019168907255
 21
5.483307707113479
 31
0.0
  0
LINE
  5
178
330
1F
100
AcDbEntity
  8
0
  6
Continuous
 62
     7
370
    15
100
AcDbLine
 10
1.280306665911101
 20
5.470527303936187
 30
0.0
 11
1.892242643458932
 21
5.428089327193855
 31
0.0
  0
LINE
  5
179
330
1F
100
AcDbEntity
  8
0
  6
Continuous
 62
     7
370
    15
100
AcDbLine
 10
0.4872596403815984
 20
5.525525395991275
 30
0.0
 11
0.4872596403815984
 21
5.657242542870629
 31
0.0
  0
LINE
  5
17A
330
1F
100
AcDbEntity
  8
0
  6
Continuous
 62
     7
370
    15
100
AcDbLine
 10
1.950287654902448
 20
5.484156502834391
 30
0.0
 11
1.950287654902448
 21
5.615873649713745
 31
0.0
  0
LINE
  5
17B
330
1F
100
AcDbEntity
  8
0
  6
Continuous
 62
     7
370
    15
100
AcDbLine
 10
1.950287654902448
 20
5.484156502834391
 30
0.0
 11
1.892242643458932
 21
5.428089327193855
 31
0.0
  0
LINE
  5
17C
330
1F
100
AcDbEntity
  8
0
  6
Continuous
 62
     7
370
    15
100
AcDbLine
 10
2.00085309597812
 20
5.487544453381516
 30
0.0
 11
2.00085309597812
 21
5.61926160026087
 31
0.0
  0
LINE
  5
17D
330
1F
100
AcDbEntity
  8
0
  6
Continuous
 62
     7
370
    15
100
AcDbLine
 10
2.00085309597812
 20
5.487544453381516
 30
0.0
 11
1.950287654902448
 21
5.484156502834391
 31
0.0
  0
LINE
  5
17E
330
1F
100
AcDbEntity
  8
0
  6
Continuous
 62
     7
370
    15
100
AcDbLine
 10
1.999699323825491
 20
5.619437417471471
 30
0.0
 11
1.999699323825491
 21
5.68632891429934
 31
0.0
  0
LINE
  5
17F
330
1F
100
AcDbEntity
  8
0
  6
Continuous
 62
     7
370
    15
100
AcDbLine
 10
0.5080586101324354
 20
5.677332898884796
 30
0.0
 11
0.5080586101324354
 21
5.722787426484167
 31
0.0
  0
LWPOLYLINE
  5
180
330
1F
100
AcDbEntity
  8
0
  6
Continuous
 62
     7
370
    15
100
AcDbPolyline
 90
       20
 70
   128
 43
0.0
 10
0.2650010556674673
 20
5.461625444503447
 10
0.2641031330489494
 20
5.460500840044969
 10
0.2632262573520446
 20
5.458888038646542
 10
0.2623909820224175
 20
5.456824844936256
 10
0.2616168873573674
 20
5.454359617937615
 10
0.2609221111860464
 20
5.451550136771585
 10
0.2603229416655292
 20
5.448462255096943
 10
0.2598334273312953
 20
5.445168355691202
 10
0.2594650320091516
 20
5.441745634253303
 10
0.2592263967044611
 20
5.438274322332937
 10
0.2591231187457793
 20
5.434835788528899
 10
0.2591576137496214
 20
5.431510624403039
 10
0.2593290742098951
 20
5.42837677014841
 10
0.2596334763996615
 20
5.42550767545329
 10
0.2600636977010802
 20
5.422970601189818
 10
0.2606096408371175
 20
5.420825002325754
 10
0.2612585168437633
 20
5.419121175700764
 10
0.2619951142387294
 20
5.417899057870084
 10
0.2628021682656941
 20
5.417187291466057
 10
0.2634286860160475
 20
5.416999767170913
  0
LWPOLYLINE
  5
181
330
1F
100
AcDbEntity
  8
0
  6
Continuous
 62
     7
370
    15
100
AcDbPolyline
 90
        3
 70
   128
 43
0.0
 10
0.2665734218680069
 20
5.46234539965652
 10
0.2658989748351044
 20
5.462235490006145
 10
0.2650010556674673
 20
5.461625444503447
  0
LWPOLYLINE
  5
182
330
1F
100
AcDbEntity
  8
0
  6
Continuous
 62
     7
370
    15
100
AcDbPolyline
 90
       42
 70
   128
 43
0.0
 10
2.196852697777664
 20
5.32765084901384
 10
2.195954775159147
 20
5.326526244555362
 10
2.195077899462241
 20
5.324913443156935
 10
2.194242624132614
 20
5.322850249446649
 10
2.193468529467564
 20
5.320385022448007
 10
2.192773753296243
 20
5.317575541281978
 10
2.192174583775726
 20
5.314487659607337
 10
2.191685069441492
 20
5.311193760201596
 10
2.191316674119348
 20
5.307771038763696
 10
2.191078038814657
 20
5.304299726843331
 10
2.190974760855976
 20
5.300861193039292
 10
2.191009255859817
 20
5.297536028913433
 10
2.191180716320091
 20
5.294402174658803
 10
2.191485118509858
 20
5.291533079963683
 10
2.191915339811277
 20
5.288996005700211
 10
2.192461282947314
 20
5.286850406836148
 10
2.19311015895396
 20
5.285146580211157
 10
2.193846756348926
 20
5.283924462380477
 10
2.19465381037589
 20
5.28321269597645
 10
2.195512406757535
 20
5.283027969271823
 10
2.196402413055643
 20
5.283374602154981
 10
2.197302979048805
 20
5.284244482106053
 10
2.198192988797794
 20
5.285617212693996
 10
2.199051581728558
 20
5.287460616904105
 10
2.199858635755521
 20
5.289731491963843
 10
2.200595233150488
 20
5.292376606689274
 10
2.201244109157133
 20
5.295333965500021
 10
2.201790055744051
 20
5.298534248846946
 10
2.20222027359459
 20
5.301902443509245
 10
2.202524679235237
 20
5.305359601411008
 10
2.20269613624463
 20
5.308824688505874
 10
2.202730631248472
 20
5.312216491861911
 10
2.202627349838909
 20
5.315455504637501
 10
2.2023887179851
 20
5.318465811883431
 10
2.202020326113836
 20
5.32117685154274
 10
2.201530808328722
 20
5.323525078539635
 10
2.200931642259086
 20
5.325455456919187
 10
2.200236866087764
 20
5.326922733590477
 10
2.199462767971834
 20
5.327892521197896
 10
2.198627492642207
 20
5.328342086882284
 10
2.197750616945301
 20
5.328260894516539
 10
2.196852697777664
 20
5.32765084901384
  0
LWPOLYLINE
  5
183
330
1F
100
AcDbEntity
  8
0
  6
Continuous
 62
     7
370
    15
100
AcDbPolyline
 90
       22
 70
   128
 43
0.0
 10
6.49513828231317
 20
5.653523195538685
 10
6.494685844241569
 20
5.653483461062893
 10
6.493791220665037
 20
5.653004759634614
 10
6.492891317240975
 20
5.652006834084652
 10
6.49200722575245
 20
5.650512942376128
 10
6.491159672189162
 20
5.648558198304317
 10
6.490368516369751
 20
5.646188418468058
 10
6.489652299876414
 20
5.643459118938196
 10
6.489027821596576
 20
5.640434281015132
 10
6.488509713264559
 20
5.637184807893682
 10
6.488110115078796
 20
5.633786871931693
 10
6.487838392729605
 20
5.630320095856399
 10
6.487700923444585
 20
5.62686574912122
 10
6.487700923444585
 20
5.62350477820031
 10
6.487838392729605
 20
5.620316001730573
 10
6.488110115078796
 20
5.617374152924608
 10
6.488509713264559
 20
5.614748181378154
 10
6.489027821596576
 20
5.612499616694125
 10
6.489652299876414
 20
5.610681178167965
 10
6.490368516369751
 20
5.60933550265436
 10
6.491159672189162
 20
5.608494066979829
 10
6.491993546461211
 20
5.608177572712224
  0
LWPOLYLINE
  5
184
330
1F
100
AcDbEntity
  8
0
  6
Continuous
 62
     7
370
    15
100
AcDbPolyline
 90
       42
 70
   128
 43
0.0
 10
8.43130016935358
 20
5.502557608748407
 10
8.431231231109107
 20
5.505842099472363
 10
8.431026034838753
 20
5.50891641399042
 10
8.430689387619386
 20
5.511708540594224
 10
8.430229185066128
 20
5.514153005440265
 10
8.429656207730401
 20
5.516192478926207
 10
8.428983886440031
 20
5.51777919752119
 10
8.428227984818224
 20
5.518875944988947
 10
8.4274062162358
 20
5.519457073309187
 10
8.426537846959909
 20
5.519508840564983
 10
8.425643223383376
 20
5.519030139136705
 10
8.424743319959317
 20
5.518032213586742
 10
8.42385922847079
 20
5.516538321878218
 10
8.423011674907503
 20
5.514583577806408
 10
8.42222051908809
 20
5.512213797970149
 10
8.421504302594755
 20
5.509484498440287
 10
8.420879824314917
 20
5.506459660517223
 10
8.420361715982901
 20
5.503210187395772
 10
8.419962117797137
 20
5.499812251433785
 10
8.419690395447945
 20
5.496345475358491
 10
8.419552926162927
 20
5.492891128623312
 10
8.419552926162927
 20
5.4895301577024
 10
8.419690395447945
 20
5.486341381232665
 10
8.419962117797137
 20
5.483399532426698
 10
8.420361715982901
 20
5.480773560880246
 10
8.420879824314917
 20
5.478524996196216
 10
8.421504302594755
 20
5.476706557670056
 10
8.42222051908809
 20
5.475360882156451
 10
8.423011674907503
 20
5.474519446481919
 10
8.42385922847079
 20
5.474202101677443
 10
8.424743319959317
 20
5.474416143572057
 10
8.425643223383376
 20
5.475156646423578
 10
8.426537846959909
 20
5.476406225030061
 10
8.4274062162358
 20
5.478135604421983
 10
8.428227984818224
 20
5.480304267736218
 10
8.428983886440031
 20
5.482861305001248
 10
8.429656207730401
 20
5.485746848592095
 10
8.430229185066128
 20
5.488893229290948
 10
8.430689387619386
 20
5.492226737200024
 10
8.431026034838753
 20
5.49566916477545
 10
8.431231231109107
 20
5.499139939562942
 10
8.43130016935358
 20
5.502557608748407
  0
LWPOLYLINE
  5
185
330
1F
100
AcDbEntity
  8
0
  6
Continuous
 62
     7
370
    15
100
AcDbPolyline
 90
       42
 70
   128
 43
0.0
 10
5.484590937299707
 20
5.706912937483008
 10
5.484521999055234
 20
5.710197428206964
 10
5.48431680278488
 20
5.71327174272502
 10
5.483980155565513
 20
5.716063869328824
 10
5.483519953012254
 20
5.718508334174866
 10
5.482946975676527
 20
5.720547807660807
 10
5.482274654386158
 20
5.72213452625579
 10
5.481518752764351
 20
5.723231273723547
 10
5.480696984181926
 20
5.723812402043788
 10
5.479828614906035
 20
5.723864169299583
 10
5.478933991329503
 20
5.723385467871306
 10
5.478034087905442
 20
5.722387542321343
 10
5.477149996416917
 20
5.720893650612819
 10
5.476302442853628
 20
5.718938906541008
 10
5.475511287034217
 20
5.716569126704749
 10
5.47479507054088
 20
5.713839827174887
 10
5.474170592261042
 20
5.710814989251823
 10
5.473652483929026
 20
5.707565516130372
 10
5.473252885743263
 20
5.704167580168385
 10
5.472981163394071
 20
5.700700804093091
 10
5.472843694109052
 20
5.697246457357912
 10
5.472843694109052
 20
5.693885486437
 10
5.472981163394071
 20
5.690696709967265
 10
5.473252885743263
 20
5.6877548611613
 10
5.473652483929026
 20
5.685128889614846
 10
5.474170592261042
 20
5.682880324930816
 10
5.47479507054088
 20
5.681061886404656
 10
5.475511287034217
 20
5.679716210891051
 10
5.476302442853628
 20
5.678874775216519
 10
5.477149996416917
 20
5.678557430412044
 10
5.478034087905442
 20
5.678771472306658
 10
5.478933991329503
 20
5.679511975158178
 10
5.479828614906035
 20
5.680761553764662
 10
5.480696984181926
 20
5.682490933156584
 10
5.481518752764351
 20
5.684659596470818
 10
5.482274654386158
 20
5.687216633735848
 10
5.482946975676527
 20
5.690102177326695
 10
5.483519953012254
 20
5.693248558025548
 10
5.483980155565513
 20
5.696582065934624
 10
5.48431680278488
 20
5.700024493510051
 10
5.484521999055234
 20
5.703495268297542
 10
5.484590937299707
 20
5.706912937483008
  0
LWPOLYLINE
  5
186
330
1F
100
AcDbEntity
  8
0
  6
Continuous
 62
     7
370
    15
100
AcDbPolyline
 90
       22
 70
   128
 43
0.0
 10
3.548429462382888
 20
5.857878495692368
 10
3.547977024311288
 20
5.857838761216576
 10
3.547082400734754
 20
5.857360059788298
 10
3.546182497310694
 20
5.856362134238335
 10
3.545298405822169
 20
5.854868242529811
 10
3.544450852258881
 20
5.852913498458
 10
3.54365969643947
 20
5.850543718621742
 10
3.542943479946133
 20
5.84781441909188
 10
3.542319001666294
 20
5.844789581168814
 10
3.541800893334278
 20
5.841540108047365
 10
3.541401295148514
 20
5.838142172085377
 10
3.541129572799323
 20
5.834675396010084
 10
3.540992103514303
 20
5.831221049274903
 10
3.540992103514303
 20
5.827860078353993
 10
3.541129572799323
 20
5.824671301884257
 10
3.541401295148514
 20
5.821729453078291
 10
3.541800893334278
 20
5.819103481531839
 10
3.542319001666294
 20
5.816854916847809
 10
3.542943479946133
 20
5.815036478321648
 10
3.54365969643947
 20
5.813690802808044
 10
3.544450852258881
 20
5.812849367133512
 10
3.545284726530929
 20
5.812532872865908
  0
LINE
  5
187
330
1F
100
AcDbEntity
  8
0
  6
Continuous
 62
     7
370
    15
100
AcDbLine
 10
0.3818014094963006
 20
5.514569703660975
 30
0.0
 11
0.3818014094963006
 21
5.163323940012779
 31
0.0
  0
LINE
  5
188
330
1F
100
AcDbEntity
  8
0
  6
Continuous
 62
     7
370
    15
100
AcDbLine
 10
0.3818014094963006
 20
5.514569703660975
 30
0.0
 11
1.962407326594888
 21
5.404954123584416
 31
0.0
  0
LINE
  5
189
330
1F
100
AcDbEntity
  8
0
  6
Continuous
 62
     7
370
    15
100
AcDbLine
 10
1.962407326594888
 20
5.404954123584416
 30
0.0
 11
1.962407326594888
 21
5.05370835993622
 31
0.0
  0
LINE
  5
18A
330
1F
100
AcDbEntity
  8
0
  6
Continuous
 62
     7
370
    15
100
AcDbLine
 10
0.3818014094963006
 20
5.163323940012779
 30
0.0
 11
1.962407326594888
 21
5.05370835993622
 31
0.0
  0
SPLINE
  5
18B
330
1F
100
AcDbEntity
  8
0
  6
Continuous
 62
     7
370
    15
100
AcDbSpline
210
0.0
220
0.0
230
1.0
 70
    11
 71
     3
 72
    96
 73
    92
 74
     0
 42
0.0000000001
 43
0.0000000001
 40
0.0
 40
0.0
 40
0.0
 40
0.0
 40
0.0072620009606082
 40
0.0146160529555149
 40
0.022221436264162
 40
0.030127454218674
 40
0.0383039686235763
 40
0.0492785921665438
 40
0.0603134831085841
 40
0.0711254344655289
 40
0.0851348993982192
 40
0.0987287462111436
 40
0.1120548008282501
 40
0.1252916870900989
 40
0.1422858118271069
 40
0.1595615284698151
 40
0.1771395952660028
 40
0.1949862990071959
 40
0.2062731727279432
 40
0.2174853541577678
 40
0.2285341303360544
 40
0.239387226816944
 40
0.2500956539601556
 40
0.2598371443621978
 40
0.2697053366524625
 40
0.2797306945290654
 40
0.2898943841922619
 40
0.3001421546550654
 40
0.3103946009603542
 40
0.3205580016619618
 40
0.3343587432308442
 40
0.3480563495162348
 40
0.3616666611727708
 40
0.3751742785297252
 40
0.387394576757527
 40
0.3996501361832354
 40
0.4119777207439907
 40
0.4243637880971089
 40
0.4368186243690947
 40
0.4473243137663285
 40
0.4580911315939987
 40
0.4690837075778304
 40
0.4772149964909842
 40
0.4850656643570482
 40
0.4925526389494948
 40
0.4997249653434252
 40
0.5068830780248192
 40
0.5142716000473296
 40
0.5220000158194319
 40
0.5300581663104955
 40
0.5383624106816633
 40
0.5494035724536703
 40
0.5603585654503596
 40
0.571024907008445
 40
0.5849444933690262
 40
0.598575508092452
 40
0.6119843557302315
 40
0.625245683125408
 40
0.6373136563960045
 40
0.6495364901183894
 40
0.6620095822505009
 40
0.6748052579113444
 40
0.6879456211485766
 40
0.6974126556544782
 40
0.7068012501859061
 40
0.7160119066323463
 40
0.7249843790295725
 40
0.7337141544934846
 40
0.7422727578859308
 40
0.7508272831314677
 40
0.7606370512711091
 40
0.7707184890249304
 40
0.7809101413879175
 40
0.7910247233123469
 40
0.8010437578403337
 40
0.8109871859125433
 40
0.8208739839144985
 40
0.8479233706337589
 40
0.8750804975977802
 40
0.8889830677424702
 40
0.9028770268823521
 40
0.9167185508140743
 40
0.9305304517949931
 40
0.9444177570718654
 40
0.95232945943286
 40
0.960402303508833
 40
0.9686201465598221
 40
0.9768131306287306
 40
0.9848267905722085
 40
0.9925606098097677
 40
1.0
 40
1.0
 40
1.0
 40
1.0
 10
1.006253136202193
 20
5.424607823019063
 30
0.0
 10
1.005055807296877
 20
5.42232592751973
 30
0.0
 10
1.002645972489613
 20
5.417733211870403
 30
0.0
 10
1.000843576048809
 20
5.409908795245851
 30
0.0
 10
1.00010138819487
 20
5.401664346799898
 30
0.0
 10
1.000320349438093
 20
5.393017898422159
 30
0.0
 10
1.001336771593412
 20
5.383151563202689
 30
0.0
 10
1.003128968776663
 20
5.372187683856987
 30
0.0
 10
1.005444303346337
 20
5.360314023325379
 30
0.0
 10
1.007861379383123
 20
5.347327548422221
 30
0.0
 10
1.010232204814181
 20
5.333390483646435
 30
0.0
 10
1.012881638688528
 20
5.318553963261645
 30
0.0
 10
1.015933800035027
 20
5.304051504907785
 30
0.0
 10
1.020134093923526
 20
5.288467583829274
 30
0.0
 10
1.0261633220975
 20
5.271826851636922
 30
0.0
 10
1.034034454788638
 20
5.254126980925773
 30
0.0
 10
1.042980529139303
 20
5.236542646021907
 30
0.0
 10
1.05140720973236
 20
5.221199732196678
 30
0.0
 10
1.058942524656957
 20
5.208079774500124
 30
0.0
 10
1.06565538463115
 20
5.197414875355508
 30
0.0
 10
1.072937848614951
 20
5.187297678511939
 30
0.0
 10
1.080974297136796
 20
5.177983735598743
 30
0.0
 10
1.089675301546251
 20
5.169973267321053
 30
0.0
 10
1.099078424806238
 20
5.163481997740843
 30
0.0
 10
1.108973216941955
 20
5.1584377057654
 30
0.0
 10
1.119461031315715
 20
5.154535516919926
 30
0.0
 10
1.13036195796306
 20
5.151729181071264
 30
0.0
 10
1.141489112404148
 20
5.149967786161251
 30
0.0
 10
1.152658606187903
 20
5.14919892331016
 30
0.0
 10
1.165073769358213
 20
5.149421598184363
 30
0.0
 10
1.178573803901468
 20
5.150927306058616
 30
0.0
 10
1.193100775676307
 20
5.153481798615304
 30
0.0
 10
1.207458662364117
 20
5.156266341356487
 30
0.0
 10
1.221396169591298
 20
5.158577526254213
 30
0.0
 10
1.235066100900775
 20
5.159763818388975
 30
0.0
 10
1.248428747111876
 20
5.159795570600956
 30
0.0
 10
1.261863714470924
 20
5.159446371435134
 30
0.0
 10
1.275365280373034
 20
5.15928591413277
 30
0.0
 10
1.288150920529019
 20
5.159897314223483
 30
0.0
 10
1.300170876130796
 20
5.161627418994961
 30
0.0
 10
1.311326172782217
 20
5.164596520931477
 30
0.0
 10
1.321139735903355
 20
5.168680946964566
 30
0.0
 10
1.329372875947523
 20
5.173490899053873
 30
0.0
 10
1.33586352242514
 20
5.17863212476414
 30
0.0
 10
1.341148293524681
 20
5.18458699048698
 30
0.0
 10
1.34482204564831
 20
5.191450810292164
 30
0.0
 10
1.346750304058554
 20
5.199038385279497
 30
0.0
 10
1.347309689639157
 20
5.207112594738402
 30
0.0
 10
1.346824227741604
 20
5.215578065040786
 30
0.0
 10
1.345602379095854
 20
5.224346650851505
 30
0.0
 10
1.343755629961359
 20
5.234272881928851
 30
0.0
 10
1.341521878342506
 20
5.245220755407252
 30
0.0
 10
1.339440918761261
 20
5.257071759770711
 30
0.0
 10
1.338249544462054
 20
5.270043558698549
 30
0.0
 10
1.338036806755521
 20
5.283970015995482
 30
0.0
 10
1.338463357291462
 20
5.29883516274172
 30
0.0
 10
1.338831663049103
 20
5.313466101380587
 30
0.0
 10
1.338450932258971
 20
5.327596566097632
 30
0.0
 10
1.336688123788201
 20
5.341290773852578
 30
0.0
 10
1.333642940606228
 20
5.354545355511259
 30
0.0
 10
1.329368943367013
 20
5.367811428806722
 30
0.0
 10
1.323927302173061
 20
5.381072031128161
 30
0.0
 10
1.318100344053382
 20
5.392975313324531
 30
0.0
 10
1.312129816975387
 20
5.403390215913532
 30
0.0
 10
1.306278114900375
 20
5.412175940663185
 30
0.0
 10
1.29983632353091
 20
5.420330613265919
 30
0.0
 10
1.29278086723728
 20
5.427641113440189
 30
0.0
 10
1.285081319174683
 20
5.433882724328831
 30
0.0
 10
1.276706731162287
 20
5.438845005174461
 30
0.0
 10
1.267270853937803
 20
5.442324646782209
 30
0.0
 10
1.25696680011132
 20
5.444309102613266
 30
0.0
 10
1.246020366701519
 20
5.44532968433999
 30
0.0
 10
1.234966669646974
 20
5.445928248382049
 30
0.0
 10
1.223934157465186
 20
5.446710623486549
 30
0.0
 10
1.212993214660862
 20
5.447610165790544
 30
0.0
 10
1.20213644328542
 20
5.448582424633841
 30
0.0
 10
1.185086782867807
 20
5.450150815036025
 30
0.0
 10
1.161771575131018
 20
5.452245725581735
 30
0.0
 10
1.136992182829276
 20
5.453319350896572
 30
0.0
 10
1.11703234124059
 20
5.453573333900628
 30
0.0
 10
1.101915450062481
 20
5.453658041360671
 30
0.0
 10
1.086826535224531
 20
5.453822853320267
 30
0.0
 10
1.071769845018514
 20
5.453510085028435
 30
0.0
 10
1.058971631301439
 20
5.452244130638296
 30
0.0
 10
1.048453810655296
 20
5.450206095636788
 30
0.0
 10
1.040124596559879
 20
5.447899627956732
 30
0.0
 10
1.031971398283162
 20
5.44485427932723
 30
0.0
 10
1.024195866640161
 20
5.441053960054249
 30
0.0
 10
1.017119375674288
 20
5.43645083615493
 30
0.0
 10
1.010875618733699
 20
5.43112121293921
 30
0.0
 10
1.007773901252665
 20
5.426750683631978
 30
0.0
 10
1.006253136202193
 20
5.424607823019063
 30
0.0
  0
LINE
  5
18C
330
1F
100
AcDbEntity
  8
0
  6
Continuous
 62
     7
370
    15
100
AcDbLine
 10
1.962407326594888
 20
5.404954123584416
 30
0.0
 11
2.127110351580584
 21
5.564045029086034
 31
0.0
  0
LINE
  5
18D
330
1F
100
AcDbEntity
  8
0
  6
Continuous
 62
     7
370
    15
100
AcDbLine
 10
2.127110351580584
 20
5.564045029086034
 30
0.0
 11
2.127110351580584
 21
5.333316502953569
 31
0.0
  0
LINE
  5
18E
330
1F
100
AcDbEntity
  8
0
  6
Continuous
 62
     7
370
    15
100
AcDbLine
 10
2.127110351580584
 20
5.287752788360132
 30
0.0
 11
2.127110351580584
 21
5.212799265437839
 31
0.0
  0
LINE
  5
18F
330
1F
100
AcDbEntity
  8
0
  6
Continuous
 62
     7
370
    15
100
AcDbLine
 10
1.962407326594888
 20
5.05370835993622
 30
0.0
 11
2.127110351580584
 21
5.212799265437839
 31
0.0
  0
LINE
  5
190
330
1F
100
AcDbEntity
  8
0
  6
Continuous
 62
     7
370
    15
100
AcDbLine
 10
0.4872595983932909
 20
5.616434491910249
 30
0.0
 11
0.3818014094963006
 21
5.514569703660975
 31
0.0
  0
LINE
  5
191
330
1F
100
AcDbEntity
  8
0
  6
Continuous
 62
     7
370
    15
100
AcDbLine
 10
2.127110351580584
 20
5.564045029086034
 30
0.0
 11
2.000853095316757
 21
5.572801014518278
 31
0.0
  0
SPLINE
  5
192
330
1F
100
AcDbEntity
  8
0
  6
Continuous
 62
     7
370
    15
100
AcDbSpline
210
0.0
220
0.0
230
1.0
 70
     8
 71
     3
 72
    12
 73
     8
 74
     0
 42
0.0000000001
 43
0.0000000001
 40
0.0
 40
0.0
 40
0.0
 40
0.0
 40
0.1541761221216612
 40
0.4038433127383791
 40
0.6484664390158655
 40
0.9654341163730356
 40
1.0
 40
1.0
 40
1.0
 40
1.0
 10
1.0784892432175
 20
5.453506934329186
 30
0.0
 10
1.078862445825915
 20
5.451030010746859
 30
0.0
 10
1.079839999130738
 20
5.444542047428537
 30
0.0
 10
1.081926765913272
 20
5.434178642166815
 30
0.0
 10
1.084336870491762
 20
5.421192084147119
 30
0.0
 10
1.085919566830459
 20
5.411627448163343
 30
0.0
 10
1.086950324326064
 20
5.405998436237511
 30
0.0
 10
1.087051677504239
 20
5.405444942082875
 30
0.0
  0
SPLINE
  5
193
330
1F
100
AcDbEntity
  8
0
  6
Continuous
 62
     7
370
    15
100
AcDbSpline
210
0.0
220
0.0
230
1.0
 70
     8
 71
     3
 72
    19
 73
    15
 74
     0
 42
0.0000000001
 43
0.0000000001
 40
0.0
 40
0.0
 40
0.0
 40
0.0
 40
0.0352593932340482
 40
0.1129680619359991
 40
0.1907121874717962
 40
0.267781081713045
 40
0.3724318697366615
 40
0.4763005846639464
 40
0.5795073459089393
 40
0.6819353780310732
 40
0.7746016911447548
 40
0.8675353893209832
 40
0.9610152528682924
 40
1.0
 40
1.0
 40
1.0
 40
1.0
 10
1.201839688758429
 20
5.227070231880597
 30
0.0
 10
1.203497880241504
 20
5.226616660503684
 30
0.0
 10
1.208810583069891
 20
5.22516345684078
 30
0.0
 10
1.217965857555453
 20
5.223870659298008
 30
0.0
 10
1.22912590013167
 20
5.223052246714469
 30
0.0
 10
1.241543767088802
 20
5.223289105209532
 30
0.0
 10
1.255042845247118
 20
5.224789753159169
 30
0.0
 10
1.269570087859721
 20
5.22734584577963
 30
0.0
 10
1.283927931494971
 20
5.230129498940956
 30
0.0
 10
1.297865346678292
 20
5.232442579422056
 30
0.0
 10
1.311535650640968
 20
5.233622765251662
 30
0.0
 10
1.324896913772882
 20
5.233676835880494
 30
0.0
 10
1.335703174236445
 20
5.233328529466173
 30
0.0
 10
1.342043733255088
 20
5.233320166616281
 30
0.0
 10
1.34390977950509
 20
5.233317705403534
 30
0.0
  0
LINE
  5
194
330
1F
100
AcDbEntity
  8
0
  6
Continuous
 62
     7
370
    15
100
AcDbLine
 10
1.255177403051066
 20
7.337929288430084
 30
0.0
 11
1.258353814537306
 21
7.340997466319564
 31
0.0
  0
LINE
  5
195
330
1F
100
AcDbEntity
  8
0
  6
Continuous
 62
     7
370
    15
100
AcDbLine
 10
1.258353814537306
 20
7.340997466319564
 30
0.0
 11
1.280306665911101
 21
7.31752223488391
 31
0.0
  0
LINE
  5
196
330
1F
100
AcDbEntity
  8
0
  6
Continuous
 62
     7
370
    15
100
AcDbLine
 10
1.280306665911101
 20
7.31752223488391
 30
0.0
 11
1.27713025442486
 21
7.31445405699443
 31
0.0
  0
LINE
  5
197
330
1F
100
AcDbEntity
  8
0
  6
Continuous
 62
     7
370
    15
100
AcDbLine
 10
1.27713025442486
 20
7.31445405699443
 30
0.0
 11
1.255177403051066
 21
7.337929288430084
 31
0.0
  0
LWPOLYLINE
  5
198
330
1F
100
AcDbEntity
  8
0
  6
Continuous
 62
     7
370
    15
100
AcDbPolyline
 90
       45
 70
   128
 43
0.0
 10
1.211271674545753
 20
6.424442413722295
 10
1.211020304912563
 20
6.427974539315973
 10
1.210271283163577
 20
6.431469673816956
 10
1.209039857871688
 20
6.434856595689836
 10
1.207351117060537
 20
6.438066491956743
 10
1.205239434413442
 20
6.441033820850147
 10
1.202747786693696
 20
6.443698213706154
 10
1.19992690373966
 20
6.446005564221631
 10
1.196834199519197
 20
6.447908720771351
 10
1.19353265166866
 20
6.449369109575823
 10
1.190089462091213
 20
6.450356930620173
 10
1.186574717555163
 20
6.450852074789307
 10
1.183059960140251
 20
6.450844429069767
 10
1.179616770562804
 20
6.450334180858421
 10
1.176315222712266
 20
6.449331719079113
 10
1.173222518491804
 20
6.447857522795154
 10
1.170401635537767
 20
6.445941430743269
 10
1.167909987818021
 20
6.443622631190681
 10
1.165798305170926
 20
6.440948194176012
 10
1.164109564359775
 20
6.437972527455648
 10
1.162878139067886
 20
6.434756405142902
 10
1.162129117318901
 20
6.431365160488991
 10
1.161877747685711
 20
6.427867900041467
 10
1.162129117318901
 20
6.424335671416891
 10
1.162878139067886
 20
6.420840536915908
 10
1.164109564359775
 20
6.417453615043028
 10
1.165798305170926
 20
6.414243821807017
 10
1.167909987818021
 20
6.411276389882717
 10
1.170401635537767
 20
6.40861199702671
 10
1.173222518491804
 20
6.406304646511233
 10
1.176315222712266
 20
6.404401489961513
 10
1.179616770562804
 20
6.402941101157041
 10
1.183059960140251
 20
6.401953280112691
 10
1.186574717555163
 20
6.401458135050403
 10
1.190089462091213
 20
6.401465781663097
 10
1.19353265166866
 20
6.401976029874443
 10
1.196834199519197
 20
6.402978491653751
 10
1.19992690373966
 20
6.40445268793771
 10
1.202747786693696
 20
6.406368779989595
 10
1.205239434413442
 20
6.408687579542183
 10
1.207351117060537
 20
6.411362119587749
 10
1.209039857871688
 20
6.414337683277216
 10
1.210271283163577
 20
6.417553805589962
 10
1.211020304912563
 20
6.420945050243873
 10
1.211271674545753
 20
6.424442413722295
  0
LINE
  5
199
330
1F
100
AcDbEntity
  8
0
  6
Continuous
 62
     7
370
    15
100
AcDbLine
 10
1.27713025442486
 20
5.261861703350922
 30
0.0
 11
1.27713025442486
 21
5.438262552166889
 31
0.0
  0
LINE
  5
19A
330
1F
100
AcDbEntity
  8
0
  6
Continuous
 62
     7
370
    15
100
AcDbLine
 10
1.27713025442486
 20
5.467459126046706
 30
0.0
 11
1.27713025442486
 21
7.31445405699443
 31
0.0
  0
LINE
  5
19B
330
1F
100
AcDbEntity
  8
0
  6
Continuous
 62
     7
370
    15
100
AcDbLine
 10
1.27713025442486
 20
5.261861703350922
 30
0.0
 11
1.25000632092126
 21
5.263742757744553
 31
0.0
  0
LINE
  5
19C
330
1F
100
AcDbEntity
  8
0
  6
Continuous
 62
     7
370
    15
100
AcDbLine
 10
1.25000632092126
 20
5.335089548857252
 30
0.0
 11
1.25000632092126
 21
5.263742757744553
 31
0.0
  0
LWPOLYLINE
  5
19D
330
1F
100
AcDbEntity
  8
0
  6
Continuous
 62
     7
370
    15
100
AcDbPolyline
 90
       36
 70
   128
 43
0.0
 10
1.123143114189066
 20
5.343887557169056
 10
1.123398450511825
 20
5.349555815667931
 10
1.12416247613532
 20
5.355143015248116
 10
1.12542898344795
 20
5.360604177151276
 10
1.12718782390627
 20
5.365895326799527
 10
1.129424805004093
 20
5.370973864768521
 10
1.132121922092008
 20
5.375798901659681
 10
1.135257461408278
 20
5.380331587415246
 10
1.138806180382916
 20
5.384535428834963
 10
1.142739487941748
 20
5.388376582944918
 10
1.147025753599116
 20
5.391824115677094
 10
1.15163042336763
 20
5.394850277165966
 10
1.15651645763949
 20
5.397430693541648
 10
1.161644498611692
 20
5.39954459679756
 10
1.166973269530758
 20
5.401174964527875
 10
1.172459845148845
 20
5.402308668596499
 10
1.178060076726194
 20
5.402936587330492
 10
1.183728862487245
 20
5.403053651158143
 10
1.189420559744219
 20
5.402658929937822
 10
1.195089345505269
 20
5.40175560151024
 10
1.200689577082619
 20
5.400350926690149
 10
1.206176152700705
 20
5.398456230697474
 10
1.211504923619772
 20
5.396086758666626
 10
1.216632964591974
 20
5.393261592495976
 10
1.221518998863833
 20
5.390003479706291
 10
1.226123668632348
 20
5.386338647259305
 10
1.230409921410853
 20
5.382296607337892
 10
1.234343241848548
 20
5.37790989979064
 10
1.237891960823185
 20
5.373213848535789
 10
1.241027500139456
 20
5.368246261256336
 10
1.24372461722737
 20
5.36304713231487
 10
1.245961598325193
 20
5.357658323483284
 10
1.247720425904651
 20
5.352123222310934
 10
1.248986946096144
 20
5.346486394053365
 10
1.249750958840776
 20
5.340793224471239
 10
1.25000632092126
 20
5.335089548857252
  0
LINE
  5
19E
330
1F
100
AcDbEntity
  8
0
  6
Continuous
 62
     7
370
    15
100
AcDbLine
 10
1.123143114189066
 20
5.272540766056359
 30
0.0
 11
1.123143114189066
 21
5.343887557169056
 31
0.0
  0
LINE
  5
19F
330
1F
100
AcDbEntity
  8
0
  6
Continuous
 62
     7
370
    15
100
AcDbLine
 10
1.123143114189066
 20
5.272540766056359
 30
0.0
 11
1.096019174246034
 21
5.274421820896565
 31
0.0
  0
LINE
  5
1A0
330
1F
100
AcDbEntity
  8
0
  6
Continuous
 62
     7
370
    15
100
AcDbLine
 10
1.096019174246034
 20
5.274421820896565
 30
0.0
 11
1.096019174246034
 21
5.453699549959584
 31
0.0
  0
LINE
  5
1A1
330
1F
100
AcDbEntity
  8
0
  6
Continuous
 62
     7
370
    15
100
AcDbLine
 10
1.096019174246034
 20
5.480019243592347
 30
0.0
 11
1.096019174246034
 21
7.327014174540071
 31
0.0
  0
LINE
  5
1A2
330
1F
100
AcDbEntity
  8
0
  6
Continuous
 62
     7
370
    15
100
AcDbLine
 10
1.117972019180397
 20
7.347444530388824
 30
0.0
 11
1.096019174246034
 21
7.327014174540071
 31
0.0
  0
LINE
  5
1A3
330
1F
100
AcDbEntity
  8
0
  6
Continuous
 62
     7
370
    15
100
AcDbLine
 10
1.117972019180397
 20
7.347444530388824
 30
0.0
 11
1.255177403051066
 21
7.337929288430084
 31
0.0
  0
LWPOLYLINE
  5
1A4
330
1F
100
AcDbEntity
  8
0
  6
Continuous
 62
     7
370
    15
100
AcDbPolyline
 90
       25
 70
   128
 43
0.0
 10
1.260336321095487
 20
7.24427188602919
 10
1.260067030525491
 20
7.2463361368728
 10
1.259277517633624
 20
7.248296961482876
 10
1.258021577427463
 20
7.250020810225218
 10
1.256384802825448
 20
7.251390267769078
 10
1.2544787505323
 20
7.252311875910412
 10
1.252433290994839
 20
7.252723052020827
 10
1.25038783145738
 20
7.252595582596938
 10
1.2484817727248
 20
7.251938345705187
 10
1.246844998122786
 20
7.25079590995786
 10
1.245589064356055
 20
7.249246260565044
 10
1.244799551464188
 20
7.247394941952237
 10
1.244530254454761
 20
7.245368042347985
 10
1.244799551464188
 20
7.243303997119594
 10
1.245589064356055
 20
7.241343172509517
 10
1.246844998122786
 20
7.239619324213752
 10
1.2484817727248
 20
7.238249866669892
 10
1.25038783145738
 20
7.237328052020187
 10
1.252433290994839
 20
7.236917081971567
 10
1.2544787505323
 20
7.237044345333661
 10
1.256384802825448
 20
7.237701788733784
 10
1.258021577427463
 20
7.238844224481111
 10
1.259277517633624
 20
7.240393873427349
 10
1.260067030525491
 20
7.242245192040156
 10
1.260336321095487
 20
7.24427188602919
  0
LWPOLYLINE
  5
1A5
330
1F
100
AcDbEntity
  8
0
  6
Continuous
 62
     7
370
    15
100
AcDbPolyline
 90
       25
 70
   128
 43
0.0
 10
1.12861915489784
 20
7.319265104467352
 10
1.128349883646137
 20
7.321329353971233
 10
1.127560357875409
 20
7.323290179474462
 10
1.126304411229815
 20
7.325014028663381
 10
1.124667636627801
 20
7.32638348620724
 10
1.122761590774084
 20
7.327305093901998
 10
1.120716144115486
 20
7.327716269119258
 10
1.118670671699164
 20
7.327588800588523
 10
1.116764625845447
 20
7.326931562803619
 10
1.115127851243432
 20
7.325789127056292
 10
1.113871904597839
 20
7.32423947855663
 10
1.113082404584835
 20
7.322388159050669
 10
1.112813107575407
 20
7.320361259446417
 10
1.113082404584835
 20
7.318297214218025
 10
1.113871904597839
 20
7.316336390501103
 10
1.115127851243432
 20
7.314612541312184
 10
1.116764625845447
 20
7.313243083768325
 10
1.118670671699164
 20
7.312321270011772
 10
1.120716144115486
 20
7.311910299069999
 10
1.122761590774084
 20
7.312037563325247
 10
1.124667636627801
 20
7.312695007171947
 10
1.126304411229815
 20
7.313837442919273
 10
1.127560357875409
 20
7.315387091418934
 10
1.128349883646137
 20
7.317238409138588
 10
1.12861915489784
 20
7.319265104467352
  0
LWPOLYLINE
  5
1A6
330
1F
100
AcDbEntity
  8
0
  6
Continuous
 62
     7
370
    15
100
AcDbPolyline
 90
       25
 70
   128
 43
0.0
 10
1.260336321095487
 20
7.112554713392111
 10
1.260067030525491
 20
7.114618964235722
 10
1.259277517633624
 20
7.116579788845799
 10
1.258021577427463
 20
7.11830363758814
 10
1.256384802825448
 20
7.119673095131999
 10
1.2544787505323
 20
7.120594703273334
 10
1.252433290994839
 20
7.121005879383748
 10
1.25038783145738
 20
7.120878409959859
 10
1.2484817727248
 20
7.120221173068109
 10
1.246844998122786
 20
7.119078737320782
 10
1.245589064356055
 20
7.117529087927967
 10
1.244799551464188
 20
7.115677769315159
 10
1.244530254454761
 20
7.113650869710906
 10
1.244799551464188
 20
7.111586824482516
 10
1.245589064356055
 20
7.10962599987244
 10
1.246844998122786
 20
7.107902151576674
 10
1.2484817727248
 20
7.106532694032814
 10
1.25038783145738
 20
7.105611085444904
 10
1.252433290994839
 20
7.105199909334489
 10
1.2544787505323
 20
7.105327378758378
 10
1.256384802825448
 20
7.105984616096706
 10
1.258021577427463
 20
7.107127051844032
 10
1.259277517633624
 20
7.10867670079027
 10
1.260067030525491
 20
7.110528019403078
 10
1.260336321095487
 20
7.112554713392111
  0
LWPOLYLINE
  5
1A7
330
1F
100
AcDbEntity
  8
0
  6
Continuous
 62
     7
370
    15
100
AcDbPolyline
 90
       25
 70
   128
 43
0.0
 10
1.12861915489784
 20
7.187547931830275
 10
1.128349883646137
 20
7.189612181334154
 10
1.127560357875409
 20
7.191573006837383
 10
1.126304411229815
 20
7.193296856026303
 10
1.124667636627801
 20
7.194666313570161
 10
1.122761590774084
 20
7.19558792126492
 10
1.120716144115486
 20
7.19599909648218
 10
1.118670671699164
 20
7.195871627951444
 10
1.116764625845447
 20
7.19521439016654
 10
1.115127851243432
 20
7.194071954419213
 10
1.113871904597839
 20
7.192522305919553
 10
1.113082404584835
 20
7.190670986413591
 10
1.112813107575407
 20
7.188644086809338
 10
1.113082404584835
 20
7.186580041580946
 10
1.113871904597839
 20
7.184619217864025
 10
1.115127851243432
 20
7.182895368675105
 10
1.116764625845447
 20
7.181525911131246
 10
1.118670671699164
 20
7.180604097374693
 10
1.120716144115486
 20
7.180193126432921
 10
1.122761590774084
 20
7.180320390688168
 10
1.124667636627801
 20
7.180977834534868
 10
1.126304411229815
 20
7.182120270282196
 10
1.127560357875409
 20
7.183669918781856
 10
1.128349883646137
 20
7.185521236501511
 10
1.12861915489784
 20
7.187547931830275
  0
LWPOLYLINE
  5
1A8
330
1F
100
AcDbEntity
  8
0
  6
Continuous
 62
     7
370
    15
100
AcDbPolyline
 90
       25
 70
   128
 43
0.0
 10
1.260336321095487
 20
6.980837643785931
 10
1.260067030525491
 20
6.982901791598645
 10
1.259277517633624
 20
6.984862616208721
 10
1.258021577427463
 20
6.986586464951063
 10
1.256384802825448
 20
6.987955922494922
 10
1.2544787505323
 20
6.988877633667153
 10
1.252433290994839
 20
6.989288706746671
 10
1.25038783145738
 20
6.98916134035368
 10
1.2484817727248
 20
6.988504000431031
 10
1.246844998122786
 20
6.987361564683704
 10
1.245589064356055
 20
6.985811915290889
 10
1.244799551464188
 20
6.98396059667808
 10
1.244530254454761
 20
6.981933800104726
 10
1.244799551464188
 20
6.979869651845437
 10
1.245589064356055
 20
6.977908827235362
 10
1.246844998122786
 20
6.976184978939596
 10
1.2484817727248
 20
6.974815521395736
 10
1.25038783145738
 20
6.973893809776929
 10
1.252433290994839
 20
6.973482633666514
 10
1.2544787505323
 20
6.973610103090402
 10
1.256384802825448
 20
6.974267443459628
 10
1.258021577427463
 20
6.975409879206955
 10
1.259277517633624
 20
6.976959528153193
 10
1.260067030525491
 20
6.978810846766001
 10
1.260336321095487
 20
6.980837643785931
  0
LWPOLYLINE
  5
1A9
330
1F
100
AcDbEntity
  8
0
  6
Continuous
 62
     7
370
    15
100
AcDbPolyline
 90
       25
 70
   128
 43
0.0
 10
1.12861915489784
 20
7.055830862224095
 10
1.128349883646137
 20
7.057895008697077
 10
1.127560357875409
 20
7.059855834200306
 10
1.126304411229815
 20
7.061579683389225
 10
1.124667636627801
 20
7.062949140933084
 10
1.122761590774084
 20
7.063870748627841
 10
1.120716144115486
 20
7.064281923845102
 10
1.118670671699164
 20
7.064154455314366
 10
1.116764625845447
 20
7.063497217529462
 10
1.115127851243432
 20
7.062354781782135
 10
1.113871904597839
 20
7.060805133282475
 10
1.113082404584835
 20
7.058953813776512
 10
1.112813107575407
 20
7.056927017203159
 10
1.113082404584835
 20
7.054862868943868
 10
1.113871904597839
 20
7.052902045226947
 10
1.115127851243432
 20
7.051178196038027
 10
1.116764625845447
 20
7.049808738494169
 10
1.118670671699164
 20
7.048887027768513
 10
1.120716144115486
 20
7.048475850764945
 10
1.122761590774084
 20
7.048603321081988
 10
1.124667636627801
 20
7.04926066189779
 10
1.126304411229815
 20
7.050403097645117
 10
1.127560357875409
 20
7.051952746144779
 10
1.128349883646137
 20
7.053804063864433
 10
1.12861915489784
 20
7.055830862224095
  0
LWPOLYLINE
  5
1AA
330
1F
100
AcDbEntity
  8
0
  6
Continuous
 62
     7
370
    15
100
AcDbPolyline
 90
       25
 70
   128
 43
0.0
 10
1.260336321095487
 20
6.849120471148854
 10
1.260067030525491
 20
6.851184618961567
 10
1.259277517633624
 20
6.853145443571643
 10
1.258021577427463
 20
6.854869292313985
 10
1.256384802825448
 20
6.856238749857844
 10
1.2544787505323
 20
6.857160461030075
 10
1.252433290994839
 20
6.85757163714049
 10
1.25038783145738
 20
6.857444167716602
 10
1.2484817727248
 20
6.856786827793952
 10
1.246844998122786
 20
6.855644392046625
 10
1.245589064356055
 20
6.854094742653811
 10
1.244799551464188
 20
6.852243424041002
 10
1.244530254454761
 20
6.850216627467649
 10
1.244799551464188
 20
6.848152479208359
 10
1.245589064356055
 20
6.846191654598284
 10
1.246844998122786
 20
6.844467806302517
 10
1.2484817727248
 20
6.843098348758659
 10
1.25038783145738
 20
6.842176637139851
 10
1.252433290994839
 20
6.841765564060334
 10
1.2544787505323
 20
6.841892930453325
 10
1.256384802825448
 20
6.84255027082255
 10
1.258021577427463
 20
6.843692706569877
 10
1.259277517633624
 20
6.845242355516115
 10
1.260067030525491
 20
6.847093674128923
 10
1.260336321095487
 20
6.849120471148854
  0
LWPOLYLINE
  5
1AB
330
1F
100
AcDbEntity
  8
0
  6
Continuous
 62
     7
370
    15
100
AcDbPolyline
 90
       25
 70
   128
 43
0.0
 10
1.12861915489784
 20
6.924113689587017
 10
1.128349883646137
 20
6.926177836059999
 10
1.127560357875409
 20
6.928138661563228
 10
1.126304411229815
 20
6.929862510752147
 10
1.124667636627801
 20
6.931231968296006
 10
1.122761590774084
 20
6.932153679021661
 10
1.120716144115486
 20
6.932564751208024
 10
1.118670671699164
 20
6.932437385708188
 10
1.116764625845447
 20
6.931780044892384
 10
1.115127851243432
 20
6.930637609145056
 10
1.113871904597839
 20
6.929087960645397
 10
1.113082404584835
 20
6.927236641139435
 10
1.112813107575407
 20
6.925209844566081
 10
1.113082404584835
 20
6.923145696306791
 10
1.113871904597839
 20
6.921184872589869
 10
1.115127851243432
 20
6.919461023400949
 10
1.116764625845447
 20
6.918091565857091
 10
1.118670671699164
 20
6.917169855131436
 10
1.120716144115486
 20
6.916758781158765
 10
1.122761590774084
 20
6.916886148444909
 10
1.124667636627801
 20
6.917543489260712
 10
1.126304411229815
 20
6.918685925008039
 10
1.127560357875409
 20
6.920235573507701
 10
1.128349883646137
 20
6.922086891227355
 10
1.12861915489784
 20
6.924113689587017
  0
LWPOLYLINE
  5
1AC
330
1F
100
AcDbEntity
  8
0
  6
Continuous
 62
     7
370
    15
100
AcDbPolyline
 90
       25
 70
   128
 43
0.0
 10
1.12861915489784
 20
6.792396516949938
 10
1.128349883646137
 20
6.79446066342292
 10
1.127560357875409
 20
6.79642148892615
 10
1.126304411229815
 20
6.79814533811507
 10
1.124667636627801
 20
6.799514795658928
 10
1.122761590774084
 20
6.800436506384584
 10
1.120716144115486
 20
6.800847681601845
 10
1.118670671699164
 20
6.80072021307111
 10
1.116764625845447
 20
6.800062872255307
 10
1.115127851243432
 20
6.798920436507979
 10
1.113871904597839
 20
6.797370788008319
 10
1.113082404584835
 20
6.795519468502357
 10
1.112813107575407
 20
6.793492671929002
 10
1.113082404584835
 20
6.791428523669713
 10
1.113871904597839
 20
6.78946769995279
 10
1.115127851243432
 20
6.787743850763872
 10
1.116764625845447
 20
6.786374393220013
 10
1.118670671699164
 20
6.785452682494358
 10
1.120716144115486
 20
6.785041608521687
 10
1.122761590774084
 20
6.785168975807831
 10
1.124667636627801
 20
6.785826316623635
 10
1.126304411229815
 20
6.786968752370962
 10
1.127560357875409
 20
6.788518400870622
 10
1.128349883646137
 20
6.790369718590277
 10
1.12861915489784
 20
6.792396516949938
  0
LWPOLYLINE
  5
1AD
330
1F
100
AcDbEntity
  8
0
  6
Continuous
 62
     7
370
    15
100
AcDbPolyline
 90
       25
 70
   128
 43
0.0
 10
1.260336321095487
 20
6.585686125874698
 10
1.260067030525491
 20
6.587750273687411
 10
1.259277517633624
 20
6.589711098297487
 10
1.258021577427463
 20
6.591434947039829
 10
1.256384802825448
 20
6.592804404583689
 10
1.2544787505323
 20
6.59372611575592
 10
1.252433290994839
 20
6.594137291866335
 10
1.25038783145738
 20
6.594009822442446
 10
1.2484817727248
 20
6.593352482519797
 10
1.246844998122786
 20
6.59221004677247
 10
1.245589064356055
 20
6.590660397379656
 10
1.244799551464188
 20
6.588809078766847
 10
1.244530254454761
 20
6.586782282193492
 10
1.244799551464188
 20
6.584718236965102
 10
1.245589064356055
 20
6.582757412355026
 10
1.246844998122786
 20
6.581033461028362
 10
1.2484817727248
 20
6.579664003484503
 10
1.25038783145738
 20
6.578742394896592
 10
1.252433290994839
 20
6.578331218786177
 10
1.2544787505323
 20
6.578458688210067
 10
1.256384802825448
 20
6.579115925548395
 10
1.258021577427463
 20
6.580258361295721
 10
1.259277517633624
 20
6.581808113272857
 10
1.260067030525491
 20
6.583659431885664
 10
1.260336321095487
 20
6.585686125874698
  0
LWPOLYLINE
  5
1AE
330
1F
100
AcDbEntity
  8
0
  6
Continuous
 62
     7
370
    15
100
AcDbPolyline
 90
       25
 70
   128
 43
0.0
 10
1.260336321095487
 20
6.45396895323762
 10
1.260067030525491
 20
6.456033101050334
 10
1.259277517633624
 20
6.457993925660408
 10
1.258021577427463
 20
6.459717774402751
 10
1.256384802825448
 20
6.461087231946611
 10
1.2544787505323
 20
6.462008943118841
 10
1.252433290994839
 20
6.462420119229257
 10
1.25038783145738
 20
6.462292649805369
 10
1.2484817727248
 20
6.461635309882719
 10
1.246844998122786
 20
6.460492874135391
 10
1.245589064356055
 20
6.458943224742577
 10
1.244799551464188
 20
6.457091906129769
 10
1.244530254454761
 20
6.455065109556414
 10
1.244799551464188
 20
6.453001064328023
 10
1.245589064356055
 20
6.451040239717948
 10
1.246844998122786
 20
6.449316391422182
 10
1.2484817727248
 20
6.447946933878323
 10
1.25038783145738
 20
6.447025222259515
 10
1.252433290994839
 20
6.446614046149099
 10
1.2544787505323
 20
6.446741515572989
 10
1.256384802825448
 20
6.447398855942214
 10
1.258021577427463
 20
6.448541291689541
 10
1.259277517633624
 20
6.45009094063578
 10
1.260067030525491
 20
6.451942259248587
 10
1.260336321095487
 20
6.45396895323762
  0
LWPOLYLINE
  5
1AF
330
1F
100
AcDbEntity
  8
0
  6
Continuous
 62
     7
370
    15
100
AcDbPolyline
 90
       25
 70
   128
 43
0.0
 10
1.12861915489784
 20
6.528962171675782
 10
1.128349883646137
 20
6.531026318148765
 10
1.127560357875409
 20
6.532987143651994
 10
1.126304411229815
 20
6.534710992840913
 10
1.124667636627801
 20
6.536080450384773
 10
1.122761590774084
 20
6.537002161110427
 10
1.120716144115486
 20
6.53741333632769
 10
1.118670671699164
 20
6.537285867796953
 10
1.116764625845447
 20
6.536628526981151
 10
1.115127851243432
 20
6.535486091233823
 10
1.113871904597839
 20
6.533936442734162
 10
1.113082404584835
 20
6.532085123228201
 10
1.112813107575407
 20
6.530058326654847
 10
1.113082404584835
 20
6.527994281426455
 10
1.113871904597839
 20
6.526033457709534
 10
1.115127851243432
 20
6.524309505489716
 10
1.116764625845447
 20
6.522940150976755
 10
1.118670671699164
 20
6.522018440251099
 10
1.120716144115486
 20
6.521607263247531
 10
1.122761590774084
 20
6.521734733564574
 10
1.124667636627801
 20
6.522392074380376
 10
1.126304411229815
 20
6.523534407096805
 10
1.127560357875409
 20
6.525084158627366
 10
1.128349883646137
 20
6.526935476347019
 10
1.12861915489784
 20
6.528962171675782
  0
LWPOLYLINE
  5
1B0
330
1F
100
AcDbEntity
  8
0
  6
Continuous
 62
     7
370
    15
100
AcDbPolyline
 90
       25
 70
   128
 43
0.0
 10
1.260336321095487
 20
6.32225188363144
 10
1.260067030525491
 20
6.324315928413255
 10
1.259277517633624
 20
6.32627675302333
 10
1.258021577427463
 20
6.32800070479657
 10
1.256384802825448
 20
6.329370059309532
 10
1.2544787505323
 20
6.330291770481763
 10
1.252433290994839
 20
6.33070294659218
 10
1.25038783145738
 20
6.33057547716829
 10
1.2484817727248
 20
6.329918137245641
 10
1.246844998122786
 20
6.328775804529211
 10
1.245589064356055
 20
6.327226052105499
 10
1.244799551464188
 20
6.325374733492691
 10
1.244530254454761
 20
6.323348039950235
 10
1.244799551464188
 20
6.321283891690945
 10
1.245589064356055
 20
6.31932306708087
 10
1.246844998122786
 20
6.317599218785104
 10
1.2484817727248
 20
6.316229761241245
 10
1.25038783145738
 20
6.315308049622437
 10
1.252433290994839
 20
6.314896873512021
 10
1.2544787505323
 20
6.31502434293591
 10
1.256384802825448
 20
6.315681683305136
 10
1.258021577427463
 20
6.316824119052463
 10
1.259277517633624
 20
6.318373767998702
 10
1.260067030525491
 20
6.320225086611509
 10
1.260336321095487
 20
6.32225188363144
  0
LWPOLYLINE
  5
1B1
330
1F
100
AcDbEntity
  8
0
  6
Continuous
 62
     7
370
    15
100
AcDbPolyline
 90
       25
 70
   128
 43
0.0
 10
1.12861915489784
 20
6.397245102069603
 10
1.128349883646137
 20
6.399309145511686
 10
1.127560357875409
 20
6.401269971014916
 10
1.126304411229815
 20
6.402993820203835
 10
1.124667636627801
 20
6.404363277747695
 10
1.122761590774084
 20
6.405284988473349
 10
1.120716144115486
 20
6.405696163690611
 10
1.118670671699164
 20
6.405568695159876
 10
1.116764625845447
 20
6.404911354344074
 10
1.115127851243432
 20
6.403768918596746
 10
1.113871904597839
 20
6.402219270097084
 10
1.113082404584835
 20
6.400367950591124
 10
1.112813107575407
 20
6.398341257048667
 10
1.113082404584835
 20
6.396277108789377
 10
1.113871904597839
 20
6.394316285072455
 10
1.115127851243432
 20
6.392592435883536
 10
1.116764625845447
 20
6.391222978339677
 10
1.118670671699164
 20
6.390301267614022
 10
1.120716144115486
 20
6.389890090610453
 10
1.122761590774084
 20
6.390017560927495
 10
1.124667636627801
 20
6.390674901743299
 10
1.126304411229815
 20
6.391817337490626
 10
1.127560357875409
 20
6.393366985990287
 10
1.128349883646137
 20
6.395218303709941
 10
1.12861915489784
 20
6.397245102069603
  0
LWPOLYLINE
  5
1B2
330
1F
100
AcDbEntity
  8
0
  6
Continuous
 62
     7
370
    15
100
AcDbPolyline
 90
       25
 70
   128
 43
0.0
 10
1.260336321095487
 20
6.190534710994362
 10
1.260067030525491
 20
6.192598858807075
 10
1.259277517633624
 20
6.194559580386252
 10
1.258021577427463
 20
6.196283532159492
 10
1.256384802825448
 20
6.197652989703352
 10
1.2544787505323
 20
6.198574700875584
 10
1.252433290994839
 20
6.198985773955101
 10
1.25038783145738
 20
6.19885840756211
 10
1.2484817727248
 20
6.198201067639461
 10
1.246844998122786
 20
6.197058631892134
 10
1.245589064356055
 20
6.195508879468421
 10
1.244799551464188
 20
6.193657663886511
 10
1.244530254454761
 20
6.191630867313157
 10
1.244799551464188
 20
6.189566719053868
 10
1.245589064356055
 20
6.187605894443791
 10
1.246844998122786
 20
6.185882046148027
 10
1.2484817727248
 20
6.184512588604167
 10
1.25038783145738
 20
6.183590876985358
 10
1.252433290994839
 20
6.183179752390393
 10
1.2544787505323
 20
6.183307170298832
 10
1.256384802825448
 20
6.183964510668058
 10
1.258021577427463
 20
6.185106946415385
 10
1.259277517633624
 20
6.186656595361623
 10
1.260067030525491
 20
6.188507913974431
 10
1.260336321095487
 20
6.190534710994362
  0
LWPOLYLINE
  5
1B3
330
1F
100
AcDbEntity
  8
0
  6
Continuous
 62
     7
370
    15
100
AcDbPolyline
 90
       25
 70
   128
 43
0.0
 10
1.12861915489784
 20
6.265527929432525
 10
1.128349883646137
 20
6.267592075905507
 10
1.127560357875409
 20
6.269552798377838
 10
1.126304411229815
 20
6.271276750597656
 10
1.124667636627801
 20
6.272646208141514
 10
1.122761590774084
 20
6.273567815836272
 10
1.120716144115486
 20
6.273978991053533
 10
1.118670671699164
 20
6.273851522522797
 10
1.116764625845447
 20
6.273194284737893
 10
1.115127851243432
 20
6.272051848990566
 10
1.113871904597839
 20
6.270502097460006
 10
1.113082404584835
 20
6.268650880984943
 10
1.112813107575407
 20
6.266624084411589
 10
1.113082404584835
 20
6.264559936152299
 10
1.113871904597839
 20
6.262599112435377
 10
1.115127851243432
 20
6.260875263246458
 10
1.116764625845447
 20
6.259505805702599
 10
1.118670671699164
 20
6.258584094976944
 10
1.120716144115486
 20
6.258172917973375
 10
1.122761590774084
 20
6.258300388290418
 10
1.124667636627801
 20
6.258957729106221
 10
1.126304411229815
 20
6.260100164853549
 10
1.127560357875409
 20
6.261649813353209
 10
1.128349883646137
 20
6.263501131072863
 10
1.12861915489784
 20
6.265527929432525
  0
LWPOLYLINE
  5
1B4
330
1F
100
AcDbEntity
  8
0
  6
Continuous
 62
     7
370
    15
100
AcDbPolyline
 90
       25
 70
   128
 43
0.0
 10
1.260336321095487
 20
6.058817538357284
 10
1.260067030525491
 20
6.060881634654549
 10
1.259277517633624
 20
6.062842459264624
 10
1.258021577427463
 20
6.064566359522415
 10
1.256384802825448
 20
6.065935817066275
 10
1.2544787505323
 20
6.066857476723057
 10
1.252433290994839
 20
6.067268652833472
 10
1.25038783145738
 20
6.067141183409582
 10
1.2484817727248
 20
6.066483895002384
 10
1.246844998122786
 20
6.065341459255056
 10
1.245589064356055
 20
6.063791758346792
 10
1.244799551464188
 20
6.061940439733985
 10
1.244530254454761
 20
6.059913694676079
 10
1.244799551464188
 20
6.05784954641679
 10
1.245589064356055
 20
6.055888721806714
 10
1.246844998122786
 20
6.054164873510949
 10
1.2484817727248
 20
6.052795415967089
 10
1.25038783145738
 20
6.05187370434828
 10
1.252433290994839
 20
6.051462579753314
 10
1.2544787505323
 20
6.051589997661754
 10
1.256384802825448
 20
6.05224733803098
 10
1.258021577427463
 20
6.053389773778308
 10
1.259277517633624
 20
6.054939422724545
 10
1.260067030525491
 20
6.056790741337354
 10
1.260336321095487
 20
6.058817538357284
  0
LWPOLYLINE
  5
1B5
330
1F
100
AcDbEntity
  8
0
  6
Continuous
 62
     7
370
    15
100
AcDbPolyline
 90
       25
 70
   128
 43
0.0
 10
1.12861915489784
 20
6.133810756795448
 10
1.128349883646137
 20
6.13587485175298
 10
1.127560357875409
 20
6.13783567725621
 10
1.126304411229815
 20
6.139559577960578
 10
1.124667636627801
 20
6.140928983988988
 10
1.122761590774084
 20
6.141850694714642
 10
1.120716144115486
 20
6.142261869931903
 10
1.118670671699164
 20
6.142134401401168
 10
1.116764625845447
 20
6.141477060585367
 10
1.115127851243432
 20
6.140334676353488
 10
1.113871904597839
 20
6.138784976338378
 10
1.113082404584835
 20
6.136933656832416
 10
1.112813107575407
 20
6.13490691177451
 10
1.113082404584835
 20
6.132842763515221
 10
1.113871904597839
 20
6.130881939798299
 10
1.115127851243432
 20
6.12915809060938
 10
1.116764625845447
 20
6.127788633065522
 10
1.118670671699164
 20
6.126866922339866
 10
1.120716144115486
 20
6.126455796851747
 10
1.122761590774084
 20
6.12658321565334
 10
1.124667636627801
 20
6.127240556469143
 10
1.126304411229815
 20
6.12838299221647
 10
1.127560357875409
 20
6.12993264071613
 10
1.128349883646137
 20
6.131783958435786
 10
1.12861915489784
 20
6.133810756795448
  0
LWPOLYLINE
  5
1B6
330
1F
100
AcDbEntity
  8
0
  6
Continuous
 62
     7
370
    15
100
AcDbPolyline
 90
       45
 70
   128
 43
0.0
 10
1.211271674545753
 20
7.214745243482966
 10
1.211020304912563
 20
7.218277472107543
 10
1.210271283163577
 20
7.221772709639425
 10
1.209039857871688
 20
7.225159631512304
 10
1.207351117060537
 20
7.228369321717416
 10
1.205239434413442
 20
7.231336753641716
 10
1.202747786693696
 20
7.234001249528621
 10
1.19992690373966
 20
7.236308393982304
 10
1.196834199519197
 20
7.23821175659382
 10
1.19353265166866
 20
7.239672145398292
 10
1.190089462091213
 20
7.240659966442642
 10
1.186574717555163
 20
7.241155110611775
 10
1.183059960140251
 20
7.241147464892234
 10
1.179616770562804
 20
7.240637216680888
 10
1.176315222712266
 20
7.239634754901582
 10
1.173222518491804
 20
7.238160352555826
 10
1.170401635537767
 20
7.236244466565737
 10
1.167909987818021
 20
7.233925563982251
 10
1.165798305170926
 20
7.231251023936684
 10
1.164109564359775
 20
7.228275563278117
 10
1.162878139067886
 20
7.225059440965369
 10
1.162129117318901
 20
7.22166809328056
 10
1.161877747685711
 20
7.218170729802139
 10
1.162129117318901
 20
7.214638707239359
 10
1.162878139067886
 20
7.211143469707477
 10
1.164109564359775
 20
7.207756547834597
 10
1.165798305170926
 20
7.20454665156769
 10
1.167909987818021
 20
7.201579425705185
 10
1.170401635537767
 20
7.19891492981828
 10
1.173222518491804
 20
7.196607579302802
 10
1.176315222712266
 20
7.194704422753082
 10
1.179616770562804
 20
7.19324403394861
 10
1.183059960140251
 20
7.19225621290426
 10
1.186574717555163
 20
7.191761067841972
 10
1.190089462091213
 20
7.191768714454667
 10
1.19353265166866
 20
7.192278962666012
 10
1.196834199519197
 20
7.19328142444532
 10
1.19992690373966
 20
7.194755620729279
 10
1.202747786693696
 20
7.196671712781165
 10
1.205239434413442
 20
7.19899061536465
 10
1.207351117060537
 20
7.201664949348421
 10
1.209039857871688
 20
7.204640616068785
 10
1.210271283163577
 20
7.207856738381533
 10
1.211020304912563
 20
7.211248086066341
 10
1.211271674545753
 20
7.214745243482966
  0
LWPOLYLINE
  5
1B7
330
1F
100
AcDbEntity
  8
0
  6
Continuous
 62
     7
370
    15
100
AcDbPolyline
 90
       45
 70
   128
 43
0.0
 10
1.211271674545753
 20
6.819593828602631
 10
1.211020304912563
 20
6.823126057227208
 10
1.210271283163577
 20
6.826621191728191
 10
1.209039857871688
 20
6.83000811360107
 10
1.207351117060537
 20
6.83321790683708
 10
1.205239434413442
 20
6.836185235730483
 10
1.202747786693696
 20
6.838849731617387
 10
1.19992690373966
 20
6.841156979101967
 10
1.196834199519197
 20
6.843060238682585
 10
1.19353265166866
 20
6.844520627487057
 10
1.190089462091213
 20
6.845508448531406
 10
1.186574717555163
 20
6.846003592700541
 10
1.183059960140251
 20
6.845995946981
 10
1.179616770562804
 20
6.845485698769654
 10
1.176315222712266
 20
6.844483236990347
 10
1.173222518491804
 20
6.84300893767549
 10
1.170401635537767
 20
6.841092948654503
 10
1.167909987818021
 20
6.838774046071017
 10
1.165798305170926
 20
6.836099609056348
 10
1.164109564359775
 20
6.833124045366883
 10
1.162878139067886
 20
6.829907923054135
 10
1.162129117318901
 20
6.826516678400224
 10
1.161877747685711
 20
6.823019314921802
 10
1.162129117318901
 20
6.819487189328125
 10
1.162878139067886
 20
6.815992054827141
 10
1.164109564359775
 20
6.812605029923363
 10
1.165798305170926
 20
6.809395236687354
 10
1.167909987818021
 20
6.80642790779395
 10
1.170401635537767
 20
6.803763514937943
 10
1.173222518491804
 20
6.801456164422466
 10
1.176315222712266
 20
6.799552904841848
 10
1.179616770562804
 20
6.798092516037376
 10
1.183059960140251
 20
6.797104694993027
 10
1.186574717555163
 20
6.796609652961636
 10
1.190089462091213
 20
6.796617196543434
 10
1.19353265166866
 20
6.797127444754779
 10
1.196834199519197
 20
6.798129906534087
 10
1.19992690373966
 20
6.799604205848943
 10
1.202747786693696
 20
6.801520297900829
 10
1.205239434413442
 20
6.803839097453416
 10
1.207351117060537
 20
6.806513534468085
 10
1.209039857871688
 20
6.809489098157552
 10
1.210271283163577
 20
6.812705323501197
 10
1.211020304912563
 20
6.816096568155106
 10
1.211271674545753
 20
6.819593828602631
  0
LINE
  5
1B8
330
1F
100
AcDbEntity
  8
0
  6
Continuous
 62
     7
370
    15
100
AcDbLine
 10
1.121148430666637
 20
7.350512708278304
 30
0.0
 11
1.117972019180397
 21
7.347444530388824
 31
0.0
  0
LINE
  5
1B9
330
1F
100
AcDbEntity
  8
0
  6
Continuous
 62
     7
370
    15
100
AcDbLine
 10
1.258353814537306
 20
7.340997466319564
 30
0.0
 11
1.121148430666637
 21
7.350512708278304
 31
0.0
  0
LINE
  5
1BA
330
1F
100
AcDbEntity
  8
0
  6
Continuous
 62
     7
370
    15
100
AcDbLine
 10
1.27713025442486
 20
5.261861703350922
 30
0.0
 11
1.280306665911101
 21
5.264929881240403
 31
0.0
  0
LINE
  5
1BB
330
1F
100
AcDbEntity
  8
0
  6
Continuous
 62
     7
370
    15
100
AcDbLine
 10
1.280306665911101
 20
5.264929881240403
 30
0.0
 11
1.280306665911101
 21
5.436405170556298
 31
0.0
  0
LINE
  5
1BC
330
1F
100
AcDbEntity
  8
0
  6
Continuous
 62
     7
370
    15
100
AcDbLine
 10
1.280306665911101
 20
5.470527303936187
 30
0.0
 11
1.280306665911101
 21
7.31752223488391
 31
0.0
  0
LWPOLYLINE
  5
1BD
330
1F
100
AcDbEntity
  8
0
  6
Continuous
 62
     7
370
    15
100
AcDbPolyline
 90
        3
 70
   128
 43
0.0
 10
1.247706665941001
 20
7.248436220237465
 10
1.247975962950429
 20
7.250463119841718
 10
1.248580200530118
 20
7.251987285399913
  0
ARC
  5
1BE
330
1F
100
AcDbEntity
  8
0
  6
Continuous
 62
     7
370
    15
100
AcDbCircle
 10
1.256104880044097
 20
7.248418661491306
 30
0.0
 40
0.0083982324587385
100
AcDbArc
 50
179.8802077953468
 51
293.5678660799977
  0
LINE
  5
1BF
330
1F
100
AcDbEntity
  8
0
  6
Continuous
 62
     7
370
    15
100
AcDbLine
 10
1.096019174246034
 20
7.327014174540071
 30
0.0
 11
1.099195585732274
 21
7.330082352429551
 31
0.0
  0
LINE
  5
1C0
330
1F
100
AcDbEntity
  8
0
  6
Continuous
 62
     7
370
    15
100
AcDbLine
 10
1.099195585732274
 20
7.330082352429551
 30
0.0
 11
1.121148430666637
 21
7.350512708278304
 31
0.0
  0
LWPOLYLINE
  5
1C1
330
1F
100
AcDbEntity
  8
0
  6
Continuous
 62
     7
370
    15
100
AcDbPolyline
 90
        3
 70
   128
 43
0.0
 10
1.115989519061648
 20
7.323429437335897
 10
1.116258816071075
 20
7.32545633694015
 10
1.116863040771902
 20
7.326980503391498
  0
ARC
  5
1C2
330
1F
100
AcDbEntity
  8
0
  6
Continuous
 62
     7
370
    15
100
AcDbCircle
 10
1.124387719477797
 20
7.323411864230673
 30
0.0
 40
0.0083982188018551
100
AcDbArc
 50
179.8801096374416
 51
293.5679127385532
  0
ARC
  5
1C3
330
1F
100
AcDbEntity
  8
0
  6
Continuous
 62
     7
370
    15
100
AcDbCircle
 10
1.188204321023659
 20
7.221414890945766
 30
0.0
 40
0.0231508307381407
100
AcDbArc
 50
139.9768346965042
 51
180.4355435427601
  0
ARC
  5
1C4
330
1F
100
AcDbEntity
  8
0
  6
Continuous
 62
     7
370
    15
100
AcDbCircle
 10
1.190985811000689
 20
7.220932012542431
 30
0.0
 40
0.0259334677819897
100
AcDbArc
 50
179.3219492515467
 51
304.9714629823271
  0
LWPOLYLINE
  5
1C5
330
1F
100
AcDbEntity
  8
0
  6
Continuous
 62
     7
370
    15
100
AcDbPolyline
 90
        3
 70
   128
 43
0.0
 10
1.247706665941001
 20
7.116719047600386
 10
1.247975962950429
 20
7.118745947204639
 10
1.248580200530118
 20
7.120270112762835
  0
ARC
  5
1C6
330
1F
100
AcDbEntity
  8
0
  6
Continuous
 62
     7
370
    15
100
AcDbCircle
 10
1.256104880044097
 20
7.116701488854228
 30
0.0
 40
0.0083982324587387
100
AcDbArc
 50
179.8802077953529
 51
293.5678660799949
  0
LWPOLYLINE
  5
1C7
330
1F
100
AcDbEntity
  8
0
  6
Continuous
 62
     7
370
    15
100
AcDbPolyline
 90
        3
 70
   128
 43
0.0
 10
1.115989519061648
 20
7.19171226469882
 10
1.116258816071075
 20
7.193739164303071
 10
1.116863040771902
 20
7.19526333075442
  0
ARC
  5
1C8
330
1F
100
AcDbEntity
  8
0
  6
Continuous
 62
     7
370
    15
100
AcDbCircle
 10
1.124387719477798
 20
7.191694691593595
 30
0.0
 40
0.0083982188018559
100
AcDbArc
 50
179.8801096374356
 51
293.5679127385453
  0
LWPOLYLINE
  5
1C9
330
1F
100
AcDbEntity
  8
0
  6
Continuous
 62
     7
370
    15
100
AcDbPolyline
 90
        3
 70
   128
 43
0.0
 10
1.247706665941001
 20
6.985001977994207
 10
1.247975962950429
 20
6.987028774567561
 10
1.248580200530118
 20
6.988553043156654
  0
ARC
  5
1CA
330
1F
100
AcDbEntity
  8
0
  6
Continuous
 62
     7
370
    15
100
AcDbCircle
 10
1.256104822361562
 20
6.984984228559891
 30
0.0
 40
0.0083981751771825
100
AcDbArc
 50
179.8789060229507
 51
293.5684659028004
  0
LWPOLYLINE
  5
1CB
330
1F
100
AcDbEntity
  8
0
  6
Continuous
 62
     7
370
    15
100
AcDbPolyline
 90
        3
 70
   128
 43
0.0
 10
1.115989519061648
 20
7.059995195092639
 10
1.116258816071075
 20
7.062021991665994
 10
1.116863040771902
 20
7.06354626114824
  0
ARC
  5
1CC
330
1F
100
AcDbEntity
  8
0
  6
Continuous
 62
     7
370
    15
100
AcDbCircle
 10
1.124387661795278
 20
7.05997743129956
 30
0.0
 40
0.0083981615206415
100
AcDbArc
 50
179.8788078643136
 51
293.5685125617179
  0
LWPOLYLINE
  5
1CD
330
1F
100
AcDbEntity
  8
0
  6
Continuous
 62
     7
370
    15
100
AcDbPolyline
 90
        3
 70
   128
 43
0.0
 10
1.247706665941001
 20
6.853284805357129
 10
1.247975962950429
 20
6.855311601930484
 10
1.248580200530118
 20
6.856835870519577
  0
ARC
  5
1CE
330
1F
100
AcDbEntity
  8
0
  6
Continuous
 62
     7
370
    15
100
AcDbCircle
 10
1.256104879703419
 20
6.853267143296137
 30
0.0
 40
0.0083982323347033
100
AcDbArc
 50
179.8795029408564
 51
293.5678689848805
  0
LWPOLYLINE
  5
1CF
330
1F
100
AcDbEntity
  8
0
  6
Continuous
 62
     7
370
    15
100
AcDbPolyline
 90
        3
 70
   128
 43
0.0
 10
1.115989519061648
 20
6.928278022455561
 10
1.116258816071075
 20
6.930304819028916
 10
1.116863040771902
 20
6.931829088511163
  0
ARC
  5
1D0
330
1F
100
AcDbEntity
  8
0
  6
Continuous
 62
     7
370
    15
100
AcDbCircle
 10
1.124387719137206
 20
6.92826034603583
 30
0.0
 40
0.0083982186780837
100
AcDbArc
 50
179.8794047840287
 51
293.5679156420065
  0
ARC
  5
1D1
330
1F
100
AcDbEntity
  8
0
  6
Continuous
 62
     7
370
    15
100
AcDbCircle
 10
1.188204563122295
 20
6.826263388934098
 30
0.0
 40
0.0231510721676159
100
AcDbArc
 50
139.9770548831458
 51
180.4353233561176
  0
ARC
  5
1D2
330
1F
100
AcDbEntity
  8
0
  6
Continuous
 62
     7
370
    15
100
AcDbCircle
 10
1.190985832221984
 20
6.825780536257166
 30
0.0
 40
0.0259334897285329
100
AcDbArc
 50
179.3218141517903
 51
304.9713718511793
  0
LWPOLYLINE
  5
1D3
330
1F
100
AcDbEntity
  8
0
  6
Continuous
 62
     7
370
    15
100
AcDbPolyline
 90
        3
 70
   128
 43
0.0
 10
1.115989519061648
 20
6.796560849818484
 10
1.116258816071075
 20
6.798587646391838
 10
1.116863040771902
 20
6.800111915874085
  0
ARC
  5
1D4
330
1F
100
AcDbEntity
  8
0
  6
Continuous
 62
     7
370
    15
100
AcDbCircle
 10
1.124387719137206
 20
6.796543173398753
 30
0.0
 40
0.0083982186780843
100
AcDbArc
 50
179.8794047840287
 51
293.5679156420014
  0
LWPOLYLINE
  5
1D5
330
1F
100
AcDbEntity
  8
0
  6
Continuous
 62
     7
370
    15
100
AcDbPolyline
 90
        3
 70
   128
 43
0.0
 10
1.247706665941001
 20
6.589850460082974
 10
1.247975962950429
 20
6.591877256656328
 10
1.248580200530118
 20
6.593401525245421
  0
ARC
  5
1D6
330
1F
100
AcDbEntity
  8
0
  6
Continuous
 62
     7
370
    15
100
AcDbCircle
 10
1.256104907441564
 20
6.589832840287338
 30
0.0
 40
0.0083982599840072
100
AcDbArc
 50
179.8797916868064
 51
293.5675802389276
  0
LWPOLYLINE
  5
1D7
330
1F
100
AcDbEntity
  8
0
  6
Continuous
 62
     7
370
    15
100
AcDbPolyline
 90
        3
 70
   128
 43
0.0
 10
1.247706665941001
 20
6.458133287445895
 10
1.247975962950429
 20
6.460160084019251
 10
1.248580200530118
 20
6.461684455639241
  0
ARC
  5
1D8
330
1F
100
AcDbEntity
  8
0
  6
Continuous
 62
     7
370
    15
100
AcDbCircle
 10
1.256104942997254
 20
6.458115721827421
 30
0.0
 40
0.0083982954261291
100
AcDbArc
 50
179.8801618083361
 51
293.5672101174102
  0
LWPOLYLINE
  5
1D9
330
1F
100
AcDbEntity
  8
0
  6
Continuous
 62
     7
370
    15
100
AcDbPolyline
 90
        3
 70
   128
 43
0.0
 10
1.115989519061648
 20
6.533126504544328
 10
1.116258816071075
 20
6.535153301117682
 10
1.116863040771902
 20
6.53667757059993
  0
ARC
  5
1DA
330
1F
100
AcDbEntity
  8
0
  6
Continuous
 62
     7
370
    15
100
AcDbCircle
 10
1.124387782430846
 20
6.533108924566723
 30
0.0
 40
0.0083982817691502
100
AcDbArc
 50
179.8800636506361
 51
293.5672567754019
  0
ARC
  5
1DB
330
1F
100
AcDbEntity
  8
0
  6
Continuous
 62
     7
370
    15
100
AcDbCircle
 10
1.188204921972026
 20
6.431111844903694
 30
0.0
 40
0.0231514300261148
100
AcDbArc
 50
139.9773812454594
 51
180.4349969937992
  0
ARC
  5
1DC
330
1F
100
AcDbEntity
  8
0
  6
Continuous
 62
     7
370
    15
100
AcDbCircle
 10
1.190985920397388
 20
6.430629186674745
 30
0.0
 40
0.0259335771249591
100
AcDbArc
 50
179.3219607120116
 51
304.9709990605273
  0
LWPOLYLINE
  5
1DD
330
1F
100
AcDbEntity
  8
0
  6
Continuous
 62
     7
370
    15
100
AcDbPolyline
 90
        3
 70
   128
 43
0.0
 10
1.247706665941001
 20
6.326416217839716
 10
1.247975962950429
 20
6.328442911382172
 10
1.248580200530118
 20
6.329967283002163
  0
ARC
  5
1DE
330
1F
100
AcDbEntity
  8
0
  6
Continuous
 62
     7
370
    15
100
AcDbCircle
 10
1.256104942656408
 20
6.326398548906248
 30
0.0
 40
0.0083982953020096
100
AcDbArc
 50
179.8794569580367
 51
293.5672130237458
  0
LWPOLYLINE
  5
1DF
330
1F
100
AcDbEntity
  8
0
  6
Continuous
 62
     7
370
    15
100
AcDbPolyline
 90
        3
 70
   128
 43
0.0
 10
1.115989519061648
 20
6.401409434938147
 10
1.116258816071075
 20
6.403436128480604
 10
1.116863040771902
 20
6.404960500993749
  0
ARC
  5
1E0
330
1F
100
AcDbEntity
  8
0
  6
Continuous
 62
     7
370
    15
100
AcDbCircle
 10
1.124387782090088
 20
6.401391751645877
 30
0.0
 40
0.0083982816452951
100
AcDbArc
 50
179.8793588014263
 51
293.5672596803044
  0
LWPOLYLINE
  5
1E1
330
1F
100
AcDbEntity
  8
0
  6
Continuous
 62
     7
370
    15
100
AcDbPolyline
 90
        3
 70
   128
 43
0.0
 10
1.247706665941001
 20
6.194699045202638
 10
1.247975962950429
 20
6.196725841775992
 10
1.248580200530118
 20
6.198250110365085
  0
ARC
  5
1E2
330
1F
100
AcDbEntity
  8
0
  6
Continuous
 62
     7
370
    15
100
AcDbCircle
 10
1.25610491117973
 20
6.194681379705277
 30
0.0
 40
0.0083982638181726
100
AcDbArc
 50
179.87947994847
 51
293.5675410045854
  0
LWPOLYLINE
  5
1E3
330
1F
100
AcDbEntity
  8
0
  6
Continuous
 62
     7
370
    15
100
AcDbPolyline
 90
        3
 70
   128
 43
0.0
 10
1.115989519061648
 20
6.26969226230107
 10
1.116258816071075
 20
6.271719058874424
 10
1.116863040771902
 20
6.273243328356671
  0
ARC
  5
1E4
330
1F
100
AcDbEntity
  8
0
  6
Continuous
 62
     7
370
    15
100
AcDbCircle
 10
1.124387782090088
 20
6.2696745790088
 30
0.0
 40
0.0083982816452956
100
AcDbArc
 50
179.8793588014263
 51
293.5672596802963
  0
LWPOLYLINE
  5
1E5
330
1F
100
AcDbEntity
  8
0
  6
Continuous
 62
     7
370
    15
100
AcDbPolyline
 90
        3
 70
   128
 43
0.0
 10
1.247706665941001
 20
6.06298187256556
 10
1.247975962950429
 20
6.065008617623464
 10
1.248580200530118
 20
6.066532937728007
  0
ARC
  5
1E6
330
1F
100
AcDbEntity
  8
0
  6
Continuous
 62
     7
370
    15
100
AcDbCircle
 10
1.25610491117973
 20
6.0629642070682
 30
0.0
 40
0.0083982638181731
100
AcDbArc
 50
179.87947994847
 51
293.5675410045802
  0
LWPOLYLINE
  5
1E7
330
1F
100
AcDbEntity
  8
0
  6
Continuous
 62
     7
370
    15
100
AcDbPolyline
 90
        3
 70
   128
 43
0.0
 10
1.115989519061648
 20
6.137975089663992
 10
1.116258816071075
 20
6.140001834721896
 10
1.116863040771902
 20
6.141526155719592
  0
ARC
  5
1E8
330
1F
100
AcDbEntity
  8
0
  6
Continuous
 62
     7
370
    15
100
AcDbCircle
 10
1.124387750613464
 20
6.137957409807861
 30
0.0
 40
0.008398250161506
100
AcDbArc
 50
179.8793817917479
 51
293.567587661421
  0
LWPOLYLINE
  5
1E9
330
1F
100
AcDbEntity
  8
0
  6
Continuous
 62
     7
370
    15
100
AcDbPolyline
 90
       32
 70
   128
 43
0.0
 10
1.234052902586282
 20
5.33474315605592
 10
1.233802099623031
 20
5.339705803830388
 10
1.233052292263449
 20
5.344652313409369
 10
1.231811156309431
 20
5.349531926520407
 10
1.230091441834594
 20
5.35429457295663
 10
1.227910780001344
 20
5.358891379810253
 10
1.225291554272254
 20
5.363275177850171
 10
1.222260642832817
 20
5.367400987853636
 10
1.218849148135341
 20
5.37122646436495
 10
1.215092074927393
 20
5.374712362345047
 10
1.211027969643656
 20
5.377822906689359
 10
1.206698546918924
 20
5.380526178737419
 10
1.202148225949061
 20
5.382794441420507
 10
1.197423705488546
 20
5.384604419873535
 10
1.192573448695987
 20
5.385937540003269
 10
1.187647245252803
 20
5.386780116621625
 10
1.182695644693282
 20
5.387123511873893
 10
1.177769441250097
 20
5.386964203162053
 10
1.172919184457538
 20
5.386303817084602
 10
1.168194663997023
 20
5.385149132965551
 10
1.16364434302716
 20
5.383512003023711
 10
1.159314920302428
 20
5.38140922497385
 10
1.155250815018691
 20
5.378862374910763
 10
1.151493741810743
 20
5.375897585645526
 10
1.148082247113267
 20
5.372545285864915
 10
1.14505133567383
 20
5.368839865424718
 10
1.14243210994474
 20
5.364819355848473
 10
1.140251460990353
 20
5.360525007442404
 10
1.138531720757791
 20
5.356000888408121
 10
1.137290610561498
 20
5.351293419946623
 10
1.136540777444192
 20
5.346450910965769
 10
1.136290000238665
 20
5.341523047953626
  0
LWPOLYLINE
  5
1EA
330
1F
100
AcDbEntity
  8
0
  6
Continuous
 62
     7
370
    15
100
AcDbPolyline
 90
       18
 70
   128
 43
0.0
 10
1.234052902586282
 20
5.33474315605592
 10
1.228080510849496
 20
5.334110395966329
 10
1.22192931962162
 20
5.333605245361284
 10
1.215639954095292
 20
5.333231038911677
 10
1.20925396049858
 20
5.332990254293822
 10
1.20281350618251
 20
5.332884475826654
 10
1.196361128020917
 20
5.332914404775059
 10
1.18993946010502
 20
5.333079849653433
 10
1.183590896119022
 20
5.333379706768686
 10
1.177357385127633
 20
5.333812002963355
 10
1.171280087974571
 20
5.334373883718355
 10
1.165399145463038
 20
5.335061629229736
 10
1.15975340377184
 20
5.335870709177322
 10
1.154380155028816
 20
5.336795772135118
 10
1.149314882507577
 20
5.337830706113386
 10
1.144591043536168
 20
5.338968682194919
 10
1.140239818821586
 20
5.340202179064699
 10
1.136290000238665
 20
5.341523047953626
  0
ARC
  5
1EB
330
1F
100
AcDbEntity
  8
0
  6
Continuous
 62
     7
370
    15
100
AcDbCircle
 10
1.120773456082798
 20
5.292980847806447
 30
0.0
 40
0.0509618321655506
100
AcDbArc
 50
72.27348901148809
 51
87.33486069629732
  0
ARC
  5
1EC
330
1F
100
AcDbEntity
  8
0
  6
Continuous
 62
     7
370
    15
100
AcDbCircle
 10
1.24392136797038
 20
5.247789893144081
 30
0.0
 40
0.0875114651920111
100
AcDbArc
 50
86.01282329602986
 51
96.47488524924852
  0
LINE
  5
1ED
330
1F
100
AcDbEntity
  8
0
  6
Continuous
 62
     7
370
    15
100
AcDbLine
 10
1.234052902586282
 20
5.263396364943221
 30
0.0
 11
1.234052902586282
 21
5.33474315605592
 31
0.0
  0
LWPOLYLINE
  5
1EE
330
1F
100
AcDbEntity
  8
0
  6
Continuous
 62
     7
370
    15
100
AcDbPolyline
 90
       18
 70
   128
 43
0.0
 10
1.234052902586282
 20
5.263396364943221
 10
1.228080510849496
 20
5.26276360485363
 10
1.22192931962162
 20
5.262258454248585
 10
1.215639954095292
 20
5.261884247798978
 10
1.20925396049858
 20
5.261643463181123
 10
1.20281350618251
 20
5.261537684713955
 10
1.196361128020917
 20
5.26156761366236
 10
1.18993946010502
 20
5.261733058540735
 10
1.183590896119022
 20
5.262032915655987
 10
1.177357385127633
 20
5.262465211850658
 10
1.171280087974571
 20
5.263027092605658
 10
1.165399145463038
 20
5.263714838117037
 10
1.15975340377184
 20
5.264523918064623
 10
1.154380155028816
 20
5.26544898102242
 10
1.149314882507577
 20
5.266483915000688
 10
1.144591043536168
 20
5.26762189108222
 10
1.140239818821586
 20
5.268855387952002
 10
1.136290000238665
 20
5.270176256840927
  0
LINE
  5
1EF
330
1F
100
AcDbEntity
  8
0
  6
Continuous
 62
     7
370
    15
100
AcDbLine
 10
1.136290000238665
 20
5.341523047953626
 30
0.0
 11
1.136290000238665
 21
5.270176256840927
 31
0.0
  0
ARC
  5
1F0
330
1F
100
AcDbEntity
  8
0
  6
Continuous
 62
     7
370
    15
100
AcDbCircle
 10
1.243921367970376
 20
5.176443102031572
 30
0.0
 40
0.0875114651918218
100
AcDbArc
 50
86.01282329601843
 51
96.47488524925982
  0
LWPOLYLINE
  5
1F1
330
1F
100
AcDbEntity
  8
0
  6
Continuous
 62
     7
370
    15
100
AcDbPolyline
 90
       11
 70
   128
 43
0.0
 10
1.283247796348726
 20
5.244939817811292
 10
1.282290798102881
 20
5.244296516097723
 10
1.281357369372465
 20
5.244231233614984
 10
1.280470486121423
 20
5.244745570139309
 10
1.279651992424818
 20
5.245826863489593
 10
1.27892204142615
 20
5.24744849953853
 10
1.278298598410533
 20
5.249570526921455
 10
1.277797026699005
 20
5.252140705912961
 10
1.277429666641082
 20
5.255095750259304
 10
1.277205566446054
 20
5.258362895979836
 10
1.27713025442486
 20
5.261861703350922
  0
LWPOLYLINE
  5
1F2
330
1F
100
AcDbEntity
  8
0
  6
Continuous
 62
     7
370
    15
100
AcDbPolyline
 90
        9
 70
   128
 43
0.0
 10
1.283247796348726
 20
5.256794359742547
 10
1.282674011506907
 20
5.256451036832566
 10
1.282122270891233
 20
5.256542721141087
 10
1.281613790516471
 20
5.257065893126062
 10
1.281168102367591
 20
5.258000454238506
 10
1.280802336616569
 20
5.259310482469173
 10
1.280530545249762
 20
5.260945633201305
 10
1.280363184435803
 20
5.262843073321364
 10
1.280306665911101
 20
5.264929881240403
  0
LINE
  5
1F3
330
1F
100
AcDbEntity
  8
0
  6
Continuous
 62
     7
370
    15
100
AcDbLine
 10
1.283247796348726
 20
5.256794359742547
 30
0.0
 11
1.283247796348726
 21
5.244939817811292
 31
0.0
  0
ARC
  5
1F4
330
1F
100
AcDbEntity
  8
0
  6
Continuous
 62
     7
370
    15
100
AcDbCircle
 10
1.120773456082786
 20
5.221634056693718
 30
0.0
 40
0.0509618321655822
100
AcDbArc
 50
72.27348901148506
 51
87.33486069628524
  0
LINE
  5
1F5
330
1F
100
AcDbEntity
  8
0
  6
Continuous
 62
     7
370
    15
100
AcDbLine
 10
1.327364676993735
 20
5.299407994132873
 30
0.0
 11
1.327364676993735
 21
5.287553452201618
 31
0.0
  0
LINE
  5
1F6
330
1F
100
AcDbEntity
  8
0
  6
Continuous
 62
     7
370
    15
100
AcDbLine
 10
1.327364676993735
 20
5.287553452201618
 30
0.0
 11
1.283247796348726
 21
5.244939817811292
 31
0.0
  0
LINE
  5
1F7
330
1F
100
AcDbEntity
  8
0
  6
Continuous
 62
     7
370
    15
100
AcDbLine
 10
1.327364676993735
 20
5.299407994132873
 30
0.0
 11
1.283247796348726
 21
5.256794359742547
 31
0.0
  0
LINE
  5
1F8
330
1F
100
AcDbEntity
  8
0
  6
Continuous
 62
     7
370
    15
100
AcDbLine
 10
1.327364676993735
 20
5.299407994132873
 30
0.0
 11
1.28030667309067
 21
5.302671483367778
 31
0.0
  0
LWPOLYLINE
  5
1F9
330
1F
100
AcDbEntity
  8
0
  6
Continuous
 62
     7
370
    15
100
AcDbPolyline
 90
       10
 70
   128
 43
0.0
 10
1.100501454217057
 20
5.256751183249277
 10
1.100246289193638
 20
5.256791351160624
 10
1.099359405942597
 20
5.25730568768495
 10
1.098540912245992
 20
5.258386981035234
 10
1.097810961247323
 20
5.260008617084171
 10
1.097187518231706
 20
5.262130644467095
 10
1.096685946520179
 20
5.264700823458602
 10
1.096318586462255
 20
5.267655867804944
 10
1.096094486267227
 20
5.270923013525477
 10
1.096019174246034
 20
5.274421820896565
  0
LINE
  5
1FA
330
1F
100
AcDbEntity
  8
0
  6
Continuous
 62
     7
370
    15
100
AcDbLine
 10
4.032160485866657
 20
5.301249044764314
 30
0.0
 11
4.032160485866657
 21
5.313103573816707
 31
0.0
  0
LINE
  5
1FB
330
1F
100
AcDbEntity
  8
0
  6
Continuous
 62
     7
370
    15
100
AcDbLine
 10
4.032160485866657
 20
5.313103573816707
 30
0.0
 11
4.059995567767868
 21
5.317262994181893
 31
0.0
  0
LINE
  5
1FC
330
1F
100
AcDbEntity
  8
0
  6
Continuous
 62
     7
370
    15
100
AcDbLine
 10
4.059995567767868
 20
5.317262994181893
 30
0.0
 11
4.059995567767868
 21
5.3054084651295
 31
0.0
  0
LINE
  5
1FD
330
1F
100
AcDbEntity
  8
0
  6
Continuous
 62
     7
370
    15
100
AcDbLine
 10
4.059995567767868
 20
5.3054084651295
 30
0.0
 11
4.032160485866657
 21
5.301249044764314
 31
0.0
  0
LWPOLYLINE
  5
1FE
330
1F
100
AcDbEntity
  8
0
  6
Continuous
 62
     7
370
    15
100
AcDbPolyline
 90
       45
 70
   128
 43
0.0
 10
4.184444854400362
 20
5.5567898624974
 10
4.183754463027718
 20
5.555862731980236
 10
4.183580897788902
 20
5.554919623125004
 10
4.183927682902228
 20
5.553979726549491
 10
4.184787678622528
 20
5.553062172155454
 10
4.186143546596734
 20
5.552185625304116
 10
4.187967597034077
 20
5.551367925863055
 10
4.190222570551658
 20
5.550625776756682
 10
4.192862844956079
 20
5.549974202980827
 10
4.19583440763639
 20
5.54942652493639
 10
4.199076997021101
 20
5.548993866947531
 10
4.202524253425874
 20
5.548685089638494
 10
4.206106383062303
 20
5.54850637653632
 10
4.209750378894283
 20
5.548461447401717
 10
4.213381860399597
 20
5.548551201993605
 10
4.216926942920653
 20
5.548773819076313
 10
4.220313735311143
 20
5.549124709719094
 10
4.22347308334419
 20
5.549596808711505
 10
4.226340451875553
 20
5.550180472615646
 10
4.228858015050728
 20
5.550863792104218
 10
4.23097408052118
 20
5.551632889119599
 10
4.232645715015691
 20
5.552472106341451
 10
4.233838897170165
 20
5.553364368139845
 10
4.23452928854281
 20
5.554291498657009
 10
4.234702853781627
 20
5.555234607512241
 10
4.2343560686683
 20
5.556174504087754
 10
4.233495866886205
 20
5.557092072772252
 10
4.232140204973795
 20
5.55796860533313
 10
4.230316154536452
 20
5.55878630477419
 10
4.228060974957074
 20
5.559528468171022
 10
4.225420906614449
 20
5.560180027656418
 10
4.222449343934138
 20
5.560727705700855
 10
4.219206754549427
 20
5.561160363689714
 10
4.215759292082859
 20
5.56146915528921
 10
4.212177368508226
 20
5.561647854100925
 10
4.208533372676246
 20
5.561692783235527
 10
4.204901891170932
 20
5.561603028643641
 10
4.20135660258808
 20
5.561380425851391
 10
4.197970016259385
 20
5.561029520918151
 10
4.194810668226339
 20
5.560557421925739
 10
4.19194309363318
 20
5.559973772312059
 10
4.189425736519801
 20
5.559290438533027
 10
4.187309671049349
 20
5.558521341517646
 10
4.185638036554837
 20
5.557682124295795
 10
4.184444854400362
 20
5.5567898624974
  0
LINE
  5
1FF
330
1F
100
AcDbEntity
  8
0
  6
Continuous
 62
     7
370
    15
100
AcDbLine
 10
3.878884558422785
 20
5.329823106815189
 30
0.0
 11
3.894955063359402
 21
5.322618818454909
 31
0.0
  0
LINE
  5
200
330
1F
100
AcDbEntity
  8
0
  6
Continuous
 62
     7
370
    15
100
AcDbLine
 10
4.428875008168338
 20
5.86107308643676
 30
0.0
 11
3.878884558422785
 21
5.329823106815189
 31
0.0
  0
LINE
  5
201
330
1F
100
AcDbEntity
  8
0
  6
Continuous
 62
     7
370
    15
100
AcDbLine
 10
4.428875008168338
 20
5.86107308643676
 30
0.0
 11
4.455998922353645
 21
5.859192033382861
 31
0.0
  0
LINE
  5
202
330
1F
100
AcDbEntity
  8
0
  6
Continuous
 62
     7
370
    15
100
AcDbLine
 10
4.436881605567005
 20
5.840726123369296
 30
0.0
 11
4.455998922353645
 21
5.859192033382861
 31
0.0
  0
LWPOLYLINE
  5
203
330
1F
100
AcDbEntity
  8
0
  6
Continuous
 62
     7
370
    15
100
AcDbPolyline
 90
       36
 70
   128
 43
0.0
 10
4.563744786541475
 20
5.831928116843798
 10
4.561965925934798
 20
5.830474186389029
 10
4.559690570086113
 20
5.82906739227273
 10
4.556937260913043
 20
5.827719031355066
 10
4.553728083803264
 20
5.8264399832698
 10
4.550088721837541
 20
5.825240549468857
 10
4.546048592833917
 20
5.824130372265972
 10
4.541640155242944
 20
5.823118404375576
 10
4.536899202941332
 20
5.822212766999862
 10
4.531863573647078
 20
5.82142078223881
 10
4.526573869640234
 20
5.820748815929516
 10
4.521072791265185
 20
5.820202273851434
 10
4.515404435924124
 20
5.819785564598678
 10
4.509614675691837
 20
5.819502037666157
 10
4.503750037283823
 20
5.819353968236201
 10
4.497857708958061
 20
5.819342563845156
 10
4.491985251632068
 20
5.819467898674754
 10
4.486179781537485
 20
5.819728977380552
 10
4.480488148674822
 20
5.820123694135104
 10
4.474956098762752
 20
5.820648876456623
 10
4.469628067176321
 20
5.821300299499428
 10
4.464547192750462
 20
5.822072699387141
 10
4.459754315078068
 20
5.822959871331323
 10
4.455287967608227
 20
5.82395466296489
 10
4.451184254405569
 20
5.825049068631648
 10
4.447476019001314
 20
5.826234279881537
 10
4.444193140177973
 20
5.827500757845836
 10
4.441362154354561
 20
5.82883829515103
 10
4.439005720222349
 20
5.830236138789264
 10
4.437143079180779
 20
5.831683008203548
 10
4.435788922493125
 20
5.833167281029354
 10
4.434954270747754
 20
5.834676989265503
 10
4.434645766940892
 20
5.836199989768023
 10
4.434866164519601
 20
5.837724009001712
 10
4.435613366090399
 20
5.839236781158334
 10
4.436881605567005
 20
5.840726123369296
  0
LINE
  5
204
330
1F
100
AcDbEntity
  8
0
  6
Continuous
 62
     7
370
    15
100
AcDbLine
 10
4.582862103328115
 20
5.850394026857363
 30
0.0
 11
4.563744786541475
 21
5.831928116843798
 31
0.0
  0
LINE
  5
205
330
1F
100
AcDbEntity
  8
0
  6
Continuous
 62
     7
370
    15
100
AcDbLine
 10
4.582862103328115
 20
5.850394026857363
 30
0.0
 11
4.609986017513422
 21
5.848512973803464
 31
0.0
  0
LINE
  5
206
330
1F
100
AcDbEntity
  8
0
  6
Continuous
 62
     7
370
    15
100
AcDbLine
 10
4.609986017513422
 20
5.848512973803464
 30
0.0
 11
4.059995567767868
 21
5.317262994181893
 31
0.0
  0
LINE
  5
207
330
1F
100
AcDbEntity
  8
0
  6
Continuous
 62
     7
370
    15
100
AcDbLine
 10
4.032160485866657
 20
5.313103573816707
 30
0.0
 11
3.894955063359402
 21
5.322618818454909
 31
0.0
  0
LWPOLYLINE
  5
208
330
1F
100
AcDbEntity
  8
0
  6
Continuous
 62
     7
370
    15
100
AcDbPolyline
 90
       25
 70
   128
 43
0.0
 10
3.914795866708247
 20
5.347124301127216
 10
3.914516928338555
 20
5.346576257237183
 10
3.914795826791179
 20
5.346028168565796
 10
3.915613207905733
 20
5.345517446448214
 10
3.916913426860599
 20
5.345078874424744
 10
3.918607973286416
 20
5.344742370043804
 10
3.920581177853879
 20
5.344530817091198
 10
3.922698918119061
 20
5.344458661570971
 10
3.924816514916127
 20
5.344530792469443
 10
3.926789793649841
 20
5.344742346268997
 10
3.928484305826474
 20
5.34507886769732
 10
3.929784458915306
 20
5.345517448585131
 10
3.930601836757506
 20
5.346028151507073
 10
3.930880624279493
 20
5.346576263020283
 10
3.930601931888664
 20
5.347124337401211
 10
3.929784550774111
 20
5.347635059518793
 10
3.928484331819244
 20
5.348073631542264
 10
3.926789785393427
 20
5.348410135923203
 10
3.924816374764169
 20
5.348621703166267
 10
3.922698840560783
 20
5.348693844396036
 10
3.920581243763717
 20
5.348621713497564
 10
3.918607965030004
 20
5.34841015969801
 10
3.91691345285337
 20
5.348073638269688
 10
3.915613093702742
 20
5.347635071672335
 10
3.914795866708247
 20
5.347124301127216
  0
LWPOLYLINE
  5
209
330
1F
100
AcDbEntity
  8
0
  6
Continuous
 62
     7
370
    15
100
AcDbPolyline
 90
       25
 70
   128
 43
0.0
 10
4.028866284326617
 20
5.320944212138249
 10
4.028587345956925
 20
5.320396168248216
 10
4.02886624440955
 20
5.319848079576829
 10
4.029683625524103
 20
5.319337357459247
 10
4.03098384447897
 20
5.318898785435777
 10
4.032678390904787
 20
5.318562281054838
 10
4.034651595472249
 20
5.318350728102232
 10
4.036769335737431
 20
5.318278572582005
 10
4.038886932534497
 20
5.318350703480477
 10
4.04086021126821
 20
5.318562257280031
 10
4.042554723444844
 20
5.318898778708353
 10
4.043854876533676
 20
5.319337359596165
 10
4.044672254375876
 20
5.319848062518107
 10
4.044951041897864
 20
5.320396174031317
 10
4.044672349507035
 20
5.320944248412245
 10
4.043854968392481
 20
5.321454970529827
 10
4.042554749437614
 20
5.321893542553297
 10
4.040860203011797
 20
5.322230046934237
 10
4.038886792382538
 20
5.3224416141773
 10
4.036769258179153
 20
5.32251375540707
 10
4.034651661382087
 20
5.322441624508598
 10
4.032678382648374
 20
5.322230070709044
 10
4.03098387047174
 20
5.321893549280721
 10
4.029683511321112
 20
5.321454982683368
 10
4.028866284326617
 20
5.320944212138249
  0
LWPOLYLINE
  5
20A
330
1F
100
AcDbEntity
  8
0
  6
Continuous
 62
     7
370
    15
100
AcDbPolyline
 90
       25
 70
   128
 43
0.0
 10
3.950089376745662
 20
5.381215213972748
 10
3.949810438375971
 20
5.380667170082715
 10
3.950089336828596
 20
5.380119081411327
 10
3.950906717943149
 20
5.379608359293746
 10
3.952206936898015
 20
5.379169787270276
 10
3.953901428109741
 20
5.37883322955662
 10
3.955874687891295
 20
5.378621729936731
 10
3.957992372942385
 20
5.378549521083787
 10
3.960110024953543
 20
5.378621705314976
 10
3.962083303687256
 20
5.37883325911453
 10
3.96377781586389
 20
5.379169780542852
 10
3.965077968952722
 20
5.379608361430664
 10
3.965895346794921
 20
5.380119064352607
 10
3.966174134316909
 20
5.380667175865815
 10
3.96589544192608
 20
5.381215250246745
 10
3.965078060811528
 20
5.381725972364326
 10
3.96377784185666
 20
5.382164544387796
 10
3.962083295430843
 20
5.382501048768735
 10
3.960109884801585
 20
5.382712616011799
 10
3.957992350598199
 20
5.382784757241569
 10
3.955874753801133
 20
5.382712626343097
 10
3.95390147506742
 20
5.382501072543543
 10
3.952206962890786
 20
5.382164551115221
 10
3.950906603740158
 20
5.381725984517867
 10
3.950089376745662
 20
5.381215213972748
  0
LWPOLYLINE
  5
20B
330
1F
100
AcDbEntity
  8
0
  6
Continuous
 62
     7
370
    15
100
AcDbPolyline
 90
       25
 70
   128
 43
0.0
 10
4.064159794364033
 20
5.355035124983782
 10
4.063880855994341
 20
5.354487081093749
 10
4.064159754446966
 20
5.353938992422361
 10
4.064977135561519
 20
5.353428270304781
 10
4.066277354516385
 20
5.35298969828131
 10
4.067971900942203
 20
5.352653193900371
 10
4.069945105509665
 20
5.352441640947764
 10
4.072062845774847
 20
5.352369485427538
 10
4.074180442571913
 20
5.352441616326009
 10
4.076153721305626
 20
5.352653170125562
 10
4.07784823348226
 20
5.352989691553886
 10
4.079148386571092
 20
5.353428272441698
 10
4.079965764413292
 20
5.35393897536364
 10
4.080244551935279
 20
5.354487086876849
 10
4.079965859544451
 20
5.355035161257778
 10
4.079148478429897
 20
5.355545883375359
 10
4.077848259475031
 20
5.35598445539883
 10
4.076153713049213
 20
5.356320959779768
 10
4.074180302419954
 20
5.356532527022833
 10
4.072062768216569
 20
5.356604668252602
 10
4.069945171419503
 20
5.35653253735413
 10
4.06797189268579
 20
5.356320983554576
 10
4.066277380509156
 20
5.355984462126254
 10
4.064977021358528
 20
5.355545895528901
 10
4.064159794364033
 20
5.355035124983782
  0
LWPOLYLINE
  5
20C
330
1F
100
AcDbEntity
  8
0
  6
Continuous
 62
     7
370
    15
100
AcDbPolyline
 90
       25
 70
   128
 43
0.0
 10
3.985382886783078
 20
5.415306126818281
 10
3.985103948413387
 20
5.414758082928248
 10
3.985382846866011
 20
5.41420999425686
 10
3.986200227980564
 20
5.41369927213928
 10
3.987500446935431
 20
5.413260700115809
 10
3.989194938147157
 20
5.412924142402152
 10
3.991168197928711
 20
5.412712642782263
 10
3.993285882979801
 20
5.412640433929319
 10
3.995403534990958
 20
5.412712618160507
 10
3.997376813724672
 20
5.412924171960061
 10
3.999071325901305
 20
5.413260693388385
 10
4.000371478990138
 20
5.413699274276197
 10
4.001188856832337
 20
5.414209977198139
 10
4.001467644354325
 20
5.414758088711349
 10
4.001188951963497
 20
5.415306163092277
 10
4.000371570848943
 20
5.415816885209858
 10
3.999071351894076
 20
5.416255457233329
 10
3.997376805468259
 20
5.416591961614267
 10
3.995403394839001
 20
5.416803528857331
 10
3.993285860635614
 20
5.416875670087101
 10
3.991168263838549
 20
5.416803539188629
 10
3.989194985104835
 20
5.416591985389076
 10
3.987500472928202
 20
5.416255463960753
 10
3.986200113777574
 20
5.415816897363399
 10
3.985382886783078
 20
5.415306126818281
  0
LWPOLYLINE
  5
20D
330
1F
100
AcDbEntity
  8
0
  6
Continuous
 62
     7
370
    15
100
AcDbPolyline
 90
       25
 70
   128
 43
0.0
 10
4.099453304401448
 20
5.389126037829315
 10
4.099174366031757
 20
5.38857799393928
 10
4.099453264484382
 20
5.388029905267893
 10
4.100270645598935
 20
5.387519183150313
 10
4.101570864553801
 20
5.387080611126841
 10
4.103265355765527
 20
5.386744053413186
 10
4.105238615547081
 20
5.386532553793297
 10
4.107356300598171
 20
5.386460344940353
 10
4.109473952609328
 20
5.386532529171542
 10
4.111447231343042
 20
5.386744082971095
 10
4.113141743519676
 20
5.387080604399418
 10
4.114441896608508
 20
5.387519185287231
 10
4.115259274450708
 20
5.388029888209173
 10
4.115538061972695
 20
5.388577999722382
 10
4.115259369581867
 20
5.389126074103311
 10
4.114441988467313
 20
5.389636796220892
 10
4.113141769512447
 20
5.390075368244363
 10
4.111447223086629
 20
5.390411872625301
 10
4.109473812457371
 20
5.390623439868365
 10
4.107356278253985
 20
5.390695581098134
 10
4.105238681456919
 20
5.390623450199663
 10
4.103265402723206
 20
5.390411896400109
 10
4.101570890546573
 20
5.390075374971787
 10
4.100270531395944
 20
5.389636808374433
 10
4.099453304401448
 20
5.389126037829315
  0
LWPOLYLINE
  5
20E
330
1F
100
AcDbEntity
  8
0
  6
Continuous
 62
     7
370
    15
100
AcDbPolyline
 90
       25
 70
   128
 43
0.0
 10
4.020676396820494
 20
5.449397039663814
 10
4.020397458450802
 20
5.448848995773779
 10
4.020676356903427
 20
5.448300907102392
 10
4.02149373801798
 20
5.447790184984812
 10
4.022793956972847
 20
5.44735161296134
 10
4.024488448184572
 20
5.447015055247685
 10
4.026461707966127
 20
5.446803555627796
 10
4.028579393017217
 20
5.446731346774851
 10
4.030697045028374
 20
5.44680353100604
 10
4.032670323762088
 20
5.447015084805594
 10
4.034364835938721
 20
5.447351606233917
 10
4.035664989027554
 20
5.447790187121729
 10
4.036482366869754
 20
5.448300890043672
 10
4.036761154391741
 20
5.448849001556881
 10
4.036482462000912
 20
5.44939707593781
 10
4.035665080886359
 20
5.44990779805539
 10
4.034364861931491
 20
5.450346370078862
 10
4.032670315505675
 20
5.4506828744598
 10
4.030696904876417
 20
5.450894441702865
 10
4.02857937067303
 20
5.450966582932633
 10
4.026461773875965
 20
5.450894452034162
 10
4.024488495142251
 20
5.450682898234608
 10
4.022793982965618
 20
5.450346376806285
 10
4.02149362381499
 20
5.449907810208932
 10
4.020676396820494
 20
5.449397039663814
  0
LWPOLYLINE
  5
20F
330
1F
100
AcDbEntity
  8
0
  6
Continuous
 62
     7
370
    15
100
AcDbPolyline
 90
       25
 70
   128
 43
0.0
 10
4.134746814438864
 20
5.423216950674848
 10
4.134467876069172
 20
5.422668906784813
 10
4.134746774521797
 20
5.422120818113426
 10
4.135564155636351
 20
5.421610095995846
 10
4.136864374591217
 20
5.421171523972374
 10
4.138558865802942
 20
5.420834966258718
 10
4.140532125584497
 20
5.420623466638829
 10
4.142649810635586
 20
5.420551257785884
 10
4.144767462646744
 20
5.420623442017074
 10
4.146740741380458
 20
5.420834995816627
 10
4.148435253557091
 20
5.421171517244951
 10
4.149735406645923
 20
5.421610098132762
 10
4.150552784488123
 20
5.422120801054705
 10
4.150831572010111
 20
5.422668912567915
 10
4.150552879619282
 20
5.423216986948843
 10
4.149735498504729
 20
5.423727709066423
 10
4.148435279549862
 20
5.424166281089895
 10
4.146740733124044
 20
5.424502785470833
 10
4.144767322494787
 20
5.424714352713898
 10
4.142649788291401
 20
5.424786493943667
 10
4.140532191494334
 20
5.424714363045195
 10
4.138558912760622
 20
5.424502809245642
 10
4.136864400583988
 20
5.424166287817318
 10
4.13556404143336
 20
5.423727721219965
 10
4.134746814438864
 20
5.423216950674848
  0
LWPOLYLINE
  5
210
330
1F
100
AcDbEntity
  8
0
  6
Continuous
 62
     7
370
    15
100
AcDbPolyline
 90
       25
 70
   128
 43
0.0
 10
4.17004032447628
 20
5.45730786352038
 10
4.169761386106588
 20
5.456759819630345
 10
4.170040284559213
 20
5.456211730958958
 10
4.170857638066721
 20
5.455700982175019
 10
4.172157884628633
 20
5.455262436817907
 10
4.173852403447404
 20
5.454925905770609
 10
4.175825608014867
 20
5.454714352818003
 10
4.177943348280049
 20
5.454642197297776
 10
4.18006097268416
 20
5.454714354862606
 10
4.182034223810828
 20
5.454925881995801
 10
4.183728763594507
 20
5.455262430090482
 10
4.185028916683339
 20
5.455701010978295
 10
4.185846294525539
 20
5.456211713900237
 10
4.186125054440481
 20
5.456759798747088
 10
4.185846362049652
 20
5.457307873128018
 10
4.185028980935099
 20
5.457818595245598
 10
4.183728761980232
 20
5.458257167269069
 10
4.18203424316146
 20
5.458593698316366
 10
4.180060832532203
 20
5.458805265559431
 10
4.177943298328816
 20
5.458877406789198
 10
4.175825673924705
 20
5.458805249224369
 10
4.173852395190992
 20
5.458593695424815
 10
4.172157883014357
 20
5.458257173996493
 10
4.170857523863729
 20
5.457818607399139
 10
4.17004032447628
 20
5.45730786352038
  0
LWPOLYLINE
  5
211
330
1F
100
AcDbEntity
  8
0
  6
Continuous
 62
     7
370
    15
100
AcDbPolyline
 90
       25
 70
   128
 43
0.0
 10
4.091263416895325
 20
5.517578865354878
 10
4.090984450918589
 20
5.517030794798486
 10
4.091263349371214
 20
5.516482706127098
 10
4.092080730485767
 20
5.515971984009518
 10
4.093380949440633
 20
5.515533411986047
 10
4.095075468259405
 20
5.51519688093875
 10
4.097048700433912
 20
5.514985354652502
 10
4.099166413092048
 20
5.514913172465917
 10
4.10128403749616
 20
5.514985330030747
 10
4.103257316229874
 20
5.5151968838303
 10
4.104951828406507
 20
5.515533405258623
 10
4.10625198149534
 20
5.515971986146436
 10
4.107069386944585
 20
5.516482715734736
 10
4.107348146859527
 20
5.517030800581587
 10
4.107069454468699
 20
5.517578874962516
 10
4.106252073354145
 20
5.518089597080097
 10
4.104951854399278
 20
5.518528169103568
 10
4.103257335580506
 20
5.518864700150865
 10
4.101283924951248
 20
5.51907626739393
 10
4.099166390747862
 20
5.519148408623697
 10
4.097048766343751
 20
5.519076251058868
 10
4.095075487610037
 20
5.518864697259314
 10
4.093380975433404
 20
5.518528175830992
 10
4.092080616282776
 20
5.518089609233638
 10
4.091263416895325
 20
5.517578865354878
  0
LWPOLYLINE
  5
212
330
1F
100
AcDbEntity
  8
0
  6
Continuous
 62
     7
370
    15
100
AcDbPolyline
 90
       25
 70
   128
 43
0.0
 10
4.126556926932742
 20
5.551669778200411
 10
4.126277960956004
 20
5.551121707644018
 10
4.126556859408629
 20
5.550573618972631
 10
4.127374240523182
 20
5.550062896855051
 10
4.128674459478049
 20
5.54962432483158
 10
4.130368978296821
 20
5.549287793784283
 10
4.132342210471328
 20
5.549076267498035
 10
4.134459923129464
 20
5.549004085311449
 10
4.136577547533576
 20
5.54907624287628
 10
4.138550826267289
 20
5.549287796675832
 10
4.140245338443923
 20
5.549624318104156
 10
4.141545491532755
 20
5.550062898991968
 10
4.142362896982001
 20
5.550573628580268
 10
4.142641656896943
 20
5.55112171342712
 10
4.142362964506114
 20
5.551669787808048
 10
4.141545583391561
 20
5.552180509925629
 10
4.140245364436694
 20
5.5526190819491
 10
4.138550845617922
 20
5.552955612996398
 10
4.136577407381618
 20
5.553167153573103
 10
4.134459900785278
 20
5.553239321469231
 10
4.132342276381166
 20
5.553167163904401
 10
4.130368997647453
 20
5.552955610104847
 10
4.12867448547082
 20
5.552619088676524
 10
4.127374126320192
 20
5.55218052207917
 10
4.126556926932742
 20
5.551669778200411
  0
LWPOLYLINE
  5
213
330
1F
100
AcDbEntity
  8
0
  6
Continuous
 62
     7
370
    15
100
AcDbPolyline
 90
       25
 70
   128
 43
0.0
 10
4.240627344551112
 20
5.525489689211444
 10
4.240348378574374
 20
5.524941618655053
 10
4.240627277026999
 20
5.524393529983664
 10
4.241444658141553
 20
5.523882807866084
 10
4.242744877096419
 20
5.523444235842614
 10
4.24443939591519
 20
5.523107704795316
 10
4.246412628089698
 20
5.522896178509069
 10
4.248530340747834
 20
5.522823996322482
 10
4.250647965151946
 20
5.522896153887313
 10
4.25262124388566
 20
5.523107707686866
 10
4.254315756062293
 20
5.523444229115189
 10
4.255615909151125
 20
5.523882810003001
 10
4.25643331460037
 20
5.524393539591303
 10
4.256712074515313
 20
5.524941624438153
 10
4.256433382124484
 20
5.525489698819082
 10
4.255616001009931
 20
5.526000420936662
 10
4.254315782055064
 20
5.526438992960134
 10
4.252621263236292
 20
5.526775524007431
 10
4.250647852607034
 20
5.526987091250496
 10
4.248530318403648
 20
5.527059232480264
 10
4.246412693999537
 20
5.526987074915434
 10
4.244439415265823
 20
5.52677552111588
 10
4.24274490308919
 20
5.526438999687558
 10
4.241444543938562
 20
5.526000433090204
 10
4.240627344551112
 20
5.525489689211444
  0
LWPOLYLINE
  5
214
330
1F
100
AcDbEntity
  8
0
  6
Continuous
 62
     7
370
    15
100
AcDbPolyline
 90
       25
 70
   128
 43
0.0
 10
4.161850436970158
 20
5.585760691045943
 10
4.16157147099342
 20
5.585212620489551
 10
4.161850369446045
 20
5.584664531818163
 10
4.162667750560598
 20
5.584153809700583
 10
4.163967969515465
 20
5.583715237677113
 10
4.165662488334237
 20
5.583378706629815
 10
4.167635692901699
 20
5.58316715367721
 10
4.169753433166881
 20
5.583094998156981
 10
4.171871057570992
 20
5.583167155721811
 10
4.173844336304705
 20
5.583378709521365
 10
4.175538848481339
 20
5.583715230949688
 10
4.176839001570171
 20
5.5841538118375
 10
4.177656407019417
 20
5.584664541425801
 10
4.177935166934359
 20
5.585212626272652
 10
4.17765647454353
 20
5.58576070065358
 10
4.176839093428976
 20
5.586271422771162
 10
4.175538874474109
 20
5.586709994794633
 10
4.173844355655338
 20
5.58704652584193
 10
4.171870917419034
 20
5.587258066418636
 10
4.169753410822695
 20
5.587330234314763
 10
4.167635786418582
 20
5.587258076749933
 10
4.165662507684869
 20
5.587046522950379
 10
4.163967995508236
 20
5.586710001522056
 10
4.162667636357607
 20
5.586271434924704
 10
4.161850436970158
 20
5.585760691045943
  0
LWPOLYLINE
  5
215
330
1F
100
AcDbEntity
  8
0
  6
Continuous
 62
     7
370
    15
100
AcDbPolyline
 90
       25
 70
   128
 43
0.0
 10
4.275920854588528
 20
5.559580602056977
 10
4.27564188861179
 20
5.559032531500585
 10
4.275920787064415
 20
5.558484442829198
 10
4.276738168178968
 20
5.557973720711617
 10
4.278038387133835
 20
5.557535148688145
 10
4.279732905952606
 20
5.557198617640849
 10
4.281706138127114
 20
5.556987091354601
 10
4.283823850785251
 20
5.556914909168015
 10
4.285941475189362
 20
5.556987066732845
 10
4.287914753923076
 20
5.557198620532399
 10
4.289609266099709
 20
5.557535141960721
 10
4.290909419188541
 20
5.557973722848533
 10
4.291726824637787
 20
5.558484452436835
 10
4.292005584552728
 20
5.559032537283686
 10
4.2917268921619
 20
5.559580611664614
 10
4.290909511047346
 20
5.560091333782195
 10
4.289609292092479
 20
5.560529905805666
 10
4.287914773273708
 20
5.560866436852964
 10
4.285941335037405
 20
5.561077977429669
 10
4.283823828441064
 20
5.561150145325797
 10
4.281706204036952
 20
5.561077987760967
 10
4.279732925303239
 20
5.560866433961413
 10
4.278038413126606
 20
5.560529912533089
 10
4.276738053975978
 20
5.560091345935737
 10
4.275920854588528
 20
5.559580602056977
  0
LWPOLYLINE
  5
216
330
1F
100
AcDbEntity
  8
0
  6
Continuous
 62
     7
370
    15
100
AcDbPolyline
 90
       25
 70
   128
 43
0.0
 10
4.197143947007574
 20
5.619851603891476
 10
4.196864981030836
 20
5.619303533335084
 10
4.197143879483461
 20
5.618755444663697
 10
4.197961260598014
 20
5.618244722546115
 10
4.19926147955288
 20
5.617806150522644
 10
4.200955998371652
 20
5.617469619475347
 10
4.202929202939115
 20
5.617258066522741
 10
4.205046943204296
 20
5.617185911002514
 10
4.207164567608407
 20
5.617258068567344
 10
4.209137846342121
 20
5.617469622366898
 10
4.210832358518755
 20
5.617806143795221
 10
4.212132511607587
 20
5.618244724683032
 10
4.212949917056833
 20
5.618755454271334
 10
4.213228676971775
 20
5.619303539118184
 10
4.2129499569739
 20
5.619851586832754
 10
4.212132603466392
 20
5.620362335616694
 10
4.210832384511526
 20
5.620800907640164
 10
4.209137865692754
 20
5.621137438687462
 10
4.20716442745645
 20
5.621348979264168
 10
4.205046920860111
 20
5.621421147160296
 10
4.202929296455998
 20
5.621348989595466
 10
4.200956017722285
 20
5.621137435795912
 10
4.199261477938605
 20
5.62080088770123
 10
4.197961146395024
 20
5.620362347770236
 10
4.197143947007574
 20
5.619851603891476
  0
LWPOLYLINE
  5
217
330
1F
100
AcDbEntity
  8
0
  6
Continuous
 62
     7
370
    15
100
AcDbPolyline
 90
       25
 70
   128
 43
0.0
 10
4.311214364625944
 20
5.593671514902509
 10
4.310935398649205
 20
5.593123444346117
 10
4.311214297101831
 20
5.59257535567473
 10
4.312031678216384
 20
5.592064633557148
 10
4.31333189717125
 20
5.591626061533678
 10
4.315026415990022
 20
5.59128953048638
 10
4.316999620557485
 20
5.591077977533775
 10
4.319117360822666
 20
5.591005822013547
 10
4.321234985226778
 20
5.591077979578377
 10
4.323208263960492
 20
5.591289533377931
 10
4.324902776137125
 20
5.591626054806255
 10
4.326202929225957
 20
5.592064635694065
 10
4.327020334675203
 20
5.592575365282367
 10
4.327299094590144
 20
5.593123450129217
 10
4.327020402199315
 20
5.593671524510146
 10
4.326203021084762
 20
5.594182246627728
 10
4.324902802129895
 20
5.594620818651198
 10
4.323208283311124
 20
5.594957349698495
 10
4.32123484507482
 20
5.595168890275202
 10
4.31911733847848
 20
5.595241058171329
 10
4.316999714074368
 20
5.595168900606499
 10
4.315026435340654
 20
5.594957346806945
 10
4.313331923164022
 20
5.594620825378623
 10
4.312031564013393
 20
5.59418225878127
 10
4.311214364625944
 20
5.593671514902509
  0
LWPOLYLINE
  5
218
330
1F
100
AcDbEntity
  8
0
  6
Continuous
 62
     7
370
    15
100
AcDbPolyline
 90
       25
 70
   128
 43
0.0
 10
4.23243745704499
 20
5.653942516737008
 10
4.232158491068252
 20
5.653394446180616
 10
4.232437389520876
 20
5.652846357509229
 10
4.23325477063543
 20
5.652335635391647
 10
4.234554989590297
 20
5.651897063368177
 10
4.236249508409068
 20
5.651560532320879
 10
4.23822271297653
 20
5.651348979368274
 10
4.240340453241712
 20
5.651276823848046
 10
4.242458077645824
 20
5.651348981412876
 10
4.244431356379537
 20
5.65156053521243
 10
4.246125868556172
 20
5.651897056640753
 10
4.247426021645003
 20
5.652335637528564
 10
4.248243427094249
 20
5.652846367116866
 10
4.248522159402145
 20
5.653394425297358
 10
4.248243467011316
 20
5.653942499678286
 10
4.247426113503808
 20
5.654453248462226
 10
4.246125866941896
 20
5.654891793819339
 10
4.244431348123124
 20
5.655228324866636
 10
4.242457937493866
 20
5.655439892109701
 10
4.24034040329048
 20
5.655512033339469
 10
4.238222778886368
 20
5.655439875774639
 10
4.236249527759701
 20
5.655228348641443
 10
4.234554987976022
 20
5.654891800546763
 10
4.233254628825394
 20
5.65445323394941
 10
4.23243745704499
 20
5.653942516737008
  0
LWPOLYLINE
  5
219
330
1F
100
AcDbEntity
  8
0
  6
Continuous
 62
     7
370
    15
100
AcDbPolyline
 90
       25
 70
   128
 43
0.0
 10
4.346507874663359
 20
5.627762427748042
 10
4.346228908686622
 20
5.627214357191649
 10
4.346507807139247
 20
5.626666268520263
 10
4.3473251882538
 20
5.626155546402682
 10
4.348625407208666
 20
5.62571697437921
 10
4.350319926027438
 20
5.625380443331913
 10
4.3522931305949
 20
5.625168890379307
 10
4.354410870860082
 20
5.62509673485908
 10
4.356528495264194
 20
5.62516889242391
 10
4.358501773997907
 20
5.625380446223464
 10
4.360196286174541
 20
5.625716967651786
 10
4.361496439263373
 20
5.626155548539599
 10
4.362313844712619
 20
5.6266662781279
 10
4.36259260462756
 20
5.62721436297475
 10
4.362313884629686
 20
5.62776241068932
 10
4.361496531122178
 20
5.62827315947326
 10
4.360196312167311
 20
5.62871173149673
 10
4.358501765741494
 20
5.62904823587767
 10
4.356528355112236
 20
5.629259803120734
 10
4.35441082090885
 20
5.629331944350503
 10
4.352293224111784
 20
5.629259813452031
 10
4.35031994537807
 20
5.629048259652477
 10
4.348625405594392
 20
5.628711711557796
 10
4.347325074050809
 20
5.628273171626801
 10
4.346507874663359
 20
5.627762427748042
  0
LWPOLYLINE
  5
21A
330
1F
100
AcDbEntity
  8
0
  6
Continuous
 62
     7
370
    15
100
AcDbPolyline
 90
       45
 70
   128
 43
0.0
 10
3.972683794175868
 20
5.352244385424206
 10
3.971993458017315
 20
5.351317308239759
 10
3.971819865171452
 20
5.350374172718169
 10
3.972166650284779
 20
5.349434276142656
 10
3.973026618398033
 20
5.348516695082259
 10
3.974382513979284
 20
5.347640174897279
 10
3.976206564416628
 20
5.34682247545622
 10
3.978461510327163
 20
5.346080299683487
 10
3.98110181233863
 20
5.345428752573992
 10
3.984073375018941
 20
5.344881074529554
 10
3.987315964403652
 20
5.344448416540696
 10
3.990763193201378
 20
5.3441396125653
 10
3.994345350444854
 20
5.343960926129484
 10
3.997989346276834
 20
5.343915996994882
 10
4.001620827782148
 20
5.344005751586768
 10
4.005165882696157
 20
5.344228342003118
 10
4.008552702693694
 20
5.344579259312258
 10
4.011712050726741
 20
5.34505135830467
 10
4.014579391651057
 20
5.345634995542451
 10
4.017096982433278
 20
5.346318341697383
 10
4.01921304790373
 20
5.347087438712764
 10
4.020884710005288
 20
5.347926682600973
 10
4.02207783694567
 20
5.348818891066651
 10
4.022768228318315
 20
5.349746021583814
 10
4.022941821164177
 20
5.350689157105405
 10
4.022595036050851
 20
5.351629053680917
 10
4.021734806661709
 20
5.352546595699056
 10
4.020379172356346
 20
5.353423154926294
 10
4.018555121919002
 20
5.354240854367354
 10
4.016299969946671
 20
5.354983044430545
 10
4.013659873997
 20
5.355634577249582
 10
4.010688311316688
 20
5.35618225529402
 10
4.007445721931977
 20
5.356614913282878
 10
4.003998287072455
 20
5.356923731548732
 10
4.000416335890776
 20
5.357102403694089
 10
3.996772340058796
 20
5.357147332828692
 10
3.993140858553482
 20
5.357057578236805
 10
3.989595597577677
 20
5.356835002110914
 10
3.986208983641937
 20
5.356484070511316
 10
3.98304963560889
 20
5.356011971518904
 10
3.980182033408685
 20
5.355428295238864
 10
3.977664703902352
 20
5.35474498812619
 10
3.9755486384319
 20
5.35397589111081
 10
3.973876976330342
 20
5.3531366472226
 10
3.972683794175868
 20
5.352244385424206
  0
LWPOLYLINE
  5
21B
330
1F
100
AcDbEntity
  8
0
  6
Continuous
 62
     7
370
    15
100
AcDbPolyline
 90
       45
 70
   128
 43
0.0
 10
4.078564324288115
 20
5.454517123960802
 10
4.077873932915471
 20
5.45358999344364
 10
4.0777003952837
 20
5.452646911254766
 10
4.078047180397026
 20
5.451707014679253
 10
4.078907148510281
 20
5.450789433618855
 10
4.080263044091532
 20
5.449912913433876
 10
4.082087094528875
 20
5.449095213992817
 10
4.084342040439411
 20
5.448353038220085
 10
4.086982342450878
 20
5.447701491110588
 10
4.089953905131189
 20
5.447153813066152
 10
4.0931964945159
 20
5.446721155077292
 10
4.096643723313627
 20
5.446412351101897
 10
4.100225880557101
 20
5.446233664666082
 10
4.103869876389081
 20
5.446188735531479
 10
4.107501357894395
 20
5.446278490123367
 10
4.111046412808406
 20
5.446501080539715
 10
4.114433232805941
 20
5.446851997848855
 10
4.117592580838988
 20
5.447324096841267
 10
4.120459921763305
 20
5.447907734079048
 10
4.122977512545526
 20
5.448591080233979
 10
4.125093578015978
 20
5.44936017724936
 10
4.126765184903444
 20
5.450199367804853
 10
4.127958367057918
 20
5.451091629603249
 10
4.128648758430562
 20
5.452018760120411
 10
4.128822296062334
 20
5.452961842309285
 10
4.128475538556052
 20
5.453901765551156
 10
4.127615336773956
 20
5.454819334235653
 10
4.126259674861548
 20
5.455695866796533
 10
4.124435624424203
 20
5.456513566237592
 10
4.122180472451872
 20
5.457255756300783
 10
4.119540376502202
 20
5.457907289119821
 10
4.11656881382189
 20
5.458454967164258
 10
4.113326224437179
 20
5.458887625153117
 10
4.109878789577657
 20
5.459196443418971
 10
4.106296838395977
 20
5.459375115564327
 10
4.102652842563998
 20
5.459420044698931
 10
4.099021361058684
 20
5.459330290107043
 10
4.095476100082878
 20
5.459107713981152
 10
4.092089486147138
 20
5.458756782381555
 10
4.088930138114092
 20
5.458284683389143
 10
4.086062563520933
 20
5.457701033775461
 10
4.083545206407554
 20
5.45701769999643
 10
4.081429113330055
 20
5.45624857631469
 10
4.079757506442589
 20
5.455409385759197
 10
4.078564324288115
 20
5.454517123960802
  0
LINE
  5
21C
330
1F
100
AcDbEntity
  8
0
  6
Continuous
 62
     7
370
    15
100
AcDbLine
 10
3.894955063359402
 20
5.322618818454909
 30
0.0
 11
3.894955063359402
 21
5.310764289402515
 31
0.0
  0
LINE
  5
21D
330
1F
100
AcDbEntity
  8
0
  6
Continuous
 62
     7
370
    15
100
AcDbLine
 10
3.894955063359402
 20
5.310764289402515
 30
0.0
 11
4.032160485866657
 21
5.301249044764314
 31
0.0
  0
LINE
  5
21E
330
1F
100
AcDbEntity
  8
0
  6
Continuous
 62
     7
370
    15
100
AcDbLine
 10
4.609986017513422
 20
5.83665844475107
 30
0.0
 11
4.609986017513422
 21
5.848512973803464
 31
0.0
  0
LINE
  5
21F
330
1F
100
AcDbEntity
  8
0
  6
Continuous
 62
     7
370
    15
100
AcDbLine
 10
4.609986017513422
 20
5.83665844475107
 30
0.0
 11
4.059995567767868
 21
5.3054084651295
 31
0.0
  0
LINE
  5
220
330
1F
100
AcDbEntity
  8
0
  6
Continuous
 62
     7
370
    15
100
AcDbLine
 10
3.878884558422785
 20
5.317968577762796
 30
0.0
 11
3.878884558422785
 21
5.329823106815189
 31
0.0
  0
LINE
  5
221
330
1F
100
AcDbEntity
  8
0
  6
Continuous
 62
     7
370
    15
100
AcDbLine
 10
3.894955063359402
 20
5.310764289402515
 30
0.0
 11
3.878884558422785
 21
5.317968577762796
 31
0.0
  0
ARC
  5
222
330
1F
100
AcDbEntity
  8
0
  6
Continuous
 62
     7
370
    15
100
AcDbCircle
 10
3.997380911536938
 20
5.252579511011425
 30
0.0
 40
0.0927245584418881
100
AcDbArc
 50
82.95698438101698
 51
97.0431465207489
  0
ARC
  5
223
330
1F
100
AcDbEntity
  8
0
  6
Continuous
 62
     7
370
    15
100
AcDbCircle
 10
4.103261441654978
 20
5.35484717911665
 30
0.0
 40
0.09272959061507
100
AcDbArc
 50
82.95736852582248
 51
97.04276237594356
  0
ARC
  5
224
330
1F
100
AcDbEntity
  8
0
  6
Continuous
 62
     7
370
    15
100
AcDbCircle
 10
4.209141850038577
 20
5.457118642771774
 30
0.0
 40
0.0927308409527133
100
AcDbArc
 50
82.95740536919218
 51
97.04259114910634
  0
LWPOLYLINE
  5
225
330
1F
100
AcDbEntity
  8
0
  6
Continuous
 62
     7
370
    15
100
AcDbPolyline
 90
       32
 70
   128
 43
0.0
 10
4.451431835032467
 20
5.844954120344383
 10
4.450357536151032
 20
5.843656803642179
 10
4.449795915409202
 20
5.842338008631078
 10
4.44975260089361
 20
5.841011278198327
 10
4.450227999137326
 20
5.839690231538593
 10
4.451217562306464
 20
5.83838839557466
 10
4.452710846623051
 20
5.83711914878724
 10
4.454692624504097
 20
5.835895515473612
 10
4.457142334402771
 20
5.834730060996738
 10
4.460035234358042
 20
5.833634726043442
 10
4.463341446614025
 20
5.83262075712104
 10
4.467026912009584
 20
5.831698561772561
 10
4.471053946047868
 20
5.830877605706062
 10
4.475381341431685
 20
5.830166298505327
 10
4.479964546518247
 20
5.82957195267305
 10
4.484756434352269
 20
5.829100673136284
 10
4.489708099306102
 20
5.828757273418247
 10
4.494768644116173
 20
5.828545283262191
 10
4.499885798068381
 20
5.828466905760029
 10
4.505007572394217
 20
5.82852290969525
 10
4.510081051507037
 20
5.828712741952037
 10
4.515054508834115
 20
5.829034437943395
 10
4.519876610176504
 20
5.829484705439343
 10
4.52449775360623
 20
5.830058938823009
 10
4.528870955829335
 20
5.830751221928101
 10
4.532951103858061
 20
5.831554458533232
 10
4.536696322515104
 20
5.832460413284366
 10
4.540068057254741
 20
5.833459791693898
 10
4.543032036445249
 20
5.834542316310613
 10
4.545557571353429
 20
5.835696903880132
 10
4.54761890984532
 20
5.836911692934184
 10
4.549194763137809
 20
5.83817422666037
  0
ARC
  5
226
330
1F
100
AcDbEntity
  8
0
  6
Continuous
 62
     7
370
    15
100
AcDbCircle
 10
4.565588041907227
 20
5.856291752390326
 30
0.0
 40
0.0244332627249706
100
AcDbArc
 50
227.8602634636036
 51
265.6734723503967
  0
ARC
  5
227
330
1F
100
AcDbEntity
  8
0
  6
Continuous
 62
     7
370
    15
100
AcDbCircle
 10
4.438530944464972
 20
5.862200667713278
 30
0.0
 40
0.0215377894311844
100
AcDbArc
 50
265.6080559748914
 51
306.7974965071873
  0
ARC
  5
228
330
1F
100
AcDbEntity
  8
0
  6
Continuous
 62
     7
370
    15
100
AcDbCircle
 10
4.496187132686283
 20
5.782066764279989
 30
0.0
 40
0.0771871506201104
100
AcDbArc
 50
46.62726828375635
 51
125.4384701145685
  0
LINE
  5
229
330
1F
100
AcDbEntity
  8
0
  6
Continuous
 62
     7
370
    15
100
AcDbLine
 10
4.470549151819107
 20
5.863420030357947
 30
0.0
 11
4.451431835032467
 21
5.844954120344383
 31
0.0
  0
ARC
  5
22A
330
1F
100
AcDbEntity
  8
0
  6
Continuous
 62
     7
370
    15
100
AcDbCircle
 10
4.515304449472924
 20
5.800532674293561
 30
0.0
 40
0.0771871506201037
100
AcDbArc
 50
46.62726828375231
 51
125.4384701145729
  0
LINE
  5
22B
330
1F
100
AcDbEntity
  8
0
  6
Continuous
 62
     7
370
    15
100
AcDbLine
 10
4.549194763137809
 20
5.83817422666037
 30
0.0
 11
4.568312079924449
 21
5.856640136673934
 31
0.0
  0
ARC
  5
22C
330
1F
100
AcDbEntity
  8
0
  6
Continuous
 62
     7
370
    15
100
AcDbCircle
 10
4.584705358693872
 20
5.874757662403904
 30
0.0
 40
0.0244332627249846
100
AcDbArc
 50
227.8602634636167
 51
265.6734723503865
  0
ARC
  5
22D
330
1F
100
AcDbEntity
  8
0
  6
Continuous
 62
     7
370
    15
100
AcDbCircle
 10
4.457648261251611
 20
5.88066657772685
 30
0.0
 40
0.0215377894311906
100
AcDbArc
 50
265.6080559748951
 51
306.7974965071778
  0
LWPOLYLINE
  5
22E
330
1F
100
AcDbEntity
  8
0
  6
Continuous
 62
     7
370
    15
100
AcDbPolyline
 90
       11
 70
   128
 43
0.0
 10
4.616103559437288
 20
5.831591088263833
 10
4.616028243965214
 20
5.835089905180487
 10
4.615804147221066
 20
5.838357073552607
 10
4.615436787163143
 20
5.841312098580655
 10
4.614935215451616
 20
5.843882277572164
 10
4.614311772435999
 20
5.84600431783395
 10
4.61358181798645
 20
5.847625931231299
 10
4.612763324289844
 20
5.848707243899875
 10
4.611876444489683
 20
5.849221564439202
 10
4.610943012308387
 20
5.849156291502031
 10
4.609986017513422
 20
5.848512973803464
  0
LINE
  5
22F
330
1F
100
AcDbEntity
  8
0
  6
Continuous
 62
     7
370
    15
100
AcDbLine
 10
4.616103559437288
 20
5.831591088263833
 30
0.0
 11
4.612927144500167
 21
5.828522907041057
 31
0.0
  0
LWPOLYLINE
  5
230
330
1F
100
AcDbEntity
  8
0
  6
Continuous
 62
     7
370
    15
100
AcDbPolyline
 90
        9
 70
   128
 43
0.0
 10
4.612927144500167
 20
5.828522907041057
 10
4.612870632877227
 20
5.830609715187254
 10
4.612703265161506
 20
5.832507174398449
 10
4.61243147724558
 20
5.834142322024444
 10
4.612065708043676
 20
5.835452346921817
 10
4.611620019894796
 20
5.836386901594829
 10
4.611111539520035
 20
5.836910086458666
 10
4.610559805806122
 20
5.837001777433778
 10
4.609986017513422
 20
5.83665844475107
  0
LINE
  5
231
330
1F
100
AcDbEntity
  8
0
  6
Continuous
 62
     7
370
    15
100
AcDbLine
 10
4.612927144500167
 20
5.784055235139649
 30
0.0
 11
4.612927144500167
 21
5.828522907041057
 31
0.0
  0
LINE
  5
232
330
1F
100
AcDbEntity
  8
0
  6
Continuous
 62
     7
370
    15
100
AcDbLine
 10
4.616103559437288
 20
5.783834927678197
 30
0.0
 11
4.616103559437288
 21
5.831591088263833
 31
0.0
  0
LWPOLYLINE
  5
233
330
1F
100
AcDbEntity
  8
0
  6
Continuous
 62
     7
370
    15
100
AcDbPolyline
 90
        3
 70
   128
 43
0.0
 10
4.430510273572061
 20
5.861821841877709
 10
4.429832002963303
 20
5.861716404135326
 10
4.428875008168338
 20
5.86107308643676
  0
LINE
  5
234
330
1F
100
AcDbEntity
  8
0
  6
Continuous
 62
     7
370
    15
100
AcDbLine
 10
6.978869511858736
 20
5.096893730320172
 30
0.0
 11
6.978869511858736
 21
5.108748259372565
 31
0.0
  0
LINE
  5
235
330
1F
100
AcDbEntity
  8
0
  6
Continuous
 62
     7
370
    15
100
AcDbLine
 10
6.978869511858736
 20
5.108748259372565
 30
0.0
 11
7.006704799821743
 21
5.112907665447293
 31
0.0
  0
LINE
  5
236
330
1F
100
AcDbEntity
  8
0
  6
Continuous
 62
     7
370
    15
100
AcDbLine
 10
7.006704799821743
 20
5.112907665447293
 30
0.0
 11
7.006704799821743
 21
5.1010531363949
 31
0.0
  0
LINE
  5
237
330
1F
100
AcDbEntity
  8
0
  6
Continuous
 62
     7
370
    15
100
AcDbLine
 10
7.006704799821743
 20
5.1010531363949
 30
0.0
 11
6.978869511858736
 21
5.096893730320172
 31
0.0
  0
LWPOLYLINE
  5
238
330
1F
100
AcDbEntity
  8
0
  6
Continuous
 62
     7
370
    15
100
AcDbPolyline
 90
       45
 70
   128
 43
0.0
 10
7.131153674330645
 20
5.352434562343717
 10
7.130463282958002
 20
5.351507431826553
 10
7.13028992378098
 20
5.350564308680862
 10
7.130636708894306
 20
5.34962441210535
 10
7.13149649855281
 20
5.348706872001769
 10
7.132852366527016
 20
5.347830325150431
 10
7.134676416964359
 20
5.347012625709372
 10
7.136931596543737
 20
5.34627046231254
 10
7.139571664886362
 20
5.345618902827144
 10
7.142543227566673
 20
5.345071224782707
 10
7.145785816951385
 20
5.344638566793848
 10
7.149233073356157
 20
5.34432978948481
 10
7.152815409054381
 20
5.344151062092178
 10
7.156459404886361
 20
5.344106132957576
 10
7.160090886391675
 20
5.344195887549462
 10
7.163635968912731
 20
5.344418504632171
 10
7.167022761303222
 20
5.344769395274952
 10
7.170182109336268
 20
5.345241494267364
 10
7.173049683929425
 20
5.345825143881045
 10
7.175566834981009
 20
5.346508491950535
 10
7.177682900451461
 20
5.347277588965916
 10
7.17935474100777
 20
5.348116791897308
 10
7.180547923162243
 20
5.349009053695704
 10
7.181238314534889
 20
5.349936184212867
 10
7.181411673711908
 20
5.350879307358558
 10
7.181064888598583
 20
5.35181920393407
 10
7.180205098940079
 20
5.35273674403765
 10
7.178849230965873
 20
5.353613290888987
 10
7.177025180528531
 20
5.354430990330048
 10
7.174770000949153
 20
5.35517315372688
 10
7.172129932606527
 20
5.355824713212276
 10
7.169158369926217
 20
5.356372391256713
 10
7.165915780541506
 20
5.356805049245572
 10
7.162468112013141
 20
5.357113855135526
 10
7.158886188438509
 20
5.357292553947242
 10
7.155242192606529
 20
5.357337483081844
 10
7.151610711101214
 20
5.357247728489957
 10
7.148065628580159
 20
5.357025111407249
 10
7.144678836189668
 20
5.356674220764468
 10
7.141519488156622
 20
5.356202121772057
 10
7.138651913563462
 20
5.355618472158375
 10
7.136134762511879
 20
5.354935124088886
 10
7.134018697041427
 20
5.354166027073504
 10
7.13234685648512
 20
5.353326824142111
 10
7.131153674330645
 20
5.352434562343717
  0
LINE
  5
239
330
1F
100
AcDbEntity
  8
0
  6
Continuous
 62
     7
370
    15
100
AcDbLine
 10
6.825593378353066
 20
5.125467806661506
 30
0.0
 11
6.84166408935148
 21
5.118263504010767
 31
0.0
  0
LINE
  5
23A
330
1F
100
AcDbEntity
  8
0
  6
Continuous
 62
     7
370
    15
100
AcDbLine
 10
7.37558382809862
 20
5.656717786283076
 30
0.0
 11
6.825593378353066
 21
5.125467806661506
 31
0.0
  0
LINE
  5
23B
330
1F
100
AcDbEntity
  8
0
  6
Continuous
 62
     7
370
    15
100
AcDbLine
 10
7.37558382809862
 20
5.656717786283076
 30
0.0
 11
7.402707742283928
 21
5.654836733229177
 31
0.0
  0
LINE
  5
23C
330
1F
100
AcDbEntity
  8
0
  6
Continuous
 62
     7
370
    15
100
AcDbLine
 10
7.383590425497287
 20
5.636370823215612
 30
0.0
 11
7.402707742283928
 21
5.654836733229177
 31
0.0
  0
LWPOLYLINE
  5
23D
330
1F
100
AcDbEntity
  8
0
  6
Continuous
 62
     7
370
    15
100
AcDbPolyline
 90
       36
 70
   128
 43
0.0
 10
7.510454018595348
 20
5.627572788109197
 10
7.508674951926876
 20
5.626118871944887
 10
7.506399596078191
 20
5.624712077828588
 10
7.503646286905121
 20
5.623363716910924
 10
7.500436903733546
 20
5.622084683116116
 10
7.496797541767824
 20
5.620885249315174
 10
7.492757618825995
 20
5.619775057821828
 10
7.488349387296818
 20
5.618763075640975
 10
7.48360822893341
 20
5.617857452555719
 10
7.478572599639156
 20
5.617065467794668
 10
7.473282689570517
 20
5.616393515775834
 10
7.467781611195468
 20
5.615846973697751
 10
7.462113667977998
 20
5.615430235864077
 10
7.45632390774571
 20
5.615146708931556
 10
7.450459269337697
 20
5.614998639501601
 10
7.444566941011935
 20
5.614987235110555
 10
7.438694277624146
 20
5.615112584230613
 10
7.432888807529564
 20
5.61537366293641
 10
7.427196968605104
 20
5.615768393981421
 10
7.421664918693035
 20
5.616293576302939
 10
7.416336887106604
 20
5.616944999345745
 10
7.411256012680744
 20
5.617717399233457
 10
7.406463135008349
 20
5.61860457117764
 10
7.40199678753851
 20
5.619599362811206
 10
7.397893280397648
 20
5.620693754187507
 10
7.394185044993393
 20
5.621878965437394
 10
7.390901960108257
 20
5.623145457692152
 10
7.388070974284844
 20
5.624482994997348
 10
7.385714540152632
 20
5.62588083863558
 10
7.383851899111062
 20
5.627327708049864
 10
7.382497948485204
 20
5.628811966585211
 10
7.38166329673983
 20
5.630321674821361
 10
7.38135479293297
 20
5.631844675323882
 10
7.381575190511679
 20
5.633368694557571
 10
7.382322392082477
 20
5.634881466714193
 10
7.383590425497287
 20
5.636370823215612
  0
LINE
  5
23E
330
1F
100
AcDbEntity
  8
0
  6
Continuous
 62
     7
370
    15
100
AcDbLine
 10
7.529571335381989
 20
5.646038698122763
 30
0.0
 11
7.510454018595348
 21
5.627572788109197
 31
0.0
  0
LINE
  5
23F
330
1F
100
AcDbEntity
  8
0
  6
Continuous
 62
     7
370
    15
100
AcDbLine
 10
7.529571335381989
 20
5.646038698122763
 30
0.0
 11
7.556695249567296
 21
5.644157645068863
 31
0.0
  0
LINE
  5
240
330
1F
100
AcDbEntity
  8
0
  6
Continuous
 62
     7
370
    15
100
AcDbLine
 10
7.556695249567296
 20
5.644157645068863
 30
0.0
 11
7.006704799821743
 21
5.112907665447293
 31
0.0
  0
LINE
  5
241
330
1F
100
AcDbEntity
  8
0
  6
Continuous
 62
     7
370
    15
100
AcDbLine
 10
6.978869511858736
 20
5.108748259372565
 30
0.0
 11
6.84166408935148
 21
5.118263504010767
 31
0.0
  0
LWPOLYLINE
  5
242
330
1F
100
AcDbEntity
  8
0
  6
Continuous
 62
     7
370
    15
100
AcDbPolyline
 90
       25
 70
   128
 43
0.0
 10
6.861504686638529
 20
5.142769000973532
 10
6.861226160392429
 20
5.142220928502582
 10
6.861504646721462
 20
5.141672868412111
 10
6.862322233897812
 20
5.141162132004073
 10
6.863622246790882
 20
5.14072357427106
 10
6.865316793216699
 20
5.140387069890121
 10
6.867289997784162
 20
5.140175516937515
 10
6.869407944111139
 20
5.14010334712683
 10
6.871525540908206
 20
5.140175478025302
 10
6.873498613580123
 20
5.140387046115312
 10
6.875193331818552
 20
5.140723553253177
 10
6.876493278845589
 20
5.141162148431448
 10
6.877310862749583
 20
5.141672837062932
 10
6.877589444209776
 20
5.1422209628666
 10
6.877310957880744
 20
5.14276902295707
 10
6.876493370704394
 20
5.14327975936511
 10
6.875193357811323
 20
5.143718317098122
 10
6.873498811385506
 20
5.14405482147906
 10
6.871525194694451
 20
5.144266403012583
 10
6.869407660491065
 20
5.144338544242352
 10
6.867290063693999
 20
5.14426641334388
 10
6.865316991022083
 20
5.144054845253869
 10
6.863622272783652
 20
5.143718338116005
 10
6.862322325756616
 20
5.143279742937734
 10
6.861504686638529
 20
5.142769000973532
  0
LWPOLYLINE
  5
243
330
1F
100
AcDbEntity
  8
0
  6
Continuous
 62
     7
370
    15
100
AcDbPolyline
 90
       25
 70
   128
 43
0.0
 10
6.975575104256899
 20
5.116588911984566
 10
6.975296578010799
 20
5.116040839513615
 10
6.975575064339831
 20
5.115492779423145
 10
6.976392651516182
 20
5.114982043015106
 10
6.977692664409252
 20
5.114543485282093
 10
6.979387210835068
 20
5.114206980901155
 10
6.981360415402532
 20
5.113995427948548
 10
6.983478361729509
 20
5.113923258137863
 10
6.985595958526575
 20
5.113995389036335
 10
6.987569031198493
 20
5.114206957126346
 10
6.989263749436922
 20
5.114543464264211
 10
6.990563696463959
 20
5.114982059442482
 10
6.991381280367955
 20
5.115492748073966
 10
6.991659861828146
 20
5.116040873877634
 10
6.991381375499113
 20
5.116588933968103
 10
6.990563788322763
 20
5.117099670376143
 10
6.989263775429693
 20
5.117538228109156
 10
6.987569229003875
 20
5.117874732490093
 10
6.98559561231282
 20
5.118086314023616
 10
6.983478078109435
 20
5.118158455253386
 10
6.981360481312369
 20
5.118086324354914
 10
6.979387408640453
 20
5.117874756264902
 10
6.977692690402022
 20
5.117538249127038
 10
6.976392743374986
 20
5.117099653948767
 10
6.975575104256899
 20
5.116588911984566
  0
LWPOLYLINE
  5
244
330
1F
100
AcDbEntity
  8
0
  6
Continuous
 62
     7
370
    15
100
AcDbPolyline
 90
       25
 70
   128
 43
0.0
 10
6.896798196675944
 20
5.176859913819066
 10
6.896519670429844
 20
5.176311841348114
 10
6.896798156758878
 20
5.175763781257644
 10
6.897615743935227
 20
5.175253044849605
 10
6.898915756828298
 20
5.174814487116591
 10
6.900610248040023
 20
5.174477929402936
 10
6.902583507821579
 20
5.174266429783047
 10
6.904701398934463
 20
5.174194206639644
 10
6.906819050945621
 20
5.174266390870834
 10
6.908792123617539
 20
5.174477958960845
 10
6.910486841855968
 20
5.17481446609871
 10
6.911786788883004
 20
5.175253061276981
 10
6.912604372787
 20
5.175763749908464
 10
6.912882954247191
 20
5.176311875712133
 10
6.912604467918159
 20
5.176859935802602
 10
6.91178688074181
 20
5.177370672210642
 10
6.910486867848738
 20
5.177809229943655
 10
6.908792321422922
 20
5.178145734324592
 10
6.906818704731868
 20
5.178357315858115
 10
6.904701170528482
 20
5.178429457087885
 10
6.902583573731416
 20
5.178357326189413
 10
6.900610501059499
 20
5.178145758099401
 10
6.898915782821068
 20
5.177809250961537
 10
6.897615835794032
 20
5.177370655783266
 10
6.896798196675944
 20
5.176859913819066
  0
LWPOLYLINE
  5
245
330
1F
100
AcDbEntity
  8
0
  6
Continuous
 62
     7
370
    15
100
AcDbPolyline
 90
       25
 70
   128
 43
0.0
 10
7.010868614294314
 20
5.150679824830099
 10
7.010590088048214
 20
5.150131752359149
 10
7.010868574377247
 20
5.149583692268677
 10
7.011686161553597
 20
5.149072955860638
 10
7.012986174446667
 20
5.148634398127627
 10
7.014680720872485
 20
5.148297893746687
 10
7.016653925439948
 20
5.148086340794082
 10
7.018771871766925
 20
5.148014170983396
 10
7.020889468563991
 20
5.148086301881868
 10
7.022862541235908
 20
5.148297869971878
 10
7.024557259474337
 20
5.148634377109743
 10
7.025857206501374
 20
5.149072972288013
 10
7.026674790405369
 20
5.149583660919498
 10
7.026953371865561
 20
5.150131786723166
 10
7.026674885536529
 20
5.150679846813636
 10
7.025857298360179
 20
5.151190583221675
 10
7.024557285467108
 20
5.151629140954688
 10
7.022862739041292
 20
5.151965645335626
 10
7.020889122350238
 20
5.15217722686915
 10
7.018771588146851
 20
5.152249368098918
 10
7.016653991349785
 20
5.152177237200447
 10
7.014680918677868
 20
5.151965669110435
 10
7.012986200439438
 20
5.151629161972571
 10
7.011686253412402
 20
5.1511905667943
 10
7.010868614294314
 20
5.150679824830099
  0
LWPOLYLINE
  5
246
330
1F
100
AcDbEntity
  8
0
  6
Continuous
 62
     7
370
    15
100
AcDbPolyline
 90
       25
 70
   128
 43
0.0
 10
6.93209170671336
 20
5.210950826664598
 10
6.93181318046726
 20
5.210402754193648
 10
6.932091666796294
 20
5.209854694103176
 10
6.932909253972645
 20
5.209343957695137
 10
6.934209266865714
 20
5.208905399962126
 10
6.935903758077439
 20
5.208568842248468
 10
6.937877017858993
 20
5.20835734262858
 10
6.939994908971878
 20
5.208285119485178
 10
6.942112560983036
 20
5.208357303716366
 10
6.944085633654954
 20
5.208568871806377
 10
6.945780351893384
 20
5.208905378944242
 10
6.947080298920419
 20
5.209343974122512
 10
6.947897882824416
 20
5.209854662753997
 10
6.948176464284608
 20
5.210402788557665
 10
6.947897977955574
 20
5.210950848648135
 10
6.947080390779225
 20
5.211461585056174
 10
6.945780377886154
 20
5.211900142789187
 10
6.944085831460337
 20
5.212236647170125
 10
6.942112214769283
 20
5.212448228703649
 10
6.939994680565898
 20
5.212520369933417
 10
6.937877083768831
 20
5.212448239034946
 10
6.935904011096914
 20
5.212236670944934
 10
6.934209292858484
 20
5.211900163807069
 10
6.932909345831448
 20
5.211461568628799
 10
6.93209170671336
 20
5.210950826664598
  0
LWPOLYLINE
  5
247
330
1F
100
AcDbEntity
  8
0
  6
Continuous
 62
     7
370
    15
100
AcDbPolyline
 90
       25
 70
   128
 43
0.0
 10
7.046162124331731
 20
5.184770737675632
 10
7.04588359808563
 20
5.18422266520468
 10
7.046162084414664
 20
5.18367460511421
 10
7.046979671591013
 20
5.183163868706171
 10
7.048279684484083
 20
5.182725310973158
 10
7.049974175695809
 20
5.182388753259503
 10
7.051947435477364
 20
5.182177253639614
 10
7.054065326590249
 20
5.182105030496211
 10
7.056182978601406
 20
5.182177214727399
 10
7.058156051273325
 20
5.182388782817412
 10
7.059850769511753
 20
5.182725289955276
 10
7.06115071653879
 20
5.183163885133546
 10
7.061968300442786
 20
5.18367457376503
 10
7.062246881902978
 20
5.184222699568699
 10
7.061968395573944
 20
5.184770759659168
 10
7.061150808397596
 20
5.185281496067209
 10
7.059850795504523
 20
5.185720053800221
 10
7.058156249078707
 20
5.186056558181159
 10
7.056182632387653
 20
5.186268139714682
 10
7.054065098184267
 20
5.186340280944451
 10
7.051947501387201
 20
5.18626815004598
 10
7.049974428715285
 20
5.186056581955967
 10
7.048279710476853
 20
5.185720074818102
 10
7.046979763449819
 20
5.185281479639833
 10
7.046162124331731
 20
5.184770737675632
  0
LWPOLYLINE
  5
248
330
1F
100
AcDbEntity
  8
0
  6
Continuous
 62
     7
370
    15
100
AcDbPolyline
 90
       25
 70
   128
 43
0.0
 10
6.967385216750777
 20
5.24504173951013
 10
6.967106690504676
 20
5.244493667039179
 10
6.967385176833709
 20
5.243945606948709
 10
6.968202764010058
 20
5.243434870540669
 10
6.969502776903129
 20
5.242996312807657
 10
6.971197268114856
 20
5.242659755094002
 10
6.973170527896409
 20
5.242448255474113
 10
6.975288419009295
 20
5.242376032330709
 10
6.977406071020453
 20
5.242448216561898
 10
6.979379143692371
 20
5.242659784651911
 10
6.981073861930799
 20
5.242996291789774
 10
6.982373808957835
 20
5.243434886968045
 10
6.983191392861831
 20
5.243945575599529
 10
6.983469974322024
 20
5.244493701403198
 10
6.98319148799299
 20
5.245041761493667
 10
6.982373900816641
 20
5.245552497901706
 10
6.981073887923571
 20
5.24599105563472
 10
6.979379341497752
 20
5.246327560015658
 10
6.977405724806699
 20
5.246539141549181
 10
6.975288190603313
 20
5.246611282778951
 10
6.973170593806248
 20
5.246539151880479
 10
6.971197521134329
 20
5.246327583790466
 10
6.969502802895901
 20
5.245991076652601
 10
6.968202855868864
 20
5.245552481474332
 10
6.967385216750777
 20
5.24504173951013
  0
LWPOLYLINE
  5
249
330
1F
100
AcDbEntity
  8
0
  6
Continuous
 62
     7
370
    15
100
AcDbPolyline
 90
       25
 70
   128
 43
0.0
 10
7.081455634369146
 20
5.218861650521164
 10
7.081177108123046
 20
5.218313578050213
 10
7.081455594452079
 20
5.217765517959742
 10
7.08227318162843
 20
5.217254781551702
 10
7.0835731945215
 20
5.216816223818691
 10
7.085267685733225
 20
5.216479666105035
 10
7.08724094551478
 20
5.216268166485146
 10
7.089358836627665
 20
5.216195943341743
 10
7.091476488638821
 20
5.216268127572932
 10
7.093449561310741
 20
5.216479695662944
 10
7.09514427954917
 20
5.216816202800807
 10
7.096444226576207
 20
5.217254797979078
 10
7.097261810480201
 20
5.217765486610562
 10
7.097540391940394
 20
5.21831361241423
 10
7.097261905611359
 20
5.218861672504701
 10
7.096444318435011
 20
5.21937240891274
 10
7.09514430554194
 20
5.219810966645752
 10
7.093449759116122
 20
5.220147471026692
 10
7.09147614242507
 20
5.220359052560215
 10
7.089358608221683
 20
5.220431193789984
 10
7.087241011424617
 20
5.220359062891512
 10
7.0852679387527
 20
5.2201474948015
 10
7.08357322051427
 20
5.219810987663635
 10
7.082273273487234
 20
5.219372392485365
 10
7.081455634369146
 20
5.218861650521164
  0
LWPOLYLINE
  5
24A
330
1F
100
AcDbEntity
  8
0
  6
Continuous
 62
     7
370
    15
100
AcDbPolyline
 90
       25
 70
   128
 43
0.0
 10
7.116749144406562
 20
5.252952563366696
 10
7.116470618160462
 20
5.252404490895745
 10
7.116749104489494
 20
5.251856430805275
 10
7.117566664058799
 20
5.251345667730877
 10
7.118866704558915
 20
5.250907136664223
 10
7.120561223377687
 20
5.250570605616926
 10
7.12253442794515
 20
5.25035905266432
 10
7.124652374272127
 20
5.250286882853634
 10
7.126769998676238
 20
5.250359040418464
 10
7.12874304374111
 20
5.250570581842119
 10
7.130437789586586
 20
5.250907115646341
 10
7.131737736613622
 20
5.251345710824611
 10
7.132555320517618
 20
5.251856399456095
 10
7.132833874370763
 20
5.252404498593405
 10
7.132555388041731
 20
5.252952558683874
 10
7.131737800865381
 20
5.253463295091914
 10
7.13043778797231
 20
5.253901852824927
 10
7.128743269153538
 20
5.254238383872224
 10
7.126769652462484
 20
5.254449965405747
 10
7.124652118259098
 20
5.254522106635516
 10
7.122534493854987
 20
5.254449949070686
 10
7.12056142118307
 20
5.254238380980673
 10
7.118866702944639
 20
5.253901873842809
 10
7.117566755917603
 20
5.253463278664539
 10
7.116749144406562
 20
5.252952563366696
  0
LWPOLYLINE
  5
24B
330
1F
100
AcDbEntity
  8
0
  6
Continuous
 62
     7
370
    15
100
AcDbPolyline
 90
       25
 70
   128
 43
0.0
 10
7.037972236825607
 20
5.313223565201194
 10
7.037693682972462
 20
5.312675466063886
 10
7.037972169301496
 20
5.312127405973416
 10
7.038789756477844
 20
5.311616669565376
 10
7.040089769370915
 20
5.311178111832364
 10
7.041784288189687
 20
5.310841580785067
 10
7.043757520364195
 20
5.310630054498819
 10
7.045875439084126
 20
5.310557858021774
 10
7.047993063488238
 20
5.310630015586605
 10
7.049966136160156
 20
5.310841583676617
 10
7.051660854398586
 20
5.311178090814482
 10
7.052960801425621
 20
5.311616685992751
 10
7.053778412936664
 20
5.312127401290594
 10
7.05405696678981
 20
5.312675500427904
 10
7.053778480460776
 20
5.313223560518373
 10
7.052960893284428
 20
5.313734296926414
 10
7.051660880391357
 20
5.314172854659426
 10
7.049966361572584
 20
5.314509385706723
 10
7.047992744881532
 20
5.314720967240246
 10
7.045875210678146
 20
5.314793108470015
 10
7.043757586274033
 20
5.314720950905185
 10
7.041784513602116
 20
5.314509382815172
 10
7.040089795363685
 20
5.314172875677308
 10
7.038789848336651
 20
5.313734280499038
 10
7.037972236825607
 20
5.313223565201194
  0
LWPOLYLINE
  5
24C
330
1F
100
AcDbEntity
  8
0
  6
Continuous
 62
     7
370
    15
100
AcDbPolyline
 90
       25
 70
   128
 43
0.0
 10
7.073265746863024
 20
5.347314478046727
 10
7.072987193009878
 20
5.346766378909418
 10
7.073265679338911
 20
5.346218318818948
 10
7.074083266515261
 20
5.345707582410908
 10
7.075383279408332
 20
5.345269024677896
 10
7.077077798227102
 20
5.344932493630599
 10
7.079051030401612
 20
5.344720967344351
 10
7.081168949121542
 20
5.344648770867307
 10
7.083286573525653
 20
5.344720928432137
 10
7.085259646197573
 20
5.344932496522149
 10
7.086954364436001
 20
5.345269003660014
 10
7.088254311463037
 20
5.345707598838283
 10
7.089071922974079
 20
5.346218314136127
 10
7.089350476827226
 20
5.346766413273436
 10
7.089071990498191
 20
5.347314473363906
 10
7.088254403321843
 20
5.347825209771945
 10
7.086954390428772
 20
5.348263767504958
 10
7.085259871610001
 20
5.348600298552256
 10
7.083286227311901
 20
5.34881185341942
 10
7.081168720715561
 20
5.348884021315547
 10
7.079051096311448
 20
5.348811863750717
 10
7.077078023639532
 20
5.348600295660705
 10
7.075383305401102
 20
5.34826378852284
 10
7.074083358374066
 20
5.34782519334457
 10
7.073265746863024
 20
5.347314478046727
  0
LWPOLYLINE
  5
24D
330
1F
100
AcDbEntity
  8
0
  6
Continuous
 62
     7
370
    15
100
AcDbPolyline
 90
       25
 70
   128
 43
0.0
 10
7.187336164481393
 20
5.32113438905776
 10
7.187057610628249
 20
5.320586289920451
 10
7.187336096957281
 20
5.320038229829981
 10
7.188153684133632
 20
5.319527493421942
 10
7.189453697026702
 20
5.319088935688929
 10
7.191148215845473
 20
5.318752404641632
 10
7.193121448019982
 20
5.318540878355385
 10
7.195239366739913
 20
5.31846868187834
 10
7.197356991144024
 20
5.31854083944317
 10
7.199330063815943
 20
5.318752407533183
 10
7.201024782054372
 20
5.319088914671048
 10
7.202324729081409
 20
5.319527509849317
 10
7.203142340592449
 20
5.32003822514716
 10
7.203420894445595
 20
5.320586324284469
 10
7.203142408116561
 20
5.32113438437494
 10
7.202324820940213
 20
5.321645120782979
 10
7.201024808047142
 20
5.322083678515991
 10
7.19933028922837
 20
5.322420209563288
 10
7.197356672537317
 20
5.322631791096811
 10
7.195239138333931
 20
5.322703932326581
 10
7.193121513929819
 20
5.322631774761751
 10
7.191148441257902
 20
5.322420206671738
 10
7.189453723019472
 20
5.322083699533875
 10
7.188153775992436
 20
5.321645104355604
 10
7.187336164481393
 20
5.32113438905776
  0
LWPOLYLINE
  5
24E
330
1F
100
AcDbEntity
  8
0
  6
Continuous
 62
     7
370
    15
100
AcDbPolyline
 90
       25
 70
   128
 43
0.0
 10
7.10855925690044
 20
5.381405390892259
 10
7.108280703047294
 20
5.38085729175495
 10
7.108559189376326
 20
5.38030923166448
 10
7.109376776552677
 20
5.379798495256442
 10
7.110676789445747
 20
5.379359937523428
 10
7.112371308264519
 20
5.379023406476131
 10
7.114344512831981
 20
5.378811853523525
 10
7.116462459158959
 20
5.378739683712839
 10
7.11858008356307
 20
5.378811841277669
 10
7.120553156234988
 20
5.379023409367682
 10
7.122247874473417
 20
5.379359916505547
 10
7.123547821500454
 20
5.379798511683816
 10
7.124365433011495
 20
5.380309226981659
 10
7.124643986864641
 20
5.380857326118968
 10
7.124365500535607
 20
5.381405386209439
 10
7.123547913359259
 20
5.381916122617478
 10
7.122247900466188
 20
5.38235468035049
 10
7.120553381647416
 20
5.382691211397787
 10
7.118579737349317
 20
5.382902766264952
 10
7.116462230752977
 20
5.382974934161079
 10
7.114344606348866
 20
5.38290277659625
 10
7.112371533676948
 20
5.382691208506237
 10
7.110676815438518
 20
5.382354701368373
 10
7.109376868411481
 20
5.381916106190103
 10
7.10855925690044
 20
5.381405390892259
  0
LWPOLYLINE
  5
24F
330
1F
100
AcDbEntity
  8
0
  6
Continuous
 62
     7
370
    15
100
AcDbPolyline
 90
       25
 70
   128
 43
0.0
 10
7.222629674518809
 20
5.355225301903294
 10
7.222351120665664
 20
5.354677202765984
 10
7.222629606994696
 20
5.354129142675514
 10
7.223447194171047
 20
5.353618406267475
 10
7.224747207064117
 20
5.353179848534462
 10
7.226441725882889
 20
5.352843317487164
 10
7.228414958057397
 20
5.352631791200917
 10
7.230532876777329
 20
5.352559594723873
 10
7.23265050118144
 20
5.352631752288703
 10
7.234623573853358
 20
5.352843320378715
 10
7.236318292091787
 20
5.353179827516579
 10
7.237618239118824
 20
5.35361842269485
 10
7.238435850629865
 20
5.354129137992693
 10
7.238714404483011
 20
5.354677237130001
 10
7.238435918153978
 20
5.355225297220473
 10
7.237618330977628
 20
5.355736033628511
 10
7.236318318084558
 20
5.356174591361523
 10
7.234623799265786
 20
5.356511122408821
 10
7.232650154967686
 20
5.356722677275985
 10
7.230532648371347
 20
5.356794845172113
 10
7.228415023967235
 20
5.356722687607282
 10
7.226441951295317
 20
5.356511119517271
 10
7.224747233056888
 20
5.356174612379406
 10
7.223447286029851
 20
5.355736017201136
 10
7.222629674518809
 20
5.355225301903294
  0
LWPOLYLINE
  5
250
330
1F
100
AcDbEntity
  8
0
  6
Continuous
 62
     7
370
    15
100
AcDbPolyline
 90
       25
 70
   128
 43
0.0
 10
7.143852766937856
 20
5.415496303737793
 10
7.143574213084709
 20
5.414948204600483
 10
7.143852699413742
 20
5.414400144510013
 10
7.144670286590092
 20
5.413889408101973
 10
7.145970299483162
 20
5.413450850368961
 10
7.147664818301935
 20
5.413114319321663
 10
7.149638022869397
 20
5.412902766369057
 10
7.151755969196374
 20
5.412830596558372
 10
7.153873593600486
 20
5.412902754123202
 10
7.155846666272403
 20
5.413114322213214
 10
7.157541384510833
 20
5.413450829351078
 10
7.158841331537869
 20
5.413889424529349
 10
7.159658943048911
 20
5.414400139827192
 10
7.159937496902056
 20
5.414948238964501
 10
7.159658982965978
 20
5.415496272388613
 10
7.158841423396675
 20
5.41600703546301
 10
7.157541410503603
 20
5.416445593196023
 10
7.155846891684833
 20
5.41678212424332
 10
7.153873247386734
 20
5.416993679110484
 10
7.151755740790393
 20
5.417065847006612
 10
7.14963811638628
 20
5.416993689441781
 10
7.147665043714364
 20
5.41678212135177
 10
7.145970297868887
 20
5.416445587547547
 10
7.144670378448897
 20
5.416007019035634
 10
7.143852766937856
 20
5.415496303737793
  0
LWPOLYLINE
  5
251
330
1F
100
AcDbEntity
  8
0
  6
Continuous
 62
     7
370
    15
100
AcDbPolyline
 90
       25
 70
   128
 43
0.0
 10
7.257923184556226
 20
5.389316214748826
 10
7.25764463070308
 20
5.388768115611516
 10
7.257923117032112
 20
5.388220055521046
 10
7.258740704208462
 20
5.387709319113007
 10
7.260040717101533
 20
5.387270761379994
 10
7.261735235920305
 20
5.386934230332697
 10
7.263708440487766
 20
5.386722677380091
 10
7.265826386814744
 20
5.386650507569406
 10
7.267944011218856
 20
5.386722665134236
 10
7.269917083890773
 20
5.386934233224248
 10
7.271611802129203
 20
5.387270740362112
 10
7.272911749156239
 20
5.387709335540383
 10
7.27372936066728
 20
5.388220050838225
 10
7.274007914520426
 20
5.388768149975534
 10
7.273729428191394
 20
5.389316210066005
 10
7.272911841015044
 20
5.389826946474044
 10
7.271611828121973
 20
5.390265504207056
 10
7.269917309303203
 20
5.390602035254353
 10
7.267943665005103
 20
5.390813590121518
 10
7.265826158408762
 20
5.390885758017645
 10
7.263708534004651
 20
5.390813600452815
 10
7.261735461332733
 20
5.390602032362804
 10
7.260040743094303
 20
5.390265525224939
 10
7.258740796067266
 20
5.389826930046668
 10
7.257923184556226
 20
5.389316214748826
  0
LWPOLYLINE
  5
252
330
1F
100
AcDbEntity
  8
0
  6
Continuous
 62
     7
370
    15
100
AcDbPolyline
 90
       25
 70
   128
 43
0.0
 10
7.179146276975272
 20
5.449587216583325
 10
7.178867723122126
 20
5.449039117446015
 10
7.179146209451159
 20
5.448491057355545
 10
7.179963796627508
 20
5.447980320947506
 10
7.181263809520578
 20
5.447541763214493
 10
7.18295832833935
 20
5.447205232167196
 10
7.184931532906814
 20
5.44699367921459
 10
7.18704947923379
 20
5.446921509403905
 10
7.189167103637902
 20
5.446993666968735
 10
7.191140176309819
 20
5.447205235058746
 10
7.192834894548249
 20
5.447541742196611
 10
7.194134841575285
 20
5.447980337374882
 10
7.194952453086328
 20
5.448491052672723
 10
7.195230979332428
 20
5.449039125143674
 10
7.194952493003393
 20
5.449587185234145
 10
7.19413493343409
 20
5.450097948308543
 10
7.192834892933974
 20
5.450536479375196
 10
7.191140374115202
 20
5.450873010422494
 10
7.189166757424149
 20
5.451084591956018
 10
7.187049223220762
 20
5.451156733185785
 10
7.184931598816651
 20
5.451084575620956
 10
7.182958553751779
 20
5.450873034197302
 10
7.181263807906304
 20
5.45053650039308
 10
7.179963860879268
 20
5.450097905214809
 10
7.179146276975272
 20
5.449587216583325
  0
LWPOLYLINE
  5
253
330
1F
100
AcDbEntity
  8
0
  6
Continuous
 62
     7
370
    15
100
AcDbPolyline
 90
       25
 70
   128
 43
0.0
 10
7.293216694593641
 20
5.423407127594359
 10
7.292938140740496
 20
5.422859028457049
 10
7.293216627069529
 20
5.422310968366578
 10
7.294034214245878
 20
5.421800231958539
 10
7.295334227138949
 20
5.421361674225527
 10
7.29702874595772
 20
5.42102514317823
 10
7.299001950525183
 20
5.420813590225623
 10
7.30111989685216
 20
5.420741420414938
 10
7.303237521256272
 20
5.420813577979768
 10
7.305210593928189
 20
5.42102514606978
 10
7.306905312166619
 20
5.421361653207644
 10
7.308205259193655
 20
5.421800248385915
 10
7.309022870704697
 20
5.422310963683757
 10
7.309301424557841
 20
5.422859062821067
 10
7.309022910621763
 20
5.423407096245179
 10
7.308205351052461
 20
5.423917859319576
 10
7.306905338159388
 20
5.424356417052589
 10
7.305210791733572
 20
5.424692921433527
 10
7.303237175042519
 20
5.424904502967051
 10
7.301119640839133
 20
5.424976644196819
 10
7.299002044042066
 20
5.424904513298348
 10
7.297028971370149
 20
5.424692945208335
 10
7.295334225524674
 20
5.424356411404113
 10
7.294034306104682
 20
5.4239178428922
 10
7.293216694593641
 20
5.423407127594359
  0
LWPOLYLINE
  5
254
330
1F
100
AcDbEntity
  8
0
  6
Continuous
 62
     7
370
    15
100
AcDbPolyline
 90
       45
 70
   128
 43
0.0
 10
6.919392614106151
 20
5.147889085270522
 10
6.918702277947597
 20
5.146962008086076
 10
6.918528891163531
 20
5.146018858274027
 10
6.918875676276858
 20
5.145078961698513
 10
6.919735438328316
 20
5.144161394928574
 10
6.921091333909567
 20
5.143284874743596
 10
6.922915384346911
 20
5.142467175302536
 10
6.925170536319242
 20
5.141724985239346
 10
6.927810632268912
 20
5.141073452420307
 10
6.930782194949225
 20
5.140525774375871
 10
6.934024784333935
 20
5.140093116387011
 10
6.93747201313166
 20
5.139784312411615
 10
6.941054376436932
 20
5.139605611685342
 10
6.944698372268913
 20
5.139560682550739
 10
6.948329853774227
 20
5.139650437142627
 10
6.951874908688235
 20
5.139873027558977
 10
6.955261728685772
 20
5.140223944868115
 10
6.958421076718819
 20
5.140696043860527
 10
6.961288623704931
 20
5.141279666807851
 10
6.963805802363561
 20
5.141963041543698
 10
6.965921867834013
 20
5.142732138559079
 10
6.967593735997366
 20
5.143571368156831
 10
6.968786862937748
 20
5.144463576622509
 10
6.969477254310394
 20
5.145390707139672
 10
6.969650641094459
 20
5.146333856951721
 10
6.969303855981133
 20
5.147273753527234
 10
6.968444038715583
 20
5.148191266964455
 10
6.967088198348423
 20
5.149067840482152
 10
6.965264147911081
 20
5.149885539923212
 10
6.96300899593875
 20
5.150627729986402
 10
6.960368899989078
 20
5.15127926280544
 10
6.957397337308766
 20
5.151826940849877
 10
6.954154747924057
 20
5.152259598838736
 10
6.950707107002737
 20
5.152568431395049
 10
6.947125155821058
 20
5.152747103540406
 10
6.943481159989079
 20
5.152792032675009
 10
6.939849678483764
 20
5.152702278083121
 10
6.936304623569755
 20
5.152479687666772
 10
6.932917803572218
 20
5.152128770357633
 10
6.929758455539172
 20
5.15165667136522
 10
6.926890853338967
 20
5.15107299508518
 10
6.924373729894429
 20
5.150389673682049
 10
6.922257664423978
 20
5.149620576666668
 10
6.920585796260626
 20
5.148781347068916
 10
6.919392614106151
 20
5.147889085270522
  0
LWPOLYLINE
  5
255
330
1F
100
AcDbEntity
  8
0
  6
Continuous
 62
     7
370
    15
100
AcDbPolyline
 90
       45
 70
   128
 43
0.0
 10
7.025273144218398
 20
5.250161823807119
 10
7.024582752845754
 20
5.249234693289955
 10
7.024409421275779
 20
5.248291596810624
 10
7.024756206389105
 20
5.247351700235111
 10
7.025615968440563
 20
5.246434133465172
 10
7.026971864021814
 20
5.245557613280193
 10
7.028795914459158
 20
5.244739913839134
 10
7.031051066431489
 20
5.243997723775942
 10
7.03369116238116
 20
5.243346190956905
 10
7.036662725061472
 20
5.242798512912467
 10
7.039905314446183
 20
5.242365854923609
 10
7.043352543243909
 20
5.242057050948213
 10
7.046934906549179
 20
5.24187835022194
 10
7.05057890238116
 20
5.241833421087338
 10
7.054210383886474
 20
5.241923175679223
 10
7.057755438800483
 20
5.242145766095573
 10
7.061142258798019
 20
5.242496683404714
 10
7.064301606831067
 20
5.242968782397126
 10
7.06716915381718
 20
5.243552405344447
 10
7.069686332475808
 20
5.244235780080297
 10
7.071802397946261
 20
5.245004877095677
 10
7.073474210895522
 20
5.245844053360712
 10
7.074667393049995
 20
5.246736315159106
 10
7.07535778442264
 20
5.247663445676269
 10
7.075531115992616
 20
5.248606542155601
 10
7.075184358486334
 20
5.249546465397473
 10
7.07432456882783
 20
5.250464005501053
 10
7.072968700853625
 20
5.251340552352391
 10
7.071144650416282
 20
5.25215825179345
 10
7.068889498443952
 20
5.252900441856642
 10
7.06624940249428
 20
5.253551974675678
 10
7.063277839813968
 20
5.254099652720116
 10
7.060035250429259
 20
5.254532310708975
 10
7.056587609507939
 20
5.254841143265288
 10
7.05300565832626
 20
5.255019815410644
 10
7.04936166249428
 20
5.255064744545247
 10
7.045730180988966
 20
5.25497498995336
 10
7.042185126074957
 20
5.25475239953701
 10
7.03879830607742
 20
5.254401482227871
 10
7.035638958044374
 20
5.253929383235458
 10
7.032771383451215
 20
5.253345733621777
 10
7.030254232399631
 20
5.252662385552287
 10
7.028138139322133
 20
5.251893261870549
 10
7.026466326372871
 20
5.251054085605514
 10
7.025273144218398
 20
5.250161823807119
  0
LINE
  5
256
330
1F
100
AcDbEntity
  8
0
  6
Continuous
 62
     7
370
    15
100
AcDbLine
 10
6.84166408935148
 20
5.118263504010767
 30
0.0
 11
6.84166408935148
 21
5.106408974958373
 31
0.0
  0
LINE
  5
257
330
1F
100
AcDbEntity
  8
0
  6
Continuous
 62
     7
370
    15
100
AcDbLine
 10
6.84166408935148
 20
5.106408974958373
 30
0.0
 11
6.978869511858736
 21
5.096893730320172
 31
0.0
  0
LINE
  5
258
330
1F
100
AcDbEntity
  8
0
  6
Continuous
 62
     7
370
    15
100
AcDbLine
 10
7.556695249567296
 20
5.63230311601647
 30
0.0
 11
7.556695249567296
 21
5.644157645068863
 31
0.0
  0
LINE
  5
259
330
1F
100
AcDbEntity
  8
0
  6
Continuous
 62
     7
370
    15
100
AcDbLine
 10
7.556695249567296
 20
5.63230311601647
 30
0.0
 11
7.006704799821743
 21
5.1010531363949
 31
0.0
  0
LINE
  5
25A
330
1F
100
AcDbEntity
  8
0
  6
Continuous
 62
     7
370
    15
100
AcDbLine
 10
6.825593378353066
 20
5.113613277609113
 30
0.0
 11
6.825593378353066
 21
5.125467806661506
 31
0.0
  0
LINE
  5
25B
330
1F
100
AcDbEntity
  8
0
  6
Continuous
 62
     7
370
    15
100
AcDbLine
 10
6.84166408935148
 20
5.106408974958373
 30
0.0
 11
6.825593378353066
 21
5.113613277609113
 31
0.0
  0
ARC
  5
25C
330
1F
100
AcDbEntity
  8
0
  6
Continuous
 62
     7
370
    15
100
AcDbCircle
 10
6.944089937528242
 20
5.048224874258553
 30
0.0
 40
0.0927238858643529
100
AcDbArc
 50
82.95693303477474
 51
97.0431978669907
  0
ARC
  5
25D
330
1F
100
AcDbEntity
  8
0
  6
Continuous
 62
     7
370
    15
100
AcDbCircle
 10
7.049970467646282
 20
5.150492542478947
 30
0.0
 40
0.0927289179226783
100
AcDbArc
 50
82.95731717642828
 51
97.04281372533749
  0
ARC
  5
25E
330
1F
100
AcDbEntity
  8
0
  6
Continuous
 62
     7
370
    15
100
AcDbCircle
 10
7.155850876030683
 20
5.252764006091146
 30
0.0
 40
0.0927301683027717
100
AcDbArc
 50
82.95735402450082
 51
97.04264249380635
  0
LWPOLYLINE
  5
25F
330
1F
100
AcDbEntity
  8
0
  6
Continuous
 62
     7
370
    15
100
AcDbPolyline
 90
       32
 70
   128
 43
0.0
 10
7.398140861024546
 20
5.640598805900241
 10
7.397066356081315
 20
5.639301503488496
 10
7.396504941401281
 20
5.637982694186936
 10
7.396461420823891
 20
5.636655978044643
 10
7.396937025129403
 20
5.63533491709445
 10
7.397926382236746
 20
5.634033095420976
 10
7.39941987261513
 20
5.632763834343099
 10
7.401401444434379
 20
5.631540215319929
 10
7.40385136039485
 20
5.630374746552596
 10
7.406744054288324
 20
5.629279425889758
 10
7.410050472606103
 20
5.628265442676898
 10
7.413735938001662
 20
5.627343247328419
 10
7.417762972039946
 20
5.626522291261919
 10
7.422090367423763
 20
5.625810984061184
 10
7.426673572510325
 20
5.625216638228907
 10
7.431465460344347
 20
5.624745358692143
 10
7.43641712529818
 20
5.624401958974106
 10
7.441477464046455
 20
5.624189983108508
 10
7.44659482406046
 20
5.624111591315887
 10
7.451716598386295
 20
5.624167595251107
 10
7.456790077499116
 20
5.624357427507896
 10
7.461763328764399
 20
5.624679137789712
 10
7.466585636168582
 20
5.625129390995201
 10
7.471206779598309
 20
5.625703624378866
 10
7.475579981821412
 20
5.626395907483959
 10
7.479659923788344
 20
5.627199158379548
 10
7.483405348507181
 20
5.628105098840223
 10
7.486777083246818
 20
5.629104477249756
 10
7.489741062437327
 20
5.63018700186647
 10
7.492266391283711
 20
5.631341603726447
 10
7.494327935837398
 20
5.632556378490042
 10
7.495903583068091
 20
5.633818926506686
  0
ARC
  5
260
330
1F
100
AcDbEntity
  8
0
  6
Continuous
 62
     7
370
    15
100
AcDbCircle
 10
7.512297172579809
 20
5.651937186236463
 30
0.0
 40
0.0244340154848601
100
AcDbArc
 50
227.8608779539197
 51
265.6738443055953
  0
ARC
  5
261
330
1F
100
AcDbEntity
  8
0
  6
Continuous
 62
     7
370
    15
100
AcDbCircle
 10
7.385239761743901
 20
5.657846063740646
 30
0.0
 40
0.021538483364956
100
AcDbArc
 50
265.6082048275278
 51
306.7968090272286
  0
ARC
  5
262
330
1F
100
AcDbEntity
  8
0
  6
Continuous
 62
     7
370
    15
100
AcDbCircle
 10
7.442896080419054
 20
5.57771181417596
 30
0.0
 40
0.0771868084013089
100
AcDbArc
 50
46.6271587990549
 51
125.4385795992687
  0
LINE
  5
263
330
1F
100
AcDbEntity
  8
0
  6
Continuous
 62
     7
370
    15
100
AcDbLine
 10
7.417258177811185
 20
5.659064715913806
 30
0.0
 11
7.398140861024546
 21
5.640598805900241
 31
0.0
  0
ARC
  5
264
330
1F
100
AcDbEntity
  8
0
  6
Continuous
 62
     7
370
    15
100
AcDbCircle
 10
7.462013397205693
 20
5.596177724189526
 30
0.0
 40
0.0771868084013095
100
AcDbArc
 50
46.62715879905348
 51
125.4385795992691
  0
LINE
  5
265
330
1F
100
AcDbEntity
  8
0
  6
Continuous
 62
     7
370
    15
100
AcDbLine
 10
7.495903583068091
 20
5.633818926506686
 30
0.0
 11
7.515020899854732
 21
5.652284836520251
 31
0.0
  0
ARC
  5
266
330
1F
100
AcDbEntity
  8
0
  6
Continuous
 62
     7
370
    15
100
AcDbCircle
 10
7.531414489366441
 20
5.67040309625001
 30
0.0
 40
0.0244340154848401
100
AcDbArc
 50
227.8608779539058
 51
265.6738443056127
  0
ARC
  5
267
330
1F
100
AcDbEntity
  8
0
  6
Continuous
 62
     7
370
    15
100
AcDbCircle
 10
7.404357078530541
 20
5.676311973754212
 30
0.0
 40
0.0215384833649564
100
AcDbArc
 50
265.6082048275304
 51
306.7968090272253
  0
LWPOLYLINE
  5
268
330
1F
100
AcDbEntity
  8
0
  6
Continuous
 62
     7
370
    15
100
AcDbPolyline
 90
       11
 70
   128
 43
0.0
 10
7.562812791491163
 20
5.627235759529231
 10
7.562737476019088
 20
5.630734576445886
 10
7.56251337927494
 20
5.634001744818007
 10
7.562146019217018
 20
5.636956769846056
 10
7.56164444750549
 20
5.639526948837563
 10
7.561021004489873
 20
5.641648989099349
 10
7.560291050040324
 20
5.643270602496698
 10
7.559472556343718
 20
5.644351915165275
 10
7.558585676543558
 20
5.644866235704602
 10
7.557652244362262
 20
5.64480096276743
 10
7.556695249567296
 20
5.644157645068863
  0
LINE
  5
269
330
1F
100
AcDbEntity
  8
0
  6
Continuous
 62
     7
370
    15
100
AcDbLine
 10
7.562812791491163
 20
5.627235759529231
 30
0.0
 11
7.559636376554041
 21
5.624167578306456
 31
0.0
  0
LWPOLYLINE
  5
26A
330
1F
100
AcDbEntity
  8
0
  6
Continuous
 62
     7
370
    15
100
AcDbPolyline
 90
        9
 70
   128
 43
0.0
 10
7.559636376554041
 20
5.624167578306456
 10
7.559579864931101
 20
5.626254386452653
 10
7.55941249721538
 20
5.628151845663849
 10
7.559140709299454
 20
5.629786993289844
 10
7.558774940097552
 20
5.631097018187216
 10
7.558329251948672
 20
5.632031572860229
 10
7.557820771573909
 20
5.632554757724065
 10
7.557269037859996
 20
5.632646448699177
 10
7.556695249567296
 20
5.63230311601647
  0
LINE
  5
26B
330
1F
100
AcDbEntity
  8
0
  6
Continuous
 62
     7
370
    15
100
AcDbLine
 10
7.559636376554041
 20
5.579699906405048
 30
0.0
 11
7.559636376554041
 21
5.624167578306456
 31
0.0
  0
LINE
  5
26C
330
1F
100
AcDbEntity
  8
0
  6
Continuous
 62
     7
370
    15
100
AcDbLine
 10
7.562812791491163
 20
5.579479598943597
 30
0.0
 11
7.562812791491163
 21
5.627235759529231
 31
0.0
  0
LWPOLYLINE
  5
26D
330
1F
100
AcDbEntity
  8
0
  6
Continuous
 62
     7
370
    15
100
AcDbPolyline
 90
        3
 70
   128
 43
0.0
 10
7.377219093502344
 20
5.657466541724026
 10
7.376540822893586
 20
5.657361103981643
 10
7.37558382809862
 20
5.656717786283076
  0
LWPOLYLINE
  5
26E
330
1F
100
AcDbEntity
  8
0
  6
Continuous
 62
     8
370
    15
100
AcDbPolyline
 90
        3
 70
   128
 43
0.0
 10
7.435608284094014
 20
4.918594940512794
 10
7.434852347963399
 20
4.917610855512157
 10
7.434132452831198
 20
4.916178291258294
  0
LWPOLYLINE
  5
26F
330
1F
100
AcDbEntity
  8
0
  6
Continuous
 62
     8
370
    15
100
AcDbPolyline
 90
        9
 70
   128
 43
0.0
 10
7.432054594718613
 20
4.890774984584703
 10
7.432075051539619
 20
4.890677997470235
 10
7.432548263913254
 20
4.888920468569704
 10
7.433119840191402
 20
4.887608894461512
 10
7.4337713940815
 20
4.886785414939096
 10
7.434481999442758
 20
4.886476502778244
 10
7.43522878383766
 20
4.886692062434081
 10
7.435987784350368
 20
4.887425200631473
 10
7.436322864869881
 20
4.887911955031126
  0
LWPOLYLINE
  5
270
330
1F
100
AcDbEntity
  8
0
  6
Continuous
 62
     8
370
    15
100
AcDbPolyline
 90
        5
 70
   128
 43
0.0
 10
7.438370438053122
 20
4.917436898206256
 10
7.437779688681602
 20
4.918455851703348
 10
7.437095862154857
 20
4.919024342945115
 10
7.436364220224628
 20
4.919071211975328
 10
7.435608284094014
 20
4.918594940512794
  0
LINE
  5
271
330
1F
100
AcDbEntity
  8
0
  6
Continuous
 62
     8
370
    15
100
AcDbLine
 10
7.409444170806404
 20
4.727876828291502
 30
0.0
 11
7.413395691516631
 21
4.731693704198625
 31
0.0
  0
LWPOLYLINE
  5
272
330
1F
100
AcDbEntity
  8
0
  6
Continuous
 62
     8
370
    15
100
AcDbPolyline
 90
       17
 70
   128
 43
0.0
 10
7.436465913288265
 20
4.917301101951989
 10
7.435727300578948
 20
4.916324425795121
 10
7.435015370079485
 20
4.914856616659011
 10
7.434355879163694
 20
4.912950720327964
 10
7.433772652712179
 20
4.910675624376761
 10
7.433286754900958
 20
4.908113545291224
 10
7.43291577141826
 20
4.905357094220859
 10
7.432673091681348
 20
4.902505891971332
 10
7.432567494730811
 20
4.89966298149067
 10
7.432602804142506
 20
4.896931133156754
 10
7.432777736188801
 20
4.894409066273177
 10
7.433085955052662
 20
4.892187922078273
 10
7.433516348898119
 20
4.890348014479297
 10
7.434053333547763
 20
4.88895580707536
 10
7.434677528855382
 20
4.888061649420902
 10
7.435366352257432
 20
4.887697832534846
 10
7.435789071344131
 20
4.887736846443235
  0
LWPOLYLINE
  5
273
330
1F
100
AcDbEntity
  8
0
  6
Continuous
 62
     8
370
    15
100
AcDbPolyline
 90
        3
 70
   128
 43
0.0
 10
7.437865921799538
 20
4.917684014369288
 10
7.437204525997581
 20
4.91775131597823
 10
7.436465913288265
 20
4.917301101951989
  0
LINE
  5
274
330
1F
100
AcDbEntity
  8
0
  6
Continuous
 62
     8
370
    15
100
AcDbLine
 10
7.458224798923781
 20
4.872286675828791
 30
0.0
 11
7.452577667258391
 21
4.866831965508737
 31
0.0
  0
LWPOLYLINE
  5
275
330
1F
100
AcDbEntity
  8
0
  6
Continuous
 62
     8
370
    15
100
AcDbPolyline
 90
       12
 70
   128
 43
0.0
 10
1.241157672471245
 20
5.242234003928177
 10
1.240503385483605
 20
5.241844719827344
 10
1.239454856077105
 20
5.241683178790855
 10
1.238449455778048
 20
5.242111537559783
 10
1.237507655210967
 20
5.243121074756338
 10
1.23664862746923
 20
5.244691248577403
 10
1.235889861616412
 20
5.246790083318396
 10
1.235246803794688
 20
5.249374865898436
 10
1.234732546645574
 20
5.252392972764269
 10
1.234357553239461
 20
5.255782955507208
 10
1.234129456924541
 20
5.259475809282896
 10
1.234052902586282
 20
5.263396364943221
  0
ARC
  5
276
330
1F
100
AcDbEntity
  8
0
  6
Continuous
 62
     8
370
    15
100
AcDbCircle
 10
1.172097977475129
 20
5.266172841021035
 30
0.0
 40
0.0360310778633404
100
AcDbArc
 50
173.6206894363553
 51
208.0547183042029
  0
LWPOLYLINE
  5
277
330
1F
100
AcDbEntity
  8
0
  6
Continuous
 62
     8
370
    15
100
AcDbPolyline
 90
       10
 70
   128
 43
0.0
 10
1.25000632092126
 20
5.263742757744553
 10
1.250081632942454
 20
5.260243950373465
 10
1.250305733137482
 20
5.256976804652934
 10
1.250673093195405
 20
5.25402176030659
 10
1.251174664906932
 20
5.251451581315083
 10
1.251798107922549
 20
5.249329553932159
 10
1.252528058921218
 20
5.247707917883221
 10
1.253346552617823
 20
5.24662662453294
 10
1.254233435868865
 20
5.246112288008614
 10
1.254488600892283
 20
5.246072120097267
  0
LINE
  5
278
330
1F
100
AcDbEntity
  8
0
  6
Continuous
 62
     8
370
    15
100
AcDbLine
 10
1.283247796348726
 20
5.256794359742547
 30
0.0
 11
1.281732649721702
 21
5.256899435697677
 31
0.0
  0
LWPOLYLINE
  5
279
330
1F
100
AcDbEntity
  8
0
  6
Continuous
 62
     8
370
    15
100
AcDbPolyline
 90
       10
 70
   128
 43
0.0
 10
1.127622419500894
 20
5.254870333157006
 10
1.12737022913667
 20
5.254910296320418
 10
1.126483345885629
 20
5.255424632844744
 10
1.125664852189023
 20
5.256505926195027
 10
1.124934901190355
 20
5.258127562243965
 10
1.124311458174737
 20
5.260249589626889
 10
1.123809886463211
 20
5.262819768618395
 10
1.123442526405287
 20
5.265774812964738
 10
1.123218426210259
 20
5.26904195868527
 10
1.123143114189066
 20
5.272540766056359
  0
LWPOLYLINE
  5
27A
330
1F
100
AcDbEntity
  8
0
  6
Continuous
 62
     8
370
    15
100
AcDbPolyline
 90
        3
 70
   128
 43
0.0
 10
4.584497368731839
 20
5.851142782298313
 10
4.58381909812308
 20
5.85103734455593
 10
4.582862103328115
 20
5.850394026857363
  0
LINE
  5
27B
330
1F
100
AcDbEntity
  8
0
  6
Continuous
 62
     8
370
    15
100
AcDbLine
 10
4.602324852981042
 20
5.829258179712402
 30
0.0
 11
4.612927144500167
 21
5.828522907041057
 31
0.0
  0
LINE
  5
27C
330
1F
100
AcDbEntity
  8
0
  6
Continuous
 62
     8
370
    15
100
AcDbLine
 10
4.470965655869599
 20
5.863779275461743
 30
0.0
 11
4.470549151819107
 21
5.863420030357947
 31
0.0
  0
ARC
  5
27D
330
1F
100
AcDbEntity
  8
0
  6
Continuous
 62
     8
370
    15
100
AcDbCircle
 10
4.570128150341223
 20
5.855248584833463
 30
0.0
 40
0.0022879091510369
100
AcDbArc
 50
42.1388534945359
 51
142.5390999468251
  0
LINE
  5
27E
330
1F
100
AcDbEntity
  8
0
  6
Continuous
 62
     8
370
    15
100
AcDbLine
 10
4.576602365069185
 20
5.804412213843612
 30
0.0
 11
4.576602365069185
 21
5.786574371456556
 31
0.0
  0
LINE
  5
27F
330
1F
100
AcDbEntity
  8
0
  6
Continuous
 62
     8
370
    15
100
AcDbLine
 10
4.569637216233206
 20
5.787057375126249
 30
0.0
 11
4.569637216233206
 21
5.797684497091772
 31
0.0
  0
LWPOLYLINE
  5
280
330
1F
100
AcDbEntity
  8
0
  6
Continuous
 62
     8
370
    15
100
AcDbPolyline
 90
        3
 70
   128
 43
0.0
 10
4.455998922353645
 20
5.859192033382861
 10
4.456955917148611
 20
5.859835351081427
 10
4.457637158965683
 20
5.859940619379168
  0
LWPOLYLINE
  5
281
330
1F
100
AcDbEntity
  8
0
  6
Continuous
 62
     8
370
    15
100
AcDbPolyline
 90
        3
 70
   128
 43
0.0
 10
7.531206600785713
 20
5.646787453563712
 10
7.530528330176954
 20
5.646682015821329
 10
7.529571335381989
 20
5.646038698122763
  0
LINE
  5
282
330
1F
100
AcDbEntity
  8
0
  6
Continuous
 62
     8
370
    15
100
AcDbLine
 10
7.549033672911324
 20
5.624902879558718
 30
0.0
 11
7.559636376554041
 21
5.624167578306456
 31
0.0
  0
LINE
  5
283
330
1F
100
AcDbEntity
  8
0
  6
Continuous
 62
     8
370
    15
100
AcDbLine
 10
7.417674681861678
 20
5.659423961017601
 30
0.0
 11
7.417258177811185
 21
5.659064715913806
 31
0.0
  0
ARC
  5
284
330
1F
100
AcDbEntity
  8
0
  6
Continuous
 62
     8
370
    15
100
AcDbCircle
 10
7.516836970271505
 20
5.650893284679785
 30
0.0
 40
0.002287909151033
100
AcDbArc
 50
42.13885349443695
 51
142.5390999469175
  0
LINE
  5
285
330
1F
100
AcDbEntity
  8
0
  6
Continuous
 62
     8
370
    15
100
AcDbLine
 10
7.523311391061263
 20
5.600056899399469
 30
0.0
 11
7.523311391061263
 21
5.582219057012412
 31
0.0
  0
LINE
  5
286
330
1F
100
AcDbEntity
  8
0
  6
Continuous
 62
     8
370
    15
100
AcDbLine
 10
7.51634644828708
 20
5.582702046391649
 30
0.0
 11
7.51634644828708
 21
5.593329168357172
 31
0.0
  0
LWPOLYLINE
  5
287
330
1F
100
AcDbEntity
  8
0
  6
Continuous
 62
     8
370
    15
100
AcDbPolyline
 90
        3
 70
   128
 43
0.0
 10
7.402707742283928
 20
5.654836733229177
 10
7.403664737078893
 20
5.655480050927744
 10
7.404345978895965
 20
5.655585319225484
  0
LINE
  5
288
330
1F
100
AcDbEntity
  8
OBJ
  6
HIDDEN
 62
     7
100
AcDbLine
 10
0.3490525553231468
 20
5.456625442958882
 30
0.0
 11
2.100720201484511
 21
5.335146671395267
 31
0.0
  0
LINE
  5
289
330
1F
100
AcDbEntity
  8
OBJ
  6
HIDDEN
 62
     7
100
AcDbLine
 10
0.3490525553231468
 20
5.411061722442365
 30
0.0
 11
2.110434985756023
 21
5.288909227149311
 31
0.0
  0
LINE
  5
28A
330
1F
100
AcDbEntity
  8
OBJ
  6
HIDDEN
 62
     7
100
AcDbLine
 10
3.647127597617974
 20
5.851033770444689
 30
0.0
 11
5.363367892237513
 21
5.732011898256069
 31
0.0
  0
LINE
  5
28B
330
1F
100
AcDbEntity
  8
OBJ
  6
HIDDEN
 62
     7
100
AcDbLine
 10
3.632358512482156
 20
5.806494291212384
 30
0.0
 11
5.307764970553619
 21
5.690304260048493
 31
0.0
  0
LINE
  5
28C
330
1F
100
AcDbEntity
  8
OBJ
  6
HIDDEN
 62
     7
100
AcDbLine
 10
6.582788216621691
 20
5.647444666937663
 30
0.0
 11
8.347727806519781
 21
5.525045481376031
 31
0.0
  0
LINE
  5
28D
330
1F
100
AcDbEntity
  8
OBJ
  6
HIDDEN
 62
     7
100
AcDbLine
 10
6.570535372514318
 20
5.602730685498982
 30
0.0
 11
8.331864127183949
 21
5.480581912639116
 31
0.0
  0
TEXT
  5
295
330
1F
100
AcDbEntity
  8
0
100
AcDbText
 10
3.556779671777263
 20
3.600965450844689
 30
0.0
 40
0.25
  1
USP  PA
100
AcDbText
  0
TEXT
  5
296
330
1F
100
AcDbEntity
  8
0
100
AcDbText
 10
2.635427515105334
 20
3.12041274352968
 30
0.0
 40
0.25
  1
SIMPSON  PA
100
AcDbText
  0
ENDSEC
  0
SECTION
  2
OBJECTS
  0
DICTIONARY
  5
C
330
0
100
AcDbDictionary
281
     1
  3
ACAD_COLOR
350
292
  3
ACAD_GROUP
350
D
  3
ACAD_LAYOUT
350
1A
  3
ACAD_MATERIAL
350
291
  3
ACAD_MLINESTYLE
350
17
  3
ACAD_PLOTSETTINGS
350
19
  3
ACAD_PLOTSTYLENAME
350
E
  0
DICTIONARY
  5
292
102
{ACAD_REACTORS
330
C
102
}
330
C
100
AcDbDictionary
281
     1
  0
DICTIONARY
  5
D
102
{ACAD_REACTORS
330
C
102
}
330
C
100
AcDbDictionary
281
     1
  0
DICTIONARY
  5
1A
102
{ACAD_REACTORS
330
C
102
}
330
C
100
AcDbDictionary
281
     1
  3
Layout1
350
1E
  3
Layout2
350
26
  3
Model
350
22
  0
DICTIONARY
  5
291
102
{ACAD_REACTORS
330
C
102
}
330
C
100
AcDbDictionary
281
     1
  0
DICTIONARY
  5
17
102
{ACAD_REACTORS
330
C
102
}
330
C
100
AcDbDictionary
281
     1
  3
Standard
350
18
  0
DICTIONARY
  5
19
102
{ACAD_REACTORS
330
C
102
}
330
C
100
AcDbDictionary
281
     1
  0
ACDBDICTIONARYWDFLT
  5
E
102
{ACAD_REACTORS
330
C
102
}
330
C
100
AcDbDictionary
281
     1
  3
Normal
350
F
100
AcDbDictionaryWithDefault
340
F
  0
LAYOUT
  5
1E
102
{ACAD_REACTORS
330
1A
102
}
330
1A
100
AcDbPlotSettings
  1

  2
none_device
  4

  6

 40
0.0
 41
0.0
 42
0.0
 43
0.0
 44
0.0
 45
0.0
 46
0.0
 47
0.0
 48
0.0
 49
0.0
140
0.0
141
0.0
142
1.0
143
1.0
 70
   688
 72
     0
 73
     0
 74
     5
  7

 75
    16
147
1.0
 76
     0
 77
     2
 78
   300
148
0.0
149
0.0
100
AcDbLayout
  1
Layout1
 70
     1
 71
     1
 10
0.0
 20
0.0
 11
12.0
 21
9.0
 12
0.0
 22
0.0
 32
0.0
 14
1.000000000000000E+20
 24
1.000000000000000E+20
 34
1.000000000000000E+20
 15
-1.000000000000000E+20
 25
-1.000000000000000E+20
 35
-1.000000000000000E+20
146
0.0
 13
0.0
 23
0.0
 33
0.0
 16
1.0
 26
0.0
 36
0.0
 17
0.0
 27
1.0
 37
0.0
 76
     0
330
1B
  0
LAYOUT
  5
26
102
{ACAD_REACTORS
330
1A
102
}
330
1A
100
AcDbPlotSettings
  1

  2
none_device
  4

  6

 40
0.0
 41
0.0
 42
0.0
 43
0.0
 44
0.0
 45
0.0
 46
0.0
 47
0.0
 48
0.0
 49
0.0
140
0.0
141
0.0
142
1.0
143
1.0
 70
   688
 72
     0
 73
     0
 74
     5
  7

 75
    16
147
1.0
 76
     0
 77
     2
 78
   300
148
0.0
149
0.0
100
AcDbLayout
  1
Layout2
 70
     1
 71
     2
 10
0.0
 20
0.0
 11
0.0
 21
0.0
 12
0.0
 22
0.0
 32
0.0
 14
0.0
 24
0.0
 34
0.0
 15
0.0
 25
0.0
 35
0.0
146
0.0
 13
0.0
 23
0.0
 33
0.0
 16
1.0
 26
0.0
 36
0.0
 17
0.0
 27
1.0
 37
0.0
 76
     0
330
23
  0
LAYOUT
  5
22
102
{ACAD_REACTORS
330
1A
102
}
330
1A
100
AcDbPlotSettings
  1

  2
none_device
  4

  6

 40
0.0
 41
0.0
 42
0.0
 43
0.0
 44
0.0
 45
0.0
 46
0.0
 47
0.0
 48
0.0
 49
0.0
140
0.0
141
0.0
142
1.0
143
1.0
 70
  1712
 72
     0
 73
     0
 74
     0
  7

 75
     0
147
1.0
 76
     0
 77
     2
 78
   300
148
0.0
149
0.0
100
AcDbLayout
  1
Model
 70
     1
 71
     0
 10
0.0
 20
0.0
 11
8.5
 21
11.0
 12
0.0
 22
0.0
 32
0.0
 14
0.0
 24
0.0
 34
0.0
 15
8.5
 25
11.0
 35
0.0
146
0.0
 13
0.0
 23
0.0
 33
0.0
 16
1.0
 26
0.0
 36
0.0
 17
0.0
 27
1.0
 37
0.0
 76
     0
330
1F
  0
MLINESTYLE
  5
18
102
{ACAD_REACTORS
330
17
102
}
330
17
100
AcDbMlineStyle
  2
STANDARD
 70
     0
  3

 62
   256
 51
90.0
 52
90.0
 71
     2
 49
0.5
 62
   256
  6
BYLAYER
 49
-0.5
 62
   256
  6
BYLAYER
  0
ACDBPLACEHOLDER
  5
F
102
{ACAD_REACTORS
330
E
102
}
330
E
  0
ENDSEC
  0
EOF
