  0
SECTION
  2
HEADER
  9
$ACADVER
  1
AC1018
  9
$ACADMAINTVER
 70
     0
  9
$DWGCODEPAGE
  3
ANSI_1252
  9
$INSBASE
 10
0.0
 20
0.0
 30
0.0
  9
$EXTMIN
 10
1.212816553149213
 20
-0.0563781280681486
 30
0.0
  9
$EXTMAX
 10
5.676210656663478
 20
2.242881609550284
 30
0.0
  9
$LIMMIN
 10
0.0
 20
0.0
  9
$LIMMAX
 10
12.0
 20
9.0
  9
$ORTHOMODE
 70
     0
  9
$REGENMODE
 70
     1
  9
$FILLMODE
 70
     1
  9
$QTEXTMODE
 70
     0
  9
$MIRRTEXT
 70
     0
  9
$LTSCALE
 40
1.5
  9
$ATTMODE
 70
     1
  9
$TEXTSIZE
 40
0.125
  9
$TRACEWID
 40
0.05
  9
$TEXTSTYLE
  7
STANDARD
  9
$CLAYER
  8
0
  9
$CELTYPE
  6
BYLAYER
  9
$CECOLOR
 62
   256
  9
$CELTSCALE
 40
1.0
  9
$DISPSILH
 70
     1
  9
$DIMSCALE
 40
1.0
  9
$DIMASZ
 40
0.18
  9
$DIMEXO
 40
0.0625
  9
$DIMDLI
 40
0.38
  9
$DIMRND
 40
0.0
  9
$DIMDLE
 40
0.0
  9
$DIMEXE
 40
0.18
  9
$DIMTP
 40
0.0
  9
$DIMTM
 40
0.0
  9
$DIMTXT
 40
0.18
  9
$DIMCEN
 40
0.09
  9
$DIMTSZ
 40
0.0
  9
$DIMTOL
 70
     0
  9
$DIMLIM
 70
     0
  9
$DIMTIH
 70
     1
  9
$DIMTOH
 70
     1
  9
$DIMSE1
 70
     0
  9
$DIMSE2
 70
     0
  9
$DIMTAD
 70
     0
  9
$DIMZIN
 70
     0
  9
$DIMBLK
  1

  9
$DIMASO
 70
     1
  9
$DIMSHO
 70
     1
  9
$DIMPOST
  1

  9
$DIMAPOST
  1

  9
$DIMALT
 70
     0
  9
$DIMALTD
 70
     2
  9
$DIMALTF
 40
25.4
  9
$DIMLFAC
 40
1.0
  9
$DIMTOFL
 70
     0
  9
$DIMTVP
 40
0.0
  9
$DIMTIX
 70
     0
  9
$DIMSOXD
 70
     0
  9
$DIMSAH
 70
     0
  9
$DIMBLK1
  1

  9
$DIMBLK2
  1

  9
$DIMSTYLE
  2
STANDARD
  9
$DIMCLRD
 70
     0
  9
$DIMCLRE
 70
     0
  9
$DIMCLRT
 70
     0
  9
$DIMTFAC
 40
1.0
  9
$DIMGAP
 40
0.09
  9
$DIMJUST
 70
     0
  9
$DIMSD1
 70
     0
  9
$DIMSD2
 70
     0
  9
$DIMTOLJ
 70
     1
  9
$DIMTZIN
 70
     0
  9
$DIMALTZ
 70
     0
  9
$DIMALTTZ
 70
     0
  9
$DIMUPT
 70
     0
  9
$DIMDEC
 70
     4
  9
$DIMTDEC
 70
     4
  9
$DIMALTU
 70
     2
  9
$DIMALTTD
 70
     2
  9
$DIMTXSTY
  7
STANDARD
  9
$DIMAUNIT
 70
     0
  9
$DIMADEC
 70
     0
  9
$DIMALTRND
 40
0.0
  9
$DIMAZIN
 70
     0
  9
$DIMDSEP
 70
    46
  9
$DIMATFIT
 70
     3
  9
$DIMFRAC
 70
     0
  9
$DIMLDRBLK
  1

  9
$DIMLUNIT
 70
     2
  9
$DIMLWD
 70
    -2
  9
$DIMLWE
 70
    -2
  9
$DIMTMOVE
 70
     0
  9
$LUNITS
 70
     5
  9
$LUPREC
 70
     6
  9
$SKETCHINC
 40
0.1
  9
$FILLETRAD
 40
0.0
  9
$AUNITS
 70
     0
  9
$AUPREC
 70
     1
  9
$MENU
  1
CUSTOM
  9
$ELEVATION
 40
0.0
  9
$PELEVATION
 40
0.0
  9
$THICKNESS
 40
0.0
  9
$LIMCHECK
 70
     0
  9
$CHAMFERA
 40
0.0
  9
$CHAMFERB
 40
0.0
  9
$CHAMFERC
 40
0.0
  9
$CHAMFERD
 40
0.0
  9
$SKPOLY
 70
     0
  9
$TDCREATE
 40
2451263.663231366
  9
$TDUCREATE
 40
2451263.871564699
  9
$TDUPDATE
 40
2456571.400107859
  9
$TDUUPDATE
 40
2456571.608441192
  9
$TDINDWG
 40
0.6561732292
  9
$TDUSRTIMER
 40
0.6561732292
  9
$USRTIMER
 70
     1
  9
$ANGBASE
 50
0.0
  9
$ANGDIR
 70
     0
  9
$PDMODE
 70
     0
  9
$PDSIZE
 40
0.0
  9
$PLINEWID
 40
0.0
  9
$SPLFRAME
 70
     0
  9
$SPLINETYPE
 70
     6
  9
$SPLINESEGS
 70
     8
  9
$HANDSEED
  5
4D4
  9
$SURFTAB1
 70
     6
  9
$SURFTAB2
 70
     6
  9
$SURFTYPE
 70
     6
  9
$SURFU
 70
     6
  9
$SURFV
 70
     6
  9
$UCSBASE
  2

  9
$UCSNAME
  2

  9
$UCSORG
 10
0.0
 20
0.0
 30
0.0
  9
$UCSXDIR
 10
1.0
 20
0.0
 30
0.0
  9
$UCSYDIR
 10
0.0
 20
1.0
 30
0.0
  9
$UCSORTHOREF
  2

  9
$UCSORTHOVIEW
 70
     1
  9
$UCSORGTOP
 10
0.0
 20
0.0
 30
0.0
  9
$UCSORGBOTTOM
 10
0.0
 20
0.0
 30
0.0
  9
$UCSORGLEFT
 10
0.0
 20
0.0
 30
0.0
  9
$UCSORGRIGHT
 10
0.0
 20
0.0
 30
0.0
  9
$UCSORGFRONT
 10
0.0
 20
0.0
 30
0.0
  9
$UCSORGBACK
 10
0.0
 20
0.0
 30
0.0
  9
$PUCSBASE
  2

  9
$PUCSNAME
  2

  9
$PUCSORG
 10
0.0
 20
0.0
 30
0.0
  9
$PUCSXDIR
 10
1.0
 20
0.0
 30
0.0
  9
$PUCSYDIR
 10
0.0
 20
1.0
 30
0.0
  9
$PUCSORTHOREF
  2

  9
$PUCSORTHOVIEW
 70
     0
  9
$PUCSORGTOP
 10
0.0
 20
0.0
 30
0.0
  9
$PUCSORGBOTTOM
 10
0.0
 20
0.0
 30
0.0
  9
$PUCSORGLEFT
 10
0.0
 20
0.0
 30
0.0
  9
$PUCSORGRIGHT
 10
0.0
 20
0.0
 30
0.0
  9
$PUCSORGFRONT
 10
0.0
 20
0.0
 30
0.0
  9
$PUCSORGBACK
 10
0.0
 20
0.0
 30
0.0
  9
$USERI1
 70
     0
  9
$USERI2
 70
     0
  9
$USERI3
 70
     0
  9
$USERI4
 70
     0
  9
$USERI5
 70
     0
  9
$USERR1
 40
0.0
  9
$USERR2
 40
0.0
  9
$USERR3
 40
0.0
  9
$USERR4
 40
0.0
  9
$USERR5
 40
0.0
  9
$WORLDVIEW
 70
     1
  9
$SHADEDGE
 70
     3
  9
$SHADEDIF
 70
    70
  9
$TILEMODE
 70
     1
  9
$MAXACTVP
 70
    16
  9
$PINSBASE
 10
0.0
 20
0.0
 30
0.0
  9
$PLIMCHECK
 70
     0
  9
$PEXTMIN
 10
1.049999952316284
 20
0.7999999523162842
 30
0.0
  9
$PEXTMAX
 10
9.449999570846555
 20
7.199999570846556
 30
0.0
  9
$PLIMMIN
 10
0.0
 20
0.0
  9
$PLIMMAX
 10
12.0
 20
9.0
  9
$UNITMODE
 70
     0
  9
$VISRETAIN
 70
     0
  9
$PLINEGEN
 70
     0
  9
$PSLTSCALE
 70
     0
  9
$TREEDEPTH
 70
  3020
  9
$CMLSTYLE
  2
STANDARD
  9
$CMLJUST
 70
     0
  9
$CMLSCALE
 40
1.0
  9
$PROXYGRAPHICS
 70
     1
  9
$MEASUREMENT
 70
     0
  9
$CELWEIGHT
370
    -1
  9
$ENDCAPS
280
     0
  9
$JOINSTYLE
280
     0
  9
$LWDISPLAY
290
     0
  9
$INSUNITS
 70
     0
  9
$HYPERLINKBASE
  1

  9
$STYLESHEET
  1
USP.ctb
  9
$XEDIT
290
     1
  9
$CEPSNTYPE
380
     0
  9
$PSTYLEMODE
290
     1
  9
$FINGERPRINTGUID
  2
{0283E367-CEF7-4EB2-82F4-6901E1CB1C06}
  9
$VERSIONGUID
  2
{260BF583-177B-43EF-96DC-CEF60523E052}
  9
$EXTNAMES
290
     1
  9
$PSVPSCALE
 40
0.0
  9
$OLESTARTUP
290
     0
  9
$SORTENTS
280
   127
  9
$INDEXCTL
280
     0
  9
$HIDETEXT
280
     0
  9
$XCLIPFRAME
290
     0
  9
$HALOGAP
280
     0
  9
$OBSCOLOR
 70
   257
  9
$OBSLTYPE
280
     0
  9
$INTERSECTIONDISPLAY
280
     0
  9
$INTERSECTIONCOLOR
 70
   257
  9
$DIMASSOC
280
     1
  9
$PROJECTNAME
  1

  0
ENDSEC
  0
SECTION
  2
CLASSES
  0
CLASS
  1
ACDBDICTIONARYWDFLT
  2
AcDbDictionaryWithDefault
  3
ObjectDBX Classes
 90
        0
 91
        1
280
     0
281
     0
  0
CLASS
  1
DICTIONARYVAR
  2
AcDbDictionaryVar
  3
ObjectDBX Classes
 90
        0
 91
        2
280
     0
281
     0
  0
ENDSEC
  0
SECTION
  2
TABLES
  0
TABLE
  2
VPORT
  5
3F8
330
0
100
AcDbSymbolTable
 70
     3
  0
VPORT
  5
4D3
330
3F8
100
AcDbSymbolTableRecord
100
AcDbViewportTableRecord
  2
*Active
 70
     0
 10
0.0
 20
0.0
 11
1.0
 21
1.0
 12
-20.65030642610212
 22
11.29196984023806
 13
0.0
 23
0.0
 14
1.0
 24
1.0
 15
0.0
 25
0.0
 16
0.0
 26
0.0
 36
1.0
 17
23.09603071721725
 27
-10.27010416511326
 37
-10.44050274849355
 40
3.022194819801076
 41
2.247298919567827
 42
50.0
 43
10.55307667737539
 44
10.55307667737539
 50
0.0
 51
0.0
 71
     0
 72
   100
 73
     1
 74
     1
 75
     0
 76
     0
 77
     0
 78
     0
281
     0
 65
     1
110
0.0
120
0.0
130
0.0
111
1.0
121
0.0
131
0.0
112
0.0
122
1.0
132
0.0
 79
     1
146
0.0
  0
ENDTAB
  0
TABLE
  2
LTYPE
  5
3F3
330
0
100
AcDbSymbolTable
 70
     1
  0
LTYPE
  5
3F4
330
3F3
100
AcDbSymbolTableRecord
100
AcDbLinetypeTableRecord
  2
BYBLOCK
 70
     0
  3

 72
    65
 73
     0
 40
0.0
  0
LTYPE
  5
3F5
330
3F3
100
AcDbSymbolTableRecord
100
AcDbLinetypeTableRecord
  2
BYLAYER
 70
     0
  3

 72
    65
 73
     0
 40
0.0
  0
LTYPE
  5
6
330
3F3
100
AcDbSymbolTableRecord
100
AcDbLinetypeTableRecord
  2
CONTINUOUS
 70
     0
  3
Solid line
 72
    65
 73
     0
 40
0.0
  0
ENDTAB
  0
TABLE
  2
LAYER
  5
3F1
330
0
100
AcDbSymbolTable
 70
     6
  0
LAYER
  5
22
330
3F1
100
AcDbSymbolTableRecord
100
AcDbLayerTableRecord
  2
0
 70
     0
 62
     7
  6
CONTINUOUS
370
    -3
390
407
  0
LAYER
  5
19
330
3F1
100
AcDbSymbolTableRecord
100
AcDbLayerTableRecord
  2
USP
 70
     0
 62
     7
  6
CONTINUOUS
370
    -3
390
407
  0
LAYER
  5
1C
330
3F1
100
AcDbSymbolTableRecord
100
AcDbLayerTableRecord
  2
USP-GEO
 70
     0
 62
     7
  6
CONTINUOUS
370
    -3
390
407
  0
LAYER
  5
5
330
3F1
100
AcDbSymbolTableRecord
100
AcDbLayerTableRecord
  2
USP-TXT
 70
     0
 62
     7
  6
CONTINUOUS
370
    -3
390
407
  0
LAYER
  5
43B
330
3F1
100
AcDbSymbolTableRecord
100
AcDbLayerTableRecord
  2
OBJ
 70
     0
 62
     7
  6
CONTINUOUS
370
    -3
390
407
  0
LAYER
  5
489
330
3F1
100
AcDbSymbolTableRecord
100
AcDbLayerTableRecord
  2
DIM
 70
     0
 62
     3
  6
CONTINUOUS
370
    -3
390
407
  0
ENDTAB
  0
TABLE
  2
STYLE
  5
3F2
330
0
100
AcDbSymbolTable
 70
     1
  0
STYLE
  5
7
330
3F2
100
AcDbSymbolTableRecord
100
AcDbTextStyleTableRecord
  2
STANDARD
 70
     0
 40
0.0
 41
1.0
 50
0.0
 71
     0
 42
0.125
  3
txt
  4

  0
ENDTAB
  0
TABLE
  2
VIEW
  5
3F6
330
0
100
AcDbSymbolTable
 70
     0
  0
ENDTAB
  0
TABLE
  2
UCS
  5
3F7
330
0
100
AcDbSymbolTable
 70
     0
  0
ENDTAB
  0
TABLE
  2
APPID
  5
3FA
330
0
100
AcDbSymbolTable
 70
     1
  0
APPID
  5
3FB
330
3FA
100
AcDbSymbolTableRecord
100
AcDbRegAppTableRecord
  2
ACAD
 70
     0
  0
ENDTAB
  0
TABLE
  2
DIMSTYLE
  5
3FC
330
0
100
AcDbSymbolTable
 70
     1
100
AcDbDimStyleTable
 71
     0
  0
DIMSTYLE
105
404
330
3FC
100
AcDbSymbolTableRecord
100
AcDbDimStyleTableRecord
  2
STANDARD
 70
     0
340
7
  0
ENDTAB
  0
TABLE
  2
BLOCK_RECORD
  5
1
330
0
100
AcDbSymbolTable
 70
     4
  0
BLOCK_RECORD
  5
2
102
{ACAD_XDICTIONARY
360
3E8
102
}
330
1
100
AcDbSymbolTableRecord
100
AcDbBlockTableRecord
  2
*MODEL_SPACE
340
40C
  0
BLOCK_RECORD
  5
3EC
102
{ACAD_XDICTIONARY
360
3ED
102
}
330
1
100
AcDbSymbolTableRecord
100
AcDbBlockTableRecord
  2
*PAPER_SPACE
340
40D
  0
BLOCK_RECORD
  5
1A
330
1
100
AcDbSymbolTableRecord
100
AcDbBlockTableRecord
  2
base blockA
340
0
  0
BLOCK_RECORD
  5
41E
330
1
100
AcDbSymbolTableRecord
100
AcDbBlockTableRecord
  2
BLOCK B
340
0
  0
BLOCK_RECORD
  5
46D
330
1
100
AcDbSymbolTableRecord
100
AcDbBlockTableRecord
  2
BLOCK A
340
0
  0
ENDTAB
  0
ENDSEC
  0
SECTION
  2
BLOCKS
  0
BLOCK
  5
3EA
330
2
100
AcDbEntity
  8
0
100
AcDbBlockBegin
  2
*MODEL_SPACE
 70
     0
 10
0.0
 20
0.0
 30
0.0
  3
*MODEL_SPACE
  1

  0
ENDBLK
  5
3EB
330
2
100
AcDbEntity
  8
0
100
AcDbBlockEnd
  0
BLOCK
  5
3EF
330
3EC
100
AcDbEntity
 67
     1
  8
0
100
AcDbBlockBegin
  2
*PAPER_SPACE
 70
     0
 10
0.0
 20
0.0
 30
0.0
  3
*PAPER_SPACE
  1

  0
ENDBLK
  5
3F0
330
3EC
100
AcDbEntity
 67
     1
  8
0
100
AcDbBlockEnd
  0
BLOCK
  5
37
330
1A
100
AcDbEntity
  8
0
100
AcDbBlockBegin
  2
base blockA
 70
     2
 10
0.0
 20
0.0
 30
0.0
  3
base blockA
  1

  0
LWPOLYLINE
  5
1B
330
1A
100
AcDbEntity
  8
USP-GEO
100
AcDbPolyline
 90
        4
 70
     1
 43
0.0
 10
0.0
 20
0.0
 10
0.0
 20
3.0
 10
3.0
 20
3.0
 10
3.0
 20
0.0
  0
TEXT
  5
1D
330
1A
100
AcDbEntity
  8
USP-TXT
100
AcDbText
 10
0.5126323550828254
 20
0.0577537530311503
 30
0.0
 40
0.046875
  1
 Copyright 2003 United Steel Products Company
100
AcDbText
  0
TEXT
  5
1E
330
1A
100
AcDbEntity
  8
USP-TXT
100
AcDbText
 10
0.5204091789382091
 20
0.1551392140505712
 30
0.0
 40
0.078125
  1
USP Structural Connectors
100
AcDbText
  0
CIRCLE
  5
1F
330
1A
100
AcDbEntity
  8
USP-TXT
100
AcDbCircle
 10
0.5128464045112509
 20
0.0830320346476796
 30
0.0
 40
0.0214703793180158
  0
TEXT
  5
20
330
1A
100
AcDbEntity
  8
USP-TXT
100
AcDbText
 10
0.5042237483422803
 20
0.0697781247899698
 30
0.0
 40
0.0254123629763196
  1
C
100
AcDbText
  0
TEXT
  5
21
330
1A
100
AcDbEntity
  8
0
100
AcDbText
 10
2.434466095748831
 20
0.1975394907214323
 30
0.0
 40
0.0398157395393663
  1
TM
100
AcDbText
  0
ATTDEF
  5
23
330
1A
100
AcDbEntity
  8
USP-TXT
100
AcDbText
 10
0.2285944087798271
 20
2.131422307042676
 30
0.0
 40
0.09375
  1
REF#
100
AcDbAttributeDefinition
  3
REF#
  2
REF#
 70
     0
  0
ATTDEF
  5
24
330
1A
100
AcDbEntity
  8
USP-TXT
100
AcDbText
 10
0.228804698318946
 20
2.663353083391648
 30
0.0
 40
0.156
  1
PART#
100
AcDbAttributeDefinition
  3
ENTER PART#
  2
PART#
 70
     0
  0
ATTDEF
  5
25
330
1A
100
AcDbEntity
  8
USP-TXT
100
AcDbText
 10
0.2287687103892821
 20
2.455939297974389
 30
0.0
 40
0.094
  1
DESC
100
AcDbAttributeDefinition
  3
DESC OF PART
  2
DESC
 70
     0
  0
ATTDEF
  5
26
330
1A
100
AcDbEntity
  8
USP-TXT
100
AcDbText
 10
0.2287687103892821
 20
2.296477206945141
 30
0.0
 40
0.094
  1
DESC
100
AcDbAttributeDefinition
  3
DESC OF PART
  2
DESC
 70
     0
  0
ATTDEF
  5
27
330
1A
100
AcDbEntity
  8
USP-TXT
100
AcDbText
 10
0.228804698318946
 20
0.9922084511082687
 30
0.0
 40
0.063
  1
EXTDESC
100
AcDbAttributeDefinition
  3
ADDITION DESC
  2
EXTDESC
 70
     0
  0
ATTDEF
  5
28
330
1A
100
AcDbEntity
  8
USP-TXT
100
AcDbText
 10
0.228804698318946
 20
0.7280192225426916
 30
0.0
 40
0.094
  1
Fast
100
AcDbAttributeDefinition
  3
Fasteners
  2
FAST
 70
     0
  0
ATTDEF
  5
29
330
1A
100
AcDbEntity
  8
USP-TXT
100
AcDbText
 10
0.228804698318946
 20
0.5901712537022519
 30
0.0
 40
0.063
  1
Supporting Member:
100
AcDbAttributeDefinition
  3
Supporting
  2
SUPPORTING
 70
     0
  0
ATTDEF
  5
2A
330
1A
100
AcDbEntity
  8
USP-TXT
100
AcDbText
 10
0.2325701781462328
 20
0.4923097209131698
 30
0.0
 40
0.063
  1
SUPPORTED
100
AcDbAttributeDefinition
  3
Supported
  2
SUPPORTED
 70
     0
  0
ATTDEF
  5
2B
330
1A
100
AcDbEntity
  8
USP-TXT
100
AcDbText
 10
0.3467694348797607
 20
1.814279556124766
 30
0.0
 40
0.063
  1
NER#
100
AcDbAttributeDefinition
  3
NER#
  2
NER#
 70
     0
  0
ATTDEF
  5
2C
330
1A
100
AcDbEntity
  8
USP-TXT
100
AcDbText
 10
0.3467694348797607
 20
1.722117780662095
 30
0.0
 40
0.063
  1
NER#
100
AcDbAttributeDefinition
  3
NER#
  2
NER#
 70
     0
  0
ATTDEF
  5
2D
330
1A
100
AcDbEntity
  8
USP-TXT
100
AcDbText
 10
0.3467694348797607
 20
1.631015334721752
 30
0.0
 40
0.063
  1
NER#
100
AcDbAttributeDefinition
  3
NER#
  2
NER#
 70
     0
  0
ATTDEF
  5
2E
330
1A
100
AcDbEntity
  8
USP-TXT
100
AcDbText
 10
0.3467694348797607
 20
1.537794229736753
 30
0.0
 40
0.063
  1
NER#
100
AcDbAttributeDefinition
  3
NER#
  2
NER#
 70
     0
  0
ATTDEF
  5
2F
330
1A
100
AcDbEntity
  8
USP-TXT
100
AcDbText
 10
0.3467694348797607
 20
1.448810442841057
 30
0.0
 40
0.063
  1
NER#
100
AcDbAttributeDefinition
  3
NER#
  2
NER#
 70
     0
  0
ATTDEF
  5
30
330
1A
100
AcDbEntity
  8
USP-TXT
100
AcDbText
 10
0.2283634841335704
 20
1.934648364679425
 30
0.0
 40
0.063
  1

100
AcDbAttributeDefinition
  3
Code Listings:
  2
CODE
 70
     0
  0
ATTDEF
  5
31
330
1A
100
AcDbEntity
  8
USP-TXT
100
AcDbText
 10
0.2300163426662962
 20
1.266739663439999
 30
0.0
 40
0.063
  1
pat
100
AcDbAttributeDefinition
  3
pat
  2
PAT
 70
     0
  0
ATTDEF
  5
32
330
1A
100
AcDbEntity
  8
USP-TXT
100
AcDbText
 10
0.2300163426662962
 20
1.168627150031042
 30
0.0
 40
0.063
  1
pat
100
AcDbAttributeDefinition
  3
pat
  2
PAT
 70
     0
  0
ATTDEF
  5
33
330
1A
100
AcDbEntity
  8
USP-TXT
100
AcDbText
 10
1.328369046230498
 20
0.5884879628236562
 30
0.0
 40
0.063
  1
SUPT'G
100
AcDbAttributeDefinition
  3
SUPT'G
  2
SUPT'G
 70
     0
  0
ATTDEF
  5
34
330
1A
100
AcDbEntity
  8
USP-TXT
100
AcDbText
 10
1.324378030103837
 20
0.4936287084484193
 30
0.0
 40
0.063
  1
SUPT'D
100
AcDbAttributeDefinition
  3
SUPT'D
  2
SUPT'D
 70
     0
  0
ENDBLK
  5
38
330
1A
100
AcDbEntity
  8
0
100
AcDbBlockEnd
  0
BLOCK
  5
41F
330
41E
100
AcDbEntity
  8
0
100
AcDbBlockBegin
  2
BLOCK B
 70
     2
 10
0.0
 20
0.0
 30
0.0
  3
BLOCK B
  1

  0
ATTDEF
  5
420
330
41E
100
AcDbEntity
  8
0
100
AcDbText
 10
-41.25151041834649
 20
47.4045405670226
 30
-1.698343055800367
 40
0.063
  1
NER#
100
AcDbAttributeDefinition
  3
NER#
  2
NER#
 70
     0
  0
ATTDEF
  5
421
330
41E
100
AcDbEntity
  8
0
100
AcDbText
 10
-40.23397421984515
 20
46.44433654575894
 30
0.0
 40
0.063
  1
SUPT'D
100
AcDbAttributeDefinition
  3
SUPT'D
  2
SUPT'D
 70
     0
  0
ATTDEF
  5
422
330
41E
100
AcDbEntity
  8
0
100
AcDbText
 10
-40.23397421984515
 20
46.64778125040606
 30
0.0
 40
0.063
  1
SUPT'G
100
AcDbAttributeDefinition
  3
SUPT'G
  2
SUPT'G
 70
     0
  0
ATTDEF
  5
423
330
41E
100
AcDbEntity
  8
0
100
AcDbText
 10
-41.36819624841514
 20
47.14975640350615
 30
0.0
 40
0.063
  1
PAT
100
AcDbAttributeDefinition
  3
PAT
  2
PAT
 70
     0
  0
ATTDEF
  5
424
330
41E
100
AcDbEntity
  8
0
100
AcDbText
 10
-41.36819624841514
 20
47.25824615315045
 30
0.0
 40
0.063
  1
PAT
100
AcDbAttributeDefinition
  3
PAT
  2
PAT
 70
     0
  0
ATTDEF
  5
425
330
41E
100
AcDbEntity
  8
0
100
AcDbText
 10
-41.36991636909268
 20
47.96982993274307
 30
0.0
 40
0.063
  1

100
AcDbAttributeDefinition
  3
Code Listings:
  2
CODE
 70
     0
  0
ATTDEF
  5
426
330
41E
100
AcDbEntity
  8
0
100
AcDbText
 10
-40.23380005607917
 20
46.54400432018777
 30
0.0
 40
0.063
  1

100
AcDbAttributeDefinition
  3
ADD'T FAST
  2
ADD'TFAST
 70
     0
  0
ATTDEF
  5
427
330
41E
100
AcDbEntity
  8
0
100
AcDbText
 10
-41.25151041834649
 20
47.50009009783386
 30
-1.698343055800367
 40
0.063
  1
NER#
100
AcDbAttributeDefinition
  3
NER#
  2
NER#
 70
     0
  0
ATTDEF
  5
428
330
41E
100
AcDbEntity
  8
0
100
AcDbText
 10
-41.25151041834649
 20
47.58907388472954
 30
-1.698343055800367
 40
0.063
  1
NER#
100
AcDbAttributeDefinition
  3
NER#
  2
NER#
 70
     0
  0
ATTDEF
  5
429
330
41E
100
AcDbEntity
  8
0
100
AcDbText
 10
-41.25151041834649
 20
47.68229498971455
 30
-1.698343055800367
 40
0.063
  1
NER#
100
AcDbAttributeDefinition
  3
NER#
  2
NER#
 70
     0
  0
ATTDEF
  5
42A
330
41E
100
AcDbEntity
  8
0
100
AcDbText
 10
-41.25151041834649
 20
47.77339743565489
 30
-1.698343055800367
 40
0.063
  1
NER#
100
AcDbAttributeDefinition
  3
NER#
  2
NER#
 70
     0
  0
ATTDEF
  5
42B
330
41E
100
AcDbEntity
  8
0
100
AcDbText
 10
-41.25151041834649
 20
47.86555921111756
 30
-1.698343055800367
 40
0.063
  1
NER#
100
AcDbAttributeDefinition
  3
NER 505
  2
NER#
 70
     0
  0
ATTDEF
  5
42C
330
41E
100
AcDbEntity
  8
0
100
AcDbText
 10
-41.36570967508002
 20
46.442263198057
 30
-0.8491715279001837
 40
0.063
  1
SUPPORTED
100
AcDbAttributeDefinition
  3
SUPPORTED
  2
SUPPORTED
 70
     0
  0
ATTDEF
  5
42D
330
41E
100
AcDbEntity
  8
0
100
AcDbText
 10
-41.36947515490731
 20
46.64551408095522
 30
-0.8491715279001837
 40
0.063
  1
SUPPORTING
100
AcDbAttributeDefinition
  3
SUPPORTING
  2
SUPPORTING
 70
     0
  0
ATTDEF
  5
42E
330
41E
100
AcDbEntity
  8
0
100
AcDbText
 10
-41.36947515490731
 20
46.78336204979565
 30
-0.8491715279001837
 40
0.094
  1
Fast
100
AcDbAttributeDefinition
  3
Fasteners
  2
FAST
 70
     0
  0
ATTDEF
  5
42F
330
41E
100
AcDbEntity
  8
0
100
AcDbText
 10
-41.36947515490731
 20
46.97577886657069
 30
-0.8491715279001837
 40
0.063
  1
EXTDESC
100
AcDbAttributeDefinition
  3
ADDITION DESC
  2
EXTDESC
 70
     0
  0
ATTDEF
  5
430
330
41E
100
AcDbEntity
  8
0
100
AcDbText
 10
-41.36951114283696
 20
48.35178137839239
 30
-1.698343055800367
 40
0.094
  1
DESC
100
AcDbAttributeDefinition
  3
DESC OF PART
  2
DESC
 70
     0
  0
ATTDEF
  5
431
330
41E
100
AcDbEntity
  8
0
100
AcDbText
 10
-41.36951114283696
 20
48.51124346942163
 30
-1.698343055800367
 40
0.094
  1
DESC
100
AcDbAttributeDefinition
  3
DESC OF PART
  2
DESC
 70
     0
  0
ATTDEF
  5
432
330
41E
100
AcDbEntity
  8
0
100
AcDbText
 10
-41.36947515490731
 20
48.7186572548389
 30
-0.8491715279001837
 40
0.156
  1
PART#
100
AcDbAttributeDefinition
  3
ENTER PART#
  2
PART#
 70
     0
  0
ATTDEF
  5
433
330
41E
100
AcDbEntity
  8
0
100
AcDbText
 10
-41.36968544444642
 20
48.18672647848992
 30
0.0
 40
0.09375
  1

100
AcDbAttributeDefinition
  3
Ref.#
  2
REF.#
 70
     0
  0
TEXT
  5
434
330
41E
100
AcDbEntity
  8
0
100
AcDbText
 10
-39.16381375747742
 20
46.25284366216868
 30
0.0
 40
0.0398157395393663
  1
TM
100
AcDbText
  0
TEXT
  5
435
330
41E
100
AcDbEntity
  8
0
100
AcDbText
 10
-41.09405610488397
 20
46.12508229623721
 30
0.0
 40
0.0254123629763196
  1
C
100
AcDbText
  0
CIRCLE
  5
436
330
41E
100
AcDbEntity
  8
0
100
AcDbCircle
 10
-41.085433448715
 20
46.13833620609492
 30
0.0
 40
0.0214703793180158
  0
TEXT
  5
437
330
41E
100
AcDbEntity
  8
0
100
AcDbText
 10
-41.07787067428804
 20
46.21044338549782
 30
0.0
 40
0.078125
  1
USP Structural Connectors
100
AcDbText
  0
TEXT
  5
438
330
41E
100
AcDbEntity
  8
0
100
AcDbText
 10
-41.08564749814343
 20
46.11305792447839
 30
0.0
 40
0.046875
  1
 Copyright 2004 United Steel Products Company
100
AcDbText
  0
LWPOLYLINE
  5
439
330
41E
100
AcDbEntity
  8
0
100
AcDbPolyline
 90
        4
 70
     1
 43
0.0
 10
-41.59827985322625
 20
46.05530417144724
 10
-41.59827985322625
 20
49.05530417144724
 10
-38.59827985322625
 20
49.05530417144724
 10
-38.59827985322625
 20
46.05530417144724
  0
ENDBLK
  5
43A
330
41E
100
AcDbEntity
  8
0
100
AcDbBlockEnd
  0
BLOCK
  5
46E
330
46D
100
AcDbEntity
  8
0
100
AcDbBlockBegin
  2
BLOCK A
 70
     2
 10
0.0
 20
0.0
 30
0.0
  3
BLOCK A
  1

  0
ATTDEF
  5
46F
330
46D
100
AcDbEntity
  8
0
100
AcDbText
 10
-29.86489534281622
 20
58.5397480204784
 30
-1.698343055800367
 40
0.063
  1
NER#
100
AcDbAttributeDefinition
  3
NER#
  2
NER#
 70
     0
  0
ATTDEF
  5
470
330
46D
100
AcDbEntity
  8
0
100
AcDbText
 10
-28.88728674759214
 20
57.61200418933724
 30
0.0
 40
0.063
  1
SUPT'D
100
AcDbAttributeDefinition
  3
SUPT'D
  2
SUPT'D
 70
     0
  0
ATTDEF
  5
471
330
46D
100
AcDbEntity
  8
0
100
AcDbText
 10
-28.88329573146548
 20
57.70686344371248
 30
0.0
 40
0.063
  1
SUPT'G
100
AcDbAttributeDefinition
  3
SUPT'G
  2
SUPT'G
 70
     0
  0
ATTDEF
  5
472
330
46D
100
AcDbEntity
  8
0
100
AcDbText
 10
-29.98164843502968
 20
58.28700263091986
 30
0.0
 40
0.063
  1
pat
100
AcDbAttributeDefinition
  3
pat
  2
PAT
 70
     0
  0
ATTDEF
  5
473
330
46D
100
AcDbEntity
  8
0
100
AcDbText
 10
-29.98164843502968
 20
58.38511514432882
 30
0.0
 40
0.063
  1
pat
100
AcDbAttributeDefinition
  3
pat
  2
PAT
 70
     0
  0
ATTDEF
  5
474
330
46D
100
AcDbEntity
  8
0
100
AcDbText
 10
-29.98330129356241
 20
59.11454017864643
 30
0.0
 40
0.063
  1

100
AcDbAttributeDefinition
  3
Code Listings:
  2
CODE
 70
     0
  0
ATTDEF
  5
475
330
46D
100
AcDbEntity
  8
0
100
AcDbText
 10
-29.86489534281622
 20
58.62870225680807
 30
-1.698343055800367
 40
0.063
  1
NER#
100
AcDbAttributeDefinition
  3
NER#
  2
NER#
 70
     0
  0
ATTDEF
  5
476
330
46D
100
AcDbEntity
  8
0
100
AcDbText
 10
-29.86489534281622
 20
58.71768604370377
 30
-1.698343055800367
 40
0.063
  1
NER#
100
AcDbAttributeDefinition
  3
NER#
  2
NER#
 70
     0
  0
ATTDEF
  5
477
330
46D
100
AcDbEntity
  8
0
100
AcDbText
 10
-29.86489534281622
 20
58.81090714868876
 30
-1.698343055800367
 40
0.063
  1
NER#
100
AcDbAttributeDefinition
  3
NER#
  2
NER#
 70
     0
  0
ATTDEF
  5
478
330
46D
100
AcDbEntity
  8
0
100
AcDbText
 10
-29.86489534281622
 20
58.90200959462911
 30
-1.698343055800367
 40
0.063
  1
NER#
100
AcDbAttributeDefinition
  3
NER#
  2
NER#
 70
     0
  0
ATTDEF
  5
479
330
46D
100
AcDbEntity
  8
0
100
AcDbText
 10
-29.86489534281622
 20
58.99417137009177
 30
-1.698343055800367
 40
0.063
  1
NER#
100
AcDbAttributeDefinition
  3
NER#
  2
NER#
 70
     0
  0
ATTDEF
  5
47A
330
46D
100
AcDbEntity
  8
0
100
AcDbText
 10
-29.97909459954975
 20
57.61068520180199
 30
-0.8491715279001837
 40
0.063
  1
SUPPORTED
100
AcDbAttributeDefinition
  3
Supported
  2
SUPPORTED
 70
     0
  0
ATTDEF
  5
47B
330
46D
100
AcDbEntity
  8
0
100
AcDbText
 10
-29.98286007937704
 20
57.70854673459107
 30
-0.8491715279001837
 40
0.063
  1
Supporting Member:
100
AcDbAttributeDefinition
  3
Supporting
  2
SUPPORTING
 70
     0
  0
ATTDEF
  5
47C
330
46D
100
AcDbEntity
  8
0
100
AcDbText
 10
-29.98286007937704
 20
57.84639470343151
 30
-0.8491715279001837
 40
0.094
  1
Fast
100
AcDbAttributeDefinition
  3
Fasteners
  2
FAST
 70
     0
  0
ATTDEF
  5
47D
330
46D
100
AcDbEntity
  8
0
100
AcDbText
 10
-29.98286007937704
 20
58.11058393199709
 30
-0.8491715279001837
 40
0.063
  1
EXTDESC
100
AcDbAttributeDefinition
  3
ADDITION DESC
  2
EXTDESC
 70
     0
  0
ATTDEF
  5
47E
330
46D
100
AcDbEntity
  8
0
100
AcDbText
 10
-29.9828960673067
 20
59.41485268783396
 30
-1.698343055800367
 40
0.094
  1
DESC
100
AcDbAttributeDefinition
  3
DESC OF PART
  2
DESC
 70
     0
  0
ATTDEF
  5
47F
330
46D
100
AcDbEntity
  8
0
100
AcDbText
 10
-29.9828960673067
 20
59.57431477886321
 30
-1.698343055800367
 40
0.094
  1
DESC
100
AcDbAttributeDefinition
  3
DESC OF PART
  2
DESC
 70
     0
  0
ATTDEF
  5
480
330
46D
100
AcDbEntity
  8
0
100
AcDbText
 10
-29.98286007937704
 20
59.78172856428047
 30
-0.8491715279001837
 40
0.156
  1
PART#
100
AcDbAttributeDefinition
  3
ENTER PART#
  2
PART#
 70
     0
  0
ATTDEF
  5
481
330
46D
100
AcDbEntity
  8
0
100
AcDbText
 10
-29.98307036891615
 20
59.2497977879315
 30
0.0
 40
0.09375
  1
REF#
100
AcDbAttributeDefinition
  3
REF#
  2
REF#
 70
     0
  0
TEXT
  5
482
330
46D
100
AcDbEntity
  8
0
100
AcDbText
 10
-27.77719868194715
 20
57.31591497161026
 30
0.0
 40
0.0398157395393663
  1
TM
100
AcDbText
  0
TEXT
  5
483
330
46D
100
AcDbEntity
  8
0
100
AcDbText
 10
-29.7074410293537
 20
57.18815360567879
 30
0.0
 40
0.0254123629763196
  1
C
100
AcDbText
  0
CIRCLE
  5
484
330
46D
100
AcDbEntity
  8
0
100
AcDbCircle
 10
-29.69881837318473
 20
57.2014075155365
 30
0.0
 40
0.0214703793180158
  0
TEXT
  5
485
330
46D
100
AcDbEntity
  8
0
100
AcDbText
 10
-29.69125559875777
 20
57.27351469493939
 30
0.0
 40
0.078125
  1
USP Structural Connectors
100
AcDbText
  0
TEXT
  5
486
330
46D
100
AcDbEntity
  8
0
100
AcDbText
 10
-29.69903242261315
 20
57.17612923391997
 30
0.0
 40
0.046875
  1
 Copyright 2004 United Steel Products Company
100
AcDbText
  0
LWPOLYLINE
  5
487
330
46D
100
AcDbEntity
  8
0
100
AcDbPolyline
 90
        4
 70
     1
 43
0.0
 10
-30.21166477769598
 20
57.11837548088882
 10
-30.21166477769598
 20
60.11837548088882
 10
-27.21166477769598
 20
60.11837548088882
 10
-27.21166477769598
 20
57.11837548088882
  0
ENDBLK
  5
488
330
46D
100
AcDbEntity
  8
0
100
AcDbBlockEnd
  0
ENDSEC
  0
SECTION
  2
ENTITIES
  0
LINE
  5
3A
330
2
100
AcDbEntity
  8
USP-GEO
100
AcDbLine
 10
2.645945872628448
 20
2.081017541260901
 30
0.0
 11
2.522512036318502
 21
2.152282099881556
 31
0.0
  0
LINE
  5
3B
330
2
100
AcDbEntity
  8
USP-GEO
100
AcDbLine
 10
2.526239323699641
 20
1.98275955603216
 30
0.0
 11
2.584244176843849
 21
2.016248673609279
 31
0.0
  0
LINE
  5
3C
330
2
100
AcDbEntity
  8
USP-GEO
100
AcDbLine
 10
2.377688649206856
 20
2.085269886727427
 30
0.0
 11
2.435693502351064
 21
2.118759004304546
 31
0.0
  0
LINE
  5
3D
330
2
100
AcDbEntity
  8
USP-GEO
100
AcDbLine
 10
2.377688649206856
 20
2.085269886727427
 30
0.0
 11
2.36931636981258
 21
2.073359065700888
 31
0.0
  0
LINE
  5
3E
330
2
100
AcDbEntity
  8
USP-GEO
100
AcDbLine
 10
2.307584229287229
 20
2.209392491973172
 30
0.0
 11
2.307584229287229
 21
2.175975990997368
 31
0.0
  0
LINE
  5
3F
330
2
100
AcDbEntity
  8
USP-GEO
100
AcDbLine
 10
2.315986953422257
 20
2.011581234141853
 30
0.0
 11
2.373991806566465
 21
2.045070351718965
 31
0.0
  0
LINE
  5
40
330
2
100
AcDbEntity
  8
USP-GEO
100
AcDbLine
 10
2.402805487389692
 20
2.054024114652815
 30
0.0
 11
2.4608103405339
 21
2.087513232229934
 31
0.0
  0
LINE
  5
41
330
2
100
AcDbEntity
  8
USP-GEO
100
AcDbLine
 10
2.584244176843849
 20
2.016248673609279
 30
0.0
 11
2.4608103405339
 21
2.087513232229934
 31
0.0
  0
LINE
  5
42
330
2
100
AcDbEntity
  8
USP-GEO
100
AcDbLine
 10
2.526239323699641
 20
1.98275955603216
 30
0.0
 11
2.402805487389692
 21
2.054024114652815
 31
0.0
  0
LINE
  5
43
330
2
100
AcDbEntity
  8
USP-GEO
100
AcDbLine
 10
2.365589082431437
 20
2.242881609550284
 30
0.0
 11
2.307584229287229
 21
2.209392491973172
 31
0.0
  0
LINE
  5
44
330
2
100
AcDbEntity
  8
USP-GEO
100
AcDbLine
 10
2.803669896592836
 20
1.094086760651745
 30
0.0
 11
2.861674749737048
 21
1.127575878228856
 31
0.0
  0
LINE
  5
45
330
2
100
AcDbEntity
  8
USP-GEO
100
AcDbLine
 10
2.720478747953173
 20
0.9186736186063093
 30
0.0
 11
2.778483601097384
 21
0.9521627361834212
 31
0.0
  0
LINE
  5
46
330
2
100
AcDbEntity
  8
USP-GEO
100
AcDbLine
 10
2.778483601097384
 20
0.9521627361834212
 30
0.0
 11
2.763982387811331
 21
0.970202491101741
 31
0.0
  0
LINE
  5
47
330
2
100
AcDbEntity
  8
USP-GEO
100
AcDbLine
 10
2.789168683306787
 20
0.9309274962326092
 30
0.0
 11
2.818171109878889
 21
0.9335178884921155
 31
0.0
  0
LINE
  5
48
330
2
100
AcDbEntity
  8
USP-GEO
100
AcDbLine
 10
2.818171109878889
 20
0.9335178884921155
 30
0.0
 11
2.876175963023101
 21
0.9670070060692346
 31
0.0
  0
LINE
  5
49
330
2
100
AcDbEntity
  8
USP-GEO
100
AcDbLine
 10
2.763982387811331
 20
0.970202491101741
 30
0.0
 11
2.763982387811331
 21
1.11273160834305
 31
0.0
  0
ELLIPSE
  5
4A
330
2
100
AcDbEntity
  8
USP-GEO
100
AcDbEllipse
 10
2.669189089610693
 20
1.391423749545619
 30
0.0
 11
0.006825
 21
0.0
 31
0.0
210
-0.0000000000000001
220
0.0
230
1.0
 40
0.5773502691896259
 41
-2.861554278558924
 42
-2.356194490192407
  0
LINE
  5
4B
330
2
100
AcDbEntity
  8
USP-GEO
100
AcDbLine
 10
2.646388126583921
 20
1.397824970951791
 30
0.0
 11
2.651505479150486
 21
1.391915961188107
 31
0.0
  0
LINE
  5
4C
330
2
100
AcDbEntity
  8
USP-GEO
100
AcDbLine
 10
2.653282361151802
 20
1.353173517367064
 30
0.0
 11
2.653282361151802
 21
1.353871207316583
 31
0.0
  0
LINE
  5
4D
330
2
100
AcDbEntity
  8
USP-GEO
100
AcDbLine
 10
2.678659484402395
 20
1.374104215852764
 30
0.0
 11
2.649657057830289
 21
1.390848774641316
 31
0.0
  0
LINE
  5
4E
330
2
100
AcDbEntity
  8
USP-GEO
100
AcDbLine
 10
2.58795536204569
 20
1.355225283970622
 30
0.0
 11
2.584244176843849
 21
1.35951059152121
 31
0.0
  0
LINE
  5
4F
330
2
100
AcDbEntity
  8
USP-GEO
100
AcDbLine
 10
2.591652204686081
 20
1.357359657064204
 30
0.0
 11
2.600661354577869
 21
1.352158221949007
 31
0.0
  0
ELLIPSE
  5
50
330
2
100
AcDbEntity
  8
USP-GEO
100
AcDbEllipse
 10
2.607487393826094
 20
1.355800258874925
 30
0.0
 11
0.006825
 21
0.0
 31
0.0
210
-0.0000000000000001
220
0.0
230
1.0
 40
0.5773502691896259
 41
-2.861554278577258
 42
-2.356194490192407
  0
ELLIPSE
  5
51
330
2
100
AcDbEntity
  8
USP-GEO
100
AcDbEllipse
 10
2.610703067722099
 20
1.250685576156005
 30
0.0
 11
0.006825
 21
0.0
 31
0.0
210
0.0000000000000001
220
-0.0000000000000001
230
1.0
 40
0.5773502691896257
 41
-2.356194490192407
 42
-1.450306729763135
  0
ELLIPSE
  5
52
330
2
100
AcDbEntity
  8
USP-GEO
100
AcDbEllipse
 10
2.610703067722099
 20
1.30650077211786
 30
0.0
 11
0.006825
 21
0.0
 31
0.0
210
0.0000000000000001
220
-0.0000000000000001
230
1.0
 40
0.5773502691896257
 41
-2.356194490192407
 42
-1.450306729763135
  0
ELLIPSE
  5
53
330
2
100
AcDbEntity
  8
USP-GEO
100
AcDbEllipse
 10
2.610703067722099
 20
1.312082291714045
 30
0.0
 11
0.006825
 21
0.0
 31
0.0
210
0.0000000000000001
220
-0.0000000000000001
230
1.0
 40
0.5773502691896257
 41
-2.356194490192407
 42
-1.850378296585331
  0
ELLIPSE
  5
54
330
2
100
AcDbEntity
  8
USP-GEO
100
AcDbEllipse
 10
2.610703067722099
 20
1.256267095752189
 30
0.0
 11
0.006825
 21
0.0
 31
0.0
210
0.0000000000000001
220
-0.0000000000000001
230
1.0
 40
0.5773502691896257
 41
-2.35619449019172
 42
-1.850378296585832
  0
LINE
  5
55
330
2
100
AcDbEntity
  8
USP-GEO
100
AcDbLine
 10
2.611523420908589
 20
1.30258892491356
 30
0.0
 11
2.611523420908589
 21
1.306732572461836
 31
0.0
  0
LINE
  5
56
330
2
100
AcDbEntity
  8
USP-GEO
100
AcDbLine
 10
2.616957788617796
 20
1.289642428715442
 30
0.0
 11
2.616957788617796
 21
1.288944738765916
 31
0.0
  0
LINE
  5
57
330
2
100
AcDbEntity
  8
USP-GEO
100
AcDbLine
 10
2.602661390044495
 20
1.297198768330655
 30
0.0
 11
2.616957788617796
 21
1.288944738765916
 31
0.0
  0
LINE
  5
58
330
2
100
AcDbEntity
  8
USP-GEO
100
AcDbLine
 10
2.605877063940504
 20
1.309295997131631
 30
0.0
 11
2.605877063940504
 21
1.303714477535447
 31
0.0
  0
LINE
  5
59
330
2
100
AcDbEntity
  8
USP-GEO
100
AcDbLine
 10
2.616957788617796
 20
1.227548023207877
 30
0.0
 11
2.616957788617796
 21
1.226850333258351
 31
0.0
  0
LINE
  5
5A
330
2
100
AcDbEntity
  8
USP-GEO
100
AcDbLine
 10
2.616957788617796
 20
1.345457624677298
 30
0.0
 11
2.616957788617796
 21
1.344759934727772
 31
0.0
  0
LINE
  5
5B
330
2
100
AcDbEntity
  8
USP-GEO
100
AcDbLine
 10
2.616957788617796
 20
1.339178415131588
 30
0.0
 11
2.616957788617796
 21
1.338480725182062
 31
0.0
  0
LINE
  5
5C
330
2
100
AcDbEntity
  8
USP-GEO
100
AcDbLine
 10
2.630890554343032
 20
1.191706587316492
 30
0.0
 11
2.629042133022839
 21
1.190639400769708
 31
0.0
  0
ELLIPSE
  5
5D
330
2
100
AcDbEntity
  8
USP-GEO
100
AcDbEllipse
 10
2.612551489042296
 20
1.251752762702796
 30
0.0
 11
0.006825
 21
0.0
 31
0.0
210
0.0000000000000001
220
-0.0000000000000001
230
1.0
 40
0.5773502691896257
 41
-1.722262569228418
 42
-1.450306729763135
  0
ELLIPSE
  5
5E
330
2
100
AcDbEntity
  8
USP-GEO
100
AcDbEllipse
 10
2.612551489042296
 20
1.307567958664652
 30
0.0
 11
0.006825
 21
0.0
 31
0.0
210
0.0000000000000001
220
-0.0000000000000001
230
1.0
 40
0.5773502691896257
 41
-1.722262569227903
 42
-1.450306729763135
  0
LINE
  5
5F
330
2
100
AcDbEntity
  8
USP-GEO
100
AcDbLine
 10
2.63273897566323
 20
1.192773773863283
 30
0.0
 11
2.63273897566323
 21
1.34968506761945
 31
0.0
  0
LINE
  5
60
330
2
100
AcDbEntity
  8
USP-GEO
100
AcDbLine
 10
2.613371842228787
 20
1.303656111460352
 30
0.0
 11
2.613371842228787
 21
1.305664197011186
 31
0.0
  0
LINE
  5
61
330
2
100
AcDbEntity
  8
USP-GEO
100
AcDbLine
 10
2.613371842228787
 20
1.247840915498496
 30
0.0
 11
2.613371842228787
 21
1.24984900104933
 31
0.0
  0
LINE
  5
62
330
2
100
AcDbEntity
  8
USP-GEO
100
AcDbLine
 10
2.63273897566323
 20
1.192773773863283
 30
0.0
 11
2.630890554343032
 21
1.191706587316492
 31
0.0
  0
LINE
  5
63
330
2
100
AcDbEntity
  8
USP-GEO
100
AcDbLine
 10
2.682284787723908
 20
1.274334553070939
 30
0.0
 11
2.684133209044102
 21
1.275401739617731
 31
0.0
  0
LINE
  5
64
330
2
100
AcDbEntity
  8
USP-GEO
100
AcDbLine
 10
2.653282361151802
 20
1.346894307821354
 30
0.0
 11
2.653886241994001
 21
1.347242958588157
 31
0.0
  0
ELLIPSE
  5
65
330
2
100
AcDbEntity
  8
USP-GEO
100
AcDbEllipse
 10
2.672404763506698
 20
1.286309066826699
 30
0.0
 11
0.006825
 21
0.0
 31
0.0
210
0.0000000000000001
220
-0.0000000000000001
230
1.0
 40
0.5773502691896257
 41
-2.35619449019172
 42
-1.450306729762618
  0
ELLIPSE
  5
66
330
2
100
AcDbEntity
  8
USP-GEO
100
AcDbEllipse
 10
2.669189089610693
 20
1.279793357621908
 30
0.0
 11
0.006825
 21
0.0
 31
0.0
210
-0.0000000000000001
220
0.0
230
1.0
 40
0.5773502691896259
 41
-2.861554278468402
 42
-2.356194490192407
  0
ELLIPSE
  5
67
330
2
100
AcDbEntity
  8
USP-GEO
100
AcDbEllipse
 10
2.669189089610693
 20
1.274211838025724
 30
0.0
 11
0.006825
 21
0.0
 31
0.0
210
-0.0000000000000001
220
0.0
230
1.0
 40
0.5773502691896259
 41
-3.1411439972772
 42
-2.356194490192407
  0
ELLIPSE
  5
68
330
2
100
AcDbEntity
  8
USP-GEO
100
AcDbEllipse
 10
2.669189089610693
 20
1.33002703398758
 30
0.0
 11
0.006825
 21
0.0
 31
0.0
210
-0.0000000000000001
220
0.0
230
1.0
 40
0.5773502691896259
 41
-3.1411439972772
 42
-2.356194490192407
  0
ELLIPSE
  5
69
330
2
100
AcDbEntity
  8
USP-GEO
100
AcDbEllipse
 10
2.672404763506698
 20
1.342124262788555
 30
0.0
 11
0.006825
 21
0.0
 31
0.0
210
0.0000000000000001
220
-0.0000000000000001
230
1.0
 40
0.5773502691896257
 41
-2.35619449019172
 42
-1.450306729762618
  0
ELLIPSE
  5
6A
330
2
100
AcDbEntity
  8
USP-GEO
100
AcDbEllipse
 10
2.672404763506698
 20
1.347705782384746
 30
0.0
 11
0.006825
 21
0.0
 31
0.0
210
0.0000000000000001
220
-0.0000000000000001
230
1.0
 40
0.5773502691896257
 41
-2.35619449019172
 42
-1.850378296573954
  0
LINE
  5
6B
330
2
100
AcDbEntity
  8
USP-GEO
100
AcDbLine
 10
2.673225116693192
 20
1.338212415584255
 30
0.0
 11
2.673225116693192
 21
1.342356063132523
 31
0.0
  0
LINE
  5
6C
330
2
100
AcDbEntity
  8
USP-GEO
100
AcDbLine
 10
2.645945872628448
 20
1.342010478174696
 30
0.0
 11
2.649657057830289
 21
1.342010478174696
 31
0.0
  0
LINE
  5
6D
330
2
100
AcDbEntity
  8
USP-GEO
100
AcDbLine
 10
2.678659484402395
 20
1.318986709840427
 30
0.0
 11
2.664363085829094
 21
1.327240739405166
 31
0.0
  0
LINE
  5
6E
330
2
100
AcDbEntity
  8
USP-GEO
100
AcDbLine
 10
2.688326959926428
 20
1.274334553070939
 30
0.0
 11
2.682284787723908
 21
1.274334553070939
 31
0.0
  0
LINE
  5
6F
330
2
100
AcDbEntity
  8
USP-GEO
100
AcDbLine
 10
2.682284787723908
 20
1.281311452566175
 30
0.0
 11
2.688326959926428
 21
1.274334553070939
 31
0.0
  0
LINE
  5
70
330
2
100
AcDbEntity
  8
USP-GEO
100
AcDbLine
 10
2.653282361151802
 20
1.298056011354727
 30
0.0
 11
2.682284787723908
 21
1.281311452566175
 31
0.0
  0
LINE
  5
71
330
2
100
AcDbEntity
  8
USP-GEO
100
AcDbLine
 10
2.667578759725103
 20
1.283522772244285
 30
0.0
 11
2.653282361151802
 21
1.291776801809024
 31
0.0
  0
LINE
  5
72
330
2
100
AcDbEntity
  8
USP-GEO
100
AcDbLine
 10
2.682284787723908
 20
1.330149749032795
 30
0.0
 11
2.653282361151802
 21
1.346894307821354
 31
0.0
  0
LINE
  5
73
330
2
100
AcDbEntity
  8
USP-GEO
100
AcDbLine
 10
2.688326959926428
 20
1.330149749032795
 30
0.0
 11
2.682284787723908
 21
1.330149749032795
 31
0.0
  0
LINE
  5
74
330
2
100
AcDbEntity
  8
USP-GEO
100
AcDbLine
 10
2.678659484402395
 20
1.269450723424281
 30
0.0
 11
2.678659484402395
 21
1.268753033474755
 31
0.0
  0
LINE
  5
75
330
2
100
AcDbEntity
  8
USP-GEO
100
AcDbLine
 10
2.649657057830289
 20
1.28619528221284
 30
0.0
 11
2.678659484402395
 21
1.269450723424281
 31
0.0
  0
LINE
  5
76
330
2
100
AcDbEntity
  8
USP-GEO
100
AcDbLine
 10
2.645945872628448
 20
1.28619528221284
 30
0.0
 11
2.649657057830289
 21
1.28619528221284
 31
0.0
  0
LINE
  5
77
330
2
100
AcDbEntity
  8
USP-GEO
100
AcDbLine
 10
2.678659484402395
 20
1.262473823929045
 30
0.0
 11
2.649657057830289
 21
1.279218382717605
 31
0.0
  0
LINE
  5
78
330
2
100
AcDbEntity
  8
USP-GEO
100
AcDbLine
 10
2.678659484402395
 20
1.263171513878571
 30
0.0
 11
2.678659484402395
 21
1.262473823929045
 31
0.0
  0
LINE
  5
79
330
2
100
AcDbEntity
  8
USP-GEO
100
AcDbLine
 10
2.678659484402395
 20
1.263171513878571
 30
0.0
 11
2.664363085829094
 21
1.27142554344331
 31
0.0
  0
LINE
  5
7A
330
2
100
AcDbEntity
  8
USP-GEO
100
AcDbLine
 10
2.664363085829094
 20
1.27142554344331
 30
0.0
 11
2.664363085829094
 21
1.277007063039494
 31
0.0
  0
LINE
  5
7B
330
2
100
AcDbEntity
  8
USP-GEO
100
AcDbLine
 10
2.664363085829094
 20
1.277007063039494
 30
0.0
 11
2.678659484402395
 21
1.268753033474755
 31
0.0
  0
LINE
  5
7C
330
2
100
AcDbEntity
  8
USP-GEO
100
AcDbLine
 10
2.584244176843849
 20
1.21650351282879
 30
0.0
 11
2.571016899820357
 21
1.208866740878629
 31
0.0
  0
LINE
  5
7D
330
2
100
AcDbEntity
  8
USP-GEO
100
AcDbLine
 10
2.509335584094031
 20
1.278438086278054
 30
0.0
 11
2.507487162773834
 21
1.277370899731263
 31
0.0
  0
LINE
  5
7E
330
2
100
AcDbEntity
  8
USP-GEO
100
AcDbLine
 10
2.499028121690304
 20
1.224346463567503
 30
0.0
 11
2.505070293892824
 21
1.224346463567503
 31
0.0
  0
LINE
  5
7F
330
2
100
AcDbEntity
  8
USP-GEO
100
AcDbLine
 10
2.500876543010498
 20
1.225413650114294
 30
0.0
 11
2.499028121690304
 21
1.224346463567503
 31
0.0
  0
LINE
  5
80
330
2
100
AcDbEntity
  8
USP-GEO
100
AcDbLine
 10
2.495402818368791
 20
1.268300930387464
 30
0.0
 11
2.495402818368791
 21
1.26899862033699
 31
0.0
  0
ELLIPSE
  5
81
330
2
100
AcDbEntity
  8
USP-GEO
100
AcDbEllipse
 10
2.481344511230094
 20
1.23739709430141
 30
0.0
 11
-0.006825
 21
0.0
 31
0.0
210
-0.0000000000000001
220
0.0
230
1.0
 40
0.5773502691896259
 41
-3.141143997276749
 42
-3.090659047698064
  0
ELLIPSE
  5
82
330
2
100
AcDbEntity
  8
USP-GEO
100
AcDbEllipse
 10
2.481344511230094
 20
1.23739709430141
 30
0.0
 11
-0.006825
 21
0.0
 31
0.0
210
-0.0000000000000001
220
0.0
230
1.0
 40
0.5773502691896259
 41
3.021103056558008
 42
3.142041309902836
  0
ELLIPSE
  5
83
330
2
100
AcDbEntity
  8
USP-GEO
100
AcDbEllipse
 10
2.481344511230094
 20
1.231815574705219
 30
0.0
 11
-0.006825
 21
0.0
 31
0.0
210
-0.0000000000000001
220
0.0
230
1.0
 40
0.5773502691896259
 41
3.02110305655756
 42
3.142041309902385
  0
LINE
  5
84
330
2
100
AcDbEntity
  8
USP-GEO
100
AcDbLine
 10
2.488120029339391
 20
1.231341943572171
 30
0.0
 11
2.488120029339391
 21
1.236923463168356
 31
0.0
  0
ELLIPSE
  5
85
330
2
100
AcDbEntity
  8
USP-GEO
100
AcDbEllipse
 10
2.481344511230094
 20
1.181581898339555
 30
0.0
 11
-0.006825
 21
0.0
 31
0.0
210
-0.0000000000000001
220
0.0
230
1.0
 40
0.5773502691896259
 41
-3.1411439972772
 42
-3.090659047693085
  0
ELLIPSE
  5
86
330
2
100
AcDbEntity
  8
USP-GEO
100
AcDbEllipse
 10
2.481344511230094
 20
1.181581898339555
 30
0.0
 11
-0.006825
 21
0.0
 31
0.0
210
-0.0000000000000001
220
0.0
230
1.0
 40
0.5773502691896259
 41
3.021103056558008
 42
3.142041309902385
  0
LINE
  5
87
330
2
100
AcDbEntity
  8
USP-GEO
100
AcDbLine
 10
2.569188858558433
 20
1.312994390401964
 30
0.0
 11
2.57103727987863
 21
1.314061576948756
 31
0.0
  0
LINE
  5
88
330
2
100
AcDbEntity
  8
USP-GEO
100
AcDbLine
 10
2.560729817474904
 20
1.259969954238197
 30
0.0
 11
2.562578238795097
 21
1.261037140784988
 31
0.0
  0
ELLIPSE
  5
89
330
2
100
AcDbEntity
  8
USP-GEO
100
AcDbEllipse
 10
2.550849793257697
 20
1.216129272032102
 30
0.0
 11
0.006825
 21
0.0
 31
0.0
210
0.0000000000000001
220
-0.0000000000000001
230
1.0
 40
0.5773502691896257
 41
-1.722262569228418
 42
-1.450306729763135
  0
ELLIPSE
  5
8A
330
2
100
AcDbEntity
  8
USP-GEO
100
AcDbEllipse
 10
2.550849793257697
 20
1.271944467993957
 30
0.0
 11
0.006825
 21
0.0
 31
0.0
210
0.0000000000000001
220
-0.0000000000000001
230
1.0
 40
0.5773502691896257
 41
-1.722262569227903
 42
-1.450306729763135
  0
LINE
  5
8B
330
2
100
AcDbEntity
  8
USP-GEO
100
AcDbLine
 10
2.57103727987863
 20
1.314061576948756
 30
0.0
 11
2.522540798478928
 21
1.342061033539618
 31
0.0
  0
LINE
  5
8C
330
2
100
AcDbEntity
  8
USP-GEO
100
AcDbLine
 10
2.562578238795097
 20
1.261037140784988
 30
0.0
 11
2.563072246504987
 21
1.261037140784988
 31
0.0
  0
LINE
  5
8D
330
2
100
AcDbEntity
  8
USP-GEO
100
AcDbLine
 10
2.529950508901482
 20
1.32173616639351
 30
0.0
 11
2.53895965879327
 21
1.316534731278313
 31
0.0
  0
LINE
  5
8E
330
2
100
AcDbEntity
  8
USP-GEO
100
AcDbLine
 10
2.551670146444187
 20
1.212217424827802
 30
0.0
 11
2.551670146444187
 21
1.214225510378636
 31
0.0
  0
LINE
  5
8F
330
2
100
AcDbEntity
  8
USP-GEO
100
AcDbLine
 10
2.525757975970879
 20
1.214946894501931
 30
0.0
 11
2.529950508901482
 21
1.210105774469791
 31
0.0
  0
LINE
  5
90
330
2
100
AcDbEntity
  8
USP-GEO
100
AcDbLine
 10
2.528102087581284
 20
1.264853783884863
 30
0.0
 11
2.522984735014723
 21
1.270762793648547
 31
0.0
  0
LINE
  5
91
330
2
100
AcDbEntity
  8
USP-GEO
100
AcDbLine
 10
2.538968623199252
 20
1.25857998662067
 30
0.0
 11
2.528102087581284
 21
1.264853783884863
 31
0.0
  0
LINE
  5
92
330
2
100
AcDbEntity
  8
USP-GEO
100
AcDbLine
 10
2.563997907431108
 20
1.204154758276342
 30
0.0
 11
2.560729817474904
 21
1.204154758276342
 31
0.0
  0
LINE
  5
93
330
2
100
AcDbEntity
  8
USP-GEO
100
AcDbLine
 10
2.560729817474904
 20
1.259969954238197
 30
0.0
 11
2.548652871269901
 21
1.266942582380647
 31
0.0
  0
LINE
  5
94
330
2
100
AcDbEntity
  8
USP-GEO
100
AcDbLine
 10
2.56734043723824
 20
1.311927203855173
 30
0.0
 11
2.569188858558433
 21
1.312994390401964
 31
0.0
  0
LINE
  5
95
330
2
100
AcDbEntity
  8
USP-GEO
100
AcDbLine
 10
2.55888139615471
 20
1.20308757172955
 30
0.0
 11
2.560729817474904
 21
1.204154758276342
 31
0.0
  0
LINE
  5
96
330
2
100
AcDbEntity
  8
USP-GEO
100
AcDbLine
 10
2.529878969582604
 20
1.275647326479965
 30
0.0
 11
2.530482850424803
 21
1.275995977246768
 31
0.0
  0
ELLIPSE
  5
97
330
2
100
AcDbEntity
  8
USP-GEO
100
AcDbEllipse
 10
2.545785698041495
 20
1.208546376280519
 30
0.0
 11
0.006825
 21
0.0
 31
0.0
210
-0.0000000000000001
220
0.0
230
1.0
 40
0.5773502691896259
 41
-2.861554278569318
 42
-2.356194490192407
  0
ELLIPSE
  5
98
330
2
100
AcDbEntity
  8
USP-GEO
100
AcDbEllipse
 10
2.545785698041495
 20
1.202964856684328
 30
0.0
 11
0.006825
 21
0.0
 31
0.0
210
-0.0000000000000001
220
0.0
230
1.0
 40
0.5773502691896259
 41
-3.1411439972772
 42
-2.356194490192407
  0
ELLIPSE
  5
99
330
2
100
AcDbEntity
  8
USP-GEO
100
AcDbEllipse
 10
2.545785698041495
 20
1.32017676820423
 30
0.0
 11
0.006825
 21
0.0
 31
0.0
210
-0.0000000000000001
220
0.0
230
1.0
 40
0.5773502691896259
 41
-2.861554278520086
 42
-2.356194490192407
  0
ELLIPSE
  5
9A
330
2
100
AcDbEntity
  8
USP-GEO
100
AcDbEllipse
 10
2.545785698041495
 20
1.314595248608046
 30
0.0
 11
0.006825
 21
0.0
 31
0.0
210
-0.0000000000000001
220
0.0
230
1.0
 40
0.5773502691896259
 41
-3.1411439972772
 42
-2.356194490192407
  0
ELLIPSE
  5
9B
330
2
100
AcDbEntity
  8
USP-GEO
100
AcDbEllipse
 10
2.545785698041495
 20
1.264361572242375
 30
0.0
 11
0.006825
 21
0.0
 31
0.0
210
-0.0000000000000001
220
0.0
230
1.0
 40
0.5773502691896259
 41
-2.8615542785852
 42
-2.356194490192407
  0
ELLIPSE
  5
9C
330
2
100
AcDbEntity
  8
USP-GEO
100
AcDbEllipse
 10
2.545785698041495
 20
1.258780052646191
 30
0.0
 11
0.006825
 21
0.0
 31
0.0
210
-0.0000000000000001
220
0.0
230
1.0
 40
0.5773502691896259
 41
-3.1411439972772
 42
-2.356194490192407
  0
LINE
  5
9D
330
2
100
AcDbEntity
  8
USP-GEO
100
AcDbLine
 10
2.530482850424803
 20
1.282275186792478
 30
0.0
 11
2.529878969582604
 21
1.281926536025675
 31
0.0
  0
ELLIPSE
  5
9E
330
2
100
AcDbEntity
  8
USP-GEO
100
AcDbEllipse
 10
2.549001371937499
 20
1.270877281447166
 30
0.0
 11
0.006825
 21
0.0
 31
0.0
210
0.0000000000000001
220
-0.0000000000000001
230
1.0
 40
0.5773502691896257
 41
-2.356194490192407
 42
-1.450306729763135
  0
ELLIPSE
  5
9F
330
2
100
AcDbEntity
  8
USP-GEO
100
AcDbEllipse
 10
2.549001371937499
 20
1.276458801043357
 30
0.0
 11
0.006825
 21
0.0
 31
0.0
210
0.0000000000000001
220
-0.0000000000000001
230
1.0
 40
0.5773502691896257
 41
-2.356194490192407
 42
-1.850378296573954
  0
ELLIPSE
  5
A0
330
2
100
AcDbEntity
  8
USP-GEO
100
AcDbEllipse
 10
2.549001371937499
 20
1.220643605081495
 30
0.0
 11
0.006825
 21
0.0
 31
0.0
210
0.0000000000000001
220
-0.0000000000000001
230
1.0
 40
0.5773502691896257
 41
-2.356194490192407
 42
-1.850378296573954
  0
LINE
  5
A1
330
2
100
AcDbEntity
  8
USP-GEO
100
AcDbLine
 10
2.530482850424803
 20
1.226459990830623
 30
0.0
 11
2.529878969582604
 21
1.22611134006382
 31
0.0
  0
LINE
  5
A2
330
2
100
AcDbEntity
  8
USP-GEO
100
AcDbLine
 10
2.555256092833197
 20
1.247739728499038
 30
0.0
 11
2.555256092833197
 21
1.247042038549512
 31
0.0
  0
LINE
  5
A3
330
2
100
AcDbEntity
  8
USP-GEO
100
AcDbLine
 10
2.555256092833197
 20
1.247739728499038
 30
0.0
 11
2.540959694259896
 21
1.255993758063777
 31
0.0
  0
LINE
  5
A4
330
2
100
AcDbEntity
  8
USP-GEO
100
AcDbLine
 10
2.56492356835723
 20
1.20308757172955
 30
0.0
 11
2.55888139615471
 21
1.20308757172955
 31
0.0
  0
LINE
  5
A5
330
2
100
AcDbEntity
  8
USP-GEO
100
AcDbLine
 10
2.55888139615471
 20
1.210064471224786
 30
0.0
 11
2.56492356835723
 21
1.20308757172955
 31
0.0
  0
LINE
  5
A6
330
2
100
AcDbEntity
  8
USP-GEO
100
AcDbLine
 10
2.529878969582604
 20
1.226809030013338
 30
0.0
 11
2.55888139615471
 21
1.210064471224786
 31
0.0
  0
LINE
  5
A7
330
2
100
AcDbEntity
  8
USP-GEO
100
AcDbLine
 10
2.529878969582604
 20
1.22611134006382
 30
0.0
 11
2.529878969582604
 21
1.226809030013338
 31
0.0
  0
LINE
  5
A8
330
2
100
AcDbEntity
  8
USP-GEO
100
AcDbLine
 10
2.529878969582604
 20
1.22611134006382
 30
0.0
 11
2.544175368155904
 21
1.217857310499081
 31
0.0
  0
LINE
  5
A9
330
2
100
AcDbEntity
  8
USP-GEO
100
AcDbLine
 10
2.544175368155901
 20
1.217857310499081
 30
0.0
 11
2.544175368155901
 21
1.212275790902896
 31
0.0
  0
LINE
  5
AA
330
2
100
AcDbEntity
  8
USP-GEO
100
AcDbLine
 10
2.544175368155901
 20
1.212275790902896
 30
0.0
 11
2.529878969582604
 21
1.220529820467628
 31
0.0
  0
LINE
  5
AB
330
2
100
AcDbEntity
  8
USP-GEO
100
AcDbLine
 10
2.529878969582604
 20
1.275647326479965
 30
0.0
 11
2.529878969582604
 21
1.276345016429484
 31
0.0
  0
LINE
  5
AC
330
2
100
AcDbEntity
  8
USP-GEO
100
AcDbLine
 10
2.529878969582604
 20
1.281926536025675
 30
0.0
 11
2.529878969582604
 21
1.282624225975194
 31
0.0
  0
LINE
  5
AD
330
2
100
AcDbEntity
  8
USP-GEO
100
AcDbLine
 10
2.529878969582604
 20
1.281926536025675
 30
0.0
 11
2.544175368155904
 21
1.273672506460936
 31
0.0
  0
LINE
  5
AE
330
2
100
AcDbEntity
  8
USP-GEO
100
AcDbLine
 10
2.544175368155901
 20
1.268090986864752
 30
0.0
 11
2.529878969582604
 21
1.276345016429484
 31
0.0
  0
LINE
  5
AF
330
2
100
AcDbEntity
  8
USP-GEO
100
AcDbLine
 10
2.555256092833197
 20
1.191924532537182
 30
0.0
 11
2.555256092833197
 21
1.191226842587656
 31
0.0
  0
LINE
  5
B0
330
2
100
AcDbEntity
  8
USP-GEO
100
AcDbLine
 10
2.555256092833197
 20
1.191924532537182
 30
0.0
 11
2.540959694259896
 21
1.200178562101914
 31
0.0
  0
LINE
  5
B1
330
2
100
AcDbEntity
  8
USP-GEO
100
AcDbLine
 10
2.540959694259896
 20
1.200178562101914
 30
0.0
 11
2.540959694259896
 21
1.205760081698098
 31
0.0
  0
LINE
  5
B2
330
2
100
AcDbEntity
  8
USP-GEO
100
AcDbLine
 10
2.540959694259896
 20
1.205760081698098
 30
0.0
 11
2.555256092833197
 21
1.197506052133366
 31
0.0
  0
LINE
  5
B3
330
2
100
AcDbEntity
  8
USP-GEO
100
AcDbLine
 10
2.555256092833197
 20
1.309834134006603
 30
0.0
 11
2.555256092833197
 21
1.309136444057077
 31
0.0
  0
LINE
  5
B4
330
2
100
AcDbEntity
  8
USP-GEO
100
AcDbLine
 10
2.58795536204569
 20
1.299410088008766
 30
0.0
 11
2.589803783365887
 21
1.300477274555557
 31
0.0
  0
LINE
  5
B5
330
2
100
AcDbEntity
  8
USP-GEO
100
AcDbLine
 10
2.592184546209402
 20
1.317898677463173
 30
0.0
 11
2.591580665367203
 21
1.31755002669637
 31
0.0
  0
LINE
  5
B6
330
2
100
AcDbEntity
  8
USP-GEO
100
AcDbLine
 10
2.592184546209402
 20
1.262083481501317
 30
0.0
 11
2.591580665367203
 21
1.261734830734514
 31
0.0
  0
LINE
  5
B7
330
2
100
AcDbEntity
  8
USP-GEO
100
AcDbLine
 10
2.589803783365887
 20
1.300477274555557
 30
0.0
 11
2.600670318983858
 21
1.294203477291357
 31
0.0
  0
LINE
  5
B8
330
2
100
AcDbEntity
  8
USP-GEO
100
AcDbLine
 10
2.591580665367203
 20
1.31127081715066
 30
0.0
 11
2.591580665367203
 21
1.311968507100186
 31
0.0
  0
LINE
  5
B9
330
2
100
AcDbEntity
  8
USP-GEO
100
AcDbLine
 10
2.591580665367203
 20
1.31755002669637
 30
0.0
 11
2.591580665367203
 21
1.318247716645895
 31
0.0
  0
LINE
  5
BA
330
2
100
AcDbEntity
  8
USP-GEO
100
AcDbLine
 10
2.589803783365887
 20
1.300477274555557
 30
0.0
 11
2.591652204686081
 21
1.301544461102349
 31
0.0
  0
ELLIPSE
  5
BB
330
2
100
AcDbEntity
  8
USP-GEO
100
AcDbEllipse
 10
2.607487393826094
 20
1.244169866951214
 30
0.0
 11
0.006825
 21
0.0
 31
0.0
210
-0.0000000000000001
220
0.0
230
1.0
 40
0.5773502691896259
 41
-2.8615542785172
 42
-2.356194490192407
  0
ELLIPSE
  5
BC
330
2
100
AcDbEntity
  8
USP-GEO
100
AcDbEllipse
 10
2.607487393826094
 20
1.23858834735503
 30
0.0
 11
0.006825
 21
0.0
 31
0.0
210
-0.0000000000000001
220
0.0
230
1.0
 40
0.5773502691896259
 41
-3.1411439972772
 42
-2.356194490192407
  0
ELLIPSE
  5
BD
330
2
100
AcDbEntity
  8
USP-GEO
100
AcDbEllipse
 10
2.607487393826094
 20
1.299985062913069
 30
0.0
 11
0.006825
 21
0.0
 31
0.0
210
-0.0000000000000001
220
0.0
230
1.0
 40
0.5773502691896259
 41
-2.861554278596027
 42
-2.356194490192407
  0
ELLIPSE
  5
BE
330
2
100
AcDbEntity
  8
USP-GEO
100
AcDbEllipse
 10
2.607487393826094
 20
1.294403543316885
 30
0.0
 11
0.006825
 21
0.0
 31
0.0
210
-0.0000000000000001
220
0.0
230
1.0
 40
0.5773502691896259
 41
-3.1411439972772
 42
-2.356194490192407
  0
LINE
  5
BF
330
2
100
AcDbEntity
  8
USP-GEO
100
AcDbLine
 10
2.58795536204569
 20
1.306386987503994
 30
0.0
 11
2.616957788617796
 21
1.289642428715442
 31
0.0
  0
LINE
  5
C0
330
2
100
AcDbEntity
  8
USP-GEO
100
AcDbLine
 10
2.616957788617796
 20
1.282665529220206
 30
0.0
 11
2.58795536204569
 21
1.299410088008766
 31
0.0
  0
LINE
  5
C1
330
2
100
AcDbEntity
  8
USP-GEO
100
AcDbLine
 10
2.591580665367203
 20
1.261734830734514
 30
0.0
 11
2.605877063940504
 21
1.253480801169775
 31
0.0
  0
LINE
  5
C2
330
2
100
AcDbEntity
  8
USP-GEO
100
AcDbLine
 10
2.620583091939309
 20
1.2945262583621
 30
0.0
 11
2.591580665367203
 21
1.31127081715066
 31
0.0
  0
LINE
  5
C3
330
2
100
AcDbEntity
  8
USP-GEO
100
AcDbLine
 10
2.591580665367203
 20
1.31755002669637
 30
0.0
 11
2.605877063940504
 21
1.309295997131631
 31
0.0
  0
LINE
  5
C4
330
2
100
AcDbEntity
  8
USP-GEO
100
AcDbLine
 10
2.605877063940504
 20
1.303714477535447
 30
0.0
 11
2.591580665367203
 21
1.311968507100186
 31
0.0
  0
LINE
  5
C5
330
2
100
AcDbEntity
  8
USP-GEO
100
AcDbLine
 10
2.630890554343032
 20
1.348617881072659
 30
0.0
 11
2.58424333555369
 21
1.375549665397631
 31
0.0
  0
LINE
  5
C6
330
2
100
AcDbEntity
  8
USP-GEO
100
AcDbLine
 10
2.584244176843849
 20
1.37341480658495
 30
0.0
 11
2.629042133022839
 21
1.347550694525867
 31
0.0
  0
LINE
  5
C7
330
2
100
AcDbEntity
  8
USP-GEO
100
AcDbLine
 10
2.616957788617796
 20
1.338480725182062
 30
0.0
 11
2.58795536204569
 21
1.355225283970622
 31
0.0
  0
LINE
  5
C8
330
2
100
AcDbEntity
  8
USP-GEO
100
AcDbLine
 10
2.63273897566323
 20
1.34968506761945
 30
0.0
 11
2.584242494263527
 21
1.377684524210312
 31
0.0
  0
LINE
  5
C9
330
2
100
AcDbEntity
  8
USP-GEO
100
AcDbLine
 10
2.653282361151802
 20
1.353173517367064
 30
0.0
 11
2.667578759725103
 21
1.344919487802325
 31
0.0
  0
ELLIPSE
  5
CA
330
2
100
AcDbEntity
  8
USP-GEO
100
AcDbEllipse
 10
2.428381827944583
 20
1.402800918858407
 30
0.0
 11
0.0042724609375
 21
-0.0074001194171034
 31
0.0
210
0.0
220
0.0
230
1.0
 40
0.577350269189626
 41
3.141592653589793
 42
6.283185307179672
  0
ELLIPSE
  5
CB
330
2
100
AcDbEntity
  8
USP-GEO
100
AcDbEllipse
 10
2.428381827944583
 20
1.402800918858407
 30
0.0
 11
0.0042724609375
 21
-0.0074001194171034
 31
0.0
210
0.0
220
0.0
230
1.0
 40
0.577350269189626
 41
2.356194490192344
 42
3.141592653589793
  0
ELLIPSE
  5
CC
330
2
100
AcDbEntity
  8
USP-GEO
100
AcDbEllipse
 10
2.407082052009052
 20
1.367061105184365
 30
0.0
 11
-0.0034548912529517
 21
0.0059840471847376
 31
0.0
210
0.0000000000000001
220
-0.0000000000000001
230
1.0
 40
0.5773502691896258
 41
-0.0000000000003473
 42
2.356194490192344
  0
ELLIPSE
  5
CD
330
2
100
AcDbEntity
  8
USP-GEO
100
AcDbEllipse
 10
2.407082052009052
 20
1.367061105184365
 30
0.0
 11
-0.0034548912529517
 21
0.0059840471847376
 31
0.0
210
0.0000000000000001
220
-0.0000000000000001
230
1.0
 40
0.5773502691896258
 41
3.14159265358946
 42
6.283185307179253
  0
ELLIPSE
  5
CE
330
2
100
AcDbEntity
  8
USP-GEO
100
AcDbEllipse
 10
2.407082052009052
 20
1.367061105184365
 30
0.0
 11
-0.0034548912529517
 21
0.0059840471847376
 31
0.0
210
0.0000000000000001
220
-0.0000000000000001
230
1.0
 40
0.5773502691896258
 41
2.356194490192344
 42
3.14159265358946
  0
ELLIPSE
  5
CF
330
2
100
AcDbEntity
  8
USP-GEO
100
AcDbEllipse
 10
2.40903643363563
 20
1.368189467942574
 30
0.0
 11
-0.0034548912529517
 21
0.0059840471847376
 31
0.0
210
0.0000000000000001
220
-0.0000000000000001
230
1.0
 40
0.5773502691896258
 41
3.14159265358946
 42
6.283185307179253
  0
LINE
  5
D0
330
2
100
AcDbEntity
  8
USP-GEO
100
AcDbLine
 10
2.442317949374007
 20
1.442268054200777
 30
0.0
 11
2.440363567747429
 21
1.441139691442568
 31
0.0
  0
LINE
  5
D1
330
2
100
AcDbEntity
  8
USP-GEO
100
AcDbLine
 10
2.447273350253333
 20
1.429171597073096
 30
0.0
 11
2.449227731879911
 21
1.430299959831298
 31
0.0
  0
ELLIPSE
  5
D2
330
2
100
AcDbEntity
  8
USP-GEO
100
AcDbEllipse
 10
2.428381827944583
 20
1.402800918858407
 30
0.0
 11
0.0042724609375
 21
-0.0074001194171034
 31
0.0
210
0.0
220
0.0
230
1.0
 40
0.577350269189626
 41
0.0000000000000862
 42
2.356194490192344
  0
ELLIPSE
  5
D3
330
2
100
AcDbEntity
  8
USP-GEO
100
AcDbEllipse
 10
2.443818459000382
 20
1.435155644257829
 30
0.0
 11
-0.0034548912529517
 21
0.0059840471847376
 31
0.0
210
0.0000000000000001
220
-0.0000000000000001
230
1.0
 40
0.5773502691896258
 41
-0.0000000000003473
 42
2.356194490192344
  0
ELLIPSE
  5
D4
330
2
100
AcDbEntity
  8
USP-GEO
100
AcDbEllipse
 10
2.443818459000382
 20
1.435155644257829
 30
0.0
 11
-0.0034548912529517
 21
0.0059840471847376
 31
0.0
210
0.0000000000000001
220
-0.0000000000000001
230
1.0
 40
0.5773502691896258
 41
3.14159265358946
 42
6.283185307179253
  0
ELLIPSE
  5
D5
330
2
100
AcDbEntity
  8
USP-GEO
100
AcDbEllipse
 10
2.443818459000382
 20
1.435155644257829
 30
0.0
 11
-0.0034548912529517
 21
0.0059840471847376
 31
0.0
210
0.0000000000000001
220
-0.0000000000000001
230
1.0
 40
0.5773502691896258
 41
2.356194490192344
 42
3.14159265358946
  0
ELLIPSE
  5
D6
330
2
100
AcDbEntity
  8
USP-GEO
100
AcDbEllipse
 10
2.445772840626961
 20
1.436284007016038
 30
0.0
 11
-0.0034548912529517
 21
0.0059840471847376
 31
0.0
210
0.0000000000000001
220
-0.0000000000000001
230
1.0
 40
0.5773502691896258
 41
3.14159265358946
 42
6.283185307179253
  0
LINE
  5
D7
330
2
100
AcDbEntity
  8
USP-GEO
100
AcDbLine
 10
2.405581542382677
 20
1.266264136267718
 30
0.0
 11
2.403627160756098
 21
1.265135773509516
 31
0.0
  0
LINE
  5
D8
330
2
100
AcDbEntity
  8
USP-GEO
100
AcDbLine
 10
2.410536943262002
 20
1.253167679140045
 30
0.0
 11
2.412491324888581
 21
1.254296041898246
 31
0.0
  0
LINE
  5
D9
330
2
100
AcDbEntity
  8
USP-GEO
100
AcDbLine
 10
2.390920360288951
 20
1.202372248950833
 30
0.0
 11
2.392127523588616
 21
1.201675292894822
 31
0.0
  0
ELLIPSE
  5
DA
330
2
100
AcDbEntity
  8
USP-GEO
100
AcDbEllipse
 10
2.355875761514322
 20
1.197680073698588
 30
0.0
 11
0.02734375
 21
0.0473607642694615
 31
0.0
210
0.0
220
-0.0000000000000002
230
1.0
 40
0.5773502691896261
 41
-1.231858780707808
 42
-1.221867192132262
  0
ELLIPSE
  5
DB
330
2
100
AcDbEntity
  8
USP-GEO
100
AcDbEllipse
 10
2.352987119827741
 20
1.199347831753922
 30
0.0
 11
0.02734375
 21
0.0473607642694615
 31
0.0
210
0.0
220
-0.0000000000000002
230
1.0
 40
0.5773502691896261
 41
-1.231858780707772
 42
-1.221867192132226
  0
ELLIPSE
  5
DC
330
2
100
AcDbEntity
  8
USP-GEO
100
AcDbEllipse
 10
2.355875761514322
 20
1.238146090770936
 30
0.0
 11
0.02734375
 21
-0.0473607642694615
 31
0.0
210
0.0
220
0.0
230
1.0
 40
0.5773502691896257
 41
0.3489291346626659
 42
0.7853981633973755
  0
ELLIPSE
  5
DD
330
2
100
AcDbEntity
  8
USP-GEO
100
AcDbEllipse
 10
2.407082052009048
 20
1.259151726324777
 30
0.0
 11
-0.0034548912529517
 21
0.0059840471847376
 31
0.0
210
0.0000000000000001
220
-0.0000000000000001
230
1.0
 40
0.5773502691896258
 41
-0.0000000000003473
 42
2.356194490192344
  0
ELLIPSE
  5
DE
330
2
100
AcDbEntity
  8
USP-GEO
100
AcDbEllipse
 10
2.407082052009048
 20
1.259151726324777
 30
0.0
 11
-0.0034548912529517
 21
0.0059840471847376
 31
0.0
210
0.0000000000000001
220
-0.0000000000000001
230
1.0
 40
0.5773502691896258
 41
3.14159265358946
 42
6.283185307179253
  0
ELLIPSE
  5
DF
330
2
100
AcDbEntity
  8
USP-GEO
100
AcDbEllipse
 10
2.407082052009048
 20
1.259151726324777
 30
0.0
 11
-0.0034548912529517
 21
0.0059840471847376
 31
0.0
210
0.0000000000000001
220
-0.0000000000000001
230
1.0
 40
0.5773502691896258
 41
2.356194490192344
 42
3.14159265358946
  0
LINE
  5
E0
330
2
100
AcDbEntity
  8
USP-GEO
100
AcDbLine
 10
2.383194174794383
 20
1.351265862893168
 30
0.0
 11
2.394543507584423
 21
1.344713322551715
 31
0.0
  0
LINE
  5
E1
330
2
100
AcDbEntity
  8
USP-GEO
100
AcDbLine
 10
2.394544348874585
 20
1.221878102471517
 30
0.0
 11
2.383195016084542
 21
1.22843064281297
 31
0.0
  0
LINE
  5
E2
330
2
100
AcDbEntity
  8
USP-GEO
100
AcDbLine
 10
2.394543507584423
 20
1.230989860779434
 30
0.0
 11
2.39391098153866
 21
1.231355049862226
 31
0.0
  0
LINE
  5
E3
330
2
100
AcDbEntity
  8
USP-GEO
100
AcDbLine
 10
2.394543507584423
 20
1.28680505674129
 30
0.0
 11
2.39391098153866
 21
1.287170245824082
 31
0.0
  0
ELLIPSE
  5
E4
330
2
100
AcDbEntity
  8
USP-GEO
100
AcDbEllipse
 10
2.387086624870754
 20
1.230420194806175
 30
0.0
 11
-0.006825
 21
0.0
 31
0.0
210
-0.0000000000000001
220
0.0
230
1.0
 40
0.5773502691896259
 41
3.021103056558008
 42
3.142041309902385
  0
ELLIPSE
  5
E5
330
2
100
AcDbEntity
  8
USP-GEO
100
AcDbEllipse
 10
2.383870950974749
 20
1.223904485601384
 30
0.0
 11
-0.006825
 21
0.0
 31
0.0
210
0.0000000000000001
220
-0.0000000000000001
230
1.0
 40
0.5773502691896257
 41
-1.621628477515438
 42
-1.471565293079243
  0
ELLIPSE
  5
E6
330
2
100
AcDbEntity
  8
USP-GEO
100
AcDbEllipse
 10
2.383870950974749
 20
1.279719681563239
 30
0.0
 11
-0.006825
 21
0.0
 31
0.0
210
0.0000000000000001
220
-0.0000000000000001
230
1.0
 40
0.5773502691896257
 41
-1.621628477500836
 42
-1.471565293079761
  0
ELLIPSE
  5
E7
330
2
100
AcDbEntity
  8
USP-GEO
100
AcDbEllipse
 10
2.383870950974749
 20
1.335534877525095
 30
0.0
 11
-0.006825
 21
0.0
 31
0.0
210
0.0000000000000001
220
-0.0000000000000001
230
1.0
 40
0.5773502691896257
 41
-1.621628477505018
 42
-1.471565293079243
  0
ELLIPSE
  5
E8
330
2
100
AcDbEntity
  8
USP-GEO
100
AcDbEllipse
 10
2.387086624870754
 20
1.291816910364214
 30
0.0
 11
-0.006825
 21
0.0
 31
0.0
210
-0.0000000000000001
220
0.0
230
1.0
 40
0.5773502691896259
 41
-3.1411439972772
 42
-3.090659047687682
  0
ELLIPSE
  5
E9
330
2
100
AcDbEntity
  8
USP-GEO
100
AcDbEllipse
 10
2.387086624870754
 20
1.291816910364214
 30
0.0
 11
-0.006825
 21
0.0
 31
0.0
210
-0.0000000000000001
220
0.0
230
1.0
 40
0.5773502691896259
 41
3.02110305655756
 42
3.142041309902385
  0
LINE
  5
EA
330
2
100
AcDbEntity
  8
USP-GEO
100
AcDbLine
 10
2.447273350253333
 20
1.178003215244739
 30
0.0
 11
2.449227731879911
 21
1.179131578002948
 31
0.0
  0
LINE
  5
EB
330
2
100
AcDbEntity
  8
USP-GEO
100
AcDbLine
 10
2.442317949374007
 20
1.299009051232015
 30
0.0
 11
2.440363567747429
 21
1.297880688473806
 31
0.0
  0
LINE
  5
EC
330
2
100
AcDbEntity
  8
USP-GEO
100
AcDbLine
 10
2.447273350253333
 20
1.285912594104328
 30
0.0
 11
2.449227731879911
 21
1.287040956862536
 31
0.0
  0
ELLIPSE
  5
ED
330
2
100
AcDbEntity
  8
USP-GEO
100
AcDbEllipse
 10
2.443818459000382
 20
1.183987262429479
 30
0.0
 11
-0.0034548912529517
 21
0.0059840471847376
 31
0.0
210
0.0000000000000001
220
-0.0000000000000001
230
1.0
 40
0.5773502691896258
 41
-0.0000000000003473
 42
2.356194490192344
  0
ELLIPSE
  5
EE
330
2
100
AcDbEntity
  8
USP-GEO
100
AcDbEllipse
 10
2.443818459000382
 20
1.183987262429479
 30
0.0
 11
-0.0034548912529517
 21
0.0059840471847376
 31
0.0
210
0.0000000000000001
220
-0.0000000000000001
230
1.0
 40
0.5773502691896258
 41
3.141592653588465
 42
6.283185307179253
  0
ELLIPSE
  5
EF
330
2
100
AcDbEntity
  8
USP-GEO
100
AcDbEllipse
 10
2.443818459000382
 20
1.183987262429479
 30
0.0
 11
-0.0034548912529517
 21
0.0059840471847376
 31
0.0
210
0.0000000000000001
220
-0.0000000000000001
230
1.0
 40
0.5773502691896258
 41
2.356194490192344
 42
3.141592653588465
  0
ELLIPSE
  5
F0
330
2
100
AcDbEntity
  8
USP-GEO
100
AcDbEllipse
 10
2.445772840626961
 20
1.185115625187687
 30
0.0
 11
-0.0034548912529517
 21
0.0059840471847376
 31
0.0
210
0.0000000000000001
220
-0.0000000000000001
230
1.0
 40
0.5773502691896258
 41
3.141592653587235
 42
6.283185307180247
  0
ELLIPSE
  5
F1
330
2
100
AcDbEntity
  8
USP-GEO
100
AcDbEllipse
 10
2.443818459000382
 20
1.291896641289067
 30
0.0
 11
-0.0034548912529517
 21
0.0059840471847376
 31
0.0
210
0.0000000000000001
220
-0.0000000000000001
230
1.0
 40
0.5773502691896258
 41
-0.0000000000003473
 42
2.356194490192344
  0
ELLIPSE
  5
F2
330
2
100
AcDbEntity
  8
USP-GEO
100
AcDbEllipse
 10
2.443818459000382
 20
1.291896641289067
 30
0.0
 11
-0.0034548912529517
 21
0.0059840471847376
 31
0.0
210
0.0000000000000001
220
-0.0000000000000001
230
1.0
 40
0.5773502691896258
 41
3.14159265358946
 42
6.283185307179253
  0
ELLIPSE
  5
F3
330
2
100
AcDbEntity
  8
USP-GEO
100
AcDbEllipse
 10
2.443818459000382
 20
1.291896641289067
 30
0.0
 11
-0.0034548912529517
 21
0.0059840471847376
 31
0.0
210
0.0000000000000001
220
-0.0000000000000001
230
1.0
 40
0.5773502691896258
 41
2.356194490192344
 42
3.14159265358946
  0
ELLIPSE
  5
F4
330
2
100
AcDbEntity
  8
USP-GEO
100
AcDbEllipse
 10
2.445772840626961
 20
1.293025004047276
 30
0.0
 11
-0.0034548912529517
 21
0.0059840471847376
 31
0.0
210
0.0000000000000001
220
-0.0000000000000001
230
1.0
 40
0.5773502691896258
 41
3.14159265358946
 42
6.283185307179253
  0
LINE
  5
F5
330
2
100
AcDbEntity
  8
USP-GEO
100
AcDbLine
 10
2.470629575960401
 20
1.18562447716101
 30
0.0
 11
2.470025695118199
 21
1.1852758263942
 31
0.0
  0
LINE
  5
F6
330
2
100
AcDbEntity
  8
USP-GEO
100
AcDbLine
 10
2.466400391796685
 20
1.292022388671252
 30
0.0
 11
2.465106633965287
 21
1.292022388671252
 31
0.0
  0
LINE
  5
F7
330
2
100
AcDbEntity
  8
USP-GEO
100
AcDbLine
 10
2.468248813116883
 20
1.23029747976096
 30
0.0
 11
2.465105792675124
 21
1.233926727157186
 31
0.0
  0
LINE
  5
F8
330
2
100
AcDbEntity
  8
USP-GEO
100
AcDbLine
 10
2.468248813116883
 20
1.23029747976096
 30
0.0
 11
2.466400391796685
 21
1.229230293214168
 31
0.0
  0
LINE
  5
F9
330
2
100
AcDbEntity
  8
USP-GEO
100
AcDbLine
 10
2.470629575960401
 20
1.241439673122865
 30
0.0
 11
2.470025695118199
 21
1.241091022356062
 31
0.0
  0
LINE
  5
FA
330
2
100
AcDbEntity
  8
USP-GEO
100
AcDbLine
 10
2.470025695118199
 20
1.241788712305588
 30
0.0
 11
2.470025695118199
 21
1.241091022356062
 31
0.0
  0
LINE
  5
FB
330
2
100
AcDbEntity
  8
USP-GEO
100
AcDbLine
 10
2.470025695118199
 20
1.192252725889435
 30
0.0
 11
2.470025695118199
 21
1.191555035939909
 31
0.0
  0
LINE
  5
FC
330
2
100
AcDbEntity
  8
USP-GEO
100
AcDbLine
 10
2.470025695118199
 20
1.248067921851291
 30
0.0
 11
2.470025695118199
 21
1.247370231901765
 31
0.0
  0
LINE
  5
FD
330
2
100
AcDbEntity
  8
USP-GEO
100
AcDbLine
 10
2.477308484147599
 20
1.285026908666591
 30
0.0
 11
2.477308484147599
 21
1.279445389070399
 31
0.0
  0
ELLIPSE
  5
FE
330
2
100
AcDbEntity
  8
USP-GEO
100
AcDbEllipse
 10
2.478128837334089
 20
1.225299865500428
 30
0.0
 11
-0.006825
 21
0.0
 31
0.0
210
0.0000000000000001
220
-0.0000000000000001
230
1.0
 40
0.5773502691896257
 41
-1.621628477510216
 42
-1.450306729763135
  0
LINE
  5
FF
330
2
100
AcDbEntity
  8
USP-GEO
100
AcDbLine
 10
2.477308484147599
 20
1.229211712704735
 30
0.0
 11
2.477308484147599
 21
1.223630193108544
 31
0.0
  0
LINE
  5
100
330
2
100
AcDbEntity
  8
USP-GEO
100
AcDbLine
 10
2.470025695118199
 20
1.191555035939909
 30
0.0
 11
2.470629575960401
 21
1.191903686706719
 31
0.0
  0
LINE
  5
101
330
2
100
AcDbEntity
  8
USP-GEO
100
AcDbLine
 10
2.38319798084035
 20
1.391212567872809
 30
0.0
 11
2.38319798084035
 21
1.186249941262733
 31
0.0
  0
LINE
  5
102
330
2
100
AcDbEntity
  8
USP-GEO
100
AcDbLine
 10
2.465106633965287
 20
1.178417133268229
 30
0.0
 11
2.465106633965287
 21
1.446330073885139
 31
0.0
  0
LINE
  5
103
330
2
100
AcDbEntity
  8
USP-GEO
100
AcDbLine
 10
2.465105792675124
 20
1.303974168259966
 30
0.0
 11
2.509335584094031
 21
1.278438086278054
 31
0.0
  0
LINE
  5
104
330
2
100
AcDbEntity
  8
USP-GEO
100
AcDbLine
 10
2.495402818368791
 20
1.219462633920837
 30
0.0
 11
2.466400391796685
 21
1.236207192709397
 31
0.0
  0
LINE
  5
105
330
2
100
AcDbEntity
  8
USP-GEO
100
AcDbLine
 10
2.466400391796685
 20
1.229230293214168
 30
0.0
 11
2.495402818368791
 21
1.212485734425609
 31
0.0
  0
LINE
  5
106
330
2
100
AcDbEntity
  8
USP-GEO
100
AcDbLine
 10
2.470025695118199
 20
1.241091022356062
 30
0.0
 11
2.499028121690304
 21
1.224346463567503
 31
0.0
  0
LINE
  5
107
330
2
100
AcDbEntity
  8
USP-GEO
100
AcDbLine
 10
2.499028121690304
 20
1.231323363062738
 30
0.0
 11
2.470025695118199
 21
1.248067921851291
 31
0.0
  0
LINE
  5
108
330
2
100
AcDbEntity
  8
USP-GEO
100
AcDbLine
 10
2.488120029339391
 20
1.231341943572171
 30
0.0
 11
2.470025695118199
 21
1.241788712305588
 31
0.0
  0
LINE
  5
109
330
2
100
AcDbEntity
  8
USP-GEO
100
AcDbLine
 10
2.477308484147599
 20
1.279445389070399
 30
0.0
 11
2.495402818368791
 21
1.26899862033699
 31
0.0
  0
LINE
  5
10A
330
2
100
AcDbEntity
  8
USP-GEO
100
AcDbLine
 10
2.488120029339391
 20
1.236923463168356
 30
0.0
 11
2.470025695118199
 21
1.247370231901765
 31
0.0
  0
LINE
  5
10B
330
2
100
AcDbEntity
  8
USP-GEO
100
AcDbLine
 10
2.488169511230097
 20
1.060493482023456
 30
0.0
 11
2.488169511230097
 21
1.066075001619648
 31
0.0
  0
LINE
  5
10C
330
2
100
AcDbEntity
  8
USP-GEO
100
AcDbLine
 10
2.505070293892824
 20
1.168531267605647
 30
0.0
 11
2.499028121690304
 21
1.175508167100883
 31
0.0
  0
LINE
  5
10D
330
2
100
AcDbEntity
  8
USP-GEO
100
AcDbLine
 10
2.495402818368791
 20
1.156670538463753
 30
0.0
 11
2.495402818368791
 21
1.157368228413272
 31
0.0
  0
LINE
  5
10E
330
2
100
AcDbEntity
  8
USP-GEO
100
AcDbLine
 10
2.504144632966706
 20
1.054091557432531
 30
0.0
 11
2.500876543010498
 21
1.054091557432531
 31
0.0
  0
LINE
  5
10F
330
2
100
AcDbEntity
  8
USP-GEO
100
AcDbLine
 10
2.500876543010498
 20
1.054091557432531
 30
0.0
 11
2.488168867897996
 21
1.061428337079508
 31
0.0
  0
LINE
  5
110
330
2
100
AcDbEntity
  8
USP-GEO
100
AcDbLine
 10
2.500876543010498
 20
1.054091557432531
 30
0.0
 11
2.499028121690304
 21
1.05302437088574
 31
0.0
  0
LINE
  5
111
330
2
100
AcDbEntity
  8
USP-GEO
100
AcDbLine
 10
2.505070293892824
 20
1.108839566847603
 30
0.0
 11
2.499028121690304
 21
1.115816466342831
 31
0.0
  0
LINE
  5
112
330
2
100
AcDbEntity
  8
USP-GEO
100
AcDbLine
 10
2.504144632966706
 20
1.109906753394387
 30
0.0
 11
2.500876543010498
 21
1.109906753394387
 31
0.0
  0
LINE
  5
113
330
2
100
AcDbEntity
  8
USP-GEO
100
AcDbLine
 10
2.499028121690304
 20
1.108839566847596
 30
0.0
 11
2.505070293892824
 21
1.108839566847596
 31
0.0
  0
LINE
  5
114
330
2
100
AcDbEntity
  8
USP-GEO
100
AcDbLine
 10
2.500876543010498
 20
1.109906753394387
 30
0.0
 11
2.488168867897996
 21
1.117243533041364
 31
0.0
  0
LINE
  5
115
330
2
100
AcDbEntity
  8
USP-GEO
100
AcDbLine
 10
2.500876543010498
 20
1.109906753394387
 30
0.0
 11
2.499028121690304
 21
1.108839566847596
 31
0.0
  0
LINE
  5
116
330
2
100
AcDbEntity
  8
USP-GEO
100
AcDbLine
 10
2.495402818368791
 20
1.096978837705702
 30
0.0
 11
2.495402818368791
 21
1.097676527655227
 31
0.0
  0
ELLIPSE
  5
117
330
2
100
AcDbEntity
  8
USP-GEO
100
AcDbEllipse
 10
2.481344511230094
 20
1.060493482023456
 30
0.0
 11
-0.006825
 21
0.0
 31
0.0
210
-0.0000000000000001
220
0.0
230
1.0
 40
0.5773502691896259
 41
3.021103056558008
 42
3.142041309902385
  0
LINE
  5
118
330
2
100
AcDbEntity
  8
USP-GEO
100
AcDbLine
 10
2.488120029339391
 20
1.060019850890409
 30
0.0
 11
2.488120029339391
 21
1.065601370486593
 31
0.0
  0
ELLIPSE
  5
119
330
2
100
AcDbEntity
  8
USP-GEO
100
AcDbEllipse
 10
2.481344511230094
 20
1.116308677985319
 30
0.0
 11
-0.006825
 21
0.0
 31
0.0
210
-0.0000000000000001
220
0.0
230
1.0
 40
0.5773502691896259
 41
3.02110305655756
 42
3.142041309902385
  0
LINE
  5
11A
330
2
100
AcDbEntity
  8
USP-GEO
100
AcDbLine
 10
2.488120029339391
 20
1.115835046852264
 30
0.0
 11
2.488120029339391
 21
1.121416566448449
 31
0.0
  0
ELLIPSE
  5
11B
330
2
100
AcDbEntity
  8
USP-GEO
100
AcDbEllipse
 10
2.481344511230094
 20
1.010259805657792
 30
0.0
 11
-0.006825
 21
0.0
 31
0.0
210
-0.0000000000000001
220
0.0
230
1.0
 40
0.5773502691896259
 41
-3.141143997277651
 42
-3.090659047682703
  0
ELLIPSE
  5
11C
330
2
100
AcDbEntity
  8
USP-GEO
100
AcDbEllipse
 10
2.481344511230094
 20
1.010259805657792
 30
0.0
 11
-0.006825
 21
0.0
 31
0.0
210
-0.0000000000000001
220
0.0
230
1.0
 40
0.5773502691896259
 41
3.02110305655756
 42
3.142041309901935
  0
LINE
  5
11D
330
2
100
AcDbEntity
  8
USP-GEO
100
AcDbLine
 10
2.488120029339391
 20
1.004204654928553
 30
0.0
 11
2.488120029339391
 21
1.009786174524737
 31
0.0
  0
ELLIPSE
  5
11E
330
2
100
AcDbEntity
  8
USP-GEO
100
AcDbEllipse
 10
2.481344511230094
 20
1.066075001619648
 30
0.0
 11
-0.006825
 21
0.0
 31
0.0
210
-0.0000000000000001
220
0.0
230
1.0
 40
0.5773502691896259
 41
-3.1411439972772
 42
-3.090659047696713
  0
ELLIPSE
  5
11F
330
2
100
AcDbEntity
  8
USP-GEO
100
AcDbEllipse
 10
2.481344511230094
 20
1.066075001619648
 30
0.0
 11
-0.006825
 21
0.0
 31
0.0
210
-0.0000000000000001
220
0.0
230
1.0
 40
0.5773502691896259
 41
3.021103056558008
 42
3.142041309902385
  0
ELLIPSE
  5
120
330
2
100
AcDbEntity
  8
USP-GEO
100
AcDbEllipse
 10
2.481344511230094
 20
1.121890197581503
 30
0.0
 11
-0.006825
 21
0.0
 31
0.0
210
-0.0000000000000001
220
0.0
230
1.0
 40
0.5773502691896259
 41
-3.1411439972772
 42
-3.090659047713398
  0
ELLIPSE
  5
121
330
2
100
AcDbEntity
  8
USP-GEO
100
AcDbEllipse
 10
2.481344511230094
 20
1.121890197581503
 30
0.0
 11
-0.006825
 21
0.0
 31
0.0
210
-0.0000000000000001
220
0.0
230
1.0
 40
0.5773502691896259
 41
3.021103056558008
 42
3.142041309902385
  0
LINE
  5
122
330
2
100
AcDbEntity
  8
USP-GEO
100
AcDbLine
 10
2.509335584094031
 20
1.121526792521894
 30
0.0
 11
2.618644284460945
 21
1.058417384940288
 31
0.0
  0
LINE
  5
123
330
2
100
AcDbEntity
  8
USP-GEO
100
AcDbLine
 10
2.69147632138107
 20
0.9160832263467959
 30
0.0
 11
2.705977534667123
 21
0.8980434714284832
 31
0.0
  0
LINE
  5
124
330
2
100
AcDbEntity
  8
USP-GEO
100
AcDbLine
 10
2.509335584094031
 20
0.9843225624802123
 30
0.0
 11
2.507487162773834
 21
0.983255375933421
 31
0.0
  0
LINE
  5
125
330
2
100
AcDbEntity
  8
USP-GEO
100
AcDbLine
 10
2.504144632966706
 20
0.9982763614706762
 30
0.0
 11
2.500876543010498
 21
0.9982763614706762
 31
0.0
  0
LINE
  5
126
330
2
100
AcDbEntity
  8
USP-GEO
100
AcDbLine
 10
2.705977534667123
 20
1.079242490765938
 30
0.0
 11
2.705977534667123
 21
0.936713373524622
 31
0.0
  0
LINE
  5
127
330
2
100
AcDbEntity
  8
USP-GEO
100
AcDbLine
 10
2.419983595697281
 20
1.084706950255313
 30
0.0
 11
2.448273875189123
 21
1.068373549775255
 31
0.0
  0
ELLIPSE
  5
128
330
2
100
AcDbEntity
  8
USP-GEO
100
AcDbEllipse
 10
2.456647592881758
 20
1.049344492606433
 30
0.0
 11
0.02734375
 21
-0.0473607642694615
 31
0.0
210
0.0
220
0.0
230
1.0
 40
0.5773502691896257
 41
-2.802649712852501
 42
-2.356194490192417
  0
ELLIPSE
  5
129
330
2
100
AcDbEntity
  8
USP-GEO
100
AcDbEllipse
 10
2.453758951195176
 20
1.047676734551092
 30
0.0
 11
0.02734375
 21
-0.0473607642694615
 31
0.0
210
0.0
220
0.0
230
1.0
 40
0.5773502691896257
 41
-2.802649712852501
 42
-2.356194490192417
  0
ELLIPSE
  5
12A
330
2
100
AcDbEntity
  8
USP-GEO
100
AcDbEllipse
 10
2.400073132254124
 20
1.071330932513806
 30
0.0
 11
-0.0034548912529517
 21
0.0059840471847376
 31
0.0
210
0.0000000000000001
220
-0.0000000000000001
230
1.0
 40
0.5773502691896258
 41
-0.0000000000003473
 42
2.356194490192344
  0
ELLIPSE
  5
12B
330
2
100
AcDbEntity
  8
USP-GEO
100
AcDbEllipse
 10
2.400073132254124
 20
1.071330932513806
 30
0.0
 11
-0.0034548912529517
 21
0.0059840471847376
 31
0.0
210
0.0000000000000001
220
-0.0000000000000001
230
1.0
 40
0.5773502691896258
 41
3.14159265358946
 42
6.283185307179253
  0
ELLIPSE
  5
12C
330
2
100
AcDbEntity
  8
USP-GEO
100
AcDbEllipse
 10
2.400073132254124
 20
1.071330932513806
 30
0.0
 11
-0.0034548912529517
 21
0.0059840471847376
 31
0.0
210
0.0000000000000001
220
-0.0000000000000001
230
1.0
 40
0.5773502691896258
 41
2.356194490192344
 42
3.14159265358946
  0
ELLIPSE
  5
12D
330
2
100
AcDbEntity
  8
USP-GEO
100
AcDbEllipse
 10
2.402027513880703
 20
1.072459295272008
 30
0.0
 11
-0.0034548912529517
 21
0.0059840471847376
 31
0.0
210
0.0000000000000001
220
-0.0000000000000001
230
1.0
 40
0.5773502691896258
 41
3.14159265358946
 42
6.283185307179253
  0
LINE
  5
12E
330
2
100
AcDbEntity
  8
USP-GEO
100
AcDbLine
 10
2.42289675193853
 20
1.048140541239082
 30
0.0
 11
2.42289675193853
 21
1.047442851289556
 31
0.0
  0
LINE
  5
12F
330
2
100
AcDbEntity
  8
USP-GEO
100
AcDbLine
 10
2.42289675193853
 20
1.047442851289556
 30
0.0
 11
2.423500632780729
 21
1.047791502056359
 31
0.0
  0
LINE
  5
130
330
2
100
AcDbEntity
  8
USP-GEO
100
AcDbLine
 10
2.441040568050425
 20
1.087703390054866
 30
0.0
 11
2.441040568050425
 21
1.09328490965105
 31
0.0
  0
LINE
  5
131
330
2
100
AcDbEntity
  8
USP-GEO
100
AcDbLine
 10
2.441040568050425
 20
1.03188819409301
 30
0.0
 11
2.441040568050425
 21
1.037469713689194
 31
0.0
  0
LINE
  5
132
330
2
100
AcDbEntity
  8
USP-GEO
100
AcDbLine
 10
2.477307642857436
 20
1.169252166009851
 30
0.0
 11
2.468248813116883
 21
1.174482283799104
 31
0.0
  0
ELLIPSE
  5
133
330
2
100
AcDbEntity
  8
USP-GEO
100
AcDbEllipse
 10
2.478128837334089
 20
1.169484669538572
 30
0.0
 11
-0.006825
 21
0.0
 31
0.0
210
0.0000000000000001
220
-0.0000000000000001
230
1.0
 40
0.5773502691896257
 41
-1.621628477507097
 42
-1.450306729763135
  0
LINE
  5
134
330
2
100
AcDbEntity
  8
USP-GEO
100
AcDbLine
 10
2.477308484147599
 20
1.173396516742872
 30
0.0
 11
2.477308484147599
 21
1.167814997146688
 31
0.0
  0
LINE
  5
135
330
2
100
AcDbEntity
  8
USP-GEO
100
AcDbLine
 10
2.451899178510632
 20
1.024419082955287
 30
0.0
 11
2.457941350713156
 21
1.024419082955287
 31
0.0
  0
LINE
  5
136
330
2
100
AcDbEntity
  8
USP-GEO
100
AcDbLine
 10
2.466400391796685
 20
1.064885100027634
 30
0.0
 11
2.460358219594166
 21
1.064885100027634
 31
0.0
  0
LINE
  5
137
330
2
100
AcDbEntity
  8
USP-GEO
100
AcDbLine
 10
2.468248813116883
 20
1.058975387079197
 30
0.0
 11
2.466400391796685
 21
1.057908200532406
 31
0.0
  0
LINE
  5
138
330
2
100
AcDbEntity
  8
USP-GEO
100
AcDbLine
 10
2.477307642857436
 20
1.053745269289944
 30
0.0
 11
2.468248813116883
 21
1.058975387079197
 31
0.0
  0
LINE
  5
139
330
2
100
AcDbEntity
  8
USP-GEO
100
AcDbLine
 10
2.470025695118199
 20
1.070466619623825
 30
0.0
 11
2.470025695118199
 21
1.0697689296743
 31
0.0
  0
LINE
  5
13A
330
2
100
AcDbEntity
  8
USP-GEO
100
AcDbLine
 10
2.448273875189123
 20
1.074652759320965
 30
0.0
 11
2.448273875189123
 21
1.075350449270484
 31
0.0
  0
LINE
  5
13B
330
2
100
AcDbEntity
  8
USP-GEO
100
AcDbLine
 10
2.451899178510632
 20
1.080234278917149
 30
0.0
 11
2.457941350713156
 21
1.080234278917149
 31
0.0
  0
LINE
  5
13C
330
2
100
AcDbEntity
  8
USP-GEO
100
AcDbLine
 10
2.45374759983083
 20
1.081301465463933
 30
0.0
 11
2.451899178510632
 21
1.080234278917149
 31
0.0
  0
LINE
  5
13D
330
2
100
AcDbEntity
  8
USP-GEO
100
AcDbLine
 10
2.425444665705853
 20
1.095507799006266
 30
0.0
 11
2.451899178510632
 21
1.080234278917149
 31
0.0
  0
LINE
  5
13E
330
2
100
AcDbEntity
  8
USP-GEO
100
AcDbLine
 10
2.466400391796685
 20
1.12070029598949
 30
0.0
 11
2.460358219594166
 21
1.12070029598949
 31
0.0
  0
LINE
  5
13F
330
2
100
AcDbEntity
  8
USP-GEO
100
AcDbLine
 10
2.470025695118199
 20
1.020930633207672
 30
0.0
 11
2.470025695118199
 21
1.020232943258147
 31
0.0
  0
LINE
  5
140
330
2
100
AcDbEntity
  8
USP-GEO
100
AcDbLine
 10
2.470025695118199
 20
1.076745829169535
 30
0.0
 11
2.470025695118199
 21
1.076048139220009
 31
0.0
  0
LINE
  5
141
330
2
100
AcDbEntity
  8
USP-GEO
100
AcDbLine
 10
2.448273875189123
 20
1.068373549775255
 30
0.0
 11
2.448273875189123
 21
1.069071239724774
 31
0.0
  0
LINE
  5
142
330
2
100
AcDbEntity
  8
USP-GEO
100
AcDbLine
 10
2.448273875189123
 20
1.124188745737111
 30
0.0
 11
2.448273875189123
 21
1.124886435686629
 31
0.0
  0
LINE
  5
143
330
2
100
AcDbEntity
  8
USP-GEO
100
AcDbLine
 10
2.44540202619131
 20
1.132126018074774
 30
0.0
 11
2.448273875189123
 21
1.130467955282821
 31
0.0
  0
ELLIPSE
  5
144
330
2
100
AcDbEntity
  8
USP-GEO
100
AcDbEllipse
 10
2.478128837334089
 20
1.109792968780521
 30
0.0
 11
-0.006825
 21
0.0
 31
0.0
210
0.0000000000000001
220
-0.0000000000000001
230
1.0
 40
0.5773502691896257
 41
-1.621628477512839
 42
-1.450306729763135
  0
ELLIPSE
  5
145
330
2
100
AcDbEntity
  8
USP-GEO
100
AcDbEllipse
 10
2.434215568050426
 20
1.087703390054866
 30
0.0
 11
-0.006825
 21
0.0
 31
0.0
210
-0.0000000000000001
220
0.0
230
1.0
 40
0.5773502691896259
 41
3.021103056558008
 42
3.142041309902385
  0
ELLIPSE
  5
146
330
2
100
AcDbEntity
  8
USP-GEO
100
AcDbEllipse
 10
2.430999894154421
 20
1.081187680850074
 30
0.0
 11
-0.006825
 21
0.0
 31
0.0
210
0.0000000000000001
220
-0.0000000000000001
230
1.0
 40
0.5773502691896257
 41
-1.621628477504498
 42
-1.450306729762618
  0
LINE
  5
147
330
2
100
AcDbEntity
  8
USP-GEO
100
AcDbLine
 10
2.470025695118199
 20
1.020232943258147
 30
0.0
 11
2.470629575960401
 21
1.020581594024957
 31
0.0
  0
ELLIPSE
  5
148
330
2
100
AcDbEntity
  8
USP-GEO
100
AcDbEllipse
 10
2.434215568050426
 20
1.037469713689194
 30
0.0
 11
-0.006825
 21
0.0
 31
0.0
210
-0.0000000000000001
220
0.0
230
1.0
 40
0.5773502691896259
 41
-3.1411439972772
 42
-3.090659047693986
  0
ELLIPSE
  5
149
330
2
100
AcDbEntity
  8
USP-GEO
100
AcDbEllipse
 10
2.434215568050426
 20
1.037469713689194
 30
0.0
 11
-0.006825
 21
0.0
 31
0.0
210
-0.0000000000000001
220
0.0
230
1.0
 40
0.5773502691896259
 41
3.021103056558008
 42
3.142041309902385
  0
LINE
  5
14A
330
2
100
AcDbEntity
  8
USP-GEO
100
AcDbLine
 10
2.470025695118199
 20
1.076048139220009
 30
0.0
 11
2.470629575960401
 21
1.076396789986812
 31
0.0
  0
LINE
  5
14B
330
2
100
AcDbEntity
  8
USP-GEO
100
AcDbLine
 10
2.470025695118199
 20
1.131863335181865
 30
0.0
 11
2.470629575960401
 21
1.132211985948668
 31
0.0
  0
LINE
  5
14C
330
2
100
AcDbEntity
  8
USP-GEO
100
AcDbLine
 10
2.440991086159723
 20
1.092811278517995
 30
0.0
 11
2.428047799682214
 21
1.100284088449985
 31
0.0
  0
ARC
  5
14D
330
2
100
AcDbEntity
  8
USP-GEO
100
AcDbCircle
 10
2.359029292030264
 20
1.074461330789272
 30
0.0
 40
0.01775703125
100
AcDbArc
 50
256.3654535007137
 51
262.6391124862887
  0
LINE
  5
14E
330
2
100
AcDbEntity
  8
USP-GEO
100
AcDbLine
 10
2.348318375020582
 20
1.081975363340983
 30
0.0
 11
2.351207016707164
 21
1.080307605285636
 31
0.0
  0
ELLIPSE
  5
14F
330
2
100
AcDbEntity
  8
USP-GEO
100
AcDbEllipse
 10
2.386086622526935
 20
1.081165852128211
 30
0.0
 11
0.02734375
 21
0.0473607642694615
 31
0.0
210
0.0000000000000001
220
0.0
230
1.0
 40
0.5773502691896258
 41
1.909739267532203
 42
2.356194490192338
  0
ELLIPSE
  5
150
330
2
100
AcDbEntity
  8
USP-GEO
100
AcDbEllipse
 10
2.359029292030264
 20
1.062181816676069
 30
0.0
 11
-0.0069097825059033
 21
0.0
 31
0.0
210
0.0000000000000001
220
0.0
230
1.0
 40
0.816496580927726
 41
-0.0000000000000001
 42
1.570796326794896
  0
ELLIPSE
  5
151
330
2
100
AcDbEntity
  8
USP-GEO
100
AcDbEllipse
 10
2.359029292030264
 20
1.062181816676069
 30
0.0
 11
-0.0069097825059033
 21
0.0
 31
0.0
210
0.0000000000000001
220
0.0
230
1.0
 40
0.816496580927726
 41
3.141592653589793
 42
6.2831853071796
  0
ELLIPSE
  5
152
330
2
100
AcDbEntity
  8
USP-GEO
100
AcDbEllipse
 10
2.359029292030264
 20
1.062181816676069
 30
0.0
 11
-0.0069097825059033
 21
0.0
 31
0.0
210
0.0000000000000001
220
0.0
230
1.0
 40
0.816496580927726
 41
1.570796326794896
 42
3.141592653589793
  0
ELLIPSE
  5
153
330
2
100
AcDbEntity
  8
USP-GEO
100
AcDbEllipse
 10
2.359029292030264
 20
1.063777562591997
 30
0.0
 11
-0.0069097825059033
 21
0.0
 31
0.0
210
0.0000000000000001
220
0.0
230
1.0
 40
0.816496580927726
 41
3.141592653589793
 42
6.2831853071796
  0
ARC
  5
154
330
2
100
AcDbEntity
  8
USP-GEO
100
AcDbCircle
 10
2.359029292030264
 20
1.074461330789272
 30
0.0
 40
0.01775703125
100
AcDbArc
 50
277.3138966834746
 51
43.63454649928785
  0
ELLIPSE
  5
155
330
2
100
AcDbEntity
  8
USP-GEO
100
AcDbEllipse
 10
2.361917933716846
 20
1.072793572733932
 30
0.0
 11
0.0086403654035371
 21
0.0149655518748866
 31
0.0
210
0.0
220
0.0
230
1.0
 40
0.577350269189626
 41
-0.1693898548064353
 42
3.310431622213278
  0
LINE
  5
156
330
2
100
AcDbEntity
  8
USP-GEO
100
AcDbLine
 10
2.393809001975533
 20
0.8952525528884187
 30
0.0
 11
2.390920360288951
 21
0.8935847948330781
 31
0.0
  0
LINE
  5
157
330
2
100
AcDbEntity
  8
USP-GEO
100
AcDbLine
 10
2.387295056967438
 20
0.8697657974226835
 30
0.0
 11
2.387295056967438
 21
0.855267242119627
 31
0.0
  0
ELLIPSE
  5
158
330
2
100
AcDbEntity
  8
USP-GEO
100
AcDbEllipse
 10
2.425964959063577
 20
0.8920918758074201
 30
0.0
 11
0.02734375
 21
0.0473607642694615
 31
0.0
210
0.0000000000000001
220
0.0
230
1.0
 40
0.5773502691896258
 41
2.099805623074389
 42
2.356194490192378
  0
LINE
  5
159
330
2
100
AcDbEntity
  8
USP-GEO
100
AcDbLine
 10
2.390920360288951
 20
0.8935847948330781
 30
0.0
 11
2.388559097676896
 21
0.8818188928368719
 31
0.0
  0
LINE
  5
15A
330
2
100
AcDbEntity
  8
USP-GEO
100
AcDbLine
 10
2.416713650076165
 20
0.9829357897181374
 30
0.0
 11
2.393809001975533
 21
0.8952525528884187
 31
0.0
  0
ELLIPSE
  5
15B
330
2
100
AcDbEntity
  8
USP-GEO
100
AcDbEllipse
 10
2.37930778868948
 20
1.015855375029321
 30
0.0
 11
0.02734375
 21
-0.0473607642694615
 31
0.0
210
0.0
220
0.0
230
1.0
 40
0.5773502691896257
 41
0.5290092962794586
 42
0.785398163397455
  0
LINE
  5
15C
330
2
100
AcDbEntity
  8
USP-GEO
100
AcDbLine
 10
2.417977690785619
 20
0.9935292966445778
 30
0.0
 11
2.415089049099037
 21
0.9918615385892444
 31
0.0
  0
ELLIPSE
  5
15D
330
2
100
AcDbEntity
  8
USP-GEO
100
AcDbEllipse
 10
2.376419147002899
 20
1.01418761697398
 30
0.0
 11
0.02734375
 21
-0.0473607642694615
 31
0.0
210
0.0
220
0.0
230
1.0
 40
0.5773502691896257
 41
0.5290092962794586
 42
0.785398163397455
  0
ELLIPSE
  5
15E
330
2
100
AcDbEntity
  8
USP-GEO
100
AcDbEllipse
 10
2.400073132254124
 20
1.004352697359575
 30
0.0
 11
-0.0034548912529517
 21
0.0059840471847376
 31
0.0
210
0.0000000000000001
220
-0.0000000000000001
230
1.0
 40
0.5773502691896258
 41
2.356194490192344
 42
3.14159265358946
  0
LINE
  5
15F
330
2
100
AcDbEntity
  8
USP-GEO
100
AcDbLine
 10
2.320886769008652
 20
0.8427482556635688
 30
0.0
 11
2.346152679721338
 21
0.9686454039826806
 31
0.0
  0
ELLIPSE
  5
160
330
2
100
AcDbEntity
  8
USP-GEO
100
AcDbEllipse
 10
2.348903405533061
 20
0.8870389779633676
 30
0.0
 11
0.0086403654035371
 21
0.0149655518748866
 31
0.0
210
0.0
220
0.0
230
1.0
 40
0.577350269189626
 41
-0.1693898548063326
 42
3.310431622213278
  0
LINE
  5
161
330
2
100
AcDbEntity
  8
USP-GEO
100
AcDbLine
 10
2.316734086612612
 20
0.8323629183047209
 30
0.0
 11
2.319622728299194
 21
0.8306951602493803
 31
0.0
  0
ELLIPSE
  5
162
330
2
100
AcDbEntity
  8
USP-GEO
100
AcDbEllipse
 10
2.358292630395332
 20
0.853021238634124
 30
0.0
 11
0.02734375
 21
0.0473607642694615
 31
0.0
210
0.0000000000000001
220
0.0
230
1.0
 40
0.5773502691896258
 41
2.099805623074389
 42
2.356194490192378
  0
ELLIPSE
  5
163
330
2
100
AcDbEntity
  8
USP-GEO
100
AcDbEllipse
 10
2.346014763846479
 20
0.876427221905498
 30
0.0
 11
-0.0069097825059033
 21
0.0
 31
0.0
210
0.0000000000000001
220
0.0
230
1.0
 40
0.816496580927726
 41
-0.0000000000000001
 42
1.570796326794896
  0
ELLIPSE
  5
164
330
2
100
AcDbEntity
  8
USP-GEO
100
AcDbEllipse
 10
2.346014763846479
 20
0.876427221905498
 30
0.0
 11
-0.0069097825059033
 21
0.0
 31
0.0
210
0.0000000000000001
220
0.0
230
1.0
 40
0.816496580927726
 41
3.141592653589793
 42
6.2831853071796
  0
ELLIPSE
  5
165
330
2
100
AcDbEntity
  8
USP-GEO
100
AcDbEllipse
 10
2.346014763846479
 20
0.876427221905498
 30
0.0
 11
-0.0069097825059033
 21
0.0
 31
0.0
210
0.0000000000000001
220
0.0
230
1.0
 40
0.816496580927726
 41
1.570796326794896
 42
3.141592653589793
  0
ELLIPSE
  5
166
330
2
100
AcDbEntity
  8
USP-GEO
100
AcDbEllipse
 10
2.346014763846479
 20
0.8780229678214261
 30
0.0
 11
-0.0069097825059033
 21
0.0
 31
0.0
210
0.0000000000000001
220
0.0
230
1.0
 40
0.816496580927726
 41
3.141592653589793
 42
6.2831853071796
  0
ARC
  5
167
330
2
100
AcDbEntity
  8
USP-GEO
100
AcDbCircle
 10
2.359029292030264
 20
1.007483095635048
 30
0.0
 40
0.01775703125
100
AcDbArc
 50
256.3654535007137
 51
262.6391124866015
  0
LINE
  5
168
330
2
100
AcDbEntity
  8
USP-GEO
100
AcDbLine
 10
2.365939074536168
 20
0.9952035815218387
 30
0.0
 11
2.365939074536168
 21
0.9967993274377668
 31
0.0
  0
ELLIPSE
  5
169
330
2
100
AcDbEntity
  8
USP-GEO
100
AcDbEllipse
 10
2.308746818334654
 20
0.9583724210121253
 30
0.0
 11
0.02734375
 21
0.0473607642694615
 31
0.0
210
0.0000000000000001
220
0.0
230
1.0
 40
0.5773502691896258
 41
-1.041787030515441
 42
-0.7853981633974549
  0
ELLIPSE
  5
16A
330
2
100
AcDbEntity
  8
USP-GEO
100
AcDbEllipse
 10
2.359029292030264
 20
0.9952035815218387
 30
0.0
 11
-0.0069097825059033
 21
0.0
 31
0.0
210
0.0000000000000001
220
0.0
230
1.0
 40
0.816496580927726
 41
-0.0000000000000001
 42
1.570796326794896
  0
ELLIPSE
  5
16B
330
2
100
AcDbEntity
  8
USP-GEO
100
AcDbEllipse
 10
2.359029292030264
 20
0.9952035815218387
 30
0.0
 11
-0.0069097825059033
 21
0.0
 31
0.0
210
0.0000000000000001
220
0.0
230
1.0
 40
0.816496580927726
 41
1.570796326794896
 42
3.141592653589793
  0
ARC
  5
16C
330
2
100
AcDbEntity
  8
USP-GEO
100
AcDbCircle
 10
2.359029292030264
 20
1.007483095635048
 30
0.0
 40
0.01775703125
100
AcDbArc
 50
277.3138966838102
 51
43.63454649928785
  0
LINE
  5
16D
330
2
100
AcDbEntity
  8
USP-GEO
100
AcDbLine
 10
2.417977690785619
 20
0.9935292966445778
 30
0.0
 11
2.417977690785619
 21
1.071670570991177
 31
0.0
  0
ELLIPSE
  5
16E
330
2
100
AcDbEntity
  8
USP-GEO
100
AcDbEllipse
 10
2.361917933716846
 20
1.005815337579701
 30
0.0
 11
0.0086403654035371
 21
0.0149655518748866
 31
0.0
210
0.0
220
0.0
230
1.0
 40
0.577350269189626
 41
-0.1693898548064353
 42
3.310431622213278
  0
ELLIPSE
  5
16F
330
2
100
AcDbEntity
  8
USP-GEO
100
AcDbEllipse
 10
2.400073132254124
 20
1.004352697359575
 30
0.0
 11
-0.0034548912529517
 21
0.0059840471847376
 31
0.0
210
0.0000000000000001
220
-0.0000000000000001
230
1.0
 40
0.5773502691896258
 41
-0.0000000000003473
 42
2.356194490192344
  0
ELLIPSE
  5
170
330
2
100
AcDbEntity
  8
USP-GEO
100
AcDbEllipse
 10
2.400073132254124
 20
1.004352697359575
 30
0.0
 11
-0.0034548912529517
 21
0.0059840471847376
 31
0.0
210
0.0000000000000001
220
-0.0000000000000001
230
1.0
 40
0.5773502691896258
 41
3.14159265358946
 42
6.283185307179253
  0
ELLIPSE
  5
171
330
2
100
AcDbEntity
  8
USP-GEO
100
AcDbEllipse
 10
2.402027513880703
 20
1.005481060117784
 30
0.0
 11
-0.0034548912529517
 21
0.0059840471847376
 31
0.0
210
0.0000000000000001
220
-0.0000000000000001
230
1.0
 40
0.5773502691896258
 41
3.141592653589793
 42
6.283185307178259
  0
ELLIPSE
  5
172
330
2
100
AcDbEntity
  8
USP-GEO
100
AcDbEllipse
 10
2.359029292030264
 20
0.9952035815218387
 30
0.0
 11
-0.0069097825059033
 21
0.0
 31
0.0
210
0.0000000000000001
220
0.0
230
1.0
 40
0.816496580927726
 41
3.141592653589793
 42
6.2831853071796
  0
LINE
  5
173
330
2
100
AcDbEntity
  8
USP-GEO
100
AcDbLine
 10
2.477308484147599
 20
1.167814997146688
 30
0.0
 11
2.495402818368791
 21
1.157368228413272
 31
0.0
  0
LINE
  5
174
330
2
100
AcDbEntity
  8
USP-GEO
100
AcDbLine
 10
2.499028121690304
 20
1.00418607441912
 30
0.0
 11
2.470025695118199
 21
1.020930633207672
 31
0.0
  0
LINE
  5
175
330
2
100
AcDbEntity
  8
USP-GEO
100
AcDbLine
 10
2.470025695118199
 20
1.0697689296743
 30
0.0
 11
2.499028121690304
 21
1.05302437088574
 31
0.0
  0
LINE
  5
176
330
2
100
AcDbEntity
  8
USP-GEO
100
AcDbLine
 10
2.488120029339391
 20
1.060019850890409
 30
0.0
 11
2.470025695118199
 21
1.070466619623825
 31
0.0
  0
LINE
  5
177
330
2
100
AcDbEntity
  8
USP-GEO
100
AcDbLine
 10
2.488120029339391
 20
1.115835046852264
 30
0.0
 11
2.470025695118199
 21
1.126281815585681
 31
0.0
  0
LINE
  5
178
330
2
100
AcDbEntity
  8
USP-GEO
100
AcDbLine
 10
2.477308484147599
 20
1.113704815984828
 30
0.0
 11
2.495402818368791
 21
1.103258047251411
 31
0.0
  0
LINE
  5
179
330
2
100
AcDbEntity
  8
USP-GEO
100
AcDbLine
 10
2.488120029339391
 20
1.009786174524737
 30
0.0
 11
2.470025695118199
 21
1.020232943258147
 31
0.0
  0
LINE
  5
17A
330
2
100
AcDbEntity
  8
USP-GEO
100
AcDbLine
 10
2.488120029339391
 20
1.065601370486593
 30
0.0
 11
2.470025695118199
 21
1.076048139220009
 31
0.0
  0
LINE
  5
17B
330
2
100
AcDbEntity
  8
USP-GEO
100
AcDbLine
 10
2.488120029339391
 20
1.121416566448449
 30
0.0
 11
2.470025695118199
 21
1.131863335181865
 31
0.0
  0
LINE
  5
17C
330
2
100
AcDbEntity
  8
USP-GEO
100
AcDbLine
 10
2.390920360288951
 20
0.8935847948330781
 30
0.0
 11
2.390920360288951
 21
1.199036732840152
 31
0.0
  0
LINE
  5
17D
330
2
100
AcDbEntity
  8
USP-GEO
100
AcDbLine
 10
2.351207016707164
 20
1.080307605285636
 30
0.0
 11
2.390755277261092
 21
1.19853805126581
 31
0.0
  0
LINE
  5
17E
330
2
100
AcDbEntity
  8
USP-GEO
100
AcDbLine
 10
2.488169511230097
 20
1.176000378743363
 30
0.0
 11
2.488169511230097
 21
1.181581898339555
 31
0.0
  0
ELLIPSE
  5
17F
330
2
100
AcDbEntity
  8
USP-GEO
100
AcDbEllipse
 10
2.426436731869149
 20
1.200743211652973
 30
0.0
 11
0.02734375
 21
-0.0473607642694615
 31
0.0
210
0.0
220
0.0
230
1.0
 40
0.5773502691896257
 41
0.3389429407372915
 42
0.7853981633973755
  0
ELLIPSE
  5
180
330
2
100
AcDbEntity
  8
USP-GEO
100
AcDbEllipse
 10
2.423548090182567
 20
1.199075453597632
 30
0.0
 11
0.02734375
 21
-0.0473607642694615
 31
0.0
210
0.0
220
0.0
230
1.0
 40
0.5773502691896257
 41
0.3389429407372915
 42
0.7853981633973755
  0
LINE
  5
181
330
2
100
AcDbEntity
  8
USP-GEO
100
AcDbLine
 10
2.509335584094031
 20
1.278438086278054
 30
0.0
 11
2.509335584094031
 21
0.9843225624802123
 31
0.0
  0
LINE
  5
182
330
2
100
AcDbEntity
  8
USP-GEO
100
AcDbLine
 10
2.507487162773834
 20
0.983255375933421
 30
0.0
 11
2.507487162773834
 21
1.277370899731263
 31
0.0
  0
LINE
  5
183
330
2
100
AcDbEntity
  8
USP-GEO
100
AcDbLine
 10
2.495402818368791
 20
1.163647437958982
 30
0.0
 11
2.466400391796685
 21
1.180391996747541
 31
0.0
  0
LINE
  5
184
330
2
100
AcDbEntity
  8
USP-GEO
100
AcDbLine
 10
2.468248813116883
 20
1.174482283799104
 30
0.0
 11
2.465108025832471
 21
1.178108952567345
 31
0.0
  0
LINE
  5
185
330
2
100
AcDbEntity
  8
USP-GEO
100
AcDbLine
 10
2.499028121690304
 20
1.175508167100883
 30
0.0
 11
2.470025695118199
 21
1.192252725889435
 31
0.0
  0
LINE
  5
186
330
2
100
AcDbEntity
  8
USP-GEO
100
AcDbLine
 10
2.569188858558433
 20
1.312994390401964
 30
0.0
 11
2.569188858558433
 21
1.156083096645797
 31
0.0
  0
LINE
  5
187
330
2
100
AcDbEntity
  8
USP-GEO
100
AcDbLine
 10
2.63273897566323
 20
1.192773773863283
 30
0.0
 11
2.803669896592836
 21
1.094086760651745
 31
0.0
  0
LINE
  5
188
330
2
100
AcDbEntity
  8
USP-GEO
100
AcDbLine
 10
2.705977534667123
 20
0.936713373524622
 30
0.0
 11
2.763982387811331
 21
0.970202491101741
 31
0.0
  0
LINE
  5
189
330
2
100
AcDbEntity
  8
USP-GEO
100
AcDbLine
 10
2.705977534667123
 20
1.079242490765938
 30
0.0
 11
2.763982387811331
 21
1.11273160834305
 31
0.0
  0
LINE
  5
18A
330
2
100
AcDbEntity
  8
USP-GEO
100
AcDbLine
 10
2.705977534667123
 20
0.936713373524622
 30
0.0
 11
2.720478747953173
 21
0.9186736186063093
 31
0.0
  0
LINE
  5
18B
330
2
100
AcDbEntity
  8
USP-GEO
100
AcDbLine
 10
2.69147632138107
 20
0.9160832263467959
 30
0.0
 11
2.720478747953173
 21
0.9186736186063093
 31
0.0
  0
LINE
  5
18C
330
2
100
AcDbEntity
  8
USP-GEO
100
AcDbLine
 10
2.763980705231009
 20
0.7932731893896481
 30
0.0
 11
2.803669896592836
 21
0.7703586240729799
 31
0.0
  0
LINE
  5
18D
330
2
100
AcDbEntity
  8
USP-GEO
100
AcDbLine
 10
2.618644284460945
 20
0.7346892483615229
 30
0.0
 11
2.676649137605153
 21
0.7681783659386348
 31
0.0
  0
LINE
  5
18E
330
2
100
AcDbEntity
  8
USP-GEO
100
AcDbLine
 10
2.387291250921471
 20
0.8682609845533697
 30
0.0
 11
2.618644284460945
 21
0.7346892483615229
 31
0.0
  0
LINE
  5
18F
330
2
100
AcDbEntity
  8
USP-GEO
100
AcDbLine
 10
2.319622728299194
 20
0.8161966049463309
 30
0.0
 11
2.319622728299194
 21
0.8306951602493803
 31
0.0
  0
LINE
  5
190
330
2
100
AcDbEntity
  8
USP-GEO
100
AcDbLine
 10
2.319622728299194
 20
0.8161966049463309
 30
0.0
 11
2.387295056967438
 21
0.855267242119627
 31
0.0
  0
LINE
  5
191
330
2
100
AcDbEntity
  8
USP-GEO
100
AcDbLine
 10
2.464537627915042
 20
1.446657400777564
 30
0.0
 11
2.464537627915042
 21
1.909070903446586
 31
0.0
  0
LINE
  5
192
330
2
100
AcDbEntity
  8
USP-GEO
100
AcDbLine
 10
2.526239323699641
 20
1.339925689007838
 30
0.0
 11
2.526239323699641
 21
1.98275955603216
 31
0.0
  0
LINE
  5
193
330
2
100
AcDbEntity
  8
USP-GEO
100
AcDbLine
 10
2.584244176843849
 20
2.016248673609279
 30
0.0
 11
2.584244176843849
 21
1.21650351282879
 31
0.0
  0
LINE
  5
194
330
2
100
AcDbEntity
  8
USP-GEO
100
AcDbLine
 10
2.645945872628448
 20
2.081017541260901
 30
0.0
 11
2.645945872628448
 21
1.252127003499484
 31
0.0
  0
LINE
  5
195
330
2
100
AcDbEntity
  8
USP-GEO
100
AcDbLine
 10
2.178972560395116
 20
1.611529658285203
 30
0.0
 11
2.176083918708535
 21
1.609861900229862
 31
0.0
  0
LINE
  5
196
330
2
100
AcDbEntity
  8
USP-GEO
100
AcDbLine
 10
2.178972560395116
 20
1.611529658285203
 30
0.0
 11
2.246644889063361
 21
1.572459021111907
 31
0.0
  0
LINE
  5
197
330
2
100
AcDbEntity
  8
USP-GEO
100
AcDbLine
 10
2.246644889063361
 20
1.572459021111907
 30
0.0
 11
2.243756247376779
 21
1.570791263056566
 31
0.0
  0
LINE
  5
198
330
2
100
AcDbEntity
  8
USP-GEO
100
AcDbLine
 10
2.176083918708535
 20
1.609861900229862
 30
0.0
 11
2.243756247376779
 21
1.570791263056566
 31
0.0
  0
LINE
  5
199
330
2
100
AcDbEntity
  8
USP-GEO
100
AcDbLine
 10
2.184180837718031
 20
2.070934971735969
 30
0.0
 11
2.184180837718031
 21
1.608521469066946
 31
0.0
  0
LINE
  5
19A
330
2
100
AcDbEntity
  8
USP-GEO
100
AcDbLine
 10
2.223856204472081
 20
1.47909268788857
 30
0.0
 11
2.221901822845502
 21
1.477964325130368
 31
0.0
  0
ELLIPSE
  5
19B
330
2
100
AcDbEntity
  8
USP-GEO
100
AcDbEllipse
 10
2.225356714098452
 20
1.471980277945629
 30
0.0
 11
-0.0034548912529517
 21
0.0059840471847376
 31
0.0
210
0.0000000000000001
220
-0.0000000000000001
230
1.0
 40
0.5773502691896258
 41
-0.0000000000003473
 42
2.356194490192344
  0
ELLIPSE
  5
19C
330
2
100
AcDbEntity
  8
USP-GEO
100
AcDbEllipse
 10
2.225356714098452
 20
1.471980277945629
 30
0.0
 11
-0.0034548912529517
 21
0.0059840471847376
 31
0.0
210
0.0000000000000001
220
-0.0000000000000001
230
1.0
 40
0.5773502691896258
 41
3.14159265358946
 42
6.283185307179253
  0
ELLIPSE
  5
19D
330
2
100
AcDbEntity
  8
USP-GEO
100
AcDbEllipse
 10
2.225356714098452
 20
1.471980277945629
 30
0.0
 11
-0.0034548912529517
 21
0.0059840471847376
 31
0.0
210
0.0000000000000001
220
-0.0000000000000001
230
1.0
 40
0.5773502691896258
 41
2.356194490192344
 42
3.14159265358946
  0
ELLIPSE
  5
19E
330
2
100
AcDbEntity
  8
USP-GEO
100
AcDbEllipse
 10
2.188620307107122
 20
1.439235362981339
 30
0.0
 11
-0.0034548912529517
 21
0.0059840471847376
 31
0.0
210
0.0000000000000001
220
-0.0000000000000001
230
1.0
 40
0.5773502691896258
 41
-0.0000000000003473
 42
2.109266276079586
  0
ELLIPSE
  5
19F
330
2
100
AcDbEntity
  8
USP-GEO
100
AcDbEllipse
 10
2.188620307107122
 20
1.439235362981339
 30
0.0
 11
-0.0034548912529517
 21
0.0059840471847376
 31
0.0
210
0.0000000000000001
220
-0.0000000000000001
230
1.0
 40
0.5773502691896258
 41
-2.109159779510458
 42
-0.0000000000003331
  0
LINE
  5
1A0
330
2
100
AcDbEntity
  8
USP-GEO
100
AcDbLine
 10
2.175167691635138
 20
1.45667721675873
 30
0.0
 11
2.176082603972655
 21
1.455620766990026
 31
0.0
  0
LINE
  5
1A1
330
2
100
AcDbEntity
  8
USP-GEO
100
AcDbLine
 10
2.14498817171874
 20
1.472747294052442
 30
0.0
 11
2.135929341978183
 21
1.477977411841695
 31
0.0
  0
LINE
  5
1A2
330
2
100
AcDbEntity
  8
USP-GEO
100
AcDbLine
 10
2.134080920657989
 20
1.421095029333049
 30
0.0
 11
2.149184476087242
 21
1.412374987540243
 31
0.0
  0
LINE
  5
1A3
330
2
100
AcDbEntity
  8
USP-GEO
100
AcDbLine
 10
2.137706223979503
 20
1.432955758474943
 30
0.0
 11
2.161267589935704
 21
1.419352597497653
 31
0.0
  0
LINE
  5
1A4
330
2
100
AcDbEntity
  8
USP-GEO
100
AcDbLine
 10
2.138310104821702
 20
1.433304409241745
 30
0.0
 11
2.137706223979503
 21
1.432955758474943
 31
0.0
  0
LINE
  5
1A5
330
2
100
AcDbEntity
  8
USP-GEO
100
AcDbLine
 10
2.137706223979503
 20
1.433653448424461
 30
0.0
 11
2.137706223979503
 21
1.432955758474943
 31
0.0
  0
LINE
  5
1A6
330
2
100
AcDbEntity
  8
USP-GEO
100
AcDbLine
 10
2.166708650551605
 20
1.423188099181619
 30
0.0
 11
2.137706223979503
 21
1.439932657970171
 31
0.0
  0
LINE
  5
1A7
330
2
100
AcDbEntity
  8
USP-GEO
100
AcDbLine
 10
2.167108995012934
 20
1.422725821216584
 30
0.0
 11
2.166708650551605
 21
1.423188099181619
 31
0.0
  0
LINE
  5
1A8
330
2
100
AcDbEntity
  8
USP-GEO
100
AcDbLine
 10
2.137706223979503
 20
1.439932657970171
 30
0.0
 11
2.137706223979503
 21
1.439234968020652
 31
0.0
  0
LINE
  5
1A9
330
2
100
AcDbEntity
  8
USP-GEO
100
AcDbLine
 10
2.144989013008899
 20
1.421076448823608
 30
0.0
 11
2.154621877319051
 21
1.415514912021077
 31
0.0
  0
LINE
  5
1AA
330
2
100
AcDbEntity
  8
USP-GEO
100
AcDbLine
 10
2.155800558200695
 20
1.423206679691052
 30
0.0
 11
2.137706223979503
 21
1.433653448424461
 31
0.0
  0
LINE
  5
1AB
330
2
100
AcDbEntity
  8
USP-GEO
100
AcDbLine
 10
2.144989013008899
 20
1.47131012518928
 30
0.0
 11
2.163083347230092
 21
1.46086335645587
 31
0.0
  0
ELLIPSE
  5
1AC
330
2
100
AcDbEntity
  8
USP-GEO
100
AcDbEllipse
 10
2.145809366195393
 20
1.472979797581164
 30
0.0
 11
-0.006825
 21
0.0
 31
0.0
210
0.0000000000000001
220
-0.0000000000000001
230
1.0
 40
0.5773502691896257
 41
-1.621628477504498
 42
-1.450306729762618
  0
LINE
  5
1AD
330
2
100
AcDbEntity
  8
USP-GEO
100
AcDbLine
 10
2.144989013008899
 20
1.476891644785464
 30
0.0
 11
2.144989013008899
 21
1.47131012518928
 31
0.0
  0
ELLIPSE
  5
1AE
330
2
100
AcDbEntity
  8
USP-GEO
100
AcDbEllipse
 10
2.145809366195393
 20
1.417164601619308
 30
0.0
 11
-0.006825
 21
0.0
 31
0.0
210
0.0000000000000001
220
-0.0000000000000001
230
1.0
 40
0.5773502691896257
 41
-1.621628477533679
 42
-1.450306729762618
  0
LINE
  5
1AF
330
2
100
AcDbEntity
  8
USP-GEO
100
AcDbLine
 10
2.137706223979503
 20
1.439234968020652
 30
0.0
 11
2.138310104821702
 21
1.439583618787455
 31
0.0
  0
ELLIPSE
  5
1B0
330
2
100
AcDbEntity
  8
USP-GEO
100
AcDbEllipse
 10
2.149025040091398
 20
1.429261830420291
 30
0.0
 11
-0.006825
 21
0.0
 31
0.0
210
-0.0000000000000001
220
0.0
230
1.0
 40
0.5773502691896259
 41
-3.1411439972772
 42
-3.09065904766149
  0
ELLIPSE
  5
1B1
330
2
100
AcDbEntity
  8
USP-GEO
100
AcDbEllipse
 10
2.149025040091398
 20
1.429261830420291
 30
0.0
 11
-0.006825
 21
0.0
 31
0.0
210
-0.0000000000000001
220
0.0
230
1.0
 40
0.5773502691896259
 41
3.02110305655756
 42
3.142041309902385
  0
ELLIPSE
  5
1B2
330
2
100
AcDbEntity
  8
USP-GEO
100
AcDbEllipse
 10
2.149025040091398
 20
1.423680310824106
 30
0.0
 11
-0.006825
 21
0.0
 31
0.0
210
-0.0000000000000001
220
0.0
230
1.0
 40
0.5773502691896259
 41
3.021103056558008
 42
3.142041309902385
  0
ELLIPSE
  5
1B3
330
2
100
AcDbEntity
  8
USP-GEO
100
AcDbEllipse
 10
2.209920083042657
 20
1.528929866085174
 30
0.0
 11
-0.0042724609375
 21
0.0074001194171034
 31
0.0
210
0.0
220
0.0
230
1.0
 40
0.577350269189626
 41
2.356194490192344
 42
3.141592653589793
  0
LINE
  5
1B4
330
2
100
AcDbEntity
  8
USP-GEO
100
AcDbLine
 10
2.135929341978183
 20
1.477977411841695
 30
0.0
 11
2.130811989411622
 21
1.483886421605379
 31
0.0
  0
LINE
  5
1B5
330
2
100
AcDbEntity
  8
USP-GEO
100
AcDbLine
 10
2.00017069859556
 20
1.415493276226339
 30
0.0
 11
2.077385604874944
 21
1.370913229300487
 31
0.0
  0
LINE
  5
1B6
330
2
100
AcDbEntity
  8
USP-GEO
100
AcDbLine
 10
1.721309361597231
 20
1.081239779027942
 30
0.0
 11
1.721309361597231
 21
0.8418975329398854
 31
0.0
  0
LINE
  5
1B7
330
2
100
AcDbEntity
  8
USP-GEO
100
AcDbLine
 10
1.736934361597231
 20
1.072218681071856
 30
0.0
 11
1.736934361597231
 21
0.8328764349837989
 31
0.0
  0
LINE
  5
1B8
330
2
100
AcDbEntity
  8
USP-GEO
100
AcDbLine
 10
1.783809361597228
 20
0.8058131411155322
 30
0.0
 11
1.803144312645297
 21
0.8040862129425256
 31
0.0
  0
LINE
  5
1B9
330
2
100
AcDbEntity
  8
USP-GEO
100
AcDbLine
 10
1.783809361597228
 20
0.7542532716540187
 30
0.0
 11
1.783809361597228
 21
0.5149110255659615
 31
0.0
  0
LINE
  5
1BA
330
2
100
AcDbEntity
  8
USP-GEO
100
AcDbLine
 10
1.717599410549158
 20
0.7830434936952848
 30
0.0
 11
1.751088528126274
 21
0.8247045231281013
 31
0.0
  0
LINE
  5
1BB
330
2
100
AcDbEntity
  8
USP-GEO
100
AcDbLine
 10
1.733224410549158
 20
0.7740223957392054
 30
0.0
 11
1.766713528126274
 21
0.8156834251720077
 31
0.0
  0
LINE
  5
1BC
330
2
100
AcDbEntity
  8
USP-GEO
100
AcDbLine
 10
1.65859185777467
 20
0.7729901538267932
 30
0.0
 11
1.590919529106429
 21
0.8120607910000892
 31
0.0
  0
LINE
  5
1BD
330
2
100
AcDbEntity
  8
USP-GEO
100
AcDbLine
 10
1.642966857774673
 20
0.7820112517828726
 30
0.0
 11
1.676455975351785
 21
0.8236722812156891
 31
0.0
  0
LINE
  5
1BE
330
2
100
AcDbEntity
  8
USP-GEO
100
AcDbLine
 10
1.65859185777467
 20
0.7729901538267932
 30
0.0
 11
1.697261759870812
 21
0.8210961669422935
 31
0.0
  0
LINE
  5
1BF
330
2
100
AcDbEntity
  8
USP-GEO
100
AcDbLine
 10
1.721309361597231
 20
0.7809015524590102
 30
0.0
 11
1.721309361597231
 21
0.5509954173903076
 31
0.0
  0
LINE
  5
1C0
330
2
100
AcDbEntity
  8
USP-GEO
100
AcDbLine
 10
1.716137032928987
 20
0.783875361575138
 30
0.0
 11
1.716137032928987
 21
0.5539816627392576
 31
0.0
  0
LINE
  5
1C1
330
2
100
AcDbEntity
  8
USP-GEO
100
AcDbLine
 10
1.610254480154498
 20
0.8008853155748987
 30
0.0
 11
1.610254480154498
 21
0.5709916167390184
 31
0.0
  0
LINE
  5
1C2
330
2
100
AcDbEntity
  8
USP-GEO
100
AcDbLine
 10
1.736934361597231
 20
0.7718804545029166
 30
0.0
 11
1.736934361597231
 21
0.5419743194342211
 31
0.0
  0
LINE
  5
1C3
330
2
100
AcDbEntity
  8
USP-GEO
100
AcDbLine
 10
1.752559361597231
 20
0.7628593565468301
 30
0.0
 11
1.752559361597228
 21
0.5329532214781345
 31
0.0
  0
LINE
  5
1C4
330
2
100
AcDbEntity
  8
USP-GEO
100
AcDbLine
 10
1.768184361597228
 20
0.7556488403645965
 30
0.0
 11
1.768184361597228
 21
0.523932123522048
 31
0.0
  0
LINE
  5
1C5
330
2
100
AcDbEntity
  8
USP-GEO
100
AcDbLine
 10
1.783809361597228
 20
0.5149110255659615
 30
0.0
 11
1.716137032928987
 21
0.5539816627392576
 31
0.0
  0
LINE
  5
1C6
330
2
100
AcDbEntity
  8
USP-GEO
100
AcDbLine
 10
1.748849410549158
 20
0.7650012977831118
 30
0.0
 11
1.782338528126274
 21
0.8066623272159283
 31
0.0
  0
LINE
  5
1C7
330
2
100
AcDbEntity
  8
USP-GEO
100
AcDbLine
 10
1.764474410549158
 20
0.7559801998270253
 30
0.0
 11
1.783809361597228
 21
0.7542532716540187
 31
0.0
  0
LINE
  5
1C8
330
2
100
AcDbEntity
  8
USP-GEO
100
AcDbLine
 10
1.764474410549158
 20
0.7559801998270253
 30
0.0
 11
1.803144312645297
 21
0.8040862129425256
 31
0.0
  0
LINE
  5
1C9
330
2
100
AcDbEntity
  8
USP-GEO
100
AcDbLine
 10
1.752559361597228
 20
1.063197583115769
 30
0.0
 11
1.752559361597228
 21
0.8238553370277124
 31
0.0
  0
LINE
  5
1CA
330
2
100
AcDbEntity
  8
USP-GEO
100
AcDbLine
 10
1.768184361597228
 20
1.054176485159683
 30
0.0
 11
1.768184361597228
 21
0.8148342390716258
 31
0.0
  0
LINE
  5
1CB
330
2
100
AcDbEntity
  8
USP-GEO
100
AcDbLine
 10
1.783809361597228
 20
1.045155387203589
 30
0.0
 11
1.783809361597228
 21
0.8058131411155322
 31
0.0
  0
LINE
  5
1CC
330
2
100
AcDbEntity
  8
USP-GEO
100
AcDbLine
 10
1.701974410549162
 20
0.7920645916513785
 30
0.0
 11
1.735463528126274
 21
0.8337256210841879
 31
0.0
  0
LINE
  5
1CD
330
2
100
AcDbEntity
  8
USP-GEO
100
AcDbLine
 10
1.783809361597228
 20
0.8058131411155322
 30
0.0
 11
1.716137032928987
 21
0.8448837782888354
 31
0.0
  0
LINE
  5
1CE
330
2
100
AcDbEntity
  8
USP-GEO
100
AcDbLine
 10
1.596091857774673
 20
0.8090745456511392
 30
0.0
 11
1.629580975351785
 21
0.8507355750839558
 31
0.0
  0
LINE
  5
1CF
330
2
100
AcDbEntity
  8
USP-GEO
100
AcDbLine
 10
1.611716857774673
 20
0.8000534476950527
 30
0.0
 11
1.645205975351785
 21
0.8417144771278621
 31
0.0
  0
LINE
  5
1D0
330
2
100
AcDbEntity
  8
USP-GEO
100
AcDbLine
 10
1.627341857774673
 20
0.7910323497389662
 30
0.0
 11
1.660830975351785
 21
0.8326933791717756
 31
0.0
  0
LINE
  5
1D1
330
2
100
AcDbEntity
  8
USP-GEO
100
AcDbLine
 10
2.042733670210328
 20
1.533413495789826
 30
0.0
 11
2.125564872485949
 21
1.485590878858698
 31
0.0
  0
ELLIPSE
  5
1D2
330
2
100
AcDbEntity
  8
USP-GEO
100
AcDbEllipse
 10
2.209920083042657
 20
1.528929866085174
 30
0.0
 11
-0.0042724609375
 21
0.0074001194171034
 31
0.0
210
0.0
220
0.0
230
1.0
 40
0.577350269189626
 41
0.0000000000000862
 42
2.356194490192344
  0
ELLIPSE
  5
1D3
330
2
100
AcDbEntity
  8
USP-GEO
100
AcDbEllipse
 10
2.209920083042657
 20
1.528929866085174
 30
0.0
 11
-0.0042724609375
 21
0.0074001194171034
 31
0.0
210
0.0
220
0.0
230
1.0
 40
0.577350269189626
 41
3.141592653589793
 42
6.283185307179672
  0
LINE
  5
1D4
330
2
100
AcDbEntity
  8
USP-GEO
100
AcDbLine
 10
2.32069798084035
 20
1.427296959697155
 30
0.0
 11
1.721309361597231
 21
1.081239779027942
 31
0.0
  0
LINE
  5
1D5
330
2
100
AcDbEntity
  8
USP-GEO
100
AcDbLine
 10
2.33632298084035
 20
1.418275861741069
 30
0.0
 11
1.736934361597231
 21
1.072218681071856
 31
0.0
  0
LINE
  5
1D6
330
2
100
AcDbEntity
  8
USP-GEO
100
AcDbLine
 10
2.35194798084035
 20
1.409254763784982
 30
0.0
 11
1.752559361597228
 21
1.063197583115769
 31
0.0
  0
LINE
  5
1D7
330
2
100
AcDbEntity
  8
USP-GEO
100
AcDbLine
 10
2.36757298084035
 20
1.400233665828896
 30
0.0
 11
1.768184361597228
 21
1.054176485159683
 31
0.0
  0
LINE
  5
1D8
330
2
100
AcDbEntity
  8
USP-GEO
100
AcDbLine
 10
2.38319798084035
 20
1.391212567872809
 30
0.0
 11
1.783809361597228
 21
1.045155387203589
 31
0.0
  0
LINE
  5
1D9
330
2
100
AcDbEntity
  8
USP-GEO
100
AcDbLine
 10
2.316733536856187
 20
0.8225949416093776
 30
0.0
 11
1.783809361597228
 21
0.5149110255659615
 31
0.0
  0
LINE
  5
1DA
330
2
100
AcDbEntity
  8
USP-GEO
100
AcDbLine
 10
2.24588253350263
 20
2.14462362432155
 30
0.0
 11
2.36931636981258
 21
2.073359065700888
 31
0.0
  0
LINE
  5
1DB
330
2
100
AcDbEntity
  8
USP-GEO
100
AcDbLine
 10
2.303887386646838
 20
2.178112741898662
 30
0.0
 11
2.24588253350263
 21
2.14462362432155
 31
0.0
  0
LINE
  5
1DC
330
2
100
AcDbEntity
  8
USP-GEO
100
AcDbLine
 10
2.511896807119235
 20
2.146152146138685
 30
0.0
 11
2.497395198135667
 21
2.183527871956169
 31
0.0
  0
LINE
  5
1DD
330
2
100
AcDbEntity
  8
USP-GEO
100
AcDbLine
 10
2.464507183174291
 20
2.118792982304444
 30
0.0
 11
2.456134903780014
 21
2.106882161277905
 31
0.0
  0
LINE
  5
1DE
330
2
100
AcDbEntity
  8
USP-GEO
100
AcDbLine
 10
2.341103791605092
 20
1.980335462067241
 30
0.0
 11
2.332731512210813
 21
1.968424641040702
 31
0.0
  0
LINE
  5
1DF
330
2
100
AcDbEntity
  8
USP-GEO
100
AcDbLine
 10
2.341103791605092
 20
1.980335462067241
 30
0.0
 11
2.399108644749301
 21
2.01382457964436
 31
0.0
  0
LINE
  5
1E0
330
2
100
AcDbEntity
  8
USP-GEO
100
AcDbLine
 10
2.58794101948424
 20
2.047528423683782
 30
0.0
 11
2.464507183174291
 21
2.118792982304444
 31
0.0
  0
LINE
  5
1E1
330
2
100
AcDbEntity
  8
USP-GEO
100
AcDbLine
 10
2.52254248105925
 20
1.942560021023698
 30
0.0
 11
2.399108644749301
 21
2.01382457964436
 31
0.0
  0
LINE
  5
1E2
330
2
100
AcDbEntity
  8
USP-GEO
100
AcDbLine
 10
2.803669896592836
 20
0.9515576434104353
 30
0.0
 11
2.861674749737048
 21
0.9850467609875472
 31
0.0
  0
LINE
  5
1E3
330
2
100
AcDbEntity
  8
USP-GEO
100
AcDbLine
 10
2.803669896592836
 20
0.9128877413142895
 30
0.0
 11
2.861674749737048
 21
0.9463768588914085
 31
0.0
  0
LINE
  5
1E4
330
2
100
AcDbEntity
  8
USP-GEO
100
AcDbLine
 10
2.662364089610694
 20
1.390490125232684
 30
0.0
 11
2.662364089610694
 21
1.385842229949435
 31
0.0
  0
LINE
  5
1E5
330
2
100
AcDbEntity
  8
USP-GEO
100
AcDbLine
 10
2.690743828807438
 20
1.383174185196562
 30
0.0
 11
2.692592250127631
 21
1.384241371743353
 31
0.0
  0
ELLIPSE
  5
1E6
330
2
100
AcDbEntity
  8
USP-GEO
100
AcDbEllipse
 10
2.669189089610693
 20
1.385842229949435
 30
0.0
 11
0.006825
 21
0.0
 31
0.0
210
-0.0000000000000001
220
0.0
230
1.0
 40
0.5773502691896259
 41
-3.1411439972772
 42
-2.356194490192407
  0
LINE
  5
1E7
330
2
100
AcDbEntity
  8
USP-GEO
100
AcDbLine
 10
2.692592250127631
 20
1.384241371743353
 30
0.0
 11
2.645945031338289
 21
1.411173156068326
 31
0.0
  0
LINE
  5
1E8
330
2
100
AcDbEntity
  8
USP-GEO
100
AcDbLine
 10
2.645945872628448
 20
1.409038297255644
 30
0.0
 11
2.690743828807438
 21
1.383174185196562
 31
0.0
  0
LINE
  5
1E9
330
2
100
AcDbEntity
  8
USP-GEO
100
AcDbLine
 10
2.678659484402395
 20
1.374801905802282
 30
0.0
 11
2.664363085829094
 21
1.383055935367021
 31
0.0
  0
LINE
  5
1EA
330
2
100
AcDbEntity
  8
USP-GEO
100
AcDbLine
 10
2.664363085829094
 20
1.388637454963205
 30
0.0
 11
2.678659484402395
 21
1.380383425398466
 31
0.0
  0
LINE
  5
1EB
330
2
100
AcDbEntity
  8
USP-GEO
100
AcDbLine
 10
2.584686430799322
 20
1.362201480281097
 30
0.0
 11
2.589803783365887
 21
1.356292470517413
 31
0.0
  0
LINE
  5
1EC
330
2
100
AcDbEntity
  8
USP-GEO
100
AcDbLine
 10
2.587459671755478
 20
1.362200777096344
 30
0.0
 11
2.591652204686081
 21
1.357359657064204
 31
0.0
  0
LINE
  5
1ED
330
2
100
AcDbEntity
  8
USP-GEO
100
AcDbLine
 10
2.629042133022839
 20
1.347550694525867
 30
0.0
 11
2.630890554343032
 21
1.348617881072659
 31
0.0
  0
LINE
  5
1EE
330
2
100
AcDbEntity
  8
USP-GEO
100
AcDbLine
 10
2.622431513259503
 20
1.295593444908892
 30
0.0
 11
2.625699603215707
 21
1.295593444908892
 31
0.0
  0
LINE
  5
1EF
330
2
100
AcDbEntity
  8
USP-GEO
100
AcDbLine
 10
2.610354567054496
 20
1.302566073051341
 30
0.0
 11
2.622431513259503
 21
1.295593444908892
 31
0.0
  0
LINE
  5
1F0
330
2
100
AcDbEntity
  8
USP-GEO
100
AcDbLine
 10
2.622431513259503
 20
1.239778248947036
 30
0.0
 11
2.625699603215707
 21
1.239778248947036
 31
0.0
  0
LINE
  5
1F1
330
2
100
AcDbEntity
  8
USP-GEO
100
AcDbLine
 10
2.61035456705455
 20
1.246750877089457
 30
0.0
 11
2.622431513259503
 21
1.239778248947036
 31
0.0
  0
LINE
  5
1F2
330
2
100
AcDbEntity
  8
USP-GEO
100
AcDbLine
 10
2.611523420908589
 20
1.246773728951705
 30
0.0
 11
2.611523420908589
 21
1.250917376499973
 31
0.0
  0
LINE
  5
1F3
330
2
100
AcDbEntity
  8
USP-GEO
100
AcDbLine
 10
2.620583091939309
 20
1.301503157857336
 30
0.0
 11
2.626625264141829
 21
1.2945262583621
 31
0.0
  0
LINE
  5
1F4
330
2
100
AcDbEntity
  8
USP-GEO
100
AcDbLine
 10
2.602661390044495
 20
1.235802052772609
 30
0.0
 11
2.602661390044495
 21
1.2413835723688
 31
0.0
  0
LINE
  5
1F5
330
2
100
AcDbEntity
  8
USP-GEO
100
AcDbLine
 10
2.602661390044495
 20
1.2413835723688
 30
0.0
 11
2.616957788617796
 21
1.233129542804061
 31
0.0
  0
LINE
  5
1F6
330
2
100
AcDbEntity
  8
USP-GEO
100
AcDbLine
 10
2.622431513259503
 20
1.239778248947036
 30
0.0
 11
2.624279934579696
 21
1.240845435493827
 31
0.0
  0
LINE
  5
1F7
330
2
100
AcDbEntity
  8
USP-GEO
100
AcDbLine
 10
2.622431513259503
 20
1.295593444908892
 30
0.0
 11
2.624279934579696
 21
1.296660631455683
 31
0.0
  0
LINE
  5
1F8
330
2
100
AcDbEntity
  8
USP-GEO
100
AcDbLine
 10
2.612202988374679
 20
1.247818063636284
 30
0.0
 11
2.624279934579696
 21
1.240845435493827
 31
0.0
  0
LINE
  5
1F9
330
2
100
AcDbEntity
  8
USP-GEO
100
AcDbLine
 10
2.649657057830289
 20
1.33503357867946
 30
0.0
 11
2.651505479150486
 21
1.336100765226252
 31
0.0
  0
ELLIPSE
  5
1FA
330
2
100
AcDbEntity
  8
USP-GEO
100
AcDbEllipse
 10
2.669189089610693
 20
1.335608553583764
 30
0.0
 11
0.006825
 21
0.0
 31
0.0
210
-0.0000000000000001
220
0.0
230
1.0
 40
0.5773502691896259
 41
-2.861554278575815
 42
-2.356194490192407
  0
ELLIPSE
  5
1FB
330
2
100
AcDbEntity
  8
USP-GEO
100
AcDbEllipse
 10
2.672404763506698
 20
1.291890586422891
 30
0.0
 11
0.006825
 21
0.0
 31
0.0
210
0.0000000000000001
220
-0.0000000000000001
230
1.0
 40
0.5773502691896257
 41
-2.35619449019172
 42
-1.850378296568577
  0
LINE
  5
1FC
330
2
100
AcDbEntity
  8
USP-GEO
100
AcDbLine
 10
2.684133209044102
 20
1.331216935579586
 30
0.0
 11
2.68740129900031
 21
1.331216935579586
 31
0.0
  0
LINE
  5
1FD
330
2
100
AcDbEntity
  8
USP-GEO
100
AcDbLine
 10
2.672056262839113
 20
1.338189563722028
 30
0.0
 11
2.684133209044102
 21
1.331216935579586
 31
0.0
  0
LINE
  5
1FE
330
2
100
AcDbEntity
  8
USP-GEO
100
AcDbLine
 10
2.646388126583921
 20
1.342009774989936
 30
0.0
 11
2.651505479150486
 21
1.336100765226252
 31
0.0
  0
LINE
  5
1FF
330
2
100
AcDbEntity
  8
USP-GEO
100
AcDbLine
 10
2.651505479150486
 20
1.280285569264396
 30
0.0
 11
2.662372014768465
 21
1.274011772000196
 31
0.0
  0
LINE
  5
200
330
2
100
AcDbEntity
  8
USP-GEO
100
AcDbLine
 10
2.646388126583921
 20
1.28619457902808
 30
0.0
 11
2.651505479150486
 21
1.280285569264396
 31
0.0
  0
LINE
  5
201
330
2
100
AcDbEntity
  8
USP-GEO
100
AcDbLine
 10
2.678659484402395
 20
1.325265919386136
 30
0.0
 11
2.678659484402395
 21
1.324568229436611
 31
0.0
  0
LINE
  5
202
330
2
100
AcDbEntity
  8
USP-GEO
100
AcDbLine
 10
2.678659484402395
 20
1.318289019890908
 30
0.0
 11
2.649657057830289
 21
1.33503357867946
 31
0.0
  0
LINE
  5
203
330
2
100
AcDbEntity
  8
USP-GEO
100
AcDbLine
 10
2.667578759725103
 20
1.339337968206141
 30
0.0
 11
2.653282361151802
 21
1.34759199777088
 31
0.0
  0
LINE
  5
204
330
2
100
AcDbEntity
  8
USP-GEO
100
AcDbLine
 10
2.692592250127631
 20
1.227330077987186
 30
0.0
 11
2.690743828807438
 21
1.226262891440395
 31
0.0
  0
LINE
  5
205
330
2
100
AcDbEntity
  8
USP-GEO
100
AcDbLine
 10
2.690743828807438
 20
1.226262891440395
 30
0.0
 11
2.645945872628448
 21
1.252127003499484
 31
0.0
  0
LINE
  5
206
330
2
100
AcDbEntity
  8
USP-GEO
100
AcDbLine
 10
2.495402818368791
 20
1.274580139933174
 30
0.0
 11
2.495402818368791
 21
1.2752778298827
 31
0.0
  0
LINE
  5
207
330
2
100
AcDbEntity
  8
USP-GEO
100
AcDbLine
 10
2.505070293892824
 20
1.224346463567503
 30
0.0
 11
2.499028121690304
 21
1.231323363062738
 31
0.0
  0
LINE
  5
208
330
2
100
AcDbEntity
  8
USP-GEO
100
AcDbLine
 10
2.528102087581284
 20
1.209038587923007
 30
0.0
 11
2.529950508901482
 21
1.210105774469791
 31
0.0
  0
LINE
  5
209
330
2
100
AcDbEntity
  8
USP-GEO
100
AcDbLine
 10
2.529950508901482
 20
1.265920970431654
 30
0.0
 11
2.53895965879327
 21
1.260719535316457
 31
0.0
  0
LINE
  5
20A
330
2
100
AcDbEntity
  8
USP-GEO
100
AcDbLine
 10
2.538968623199263
 20
1.202764790658807
 30
0.0
 11
2.528102087581284
 21
1.209038587923007
 31
0.0
  0
LINE
  5
20B
330
2
100
AcDbEntity
  8
USP-GEO
100
AcDbLine
 10
2.538968623199256
 20
1.314395182582526
 30
0.0
 11
2.528102087581284
 21
1.320668979846718
 31
0.0
  0
LINE
  5
20C
330
2
100
AcDbEntity
  8
USP-GEO
100
AcDbLine
 10
2.526253666261091
 20
1.207971401376216
 30
0.0
 11
2.528102087581284
 21
1.209038587923007
 31
0.0
  0
LINE
  5
20D
330
2
100
AcDbEntity
  8
USP-GEO
100
AcDbLine
 10
2.526253666261091
 20
1.319601793299927
 30
0.0
 11
2.528102087581284
 21
1.320668979846718
 31
0.0
  0
ELLIPSE
  5
20E
330
2
100
AcDbEntity
  8
USP-GEO
100
AcDbEllipse
 10
2.549001371937499
 20
1.21506208548531
 30
0.0
 11
0.006825
 21
0.0
 31
0.0
210
0.0000000000000001
220
-0.0000000000000001
230
1.0
 40
0.5773502691896257
 41
-2.356194490192407
 42
-1.450306729763135
  0
LINE
  5
20F
330
2
100
AcDbEntity
  8
USP-GEO
100
AcDbLine
 10
2.52254248105925
 20
1.2707634968333
 30
0.0
 11
2.526253666261091
 21
1.270763496833307
 31
0.0
  0
LINE
  5
210
330
2
100
AcDbEntity
  8
USP-GEO
100
AcDbLine
 10
2.526253666261091
 20
1.263786597338071
 30
0.0
 11
2.52254248105925
 21
1.26807190488866
 31
0.0
  0
LINE
  5
211
330
2
100
AcDbEntity
  8
USP-GEO
100
AcDbLine
 10
2.540959694259896
 20
1.261575277659961
 30
0.0
 11
2.555256092833197
 21
1.253321248095222
 31
0.0
  0
LINE
  5
212
330
2
100
AcDbEntity
  8
USP-GEO
100
AcDbLine
 10
2.56492356835723
 20
1.258902767691406
 30
0.0
 11
2.55888139615471
 21
1.258902767691406
 31
0.0
  0
LINE
  5
213
330
2
100
AcDbEntity
  8
USP-GEO
100
AcDbLine
 10
2.55888139615471
 20
1.265879667186641
 30
0.0
 11
2.56492356835723
 21
1.258902767691406
 31
0.0
  0
LINE
  5
214
330
2
100
AcDbEntity
  8
USP-GEO
100
AcDbLine
 10
2.526253666261091
 20
1.214948300871444
 30
0.0
 11
2.555256092833197
 21
1.198203742082892
 31
0.0
  0
LINE
  5
215
330
2
100
AcDbEntity
  8
USP-GEO
100
AcDbLine
 10
2.526253666261091
 20
1.207971401376216
 30
0.0
 11
2.52254248105925
 21
1.212256708926805
 31
0.0
  0
LINE
  5
216
330
2
100
AcDbEntity
  8
USP-GEO
100
AcDbLine
 10
2.52254248105925
 20
1.326578692795163
 30
0.0
 11
2.526253666261091
 21
1.326578692795163
 31
0.0
  0
LINE
  5
217
330
2
100
AcDbEntity
  8
USP-GEO
100
AcDbLine
 10
2.540959694259896
 20
1.311808954025632
 30
0.0
 11
2.540959694259896
 21
1.317390473621816
 31
0.0
  0
LINE
  5
218
330
2
100
AcDbEntity
  8
USP-GEO
100
AcDbLine
 10
2.58795536204569
 20
1.24359489204691
 30
0.0
 11
2.589803783365887
 21
1.244662078593702
 31
0.0
  0
LINE
  5
219
330
2
100
AcDbEntity
  8
USP-GEO
100
AcDbLine
 10
2.591580665367203
 20
1.255455621188804
 30
0.0
 11
2.592184546209402
 21
1.255804271955607
 31
0.0
  0
LINE
  5
21A
330
2
100
AcDbEntity
  8
USP-GEO
100
AcDbLine
 10
2.589803783365887
 20
1.244662078593702
 30
0.0
 11
2.600670318983848
 21
1.238388281329509
 31
0.0
  0
LINE
  5
21B
330
2
100
AcDbEntity
  8
USP-GEO
100
AcDbLine
 10
2.584686430799322
 20
1.250571088357386
 30
0.0
 11
2.589803783365887
 21
1.244662078593702
 31
0.0
  0
LINE
  5
21C
330
2
100
AcDbEntity
  8
USP-GEO
100
AcDbLine
 10
2.589803783365887
 20
1.244662078593702
 30
0.0
 11
2.591652204686081
 21
1.245729265140493
 31
0.0
  0
LINE
  5
21D
330
2
100
AcDbEntity
  8
USP-GEO
100
AcDbLine
 10
2.587459671755478
 20
1.306385581134488
 30
0.0
 11
2.591652204686081
 21
1.301544461102349
 31
0.0
  0
ELLIPSE
  5
21E
330
2
100
AcDbEntity
  8
USP-GEO
100
AcDbEllipse
 10
2.607487393826094
 20
1.350218739278741
 30
0.0
 11
0.006825
 21
0.0
 31
0.0
210
-0.0000000000000001
220
0.0
230
1.0
 40
0.5773502691896259
 41
-3.1411439972772
 42
-2.356194490192407
  0
LINE
  5
21F
330
2
100
AcDbEntity
  8
USP-GEO
100
AcDbLine
 10
2.629042133022839
 20
1.190639400769708
 30
0.0
 11
2.584244176843849
 21
1.21650351282879
 31
0.0
  0
LINE
  5
220
330
2
100
AcDbEntity
  8
USP-GEO
100
AcDbLine
 10
2.600662393826095
 20
1.354866634561989
 30
0.0
 11
2.600662393826095
 21
1.350218739278741
 31
0.0
  0
LINE
  5
221
330
2
100
AcDbEntity
  8
USP-GEO
100
AcDbLine
 10
2.692592250127631
 20
1.227330077987186
 30
0.0
 11
2.692592250127631
 21
1.384241371743353
 31
0.0
  0
LINE
  5
222
330
2
100
AcDbEntity
  8
USP-GEO
100
AcDbLine
 10
2.690743828807438
 20
1.383174185196562
 30
0.0
 11
2.690743828807438
 21
1.226262891440395
 31
0.0
  0
ELLIPSE
  5
223
330
2
100
AcDbEntity
  8
USP-GEO
100
AcDbEllipse
 10
2.431270469631165
 20
1.404468676913747
 30
0.0
 11
0.0042724609375
 21
-0.0074001194171034
 31
0.0
210
0.0
220
0.0
230
1.0
 40
0.577350269189626
 41
-2.796177376393283
 42
-0.3453135975190702
  0
LINE
  5
224
330
2
100
AcDbEntity
  8
USP-GEO
100
AcDbLine
 10
2.410536943262002
 20
1.361077057999633
 30
0.0
 11
2.412491324888581
 21
1.362205420757835
 31
0.0
  0
ELLIPSE
  5
225
330
2
100
AcDbEntity
  8
USP-GEO
100
AcDbEllipse
 10
2.409036433635627
 20
1.260280089082979
 30
0.0
 11
-0.0034548912529517
 21
0.0059840471847376
 31
0.0
210
0.0000000000000001
220
-0.0000000000000001
230
1.0
 40
0.5773502691896258
 41
3.141592653589793
 42
6.283185307178259
  0
LINE
  5
226
330
2
100
AcDbEntity
  8
USP-GEO
100
AcDbLine
 10
2.383195016084542
 20
1.221453743317741
 30
0.0
 11
2.394541130890068
 21
1.214903060880512
 31
0.0
  0
LINE
  5
227
330
2
100
AcDbEntity
  8
USP-GEO
100
AcDbLine
 10
2.383195016084542
 20
1.235407542308205
 30
0.0
 11
2.394544348874585
 21
1.228855001966753
 31
0.0
  0
LINE
  5
228
330
2
100
AcDbEntity
  8
USP-GEO
100
AcDbLine
 10
2.394544348874585
 20
1.277693298433373
 30
0.0
 11
2.383195016084542
 21
1.284245838774825
 31
0.0
  0
LINE
  5
229
330
2
100
AcDbEntity
  8
USP-GEO
100
AcDbLine
 10
2.383195016084542
 20
1.277268939279597
 30
0.0
 11
2.394544348874585
 21
1.270716398938144
 31
0.0
  0
LINE
  5
22A
330
2
100
AcDbEntity
  8
USP-GEO
100
AcDbLine
 10
2.394544348874585
 20
1.333508494395228
 30
0.0
 11
2.383195016084542
 21
1.340061034736688
 31
0.0
  0
LINE
  5
22B
330
2
100
AcDbEntity
  8
USP-GEO
100
AcDbLine
 10
2.393862142980054
 20
1.22994656367312
 30
0.0
 11
2.383195016084542
 21
1.236105232257724
 31
0.0
  0
LINE
  5
22C
330
2
100
AcDbEntity
  8
USP-GEO
100
AcDbLine
 10
2.383195016084542
 20
1.277966629229123
 30
0.0
 11
2.394544348874585
 21
1.271414088887663
 31
0.0
  0
LINE
  5
22D
330
2
100
AcDbEntity
  8
USP-GEO
100
AcDbLine
 10
2.393862142980054
 20
1.291343279231167
 30
0.0
 11
2.383195016084542
 21
1.297501947815771
 31
0.0
  0
ELLIPSE
  5
22E
330
2
100
AcDbEntity
  8
USP-GEO
100
AcDbEllipse
 10
2.387086624870754
 20
1.28623539076803
 30
0.0
 11
-0.006825
 21
0.0
 31
0.0
210
-0.0000000000000001
220
0.0
230
1.0
 40
0.5773502691896259
 41
3.02110305655756
 42
3.142041309902385
  0
ELLIPSE
  5
22F
330
2
100
AcDbEntity
  8
USP-GEO
100
AcDbEllipse
 10
2.387086624870754
 20
1.236001714402359
 30
0.0
 11
-0.006825
 21
0.0
 31
0.0
210
-0.0000000000000001
220
0.0
230
1.0
 40
0.5773502691896259
 41
-3.1411439972772
 42
-3.090659047702116
  0
ELLIPSE
  5
230
330
2
100
AcDbEntity
  8
USP-GEO
100
AcDbEllipse
 10
2.387086624870754
 20
1.236001714402359
 30
0.0
 11
-0.006825
 21
0.0
 31
0.0
210
-0.0000000000000001
220
0.0
230
1.0
 40
0.5773502691896259
 41
3.021103056558008
 42
3.142041309902385
  0
LINE
  5
231
330
2
100
AcDbEntity
  8
USP-GEO
100
AcDbLine
 10
2.442317949374007
 20
1.19109967237242
 30
0.0
 11
2.440363567747429
 21
1.189971309614218
 31
0.0
  0
LINE
  5
232
330
2
100
AcDbEntity
  8
USP-GEO
100
AcDbLine
 10
2.468248813116883
 20
1.286112675722815
 30
0.0
 11
2.466400391796685
 21
1.285045489176024
 31
0.0
  0
LINE
  5
233
330
2
100
AcDbEntity
  8
USP-GEO
100
AcDbLine
 10
2.466400391796685
 20
1.236207192709397
 30
0.0
 11
2.465106633965287
 21
1.236207192709397
 31
0.0
  0
ELLIPSE
  5
234
330
2
100
AcDbEntity
  8
USP-GEO
100
AcDbEllipse
 10
2.478128837334089
 20
1.281115061462283
 30
0.0
 11
-0.006825
 21
0.0
 31
0.0
210
0.0000000000000001
220
-0.0000000000000001
230
1.0
 40
0.5773502691896257
 41
-1.621628477514918
 42
-1.450306729763135
  0
LINE
  5
235
330
2
100
AcDbEntity
  8
USP-GEO
100
AcDbLine
 10
2.394545663610465
 20
1.215820012386185
 30
0.0
 11
2.394545663610465
 21
1.483732953003094
 31
0.0
  0
LINE
  5
236
330
2
100
AcDbEntity
  8
USP-GEO
100
AcDbLine
 10
2.462217992278706
 20
1.444662315829798
 30
0.0
 11
2.462217992278706
 21
1.176749375212889
 31
0.0
  0
LINE
  5
237
330
2
100
AcDbEntity
  8
USP-GEO
100
AcDbLine
 10
2.495402818368791
 20
1.2752778298827
 30
0.0
 11
2.466400391796685
 21
1.292022388671252
 31
0.0
  0
LINE
  5
238
330
2
100
AcDbEntity
  8
USP-GEO
100
AcDbLine
 10
2.504144632966706
 20
1.169598454152438
 30
0.0
 11
2.500876543010498
 21
1.169598454152438
 31
0.0
  0
LINE
  5
239
330
2
100
AcDbEntity
  8
USP-GEO
100
AcDbLine
 10
2.499028121690304
 20
1.168531267605647
 30
0.0
 11
2.505070293892824
 21
1.168531267605647
 31
0.0
  0
LINE
  5
23A
330
2
100
AcDbEntity
  8
USP-GEO
100
AcDbLine
 10
2.500876543010498
 20
1.169598454152438
 30
0.0
 11
2.499028121690304
 21
1.168531267605647
 31
0.0
  0
ELLIPSE
  5
23B
330
2
100
AcDbEntity
  8
USP-GEO
100
AcDbEllipse
 10
2.481344511230094
 20
1.176000378743363
 30
0.0
 11
-0.006825
 21
0.0
 31
0.0
210
-0.0000000000000001
220
0.0
230
1.0
 40
0.5773502691896259
 41
3.021103056558008
 42
3.142041309902385
  0
LINE
  5
23C
330
2
100
AcDbEntity
  8
USP-GEO
100
AcDbLine
 10
2.499028121690304
 20
1.05302437088574
 30
0.0
 11
2.505070293892824
 21
1.05302437088574
 31
0.0
  0
LINE
  5
23D
330
2
100
AcDbEntity
  8
USP-GEO
100
AcDbLine
 10
2.495402818368791
 20
1.041163641743846
 30
0.0
 11
2.495402818368791
 21
1.041861331693372
 31
0.0
  0
ELLIPSE
  5
23E
330
2
100
AcDbEntity
  8
USP-GEO
100
AcDbEllipse
 10
2.481344511230094
 20
1.004678286061601
 30
0.0
 11
-0.006825
 21
0.0
 31
0.0
210
-0.0000000000000001
220
0.0
230
1.0
 40
0.5773502691896259
 41
3.021103056558008
 42
3.142041309902385
  0
LINE
  5
23F
330
2
100
AcDbEntity
  8
USP-GEO
100
AcDbLine
 10
2.604143071174892
 20
0.8952581205211451
 30
0.0
 11
2.618644284460945
 21
0.8772183656028396
 31
0.0
  0
LINE
  5
240
330
2
100
AcDbEntity
  8
USP-GEO
100
AcDbLine
 10
2.618644284460945
 20
0.8772183656028396
 30
0.0
 11
2.676649137605153
 21
0.9107074831799444
 31
0.0
  0
LINE
  5
241
330
2
100
AcDbEntity
  8
USP-GEO
100
AcDbLine
 10
2.676649137605153
 20
0.9107074831799444
 30
0.0
 11
2.669920471796643
 21
0.9190780574014532
 31
0.0
  0
LINE
  5
242
330
2
100
AcDbEntity
  8
USP-GEO
100
AcDbLine
 10
2.499028121690304
 20
0.9972091749238849
 30
0.0
 11
2.505070293892824
 21
0.9972091749238849
 31
0.0
  0
LINE
  5
243
330
2
100
AcDbEntity
  8
USP-GEO
100
AcDbLine
 10
2.500876543010498
 20
0.9982763614706762
 30
0.0
 11
2.499028121690304
 21
0.9972091749238849
 31
0.0
  0
LINE
  5
244
330
2
100
AcDbEntity
  8
USP-GEO
100
AcDbLine
 10
2.505070293892824
 20
0.9972091749238849
 30
0.0
 11
2.499028121690304
 21
1.00418607441912
 31
0.0
  0
LINE
  5
245
330
2
100
AcDbEntity
  8
USP-GEO
100
AcDbLine
 10
2.430178699677767
 20
1.080955177321346
 30
0.0
 11
2.421119869937211
 21
1.086185295110599
 31
0.0
  0
LINE
  5
246
330
2
100
AcDbEntity
  8
USP-GEO
100
AcDbLine
 10
2.398572622627753
 20
1.011465107302523
 30
0.0
 11
2.396618241001174
 21
1.010336744544314
 31
0.0
  0
LINE
  5
247
330
2
100
AcDbEntity
  8
USP-GEO
100
AcDbLine
 10
2.423500632780729
 20
1.041512292510649
 30
0.0
 11
2.42289675193853
 21
1.041163641743846
 31
0.0
  0
LINE
  5
248
330
2
100
AcDbEntity
  8
USP-GEO
100
AcDbLine
 10
2.42289675193853
 20
1.041861331693372
 30
0.0
 11
2.42289675193853
 21
1.041163641743846
 31
0.0
  0
LINE
  5
249
330
2
100
AcDbEntity
  8
USP-GEO
100
AcDbLine
 10
2.421119869937211
 20
1.086185295110599
 30
0.0
 11
2.420373304399241
 21
1.085754265296284
 31
0.0
  0
LINE
  5
24A
330
2
100
AcDbEntity
  8
USP-GEO
100
AcDbLine
 10
2.451899178510632
 20
1.087211178412378
 30
0.0
 11
2.428337036790701
 21
1.100814787277069
 31
0.0
  0
LINE
  5
24B
330
2
100
AcDbEntity
  8
USP-GEO
100
AcDbLine
 10
2.468248813116883
 20
1.114790583041052
 30
0.0
 11
2.466400391796685
 21
1.113723396494261
 31
0.0
  0
LINE
  5
24C
330
2
100
AcDbEntity
  8
USP-GEO
100
AcDbLine
 10
2.477307642857436
 20
1.109560465251799
 30
0.0
 11
2.468248813116883
 21
1.114790583041052
 31
0.0
  0
ELLIPSE
  5
24D
330
2
100
AcDbEntity
  8
USP-GEO
100
AcDbEllipse
 10
2.478128837334089
 20
1.053977772818665
 30
0.0
 11
-0.006825
 21
0.0
 31
0.0
210
0.0000000000000001
220
-0.0000000000000001
230
1.0
 40
0.5773502691896257
 41
-1.621628477505538
 42
-1.450306729763135
  0
LINE
  5
24E
330
2
100
AcDbEntity
  8
USP-GEO
100
AcDbLine
 10
2.430179540967927
 20
1.085099528054374
 30
0.0
 11
2.430179540967927
 21
1.07951800845819
 31
0.0
  0
ELLIPSE
  5
24F
330
2
100
AcDbEntity
  8
USP-GEO
100
AcDbEllipse
 10
2.434215568050426
 20
1.03188819409301
 30
0.0
 11
-0.006825
 21
0.0
 31
0.0
210
-0.0000000000000001
220
0.0
230
1.0
 40
0.5773502691896259
 41
3.021103056558008
 42
3.142041309902385
  0
ELLIPSE
  5
250
330
2
100
AcDbEntity
  8
USP-GEO
100
AcDbEllipse
 10
2.434215568050426
 20
1.09328490965105
 30
0.0
 11
-0.006825
 21
0.0
 31
0.0
210
-0.0000000000000001
220
0.0
230
1.0
 40
0.5773502691896259
 41
-3.1411439972772
 42
-3.090659047702566
  0
ELLIPSE
  5
251
330
2
100
AcDbEntity
  8
USP-GEO
100
AcDbEllipse
 10
2.434215568050426
 20
1.09328490965105
 30
0.0
 11
-0.006825
 21
0.0
 31
0.0
210
-0.0000000000000001
220
0.0
230
1.0
 40
0.5773502691896259
 41
3.02110305655756
 42
3.142041309902385
  0
LINE
  5
252
330
2
100
AcDbEntity
  8
USP-GEO
100
AcDbLine
 10
2.35211950952436
 20
1.063777562591997
 30
0.0
 11
2.35211950952436
 21
1.062181816676069
 31
0.0
  0
LINE
  5
253
330
2
100
AcDbEntity
  8
USP-GEO
100
AcDbLine
 10
2.344528078744211
 20
1.060507531798808
 30
0.0
 11
2.347416720430793
 21
1.058839773743468
 31
0.0
  0
ELLIPSE
  5
254
330
2
100
AcDbEntity
  8
USP-GEO
100
AcDbEllipse
 10
2.383197980840353
 20
1.082833610183552
 30
0.0
 11
0.02734375
 21
0.0473607642694615
 31
0.0
210
0.0000000000000001
220
0.0
230
1.0
 40
0.5773502691896258
 41
1.909739267532166
 42
2.356194490192338
  0
LINE
  5
255
330
2
100
AcDbEntity
  8
USP-GEO
100
AcDbLine
 10
2.403528023507078
 20
0.9983686501748358
 30
0.0
 11
2.405482405133657
 21
0.9994970129330447
 31
0.0
  0
LINE
  5
256
330
2
100
AcDbEntity
  8
USP-GEO
100
AcDbLine
 10
2.343264038034757
 20
0.9703131620380212
 30
0.0
 11
2.31799812732207
 21
0.8444160137189093
 31
0.0
  0
ARC
  5
257
330
2
100
AcDbEntity
  8
USP-GEO
100
AcDbCircle
 10
2.346014763846479
 20
0.888706736018701
 30
0.0
 40
0.01775703125
100
AcDbArc
 50
256.3654535007137
 51
262.6391124857939
  0
LINE
  5
258
330
2
100
AcDbEntity
  8
USP-GEO
100
AcDbLine
 10
2.339104981340575
 20
0.8780229678214332
 30
0.0
 11
2.339104981340575
 21
0.876427221905498
 31
0.0
  0
ELLIPSE
  5
259
330
2
100
AcDbEntity
  8
USP-GEO
100
AcDbEllipse
 10
2.355403988708751
 20
0.8546889966894646
 30
0.0
 11
0.02734375
 21
0.0473607642694615
 31
0.0
210
0.0000000000000001
220
0.0
230
1.0
 40
0.5773502691896258
 41
2.099805623074389
 42
2.356194490192378
  0
LINE
  5
25A
330
2
100
AcDbEntity
  8
USP-GEO
100
AcDbLine
 10
2.344528078744211
 20
0.9823662574522096
 30
0.0
 11
2.347416720430793
 21
0.980698499396869
 31
0.0
  0
ELLIPSE
  5
25B
330
2
100
AcDbEntity
  8
USP-GEO
100
AcDbEllipse
 10
2.305858176648072
 20
0.9600401790674659
 30
0.0
 11
0.02734375
 21
0.0473607642694615
 31
0.0
210
0.0000000000000001
220
0.0
230
1.0
 40
0.5773502691896258
 41
-1.041787030515441
 42
-0.7853981633974549
  0
ARC
  5
25C
330
2
100
AcDbEntity
  8
USP-GEO
100
AcDbCircle
 10
2.346014763846479
 20
0.888706736018701
 30
0.0
 40
0.01775703125
100
AcDbArc
 50
277.3138966838329
 51
43.63454649928785
  0
LINE
  5
25D
330
2
100
AcDbEntity
  8
USP-GEO
100
AcDbLine
 10
2.347416720430793
 20
0.980698499396869
 30
0.0
 11
2.347416720430793
 21
1.058839773743468
 31
0.0
  0
LINE
  5
25E
330
2
100
AcDbEntity
  8
USP-GEO
100
AcDbLine
 10
2.344528078744211
 20
0.9823662574522096
 30
0.0
 11
2.344528078744211
 21
1.060507531798808
 31
0.0
  0
ELLIPSE
  5
25F
330
2
100
AcDbEntity
  8
USP-GEO
100
AcDbEllipse
 10
2.359029292030264
 20
0.9967993274377668
 30
0.0
 11
-0.0069097825059033
 21
0.0
 31
0.0
210
0.0000000000000001
220
0.0
230
1.0
 40
0.816496580927726
 41
3.141592653589793
 42
6.2831853071796
  0
LINE
  5
260
330
2
100
AcDbEntity
  8
USP-GEO
100
AcDbLine
 10
2.495402818368791
 20
1.103955737200937
 30
0.0
 11
2.466400391796685
 21
1.12070029598949
 31
0.0
  0
LINE
  5
261
330
2
100
AcDbEntity
  8
USP-GEO
100
AcDbLine
 10
2.52254248105925
 20
1.180880022158095
 30
0.0
 11
2.509315204035758
 21
1.173243250207935
 31
0.0
  0
LINE
  5
262
330
2
100
AcDbEntity
  8
USP-GEO
100
AcDbLine
 10
2.676649137605153
 20
1.091906502517399
 30
0.0
 11
2.52254248105925
 21
1.180880022158088
 31
0.0
  0
LINE
  5
263
330
2
100
AcDbEntity
  8
USP-GEO
100
AcDbLine
 10
2.316734086612612
 20
0.8211998791123527
 30
0.0
 11
2.315525652172105
 21
0.8218975690618712
 31
0.0
  0
LINE
  5
264
330
2
100
AcDbEntity
  8
USP-GEO
100
AcDbLine
 10
2.861674749737048
 20
0.8038477416500917
 30
0.0
 11
2.861674749737048
 21
0.9463768588914085
 31
0.0
  0
LINE
  5
265
330
2
100
AcDbEntity
  8
USP-GEO
100
AcDbLine
 10
2.52254248105925
 20
1.942560021023698
 30
0.0
 11
2.52254248105925
 21
1.180880022158095
 31
0.0
  0
LINE
  5
266
330
2
100
AcDbEntity
  8
USP-GEO
100
AcDbLine
 10
2.58794101948424
 20
1.375549179678532
 30
0.0
 11
2.58794101948424
 21
2.047528423683782
 31
0.0
  0
LINE
  5
267
330
2
100
AcDbEntity
  8
USP-GEO
100
AcDbLine
 10
2.18711979748075
 20
1.589606775893042
 30
0.0
 11
2.185165415854172
 21
1.58847841313484
 31
0.0
  0
ELLIPSE
  5
268
330
2
100
AcDbEntity
  8
USP-GEO
100
AcDbEllipse
 10
2.188620307107122
 20
1.5824943659501
 30
0.0
 11
-0.0034548912529517
 21
0.0059840471847376
 31
0.0
210
0.0000000000000001
220
-0.0000000000000001
230
1.0
 40
0.5773502691896258
 41
-0.0000000000003473
 42
2.356194490192344
  0
ELLIPSE
  5
269
330
2
100
AcDbEntity
  8
USP-GEO
100
AcDbEllipse
 10
2.188620307107122
 20
1.5824943659501
 30
0.0
 11
-0.0034548912529517
 21
0.0059840471847376
 31
0.0
210
0.0000000000000001
220
-0.0000000000000001
230
1.0
 40
0.5773502691896258
 41
3.14159265358946
 42
6.283185307179253
  0
ELLIPSE
  5
26A
330
2
100
AcDbEntity
  8
USP-GEO
100
AcDbEllipse
 10
2.188620307107122
 20
1.5824943659501
 30
0.0
 11
-0.0034548912529517
 21
0.0059840471847376
 31
0.0
210
0.0000000000000001
220
-0.0000000000000001
230
1.0
 40
0.5773502691896258
 41
2.356194490192344
 42
3.14159265358946
  0
ELLIPSE
  5
26B
330
2
100
AcDbEntity
  8
USP-GEO
100
AcDbEllipse
 10
2.1905746887337
 20
1.583622728708302
 30
0.0
 11
-0.0034548912529517
 21
0.0059840471847376
 31
0.0
210
0.0000000000000001
220
-0.0000000000000001
230
1.0
 40
0.5773502691896258
 41
3.141592653589793
 42
6.283185307178259
  0
LINE
  5
26C
330
2
100
AcDbEntity
  8
USP-GEO
100
AcDbLine
 10
2.228811605351403
 20
1.46599623076089
 30
0.0
 11
2.230765986977985
 21
1.467124593519098
 31
0.0
  0
ELLIPSE
  5
26D
330
2
100
AcDbEntity
  8
USP-GEO
100
AcDbEllipse
 10
2.227311095725031
 20
1.473108640703831
 30
0.0
 11
-0.0034548912529517
 21
0.0059840471847376
 31
0.0
210
0.0000000000000001
220
-0.0000000000000001
230
1.0
 40
0.5773502691896258
 41
3.14159265358946
 42
6.283185307179253
  0
ELLIPSE
  5
26E
330
2
100
AcDbEntity
  8
USP-GEO
100
AcDbEllipse
 10
2.1905746887337
 20
1.44036372573954
 30
0.0
 11
-0.0034548912529517
 21
0.0059840471847376
 31
0.0
210
0.0000000000000001
220
-0.0000000000000001
230
1.0
 40
0.5773502691896258
 41
-2.109159779510894
 42
-0.0000000000003331
  0
LINE
  5
26F
330
2
100
AcDbEntity
  8
USP-GEO
100
AcDbLine
 10
2.134080920657989
 20
1.476910225294904
 30
0.0
 11
2.163083347230092
 21
1.460165666506345
 31
0.0
  0
LINE
  5
270
330
2
100
AcDbEntity
  8
USP-GEO
100
AcDbLine
 10
2.155226033011473
 20
1.415863792518951
 30
0.0
 11
2.134080920657989
 21
1.428071928828277
 31
0.0
  0
LINE
  5
271
330
2
100
AcDbEntity
  8
USP-GEO
100
AcDbLine
 10
2.14498817171874
 20
1.416932098090587
 30
0.0
 11
2.135929341978183
 21
1.42216221587984
 31
0.0
  0
ELLIPSE
  5
272
330
2
100
AcDbEntity
  8
USP-GEO
100
AcDbEllipse
 10
2.212808724729239
 20
1.530597624140508
 30
0.0
 11
-0.0042724609375
 21
0.0074001194171034
 31
0.0
210
0.0
220
0.0
230
1.0
 40
0.577350269189626
 41
2.356194490192344
 42
2.796279056070722
  0
LINE
  5
273
330
2
100
AcDbEntity
  8
USP-GEO
100
AcDbLine
 10
2.12562187957446
 20
1.497840923780596
 30
0.0
 11
2.12562187957446
 21
1.398768345236621
 31
0.0
  0
LINE
  5
274
330
2
100
AcDbEntity
  8
USP-GEO
100
AcDbLine
 10
2.125594637965445
 20
1.410057966222542
 30
0.0
 11
2.058175551739772
 21
1.448982393803458
 31
0.0
  0
LINE
  5
275
330
2
100
AcDbEntity
  8
USP-GEO
100
AcDbLine
 10
2.021289095043218
 20
1.47454754569382
 30
0.0
 11
2.125592955385123
 21
1.414327683847904
 31
0.0
  0
LINE
  5
276
330
2
100
AcDbEntity
  8
USP-GEO
100
AcDbLine
 10
2.021289095043218
 20
1.47454754569382
 30
0.0
 11
2.021289095043218
 21
1.427681215671636
 31
0.0
  0
LINE
  5
277
330
2
100
AcDbEntity
  8
USP-GEO
100
AcDbLine
 10
2.128038748455466
 20
1.48388712479014
 30
0.0
 11
2.134080920657989
 21
1.476910225294904
 31
0.0
  0
LINE
  5
278
330
2
100
AcDbEntity
  8
USP-GEO
100
AcDbLine
 10
2.134080920657989
 20
1.428071928828277
 30
0.0
 11
2.128038748455466
 21
1.428071928828277
 31
0.0
  0
LINE
  5
279
330
2
100
AcDbEntity
  8
USP-GEO
100
AcDbLine
 10
2.135929341978183
 20
1.42216221587984
 30
0.0
 11
2.130811989411622
 21
1.428071225643524
 31
0.0
  0
LINE
  5
27A
330
2
100
AcDbEntity
  8
USP-GEO
100
AcDbLine
 10
2.134080920657989
 20
1.48388712479014
 30
0.0
 11
2.128038748455466
 21
1.48388712479014
 31
0.0
  0
LINE
  5
27B
330
2
100
AcDbEntity
  8
USP-GEO
100
AcDbLine
 10
1.677926808822743
 20
1.062165341203357
 30
0.0
 11
1.610254480154498
 21
1.10123597837666
 31
0.0
  0
LINE
  5
27C
330
2
100
AcDbEntity
  8
USP-GEO
100
AcDbLine
 10
1.615426808822743
 20
1.09824973302771
 30
0.0
 11
1.615426808822743
 21
0.8589074869396533
 31
0.0
  0
LINE
  5
27D
330
2
100
AcDbEntity
  8
USP-GEO
100
AcDbLine
 10
1.631051808822743
 20
1.089228635071616
 30
0.0
 11
1.631051808822743
 21
0.8498863889835597
 31
0.0
  0
LINE
  5
27E
330
2
100
AcDbEntity
  8
USP-GEO
100
AcDbLine
 10
1.646676808822743
 20
1.08020753711553
 30
0.0
 11
1.646676808822743
 21
0.8408652910274732
 31
0.0
  0
LINE
  5
27F
330
2
100
AcDbEntity
  8
USP-GEO
100
AcDbLine
 10
1.662301808822743
 20
1.071186439159443
 30
0.0
 11
1.662301808822743
 21
0.8318441930713866
 31
0.0
  0
LINE
  5
280
330
2
100
AcDbEntity
  8
USP-GEO
100
AcDbLine
 10
2.247853323503864
 20
1.469353842219408
 30
0.0
 11
1.610254480154498
 21
1.10123597837666
 31
0.0
  0
LINE
  5
281
330
2
100
AcDbEntity
  8
USP-GEO
100
AcDbLine
 10
1.677926808822743
 20
0.7712632256537795
 30
0.0
 11
1.677926808822743
 21
0.5319209795657223
 31
0.0
  0
LINE
  5
282
330
2
100
AcDbEntity
  8
USP-GEO
100
AcDbLine
 10
1.677926808822743
 20
1.062165341203357
 30
0.0
 11
1.677926808822743
 21
0.8228230951153001
 31
0.0
  0
ELLIPSE
  5
283
330
2
100
AcDbEntity
  8
USP-GEO
100
AcDbEllipse
 10
2.212808724729239
 20
1.530597624140508
 30
0.0
 11
-0.0042724609375
 21
0.0074001194171034
 31
0.0
210
0.0
220
0.0
230
1.0
 40
0.577350269189626
 41
0.3454152771977164
 42
2.356194490192344
  0
LINE
  5
284
330
2
100
AcDbEntity
  8
USP-GEO
100
AcDbLine
 10
2.315525652172105
 20
1.430283205046105
 30
0.0
 11
1.677926808822743
 21
1.062165341203357
 31
0.0
  0
LINE
  5
285
330
2
100
AcDbEntity
  8
USP-GEO
100
AcDbLine
 10
2.315525652172105
 20
1.430283205046105
 30
0.0
 11
2.247853323503864
 21
1.469353842219408
 31
0.0
  0
LINE
  5
286
330
2
100
AcDbEntity
  8
USP-GEO
100
AcDbLine
 10
2.176083918708535
 20
1.427908890934549
 30
0.0
 11
2.176083918708535
 21
1.609861900229862
 31
0.0
  0
LINE
  5
287
330
2
100
AcDbEntity
  8
USP-GEO
100
AcDbLine
 10
2.246644889063357
 20
1.46865524414991
 30
0.0
 11
2.246644889063361
 21
1.572459021111907
 31
0.0
  0
LINE
  5
288
330
2
100
AcDbEntity
  8
USP-GEO
100
AcDbLine
 10
2.243756247376779
 20
1.570791263056566
 30
0.0
 11
2.243756247376776
 21
1.46698748609457
 31
0.0
  0
LINE
  5
289
330
2
100
AcDbEntity
  8
USP-GEO
100
AcDbLine
 10
2.465106633965287
 20
1.446330073885139
 30
0.0
 11
2.397434305297046
 21
1.485400711058442
 31
0.0
  0
LINE
  5
28A
330
2
100
AcDbEntity
  8
USP-GEO
100
AcDbLine
 10
2.394545663610465
 20
1.483732953003094
 30
0.0
 11
2.462217992278706
 21
1.444662315829798
 31
0.0
  0
LINE
  5
28B
330
2
100
AcDbEntity
  8
USP-GEO
100
AcDbLine
 10
2.127470300894653
 20
1.498908110327388
 30
0.0
 11
2.176081762682496
 21
1.470842269778483
 31
0.0
  0
LINE
  5
28C
330
2
100
AcDbEntity
  8
USP-GEO
100
AcDbLine
 10
2.176082603972655
 20
1.468707410965794
 30
0.0
 11
2.12562187957446
 21
1.497840923780596
 31
0.0
  0
LINE
  5
28D
330
2
100
AcDbEntity
  8
USP-GEO
100
AcDbLine
 10
2.163083347230092
 20
1.46714256600158
 30
0.0
 11
2.134080920657989
 21
1.48388712479014
 31
0.0
  0
LINE
  5
28E
330
2
100
AcDbEntity
  8
USP-GEO
100
AcDbLine
 10
2.021289095043218
 20
1.47454754569382
 30
0.0
 11
2.079293948187427
 21
1.508036663270939
 31
0.0
  0
LINE
  5
28F
330
2
100
AcDbEntity
  8
USP-GEO
100
AcDbLine
 10
2.125566555066271
 20
1.481321161233328
 30
0.0
 11
2.079293948187427
 21
1.508036663270939
 31
0.0
  0
LINE
  5
290
330
2
100
AcDbEntity
  8
USP-GEO
100
AcDbLine
 10
2.861674749737048
 20
1.127575878228856
 30
0.0
 11
2.645945872628448
 21
1.252127003499484
 31
0.0
  0
LINE
  5
291
330
2
100
AcDbEntity
  8
USP-GEO
100
AcDbLine
 10
2.253025652172109
 20
1.466367596870458
 30
0.0
 11
1.615426808822743
 21
1.09824973302771
 31
0.0
  0
LINE
  5
292
330
2
100
AcDbEntity
  8
USP-GEO
100
AcDbLine
 10
2.268650652172109
 20
1.457346498914372
 30
0.0
 11
1.631051808822743
 21
1.089228635071616
 31
0.0
  0
LINE
  5
293
330
2
100
AcDbEntity
  8
USP-GEO
100
AcDbLine
 10
2.284275652172109
 20
1.448325400958278
 30
0.0
 11
1.646676808822743
 21
1.08020753711553
 31
0.0
  0
LINE
  5
294
330
2
100
AcDbEntity
  8
USP-GEO
100
AcDbLine
 10
2.299900652172105
 20
1.439304303002199
 30
0.0
 11
1.662301808822743
 21
1.071186439159443
 31
0.0
  0
LINE
  5
295
330
2
100
AcDbEntity
  8
USP-GEO
100
AcDbLine
 10
1.716137032928987
 20
1.084226024376892
 30
0.0
 11
1.716137032928987
 21
0.8448837782888354
 31
0.0
  0
LINE
  5
296
330
2
100
AcDbEntity
  8
USP-GEO
100
AcDbLine
 10
1.610254480154498
 20
1.10123597837666
 30
0.0
 11
1.610254480154498
 21
0.8618937322886033
 31
0.0
  0
LINE
  5
297
330
2
100
AcDbEntity
  8
USP-GEO
100
AcDbLine
 10
1.764474410549158
 20
0.7559801998270253
 30
0.0
 11
1.696802081880917
 21
0.7950508370003285
 31
0.0
  0
LINE
  5
298
330
2
100
AcDbEntity
  8
USP-GEO
100
AcDbLine
 10
1.730286202804744
 20
0.8367056505118277
 30
0.0
 11
1.696802081880917
 21
0.7950508370003285
 31
0.0
  0
LINE
  5
299
330
2
100
AcDbEntity
  8
USP-GEO
100
AcDbLine
 10
1.615426808822743
 20
0.797911506458771
 30
0.0
 11
1.615426808822743
 21
0.5680053713900684
 31
0.0
  0
LINE
  5
29A
330
2
100
AcDbEntity
  8
USP-GEO
100
AcDbLine
 10
1.631051808822743
 20
0.7888904085026774
 30
0.0
 11
1.631051808822743
 21
0.558984273433989
 31
0.0
  0
LINE
  5
29B
330
2
100
AcDbEntity
  8
USP-GEO
100
AcDbLine
 10
1.646676808822743
 20
0.779869310546598
 30
0.0
 11
1.646676808822743
 21
0.5499631754778953
 31
0.0
  0
LINE
  5
29C
330
2
100
AcDbEntity
  8
USP-GEO
100
AcDbLine
 10
1.662301808822743
 20
0.7726587943643573
 30
0.0
 11
1.662301808822743
 21
0.5409420775218088
 31
0.0
  0
LINE
  5
29D
330
2
100
AcDbEntity
  8
USP-GEO
100
AcDbLine
 10
1.624403650030256
 20
0.8537156045115885
 30
0.0
 11
1.590919529106429
 21
0.8120607910000892
 31
0.0
  0
LINE
  5
29E
330
2
100
AcDbEntity
  8
USP-GEO
100
AcDbLine
 10
1.677926808822743
 20
0.8228230951153001
 30
0.0
 11
1.610254480154498
 21
0.8618937322886033
 31
0.0
  0
LINE
  5
29F
330
2
100
AcDbEntity
  8
USP-GEO
100
AcDbLine
 10
1.65859185777467
 20
0.7729901538267932
 30
0.0
 11
1.677926808822743
 21
0.7712632256537795
 31
0.0
  0
LINE
  5
2A0
330
2
100
AcDbEntity
  8
USP-GEO
100
AcDbLine
 10
1.677926808822743
 20
0.8228230951153001
 30
0.0
 11
1.697261759870812
 21
0.8210961669422935
 31
0.0
  0
LINE
  5
2A1
330
2
100
AcDbEntity
  8
USP-GEO
100
AcDbLine
 10
1.677926808822743
 20
0.5319209795657223
 30
0.0
 11
1.610254480154498
 21
0.5709916167390184
 31
0.0
  0
LINE
  5
2A2
330
2
100
AcDbEntity
  8
USP-GEO
100
AcDbLine
 10
1.716137032928987
 20
0.5539816627392576
 30
0.0
 11
1.677926808822743
 21
0.5319209795657223
 31
0.0
  0
LINE
  5
2A3
330
2
100
AcDbEntity
  8
USP-GEO
100
AcDbLine
 10
1.783809361597228
 20
1.045155387203589
 30
0.0
 11
1.716137032928987
 21
1.084226024376892
 31
0.0
  0
LINE
  5
2A4
330
2
100
AcDbEntity
  8
USP-GEO
100
AcDbLine
 10
2.00017069859556
 20
1.415493276226339
 30
0.0
 11
2.00017069859556
 21
1.326324102220137
 31
0.0
  0
LINE
  5
2A5
330
2
100
AcDbEntity
  8
USP-GEO
100
AcDbLine
 10
2.00017069859556
 20
1.415493276226339
 30
0.0
 11
2.058175551739772
 21
1.448982393803458
 31
0.0
  0
LINE
  5
2A6
330
2
100
AcDbEntity
  8
USP-GEO
100
AcDbLine
 10
2.413825008389583
 20
0.9812680316627968
 30
0.0
 11
2.390920360288951
 21
0.8935847948330781
 31
0.0
  0
LINE
  5
2A7
330
2
100
AcDbEntity
  8
USP-GEO
100
AcDbLine
 10
2.676649137605153
 20
0.7681783659386348
 30
0.0
 11
2.676649137605153
 21
0.9107074831799444
 31
0.0
  0
LINE
  5
2A8
330
2
100
AcDbEntity
  8
USP-GEO
100
AcDbLine
 10
2.705977534667123
 20
0.8980434714284832
 30
0.0
 11
2.705977534667123
 21
0.7555143541871665
 31
0.0
  0
LINE
  5
2A9
330
2
100
AcDbEntity
  8
USP-GEO
100
AcDbLine
 10
2.763982387811331
 20
0.7890034717642856
 30
0.0
 11
2.763982387811331
 21
0.9315325890055952
 31
0.0
  0
LINE
  5
2AA
330
2
100
AcDbEntity
  8
USP-GEO
100
AcDbLine
 10
2.352924546352383
 20
0.876427221905498
 30
0.0
 11
2.352924546352383
 21
0.8780229678214332
 31
0.0
  0
LINE
  5
2AB
330
2
100
AcDbEntity
  8
USP-GEO
100
AcDbLine
 10
2.312637304637771
 20
0.8202296411776579
 30
0.0
 11
2.319622728299194
 21
0.8161966049463309
 31
0.0
  0
LINE
  5
2AC
330
2
100
AcDbEntity
  8
USP-GEO
100
AcDbLine
 10
2.31799812732207
 20
0.8444160137189093
 30
0.0
 11
2.320886769008652
 21
0.8427482556635688
 31
0.0
  0
LINE
  5
2AD
330
2
100
AcDbEntity
  8
USP-GEO
100
AcDbLine
 10
2.316734086612612
 20
0.8211998791123527
 30
0.0
 11
2.316734086612612
 21
0.8323629183047209
 31
0.0
  0
LINE
  5
2AE
330
2
100
AcDbEntity
  8
USP-GEO
100
AcDbLine
 10
2.618644284460945
 20
0.8772183656028396
 30
0.0
 11
2.618644284460945
 21
0.7346892483615229
 31
0.0
  0
LINE
  5
2AF
330
2
100
AcDbEntity
  8
USP-GEO
100
AcDbLine
 10
2.705977534667123
 20
0.7555143541871665
 30
0.0
 11
2.763982387811331
 21
0.7890034717642856
 31
0.0
  0
LINE
  5
2B0
330
2
100
AcDbEntity
  8
USP-GEO
100
AcDbLine
 10
2.676647455024831
 20
0.7724480835639973
 30
0.0
 11
2.705977534667123
 21
0.7555143541871665
 31
0.0
  0
LINE
  5
2B1
330
2
100
AcDbEntity
  8
USP-GEO
100
AcDbLine
 10
2.46131633768892
 20
1.161325958876997
 30
0.0
 11
2.421767987061986
 21
1.088761745382409
 31
0.0
  0
LINE
  5
2B2
330
2
100
AcDbEntity
  8
USP-GEO
100
AcDbLine
 10
2.458427696002338
 20
1.159658200821656
 30
0.0
 11
2.418879345375405
 21
1.087093987327076
 31
0.0
  0
LINE
  5
2B3
330
2
100
AcDbEntity
  8
USP-GEO
100
AcDbLine
 10
2.417977690785619
 20
1.034933693680837
 30
0.0
 11
2.507487162773834
 21
0.983255375933421
 31
0.0
  0
LINE
  5
2B4
330
2
100
AcDbEntity
  8
USP-GEO
100
AcDbLine
 10
2.42289675193853
 20
1.041163641743846
 30
0.0
 11
2.451899178510632
 21
1.024419082955287
 31
0.0
  0
LINE
  5
2B5
330
2
100
AcDbEntity
  8
USP-GEO
100
AcDbLine
 10
2.451899178510632
 20
1.031395982450522
 30
0.0
 11
2.42289675193853
 21
1.048140541239082
 31
0.0
  0
LINE
  5
2B6
330
2
100
AcDbEntity
  8
USP-GEO
100
AcDbLine
 10
2.448273875189123
 20
1.075350449270484
 30
0.0
 11
2.422552294621002
 21
1.090200810735471
 31
0.0
  0
LINE
  5
2B7
330
2
100
AcDbEntity
  8
USP-GEO
100
AcDbLine
 10
2.440991086159723
 20
1.031414562959955
 30
0.0
 11
2.42289675193853
 21
1.041861331693372
 31
0.0
  0
LINE
  5
2B8
330
2
100
AcDbEntity
  8
USP-GEO
100
AcDbLine
 10
2.440991086159723
 20
1.036996082556139
 30
0.0
 11
2.42289675193853
 21
1.047442851289556
 31
0.0
  0
LINE
  5
2B9
330
2
100
AcDbEntity
  8
USP-GEO
100
AcDbLine
 10
2.398572622627753
 20
1.078443342456747
 30
0.0
 11
2.396618241001174
 21
1.077314979698538
 31
0.0
  0
LINE
  5
2BA
330
2
100
AcDbEntity
  8
USP-GEO
100
AcDbLine
 10
2.403528023507078
 20
1.065346885329066
 30
0.0
 11
2.405482405133657
 21
1.066475248087268
 31
0.0
  0
LINE
  5
2BB
330
2
100
AcDbEntity
  8
USP-GEO
100
AcDbLine
 10
2.405581542382677
 20
1.374173515127306
 30
0.0
 11
2.403627160756098
 21
1.373045152369105
 31
0.0
  0
LINE
  5
2BC
330
2
100
AcDbEntity
  8
USP-GEO
100
AcDbLine
 10
2.18711979748075
 20
1.44634777292428
 30
0.0
 11
2.185165415854172
 21
1.445219410166071
 31
0.0
  0
LINE
  5
2BD
330
2
100
AcDbEntity
  8
USP-GEO
100
AcDbLine
 10
2.155850040091397
 20
1.423680310824106
 30
0.0
 11
2.155850040091397
 21
1.429261830420291
 31
0.0
  0
LINE
  5
2BE
330
2
100
AcDbEntity
  8
USP-GEO
100
AcDbLine
 10
2.393911624870757
 20
1.230420194806175
 30
0.0
 11
2.393911624870757
 21
1.236001714402359
 31
0.0
  0
LINE
  5
2BF
330
2
100
AcDbEntity
  8
USP-GEO
100
AcDbLine
 10
2.393911624870757
 20
1.28623539076803
 30
0.0
 11
2.393911624870757
 21
1.291816910364214
 31
0.0
  0
LINE
  5
2C0
330
2
100
AcDbEntity
  8
USP-GEO
100
AcDbLine
 10
2.35211950952436
 20
0.9967993274377668
 30
0.0
 11
2.35211950952436
 21
0.9952035815218387
 31
0.0
  0
LINE
  5
2C1
330
2
100
AcDbEntity
  8
USP-GEO
100
AcDbLine
 10
2.365939074536168
 20
1.062181816676069
 30
0.0
 11
2.365939074536168
 21
1.063777562591997
 31
0.0
  0
LINE
  5
2C2
330
2
100
AcDbEntity
  8
USP-GEO
100
AcDbLine
 10
2.38319798084035
 20
1.391212567872809
 30
0.0
 11
2.315525652172105
 21
1.430283205046105
 31
0.0
  0
LINE
  5
2C3
330
2
100
AcDbEntity
  8
USP-GEO
100
AcDbLine
 10
2.38803171860237
 20
1.2007044908955
 30
0.0
 11
2.390920360288951
 21
1.199036732840152
 31
0.0
  0
LINE
  5
2C4
330
2
100
AcDbEntity
  8
USP-GEO
100
AcDbLine
 10
2.387866635575015
 20
1.200205809321165
 30
0.0
 11
2.390755277261597
 21
1.198538051265824
 31
0.0
  0
LINE
  5
2C5
330
2
100
AcDbEntity
  8
USP-GEO
100
AcDbLine
 10
2.343264038034757
 20
0.9703131620380212
 30
0.0
 11
2.346152679721338
 21
0.9686454039826877
 31
0.0
  0
LINE
  5
2C6
330
2
100
AcDbEntity
  8
USP-GEO
100
AcDbLine
 10
2.390920360288951
 20
1.202372248950833
 30
0.0
 11
2.38803171860237
 21
1.2007044908955
 31
0.0
  0
LINE
  5
2C7
330
2
100
AcDbEntity
  8
USP-GEO
100
AcDbLine
 10
2.387866635574511
 20
1.20020580932115
 30
0.0
 11
2.348318375020582
 21
1.081975363340983
 31
0.0
  0
LINE
  5
2C8
330
2
100
AcDbEntity
  8
USP-GEO
100
AcDbLine
 10
2.416713650076165
 20
0.9829357897181374
 30
0.0
 11
2.413825008389583
 21
0.9812680316627968
 31
0.0
  0
LINE
  5
2C9
330
2
100
AcDbEntity
  8
USP-GEO
100
AcDbLine
 10
2.417977690785619
 20
1.071670570991177
 30
0.0
 11
2.415089049099037
 21
1.070002812935836
 31
0.0
  0
LINE
  5
2CA
330
2
100
AcDbEntity
  8
USP-GEO
100
AcDbLine
 10
2.421767987061986
 20
1.088761745382409
 30
0.0
 11
2.418879345375405
 21
1.087093987327069
 31
0.0
  0
LINE
  5
2CB
330
2
100
AcDbEntity
  8
USP-GEO
100
AcDbLine
 10
2.415089049099037
 20
1.070002812935836
 30
0.0
 11
2.415089049099037
 21
0.9918615385892444
 31
0.0
  0
LINE
  5
2CC
330
2
100
AcDbEntity
  8
USP-GEO
100
AcDbLine
 10
2.394544348874585
 20
1.342578463739034
 30
0.0
 11
2.383195016084542
 21
1.349131004080486
 31
0.0
  0
LINE
  5
2CD
330
2
100
AcDbEntity
  8
USP-GEO
100
AcDbLine
 10
2.176082603972655
 20
1.45667721675873
 30
0.0
 11
2.175167691635138
 21
1.45667721675873
 31
0.0
  0
LINE
  5
2CE
330
2
100
AcDbEntity
  8
USP-GEO
100
AcDbLine
 10
2.163083347230092
 20
1.466444876052054
 30
0.0
 11
2.163083347230092
 21
1.46714256600158
 31
0.0
  0
LINE
  5
2CF
330
2
100
AcDbEntity
  8
USP-GEO
100
AcDbLine
 10
2.135929341978183
 20
1.477977411841695
 30
0.0
 11
2.134080920657989
 21
1.476910225294904
 31
0.0
  0
LINE
  5
2D0
330
2
100
AcDbEntity
  8
USP-GEO
100
AcDbLine
 10
2.135929341978183
 20
1.42216221587984
 30
0.0
 11
2.134080920657989
 21
1.421095029333049
 31
0.0
  0
LINE
  5
2D1
330
2
100
AcDbEntity
  8
USP-GEO
100
AcDbLine
 10
2.128038748455466
 20
1.428071928828277
 30
0.0
 11
2.134080920657989
 21
1.421095029333049
 31
0.0
  0
LINE
  5
2D2
330
2
100
AcDbEntity
  8
USP-GEO
100
AcDbLine
 10
2.163116011255898
 20
1.420419784044444
 30
0.0
 11
2.1558493967593
 21
1.424615165880151
 31
0.0
  0
LINE
  5
2D3
330
2
100
AcDbEntity
  8
USP-GEO
100
AcDbLine
 10
2.163083347230092
 20
1.460165666506345
 30
0.0
 11
2.163083347230092
 21
1.46086335645587
 31
0.0
  0
LINE
  5
2D4
330
2
100
AcDbEntity
  8
USP-GEO
100
AcDbLine
 10
2.144989013008899
 20
1.476891644785464
 30
0.0
 11
2.163083347230092
 21
1.466444876052054
 31
0.0
  0
LINE
  5
2D5
330
2
100
AcDbEntity
  8
USP-GEO
100
AcDbLine
 10
2.144989013008899
 20
1.415494929227424
 30
0.0
 11
2.149788631779664
 21
1.412723868038117
 31
0.0
  0
LINE
  5
2D6
330
2
100
AcDbEntity
  8
USP-GEO
100
AcDbLine
 10
2.144989013008899
 20
1.421076448823608
 30
0.0
 11
2.144989013008899
 21
1.415494929227424
 31
0.0
  0
LINE
  5
2D7
330
2
100
AcDbEntity
  8
USP-GEO
100
AcDbLine
 10
2.155800558200695
 20
1.428788199287236
 30
0.0
 11
2.137706223979503
 21
1.439234968020652
 31
0.0
  0
LINE
  5
2D8
330
2
100
AcDbEntity
  8
USP-GEO
100
AcDbLine
 10
2.155800558200695
 20
1.423206679691052
 30
0.0
 11
2.155800558200695
 21
1.428788199287236
 31
0.0
  0
LINE
  5
2D9
330
2
100
AcDbEntity
  8
USP-GEO
100
AcDbLine
 10
2.394544348874585
 20
1.235831901461981
 30
0.0
 11
2.383195016084542
 21
1.242384441803434
 31
0.0
  0
LINE
  5
2DA
330
2
100
AcDbEntity
  8
USP-GEO
100
AcDbLine
 10
2.383195016084542
 20
1.333084135241453
 30
0.0
 11
2.394544348874585
 21
1.3265315949
 31
0.0
  0
LINE
  5
2DB
330
2
100
AcDbEntity
  8
USP-GEO
100
AcDbLine
 10
2.383195016084542
 20
1.291222738270061
 30
0.0
 11
2.394544348874585
 21
1.284670197928608
 31
0.0
  0
LINE
  5
2DC
330
2
100
AcDbEntity
  8
USP-GEO
100
AcDbLine
 10
2.394544348874585
 20
1.291647097423837
 30
0.0
 11
2.383195016084542
 21
1.298199637765289
 31
0.0
  0
LINE
  5
2DD
330
2
100
AcDbEntity
  8
USP-GEO
100
AcDbLine
 10
2.383195016084542
 20
1.227732952863444
 30
0.0
 11
2.394544348874585
 21
1.221180412521999
 31
0.0
  0
LINE
  5
2DE
330
2
100
AcDbEntity
  8
USP-GEO
100
AcDbLine
 10
2.383195016084542
 20
1.283548148825307
 30
0.0
 11
2.394544348874585
 21
1.276995608483854
 31
0.0
  0
LINE
  5
2DF
330
2
100
AcDbEntity
  8
USP-GEO
100
AcDbLine
 10
2.383195016084542
 20
1.339363344787162
 30
0.0
 11
2.394544348874585
 21
1.33281080444571
 31
0.0
  0
LINE
  5
2E0
330
2
100
AcDbEntity
  8
USP-GEO
100
AcDbLine
 10
2.393862142980054
 20
1.285761759634983
 30
0.0
 11
2.383195016084542
 21
1.291920428219579
 31
0.0
  0
LINE
  5
2E1
330
2
100
AcDbEntity
  8
USP-GEO
100
AcDbLine
 10
2.393862142980054
 20
1.22994656367312
 30
0.0
 11
2.393862142980054
 21
1.235528083269311
 31
0.0
  0
LINE
  5
2E2
330
2
100
AcDbEntity
  8
USP-GEO
100
AcDbLine
 10
2.383195016084542
 20
1.22215143326726
 30
0.0
 11
2.394549646883536
 21
1.215595834118911
 31
0.0
  0
LINE
  5
2E3
330
2
100
AcDbEntity
  8
USP-GEO
100
AcDbLine
 10
2.383195016084542
 20
1.333781825190978
 30
0.0
 11
2.394544348874585
 21
1.327229284849519
 31
0.0
  0
LINE
  5
2E4
330
2
100
AcDbEntity
  8
USP-GEO
100
AcDbLine
 10
2.393862142980054
 20
1.285761759634983
 30
0.0
 11
2.393862142980054
 21
1.291343279231167
 31
0.0
  0
LINE
  5
2E5
330
2
100
AcDbEntity
  8
USP-GEO
100
AcDbLine
 10
2.393862142980054
 20
1.235528083269311
 30
0.0
 11
2.383195016084542
 21
1.241686751853915
 31
0.0
  0
LINE
  5
2E6
330
2
100
AcDbEntity
  8
USP-GEO
100
AcDbLine
 10
2.421119869937211
 20
1.086185295110599
 30
0.0
 11
2.420731333746424
 21
1.086633938059282
 31
0.0
  0
LINE
  5
2E7
330
2
100
AcDbEntity
  8
USP-GEO
100
AcDbLine
 10
2.132913255886812
 20
1.481348287724099
 30
0.0
 11
2.144932005920392
 21
1.474409259156889
 31
0.0
  0
LINE
  5
2E8
330
2
100
AcDbEntity
  8
USP-GEO
100
AcDbLine
 10
2.488169511230097
 20
1.231815574705219
 30
0.0
 11
2.488169511230097
 21
1.23739709430141
 31
0.0
  0
LINE
  5
2E9
330
2
100
AcDbEntity
  8
USP-GEO
100
AcDbLine
 10
2.488169511230097
 20
1.116308677985319
 30
0.0
 11
2.488169511230097
 21
1.121890197581503
 31
0.0
  0
LINE
  5
2EA
330
2
100
AcDbEntity
  8
USP-GEO
100
AcDbLine
 10
2.488169511230097
 20
1.004678286061601
 30
0.0
 11
2.488169511230097
 21
1.010259805657792
 31
0.0
  0
LINE
  5
2EB
330
2
100
AcDbEntity
  8
USP-GEO
100
AcDbLine
 10
2.538960698041496
 20
1.207612751967584
 30
0.0
 11
2.538960698041496
 21
1.202964856684328
 31
0.0
  0
LINE
  5
2EC
330
2
100
AcDbEntity
  8
USP-GEO
100
AcDbLine
 10
2.538960698041496
 20
1.319243143891295
 30
0.0
 11
2.538960698041496
 21
1.314595248608046
 31
0.0
  0
LINE
  5
2ED
330
2
100
AcDbEntity
  8
USP-GEO
100
AcDbLine
 10
2.538960698041496
 20
1.263427947929439
 30
0.0
 11
2.538960698041496
 21
1.258780052646191
 31
0.0
  0
LINE
  5
2EE
330
2
100
AcDbEntity
  8
USP-GEO
100
AcDbLine
 10
2.600662393826095
 20
1.243236242638278
 30
0.0
 11
2.600662393826095
 21
1.23858834735503
 31
0.0
  0
LINE
  5
2EF
330
2
100
AcDbEntity
  8
USP-GEO
100
AcDbLine
 10
2.600662393826095
 20
1.299051438600134
 30
0.0
 11
2.600662393826095
 21
1.294403543316885
 31
0.0
  0
LINE
  5
2F0
330
2
100
AcDbEntity
  8
USP-GEO
100
AcDbLine
 10
2.662364089610694
 20
1.278859733308973
 30
0.0
 11
2.662364089610694
 21
1.274211838025724
 31
0.0
  0
LINE
  5
2F1
330
2
100
AcDbEntity
  8
USP-GEO
100
AcDbLine
 10
2.662364089610694
 20
1.334674929270828
 30
0.0
 11
2.662364089610694
 21
1.33002703398758
 31
0.0
  0
LINE
  5
2F2
330
2
100
AcDbEntity
  8
USP-GEO
100
AcDbLine
 10
2.46131633768892
 20
1.161325958876997
 30
0.0
 11
2.458427696002338
 21
1.159658200821656
 31
0.0
  0
LINE
  5
2F3
330
2
100
AcDbEntity
  8
USP-GEO
100
AcDbLine
 10
2.465106633965287
 20
1.178417133268229
 30
0.0
 11
2.462217992278706
 21
1.176749375212889
 31
0.0
  0
LINE
  5
2F4
330
2
100
AcDbEntity
  8
USP-GEO
100
AcDbLine
 10
2.465106633965287
 20
1.446330073885139
 30
0.0
 11
2.462217992278706
 21
1.444662315829798
 31
0.0
  0
LINE
  5
2F5
330
2
100
AcDbEntity
  8
USP-GEO
100
AcDbLine
 10
2.503743325554601
 20
1.170026324666945
 30
0.0
 11
2.50297690388572
 21
1.169583830910102
 31
0.0
  0
LINE
  5
2F6
330
2
100
AcDbEntity
  8
USP-GEO
100
AcDbLine
 10
2.645945872628448
 20
1.252127003499484
 30
0.0
 11
2.632718595604956
 21
1.244490231549324
 31
0.0
  0
LINE
  5
2F7
330
2
100
AcDbEntity
  8
USP-GEO
100
AcDbLine
 10
2.618644284460945
 20
1.058417384940288
 30
0.0
 11
2.618644284460945
 21
0.9158882676989712
 31
0.0
  0
LINE
  5
2F8
330
2
100
AcDbEntity
  8
USP-GEO
100
AcDbLine
 10
2.618644284460945
 20
1.058417384940288
 30
0.0
 11
2.676649137605153
 21
1.091906502517399
 31
0.0
  0
LINE
  5
2F9
330
2
100
AcDbEntity
  8
USP-GEO
100
AcDbLine
 10
2.676649137605153
 20
0.9493773852760902
 30
0.0
 11
2.676649137605153
 21
1.091906502517399
 31
0.0
  0
LINE
  5
2FA
330
2
100
AcDbEntity
  8
USP-GEO
100
AcDbLine
 10
2.618644284460945
 20
0.9158882676989712
 30
0.0
 11
2.633145497746998
 21
0.8978485127806656
 31
0.0
  0
LINE
  5
2FB
330
2
100
AcDbEntity
  8
USP-GEO
100
AcDbLine
 10
2.618644284460945
 20
0.9158882676989712
 30
0.0
 11
2.676649137605153
 21
0.9493773852760902
 31
0.0
  0
LINE
  5
2FC
330
2
100
AcDbEntity
  8
USP-GEO
100
AcDbLine
 10
2.691150350891206
 20
0.9313376303577776
 30
0.0
 11
2.676649137605153
 21
0.9493773852760902
 31
0.0
  0
LINE
  5
2FD
330
2
100
AcDbEntity
  8
USP-GEO
100
AcDbLine
 10
2.604143071174892
 20
0.8952581205211451
 30
0.0
 11
2.633145497746998
 21
0.8978485127806656
 31
0.0
  0
LINE
  5
2FE
330
2
100
AcDbEntity
  8
USP-GEO
100
AcDbLine
 10
2.633145497746998
 20
0.8978485127806656
 30
0.0
 11
2.691150350891206
 21
0.9313376303577776
 31
0.0
  0
LINE
  5
2FF
330
2
100
AcDbEntity
  8
USP-GEO
100
AcDbLine
 10
2.507487162773834
 20
1.277370899731263
 30
0.0
 11
2.465106633965287
 21
1.301839309447284
 31
0.0
  0
LINE
  5
300
330
2
100
AcDbEntity
  8
USP-GEO
100
AcDbLine
 10
2.466400391796685
 20
1.180391996747541
 30
0.0
 11
2.465106633965287
 21
1.180391996747541
 31
0.0
  0
LINE
  5
301
330
2
100
AcDbEntity
  8
USP-GEO
100
AcDbLine
 10
2.495402818368791
 20
1.162949748009463
 30
0.0
 11
2.495402818368791
 21
1.163647437958982
 31
0.0
  0
LINE
  5
302
330
2
100
AcDbEntity
  8
USP-GEO
100
AcDbLine
 10
2.466400391796685
 20
1.173415097252313
 30
0.0
 11
2.495402818368791
 21
1.156670538463753
 31
0.0
  0
LINE
  5
303
330
2
100
AcDbEntity
  8
USP-GEO
100
AcDbLine
 10
2.468248813116883
 20
1.174482283799104
 30
0.0
 11
2.466400391796685
 21
1.173415097252313
 31
0.0
  0
LINE
  5
304
330
2
100
AcDbEntity
  8
USP-GEO
100
AcDbLine
 10
2.464991592547146
 20
1.175041838504224
 30
0.0
 11
2.466400391796685
 21
1.173415097252313
 31
0.0
  0
LINE
  5
305
330
2
100
AcDbEntity
  8
USP-GEO
100
AcDbLine
 10
2.500876543010498
 20
1.169598454152438
 30
0.0
 11
2.488168867897996
 21
1.176935233799415
 31
0.0
  0
LINE
  5
306
330
2
100
AcDbEntity
  8
USP-GEO
100
AcDbLine
 10
2.470025695118199
 20
1.1852758263942
 30
0.0
 11
2.499028121690304
 21
1.168531267605647
 31
0.0
  0
LINE
  5
307
330
2
100
AcDbEntity
  8
USP-GEO
100
AcDbLine
 10
2.470025695118199
 20
1.185973516343725
 30
0.0
 11
2.470025695118199
 21
1.1852758263942
 31
0.0
  0
LINE
  5
308
330
2
100
AcDbEntity
  8
USP-GEO
100
AcDbLine
 10
2.477307642857436
 20
1.280882557933562
 30
0.0
 11
2.468248813116883
 21
1.286112675722815
 31
0.0
  0
LINE
  5
309
330
2
100
AcDbEntity
  8
USP-GEO
100
AcDbLine
 10
2.466400391796685
 20
1.285045489176024
 30
0.0
 11
2.495402818368791
 21
1.268300930387464
 31
0.0
  0
LINE
  5
30A
330
2
100
AcDbEntity
  8
USP-GEO
100
AcDbLine
 10
2.468248813116883
 20
1.286112675722815
 30
0.0
 11
2.465105792675128
 21
1.289741923119049
 31
0.0
  0
LINE
  5
30B
330
2
100
AcDbEntity
  8
USP-GEO
100
AcDbLine
 10
2.465106633965287
 20
1.28653939204047
 30
0.0
 11
2.466400391796685
 21
1.285045489176024
 31
0.0
  0
LINE
  5
30C
330
2
100
AcDbEntity
  8
USP-GEO
100
AcDbLine
 10
2.495402818368791
 20
1.218764943971319
 30
0.0
 11
2.495402818368791
 21
1.219462633920837
 31
0.0
  0
LINE
  5
30D
330
2
100
AcDbEntity
  8
USP-GEO
100
AcDbLine
 10
2.477307642857436
 20
1.225067361971706
 30
0.0
 11
2.468248813116883
 21
1.23029747976096
 31
0.0
  0
LINE
  5
30E
330
2
100
AcDbEntity
  8
USP-GEO
100
AcDbLine
 10
2.465106633965287
 20
1.230724196078615
 30
0.0
 11
2.466400391796685
 21
1.229230293214168
 31
0.0
  0
LINE
  5
30F
330
2
100
AcDbEntity
  8
USP-GEO
100
AcDbLine
 10
2.504144632966706
 20
1.225413650114294
 30
0.0
 11
2.500876543010498
 21
1.225413650114294
 31
0.0
  0
LINE
  5
310
330
2
100
AcDbEntity
  8
USP-GEO
100
AcDbLine
 10
2.500876543010498
 20
1.225413650114294
 30
0.0
 11
2.488168867897996
 21
1.232750429761271
 31
0.0
  0
LINE
  5
311
330
2
100
AcDbEntity
  8
USP-GEO
100
AcDbLine
 10
2.495402818368791
 20
1.212485734425609
 30
0.0
 11
2.495402818368791
 21
1.213183424375134
 31
0.0
  0
LINE
  5
312
330
2
100
AcDbEntity
  8
USP-GEO
100
AcDbLine
 10
2.477308484147599
 20
1.173396516742872
 30
0.0
 11
2.495402818368791
 21
1.162949748009463
 31
0.0
  0
LINE
  5
313
330
2
100
AcDbEntity
  8
USP-GEO
100
AcDbLine
 10
2.488120029339391
 20
1.175526747610316
 30
0.0
 11
2.470025695118199
 21
1.185973516343725
 31
0.0
  0
LINE
  5
314
330
2
100
AcDbEntity
  8
USP-GEO
100
AcDbLine
 10
2.477308484147599
 20
1.285026908666591
 30
0.0
 11
2.495402818368791
 21
1.274580139933174
 31
0.0
  0
LINE
  5
315
330
2
100
AcDbEntity
  8
USP-GEO
100
AcDbLine
 10
2.477308484147599
 20
1.229211712704735
 30
0.0
 11
2.495402818368791
 21
1.218764943971319
 31
0.0
  0
LINE
  5
316
330
2
100
AcDbEntity
  8
USP-GEO
100
AcDbLine
 10
2.488120029339391
 20
1.175526747610316
 30
0.0
 11
2.488120029339391
 21
1.1811082672065
 31
0.0
  0
LINE
  5
317
330
2
100
AcDbEntity
  8
USP-GEO
100
AcDbLine
 10
2.477308484147599
 20
1.223630193108544
 30
0.0
 11
2.495402818368791
 21
1.213183424375134
 31
0.0
  0
LINE
  5
318
330
2
100
AcDbEntity
  8
USP-GEO
100
AcDbLine
 10
2.470025695118199
 20
1.247370231901765
 30
0.0
 11
2.470629575960401
 21
1.247718882668575
 31
0.0
  0
LINE
  5
319
330
2
100
AcDbEntity
  8
USP-GEO
100
AcDbLine
 10
2.488120029339391
 20
1.1811082672065
 30
0.0
 11
2.470025695118199
 21
1.191555035939909
 31
0.0
  0
LINE
  5
31A
330
2
100
AcDbEntity
  8
USP-GEO
100
AcDbLine
 10
2.500876543010498
 20
0.9982763614706762
 30
0.0
 11
2.488168867897996
 21
1.005613141117652
 31
0.0
  0
LINE
  5
31B
330
2
100
AcDbEntity
  8
USP-GEO
100
AcDbLine
 10
2.470025695118199
 20
1.013953733712444
 30
0.0
 11
2.499028121690304
 21
0.9972091749238849
 31
0.0
  0
LINE
  5
31C
330
2
100
AcDbEntity
  8
USP-GEO
100
AcDbLine
 10
2.470629575960401
 20
1.014302384479247
 30
0.0
 11
2.470025695118199
 21
1.013953733712444
 31
0.0
  0
LINE
  5
31D
330
2
100
AcDbEntity
  8
USP-GEO
100
AcDbLine
 10
2.470025695118199
 20
1.01465142366197
 30
0.0
 11
2.470025695118199
 21
1.013953733712444
 31
0.0
  0
LINE
  5
31E
330
2
100
AcDbEntity
  8
USP-GEO
100
AcDbLine
 10
2.457015689787034
 20
1.025486269502078
 30
0.0
 11
2.45374759983083
 21
1.025486269502078
 31
0.0
  0
LINE
  5
31F
330
2
100
AcDbEntity
  8
USP-GEO
100
AcDbLine
 10
2.45374759983083
 20
1.025486269502078
 30
0.0
 11
2.441039924718328
 21
1.032823049149055
 31
0.0
  0
LINE
  5
320
330
2
100
AcDbEntity
  8
USP-GEO
100
AcDbLine
 10
2.45374759983083
 20
1.025486269502078
 30
0.0
 11
2.451899178510632
 21
1.024419082955287
 31
0.0
  0
LINE
  5
321
330
2
100
AcDbEntity
  8
USP-GEO
100
AcDbLine
 10
2.457941350713156
 20
1.024419082955287
 30
0.0
 11
2.451899178510632
 21
1.031395982450522
 31
0.0
  0
LINE
  5
322
330
2
100
AcDbEntity
  8
USP-GEO
100
AcDbLine
 10
2.468248813116883
 20
1.058975387079197
 30
0.0
 11
2.463131460550322
 21
1.064884396842881
 31
0.0
  0
LINE
  5
323
330
2
100
AcDbEntity
  8
USP-GEO
100
AcDbLine
 10
2.460358219594166
 20
1.064885100027634
 30
0.0
 11
2.466400391796685
 21
1.057908200532406
 31
0.0
  0
LINE
  5
324
330
2
100
AcDbEntity
  8
USP-GEO
100
AcDbLine
 10
2.495402818368791
 20
1.048140541239082
 30
0.0
 11
2.466400391796685
 21
1.064885100027634
 31
0.0
  0
LINE
  5
325
330
2
100
AcDbEntity
  8
USP-GEO
100
AcDbLine
 10
2.495402818368791
 20
1.047442851289556
 30
0.0
 11
2.495402818368791
 21
1.048140541239082
 31
0.0
  0
LINE
  5
326
330
2
100
AcDbEntity
  8
USP-GEO
100
AcDbLine
 10
2.466400391796685
 20
1.057908200532406
 30
0.0
 11
2.495402818368791
 21
1.041163641743846
 31
0.0
  0
LINE
  5
327
330
2
100
AcDbEntity
  8
USP-GEO
100
AcDbLine
 10
2.505070293892824
 20
1.05302437088574
 30
0.0
 11
2.499028121690304
 21
1.060001270380976
 31
0.0
  0
LINE
  5
328
330
2
100
AcDbEntity
  8
USP-GEO
100
AcDbLine
 10
2.470629575960401
 20
1.070117580441102
 30
0.0
 11
2.470025695118199
 21
1.0697689296743
 31
0.0
  0
LINE
  5
329
330
2
100
AcDbEntity
  8
USP-GEO
100
AcDbLine
 10
2.499028121690304
 20
1.060001270380976
 30
0.0
 11
2.470025695118199
 21
1.076745829169535
 31
0.0
  0
LINE
  5
32A
330
2
100
AcDbEntity
  8
USP-GEO
100
AcDbLine
 10
2.470025695118199
 20
1.125584125636155
 30
0.0
 11
2.499028121690304
 21
1.108839566847596
 31
0.0
  0
LINE
  5
32B
330
2
100
AcDbEntity
  8
USP-GEO
100
AcDbLine
 10
2.470629575960401
 20
1.125932776402958
 30
0.0
 11
2.470025695118199
 21
1.125584125636155
 31
0.0
  0
LINE
  5
32C
330
2
100
AcDbEntity
  8
USP-GEO
100
AcDbLine
 10
2.470025695118199
 20
1.126281815585681
 30
0.0
 11
2.470025695118199
 21
1.125584125636155
 31
0.0
  0
LINE
  5
32D
330
2
100
AcDbEntity
  8
USP-GEO
100
AcDbLine
 10
2.499028121690304
 20
1.115816466342831
 30
0.0
 11
2.470025695118199
 21
1.132561025131391
 31
0.0
  0
LINE
  5
32E
330
2
100
AcDbEntity
  8
USP-GEO
100
AcDbLine
 10
2.457941350713156
 20
1.080234278917149
 30
0.0
 11
2.451899178510632
 21
1.087211178412378
 31
0.0
  0
LINE
  5
32F
330
2
100
AcDbEntity
  8
USP-GEO
100
AcDbLine
 10
2.457015689787034
 20
1.081301465463933
 30
0.0
 11
2.45374759983083
 21
1.081301465463933
 31
0.0
  0
LINE
  5
330
330
2
100
AcDbEntity
  8
USP-GEO
100
AcDbLine
 10
2.45374759983083
 20
1.081301465463933
 30
0.0
 11
2.441039924718328
 21
1.08863824511091
 31
0.0
  0
LINE
  5
331
330
2
100
AcDbEntity
  8
USP-GEO
100
AcDbLine
 10
2.457941350713156
 20
1.136049474879005
 30
0.0
 11
2.451899178510632
 21
1.143026374374233
 31
0.0
  0
LINE
  5
332
330
2
100
AcDbEntity
  8
USP-GEO
100
AcDbLine
 10
2.457015689787034
 20
1.137116661425789
 30
0.0
 11
2.45374759983083
 21
1.137116661425789
 31
0.0
  0
LINE
  5
333
330
2
100
AcDbEntity
  8
USP-GEO
100
AcDbLine
 10
2.451899178510632
 20
1.136049474879005
 30
0.0
 11
2.457941350713156
 21
1.136049474879005
 31
0.0
  0
LINE
  5
334
330
2
100
AcDbEntity
  8
USP-GEO
100
AcDbLine
 10
2.45374759983083
 20
1.137116661425796
 30
0.0
 11
2.449468120133452
 21
1.139587420181069
 31
0.0
  0
LINE
  5
335
330
2
100
AcDbEntity
  8
USP-GEO
100
AcDbLine
 10
2.45374759983083
 20
1.137116661425796
 30
0.0
 11
2.451899178510632
 21
1.136049474879005
 31
0.0
  0
LINE
  5
336
330
2
100
AcDbEntity
  8
USP-GEO
100
AcDbLine
 10
2.448583634384643
 20
1.137963705172655
 30
0.0
 11
2.451899178510632
 21
1.136049474879005
 31
0.0
  0
LINE
  5
337
330
2
100
AcDbEntity
  8
USP-GEO
100
AcDbLine
 10
2.451899178510632
 20
1.143026374374233
 30
0.0
 11
2.451476005469494
 21
1.143270693443451
 31
0.0
  0
LINE
  5
338
330
2
100
AcDbEntity
  8
USP-GEO
100
AcDbLine
 10
2.468248813116883
 20
1.114790583041052
 30
0.0
 11
2.463131460550322
 21
1.120699592804736
 31
0.0
  0
LINE
  5
339
330
2
100
AcDbEntity
  8
USP-GEO
100
AcDbLine
 10
2.460358219594166
 20
1.12070029598949
 30
0.0
 11
2.466400391796685
 21
1.113723396494261
 31
0.0
  0
LINE
  5
33A
330
2
100
AcDbEntity
  8
USP-GEO
100
AcDbLine
 10
2.495402818368791
 20
1.103258047251411
 30
0.0
 11
2.495402818368791
 21
1.103955737200937
 31
0.0
  0
LINE
  5
33B
330
2
100
AcDbEntity
  8
USP-GEO
100
AcDbLine
 10
2.466400391796685
 20
1.113723396494261
 30
0.0
 11
2.495402818368791
 21
1.096978837705702
 31
0.0
  0
LINE
  5
33C
330
2
100
AcDbEntity
  8
USP-GEO
100
AcDbLine
 10
2.448273875189123
 20
1.131165645232339
 30
0.0
 11
2.445691263299796
 21
1.132656716901859
 31
0.0
  0
LINE
  5
33D
330
2
100
AcDbEntity
  8
USP-GEO
100
AcDbLine
 10
2.448273875189123
 20
1.130467955282821
 30
0.0
 11
2.448273875189123
 21
1.131165645232339
 31
0.0
  0
LINE
  5
33E
330
2
100
AcDbEntity
  8
USP-GEO
100
AcDbLine
 10
2.442798892214945
 20
1.127349728631056
 30
0.0
 11
2.448273875189123
 21
1.124188745737111
 31
0.0
  0
LINE
  5
33F
330
2
100
AcDbEntity
  8
USP-GEO
100
AcDbLine
 10
2.470025695118199
 20
1.132561025131391
 30
0.0
 11
2.470025695118199
 21
1.131863335181865
 31
0.0
  0
LINE
  5
340
330
2
100
AcDbEntity
  8
USP-GEO
100
AcDbLine
 10
2.488120029339391
 20
1.004204654928553
 30
0.0
 11
2.470025695118199
 21
1.01465142366197
 31
0.0
  0
LINE
  5
341
330
2
100
AcDbEntity
  8
USP-GEO
100
AcDbLine
 10
2.477308484147599
 20
1.057889620022972
 30
0.0
 11
2.495402818368791
 21
1.047442851289556
 31
0.0
  0
LINE
  5
342
330
2
100
AcDbEntity
  8
USP-GEO
100
AcDbLine
 10
2.430179540967927
 20
1.085099528054374
 30
0.0
 11
2.448273875189123
 21
1.074652759320965
 31
0.0
  0
LINE
  5
343
330
2
100
AcDbEntity
  8
USP-GEO
100
AcDbLine
 10
2.440991086159723
 20
1.087229758921818
 30
0.0
 11
2.425733902814336
 21
1.096038497833344
 31
0.0
  0
LINE
  5
344
330
2
100
AcDbEntity
  8
USP-GEO
100
AcDbLine
 10
2.477308484147599
 20
1.113704815984828
 30
0.0
 11
2.477308484147599
 21
1.108123296388637
 31
0.0
  0
LINE
  5
345
330
2
100
AcDbEntity
  8
USP-GEO
100
AcDbLine
 10
2.477308484147599
 20
1.057889620022972
 30
0.0
 11
2.477308484147599
 21
1.052308100426781
 31
0.0
  0
LINE
  5
346
330
2
100
AcDbEntity
  8
USP-GEO
100
AcDbLine
 10
2.440991086159723
 20
1.087229758921818
 30
0.0
 11
2.440991086159723
 21
1.092811278517995
 31
0.0
  0
LINE
  5
347
330
2
100
AcDbEntity
  8
USP-GEO
100
AcDbLine
 10
2.440991086159723
 20
1.031414562959955
 30
0.0
 11
2.440991086159723
 21
1.036996082556139
 31
0.0
  0
LINE
  5
348
330
2
100
AcDbEntity
  8
USP-GEO
100
AcDbLine
 10
2.477308484147599
 20
1.108123296388637
 30
0.0
 11
2.495402818368791
 21
1.097676527655227
 31
0.0
  0
LINE
  5
349
330
2
100
AcDbEntity
  8
USP-GEO
100
AcDbLine
 10
2.477308484147599
 20
1.052308100426781
 30
0.0
 11
2.495402818368791
 21
1.041861331693372
 31
0.0
  0
LINE
  5
34A
330
2
100
AcDbEntity
  8
USP-GEO
100
AcDbLine
 10
2.443088129323431
 20
1.127880427458133
 30
0.0
 11
2.448273875189123
 21
1.124886435686629
 31
0.0
  0
LINE
  5
34B
330
2
100
AcDbEntity
  8
USP-GEO
100
AcDbLine
 10
2.430179540967927
 20
1.07951800845819
 30
0.0
 11
2.448273875189123
 21
1.069071239724774
 31
0.0
  0
LINE
  5
34C
330
2
100
AcDbEntity
  8
USP-GEO
100
AcDbLine
 10
2.705977534667123
 20
0.8980434714284832
 30
0.0
 11
2.763982387811331
 21
0.9315325890055952
 31
0.0
  0
LINE
  5
34D
330
2
100
AcDbEntity
  8
USP-GEO
100
AcDbLine
 10
2.57103727987863
 20
1.157150283192589
 30
0.0
 11
2.705977534667123
 21
1.079242490765938
 31
0.0
  0
LINE
  5
34E
330
2
100
AcDbEntity
  8
USP-GEO
100
AcDbLine
 10
2.763982387811331
 20
0.9315325890055952
 30
0.0
 11
2.757253722002822
 21
0.9399031632270968
 31
0.0
  0
LINE
  5
34F
330
2
100
AcDbEntity
  8
USP-GEO
100
AcDbLine
 10
2.763982387811331
 20
1.11273160834305
 30
0.0
 11
2.584244176843849
 21
1.21650351282879
 31
0.0
  0
LINE
  5
350
330
2
100
AcDbEntity
  8
USP-GEO
100
AcDbLine
 10
2.560729817474904
 20
1.204154758276342
 30
0.0
 11
2.562578238795097
 21
1.205221944823133
 31
0.0
  0
LINE
  5
351
330
2
100
AcDbEntity
  8
USP-GEO
100
AcDbLine
 10
2.528102087581284
 20
1.320668979846718
 30
0.0
 11
2.529950508901482
 21
1.32173616639351
 31
0.0
  0
LINE
  5
352
330
2
100
AcDbEntity
  8
USP-GEO
100
AcDbLine
 10
2.528102087581284
 20
1.264853783884863
 30
0.0
 11
2.529950508901482
 21
1.265920970431654
 31
0.0
  0
LINE
  5
353
330
2
100
AcDbEntity
  8
USP-GEO
100
AcDbLine
 10
2.57103727987863
 20
1.157150283192589
 30
0.0
 11
2.57103727987863
 21
1.314061576948756
 31
0.0
  0
LINE
  5
354
330
2
100
AcDbEntity
  8
USP-GEO
100
AcDbLine
 10
2.550501292590105
 20
1.268009768927431
 30
0.0
 11
2.562578238795097
 21
1.261037140784988
 31
0.0
  0
LINE
  5
355
330
2
100
AcDbEntity
  8
USP-GEO
100
AcDbLine
 10
2.551670146444187
 20
1.268032620789657
 30
0.0
 11
2.551670146444187
 21
1.270040706340491
 31
0.0
  0
LINE
  5
356
330
2
100
AcDbEntity
  8
USP-GEO
100
AcDbLine
 10
2.525757975970879
 20
1.270762090463787
 30
0.0
 11
2.529950508901482
 21
1.265920970431654
 31
0.0
  0
LINE
  5
357
330
2
100
AcDbEntity
  8
USP-GEO
100
AcDbLine
 10
2.525757975970879
 20
1.326577286425642
 30
0.0
 11
2.529950508901482
 21
1.32173616639351
 31
0.0
  0
LINE
  5
358
330
2
100
AcDbEntity
  8
USP-GEO
100
AcDbLine
 10
2.562578238795097
 20
1.205221944823133
 30
0.0
 11
2.563072246504987
 21
1.205221944823133
 31
0.0
  0
LINE
  5
359
330
2
100
AcDbEntity
  8
USP-GEO
100
AcDbLine
 10
2.550501292590126
 20
1.212194572965561
 30
0.0
 11
2.562578238795097
 21
1.205221944823133
 31
0.0
  0
LINE
  5
35A
330
2
100
AcDbEntity
  8
USP-GEO
100
AcDbLine
 10
2.529950508901482
 20
1.210105774469791
 30
0.0
 11
2.53895965879327
 21
1.204904339354602
 31
0.0
  0
LINE
  5
35B
330
2
100
AcDbEntity
  8
USP-GEO
100
AcDbLine
 10
2.522541639769087
 20
1.339926174726937
 30
0.0
 11
2.569188858558433
 21
1.312994390401964
 31
0.0
  0
LINE
  5
35C
330
2
100
AcDbEntity
  8
USP-GEO
100
AcDbLine
 10
2.560729817474904
 20
1.204154758276342
 30
0.0
 11
2.548652871269943
 21
1.211127386418763
 31
0.0
  0
LINE
  5
35D
330
2
100
AcDbEntity
  8
USP-GEO
100
AcDbLine
 10
2.563997907431108
 20
1.259969954238197
 30
0.0
 11
2.560729817474904
 21
1.259969954238197
 31
0.0
  0
LINE
  5
35E
330
2
100
AcDbEntity
  8
USP-GEO
100
AcDbLine
 10
2.528102087581284
 20
1.209038587923007
 30
0.0
 11
2.522984735014723
 21
1.214947597686691
 31
0.0
  0
LINE
  5
35F
330
2
100
AcDbEntity
  8
USP-GEO
100
AcDbLine
 10
2.528102087581284
 20
1.320668979846718
 30
0.0
 11
2.522984735014723
 21
1.326577989610402
 31
0.0
  0
LINE
  5
360
330
2
100
AcDbEntity
  8
USP-GEO
100
AcDbLine
 10
2.57103727987863
 20
1.157150283192589
 30
0.0
 11
2.569188858558433
 21
1.156083096645797
 31
0.0
  0
LINE
  5
361
330
2
100
AcDbEntity
  8
USP-GEO
100
AcDbLine
 10
2.529878969582604
 20
1.21983213051811
 30
0.0
 11
2.530482850424803
 21
1.220180781284913
 31
0.0
  0
LINE
  5
362
330
2
100
AcDbEntity
  8
USP-GEO
100
AcDbLine
 10
2.526253666261091
 20
1.263786597338071
 30
0.0
 11
2.528102087581284
 21
1.264853783884863
 31
0.0
  0
LINE
  5
363
330
2
100
AcDbEntity
  8
USP-GEO
100
AcDbLine
 10
2.55888139615471
 20
1.258902767691406
 30
0.0
 11
2.560729817474904
 21
1.259969954238197
 31
0.0
  0
LINE
  5
364
330
2
100
AcDbEntity
  8
USP-GEO
100
AcDbLine
 10
2.54982172512399
 20
1.266965434242866
 30
0.0
 11
2.54982172512399
 21
1.271109081791134
 31
0.0
  0
LINE
  5
365
330
2
100
AcDbEntity
  8
USP-GEO
100
AcDbLine
 10
2.54982172512399
 20
1.21115023828101
 30
0.0
 11
2.54982172512399
 21
1.215293885829279
 31
0.0
  0
LINE
  5
366
330
2
100
AcDbEntity
  8
USP-GEO
100
AcDbLine
 10
2.52254248105925
 20
1.337791315914255
 30
0.0
 11
2.56734043723824
 21
1.311927203855173
 31
0.0
  0
LINE
  5
367
330
2
100
AcDbEntity
  8
USP-GEO
100
AcDbLine
 10
2.56734043723824
 20
1.311927203855173
 30
0.0
 11
2.56734043723824
 21
1.155015910099006
 31
0.0
  0
LINE
  5
368
330
2
100
AcDbEntity
  8
USP-GEO
100
AcDbLine
 10
2.555256092833197
 20
1.254018938044747
 30
0.0
 11
2.555256092833197
 21
1.253321248095222
 31
0.0
  0
LINE
  5
369
330
2
100
AcDbEntity
  8
USP-GEO
100
AcDbLine
 10
2.526253666261091
 20
1.270763496833307
 30
0.0
 11
2.555256092833197
 21
1.254018938044747
 31
0.0
  0
LINE
  5
36A
330
2
100
AcDbEntity
  8
USP-GEO
100
AcDbLine
 10
2.555256092833197
 20
1.247042038549512
 30
0.0
 11
2.526253666261091
 21
1.263786597338071
 31
0.0
  0
LINE
  5
36B
330
2
100
AcDbEntity
  8
USP-GEO
100
AcDbLine
 10
2.540959694259896
 20
1.255993758063777
 30
0.0
 11
2.540959694259896
 21
1.261575277659961
 31
0.0
  0
LINE
  5
36C
330
2
100
AcDbEntity
  8
USP-GEO
100
AcDbLine
 10
2.529878969582604
 20
1.21983213051811
 30
0.0
 11
2.529878969582604
 21
1.220529820467628
 31
0.0
  0
LINE
  5
36D
330
2
100
AcDbEntity
  8
USP-GEO
100
AcDbLine
 10
2.55888139615471
 20
1.20308757172955
 30
0.0
 11
2.529878969582604
 21
1.21983213051811
 31
0.0
  0
LINE
  5
36E
330
2
100
AcDbEntity
  8
USP-GEO
100
AcDbLine
 10
2.55888139615471
 20
1.258902767691406
 30
0.0
 11
2.529878969582604
 21
1.275647326479965
 31
0.0
  0
LINE
  5
36F
330
2
100
AcDbEntity
  8
USP-GEO
100
AcDbLine
 10
2.529878969582604
 20
1.282624225975194
 30
0.0
 11
2.55888139615471
 21
1.265879667186641
 31
0.0
  0
LINE
  5
370
330
2
100
AcDbEntity
  8
USP-GEO
100
AcDbLine
 10
2.544175368155901
 20
1.273672506460936
 30
0.0
 11
2.544175368155901
 21
1.268090986864752
 31
0.0
  0
LINE
  5
371
330
2
100
AcDbEntity
  8
USP-GEO
100
AcDbLine
 10
2.555256092833197
 20
1.198203742082892
 30
0.0
 11
2.555256092833197
 21
1.197506052133366
 31
0.0
  0
LINE
  5
372
330
2
100
AcDbEntity
  8
USP-GEO
100
AcDbLine
 10
2.52254248105925
 20
1.214948300871444
 30
0.0
 11
2.526253666261091
 21
1.214948300871444
 31
0.0
  0
LINE
  5
373
330
2
100
AcDbEntity
  8
USP-GEO
100
AcDbLine
 10
2.555256092833197
 20
1.191226842587656
 30
0.0
 11
2.526253666261091
 21
1.207971401376216
 31
0.0
  0
LINE
  5
374
330
2
100
AcDbEntity
  8
USP-GEO
100
AcDbLine
 10
2.526253666261091
 20
1.326578692795163
 30
0.0
 11
2.555256092833197
 21
1.309834134006603
 31
0.0
  0
LINE
  5
375
330
2
100
AcDbEntity
  8
USP-GEO
100
AcDbLine
 10
2.526253666261091
 20
1.319601793299927
 30
0.0
 11
2.52254248105925
 21
1.323887100850516
 31
0.0
  0
LINE
  5
376
330
2
100
AcDbEntity
  8
USP-GEO
100
AcDbLine
 10
2.555256092833197
 20
1.302857234511368
 30
0.0
 11
2.526253666261091
 21
1.319601793299927
 31
0.0
  0
LINE
  5
377
330
2
100
AcDbEntity
  8
USP-GEO
100
AcDbLine
 10
2.555256092833197
 20
1.303554924460893
 30
0.0
 11
2.555256092833197
 21
1.302857234511368
 31
0.0
  0
LINE
  5
378
330
2
100
AcDbEntity
  8
USP-GEO
100
AcDbLine
 10
2.555256092833197
 20
1.303554924460893
 30
0.0
 11
2.540959694259896
 21
1.311808954025632
 31
0.0
  0
LINE
  5
379
330
2
100
AcDbEntity
  8
USP-GEO
100
AcDbLine
 10
2.540959694259896
 20
1.317390473621816
 30
0.0
 11
2.555256092833197
 21
1.309136444057077
 31
0.0
  0
LINE
  5
37A
330
2
100
AcDbEntity
  8
USP-GEO
100
AcDbLine
 10
2.569188858558433
 20
1.156083096645797
 30
0.0
 11
2.56734043723824
 21
1.155015910099006
 31
0.0
  0
LINE
  5
37B
330
2
100
AcDbEntity
  8
USP-GEO
100
AcDbLine
 10
2.56734043723824
 20
1.155015910099006
 30
0.0
 11
2.52254248105925
 21
1.180880022158095
 31
0.0
  0
LINE
  5
37C
330
2
100
AcDbEntity
  8
USP-GEO
100
AcDbLine
 10
2.620583091939309
 20
1.238711062400245
 30
0.0
 11
2.622431513259503
 21
1.239778248947036
 31
0.0
  0
LINE
  5
37D
330
2
100
AcDbEntity
  8
USP-GEO
100
AcDbLine
 10
2.58795536204569
 20
1.355225283970622
 30
0.0
 11
2.589803783365887
 21
1.356292470517413
 31
0.0
  0
LINE
  5
37E
330
2
100
AcDbEntity
  8
USP-GEO
100
AcDbLine
 10
2.620583091939309
 20
1.2945262583621
 30
0.0
 11
2.622431513259503
 21
1.295593444908892
 31
0.0
  0
LINE
  5
37F
330
2
100
AcDbEntity
  8
USP-GEO
100
AcDbLine
 10
2.591580665367203
 20
1.31127081715066
 30
0.0
 11
2.592184546209402
 21
1.311619467917463
 31
0.0
  0
LINE
  5
380
330
2
100
AcDbEntity
  8
USP-GEO
100
AcDbLine
 10
2.630890554343032
 20
1.191706587316492
 30
0.0
 11
2.630890554343032
 21
1.348617881072659
 31
0.0
  0
LINE
  5
381
330
2
100
AcDbEntity
  8
USP-GEO
100
AcDbLine
 10
2.584686430799322
 20
1.306386284319241
 30
0.0
 11
2.589803783365887
 21
1.300477274555557
 31
0.0
  0
LINE
  5
382
330
2
100
AcDbEntity
  8
USP-GEO
100
AcDbLine
 10
2.589803783365887
 20
1.356292470517413
 30
0.0
 11
2.600670318983862
 21
1.350018673253213
 31
0.0
  0
LINE
  5
383
330
2
100
AcDbEntity
  8
USP-GEO
100
AcDbLine
 10
2.629042133022839
 20
1.347550694525867
 30
0.0
 11
2.629042133022839
 21
1.190639400769708
 31
0.0
  0
LINE
  5
384
330
2
100
AcDbEntity
  8
USP-GEO
100
AcDbLine
 10
2.584244176843849
 20
1.306386987503994
 30
0.0
 11
2.58795536204569
 21
1.306386987503994
 31
0.0
  0
LINE
  5
385
330
2
100
AcDbEntity
  8
USP-GEO
100
AcDbLine
 10
2.58795536204569
 20
1.299410088008766
 30
0.0
 11
2.584244176843849
 21
1.303695395559355
 31
0.0
  0
LINE
  5
386
330
2
100
AcDbEntity
  8
USP-GEO
100
AcDbLine
 10
2.616957788617796
 20
1.283363219169732
 30
0.0
 11
2.616957788617796
 21
1.282665529220206
 31
0.0
  0
LINE
  5
387
330
2
100
AcDbEntity
  8
USP-GEO
100
AcDbLine
 10
2.616957788617796
 20
1.283363219169732
 30
0.0
 11
2.602661390044495
 21
1.291617248734464
 31
0.0
  0
LINE
  5
388
330
2
100
AcDbEntity
  8
USP-GEO
100
AcDbLine
 10
2.602661390044495
 20
1.291617248734464
 30
0.0
 11
2.602661390044495
 21
1.297198768330655
 31
0.0
  0
LINE
  5
389
330
2
100
AcDbEntity
  8
USP-GEO
100
AcDbLine
 10
2.591580665367203
 20
1.255455621188804
 30
0.0
 11
2.591580665367203
 21
1.25615331113833
 31
0.0
  0
LINE
  5
38A
330
2
100
AcDbEntity
  8
USP-GEO
100
AcDbLine
 10
2.620583091939309
 20
1.238711062400245
 30
0.0
 11
2.591580665367203
 21
1.255455621188804
 31
0.0
  0
LINE
  5
38B
330
2
100
AcDbEntity
  8
USP-GEO
100
AcDbLine
 10
2.626625264141829
 20
1.238711062400245
 30
0.0
 11
2.620583091939309
 21
1.238711062400245
 31
0.0
  0
LINE
  5
38C
330
2
100
AcDbEntity
  8
USP-GEO
100
AcDbLine
 10
2.620583091939309
 20
1.24568796189548
 30
0.0
 11
2.626625264141829
 21
1.238711062400245
 31
0.0
  0
LINE
  5
38D
330
2
100
AcDbEntity
  8
USP-GEO
100
AcDbLine
 10
2.591580665367203
 20
1.26243252068404
 30
0.0
 11
2.620583091939309
 21
1.24568796189548
 31
0.0
  0
LINE
  5
38E
330
2
100
AcDbEntity
  8
USP-GEO
100
AcDbLine
 10
2.591580665367203
 20
1.261734830734514
 30
0.0
 11
2.591580665367203
 21
1.26243252068404
 31
0.0
  0
LINE
  5
38F
330
2
100
AcDbEntity
  8
USP-GEO
100
AcDbLine
 10
2.605877063940504
 20
1.253480801169775
 30
0.0
 11
2.605877063940504
 21
1.247899281573591
 31
0.0
  0
LINE
  5
390
330
2
100
AcDbEntity
  8
USP-GEO
100
AcDbLine
 10
2.605877063940504
 20
1.247899281573591
 30
0.0
 11
2.591580665367203
 21
1.25615331113833
 31
0.0
  0
LINE
  5
391
330
2
100
AcDbEntity
  8
USP-GEO
100
AcDbLine
 10
2.626625264141829
 20
1.2945262583621
 30
0.0
 11
2.620583091939309
 21
1.2945262583621
 31
0.0
  0
LINE
  5
392
330
2
100
AcDbEntity
  8
USP-GEO
100
AcDbLine
 10
2.591580665367203
 20
1.318247716645895
 30
0.0
 11
2.620583091939309
 21
1.301503157857336
 31
0.0
  0
LINE
  5
393
330
2
100
AcDbEntity
  8
USP-GEO
100
AcDbLine
 10
2.616957788617796
 20
1.233827232753586
 30
0.0
 11
2.616957788617796
 21
1.233129542804061
 31
0.0
  0
LINE
  5
394
330
2
100
AcDbEntity
  8
USP-GEO
100
AcDbLine
 10
2.58795536204569
 20
1.250571791542139
 30
0.0
 11
2.616957788617796
 21
1.233827232753586
 31
0.0
  0
LINE
  5
395
330
2
100
AcDbEntity
  8
USP-GEO
100
AcDbLine
 10
2.584244176843849
 20
1.250571791542139
 30
0.0
 11
2.58795536204569
 21
1.250571791542139
 31
0.0
  0
LINE
  5
396
330
2
100
AcDbEntity
  8
USP-GEO
100
AcDbLine
 10
2.58795536204569
 20
1.24359489204691
 30
0.0
 11
2.584244176843849
 21
1.247880199597499
 31
0.0
  0
LINE
  5
397
330
2
100
AcDbEntity
  8
USP-GEO
100
AcDbLine
 10
2.616957788617796
 20
1.226850333258351
 30
0.0
 11
2.58795536204569
 21
1.24359489204691
 31
0.0
  0
LINE
  5
398
330
2
100
AcDbEntity
  8
USP-GEO
100
AcDbLine
 10
2.616957788617796
 20
1.227548023207877
 30
0.0
 11
2.602661390044495
 21
1.235802052772609
 31
0.0
  0
LINE
  5
399
330
2
100
AcDbEntity
  8
USP-GEO
100
AcDbLine
 10
2.58795536204569
 20
1.36220218346585
 30
0.0
 11
2.616957788617796
 21
1.345457624677298
 31
0.0
  0
LINE
  5
39A
330
2
100
AcDbEntity
  8
USP-GEO
100
AcDbLine
 10
2.584244176843849
 20
1.36220218346585
 30
0.0
 11
2.58795536204569
 21
1.36220218346585
 31
0.0
  0
LINE
  5
39B
330
2
100
AcDbEntity
  8
USP-GEO
100
AcDbLine
 10
2.616957788617796
 20
1.339178415131588
 30
0.0
 11
2.602661390044495
 21
1.34743244469632
 31
0.0
  0
LINE
  5
39C
330
2
100
AcDbEntity
  8
USP-GEO
100
AcDbLine
 10
2.602661390044495
 20
1.34743244469632
 30
0.0
 11
2.602661390044495
 21
1.353013964292511
 31
0.0
  0
LINE
  5
39D
330
2
100
AcDbEntity
  8
USP-GEO
100
AcDbLine
 10
2.602661390044495
 20
1.353013964292511
 30
0.0
 11
2.616957788617796
 21
1.344759934727772
 31
0.0
  0
LINE
  5
39E
330
2
100
AcDbEntity
  8
USP-GEO
100
AcDbLine
 10
2.630890554343032
 20
1.348617881072659
 30
0.0
 11
2.63273897566323
 21
1.34968506761945
 31
0.0
  0
LINE
  5
39F
330
2
100
AcDbEntity
  8
USP-GEO
100
AcDbLine
 10
2.589803783365887
 20
1.356292470517413
 30
0.0
 11
2.591652204686081
 21
1.357359657064204
 31
0.0
  0
LINE
  5
3A0
330
2
100
AcDbEntity
  8
USP-GEO
100
AcDbLine
 10
2.624279934579696
 20
1.296660631455683
 30
0.0
 11
2.624773942289586
 21
1.296660631455683
 31
0.0
  0
LINE
  5
3A1
330
2
100
AcDbEntity
  8
USP-GEO
100
AcDbLine
 10
2.612202988374736
 20
1.303633259598111
 30
0.0
 11
2.624279934579696
 21
1.296660631455683
 31
0.0
  0
LINE
  5
3A2
330
2
100
AcDbEntity
  8
USP-GEO
100
AcDbLine
 10
2.591652204686081
 20
1.301544461102349
 30
0.0
 11
2.600661354577869
 21
1.296343025987152
 31
0.0
  0
LINE
  5
3A3
330
2
100
AcDbEntity
  8
USP-GEO
100
AcDbLine
 10
2.624279934579696
 20
1.240845435493827
 30
0.0
 11
2.624773942289589
 21
1.240845435493827
 31
0.0
  0
LINE
  5
3A4
330
2
100
AcDbEntity
  8
USP-GEO
100
AcDbLine
 10
2.591652204686081
 20
1.245729265140493
 30
0.0
 11
2.600661354577869
 21
1.240527830025296
 31
0.0
  0
LINE
  5
3A5
330
2
100
AcDbEntity
  8
USP-GEO
100
AcDbLine
 10
2.587459671755478
 20
1.250570385172633
 30
0.0
 11
2.591652204686081
 21
1.245729265140493
 31
0.0
  0
LINE
  5
3A6
330
2
100
AcDbEntity
  8
USP-GEO
100
AcDbLine
 10
2.649657057830289
 20
1.279218382717605
 30
0.0
 11
2.651505479150486
 21
1.280285569264396
 31
0.0
  0
LINE
  5
3A7
330
2
100
AcDbEntity
  8
USP-GEO
100
AcDbLine
 10
2.653282361151802
 20
1.291079111859499
 30
0.0
 11
2.653886241994005
 21
1.291427762626302
 31
0.0
  0
LINE
  5
3A8
330
2
100
AcDbEntity
  8
USP-GEO
100
AcDbLine
 10
2.649657057830289
 20
1.390848774641316
 30
0.0
 11
2.651505479150486
 21
1.391915961188107
 31
0.0
  0
LINE
  5
3A9
330
2
100
AcDbEntity
  8
USP-GEO
100
AcDbLine
 10
2.682284787723908
 20
1.330149749032795
 30
0.0
 11
2.684133209044102
 21
1.331216935579586
 31
0.0
  0
LINE
  5
3AA
330
2
100
AcDbEntity
  8
USP-GEO
100
AcDbLine
 10
2.653886241994005
 20
1.353522168133867
 30
0.0
 11
2.653282361151802
 21
1.353173517367064
 31
0.0
  0
LINE
  5
3AB
330
2
100
AcDbEntity
  8
USP-GEO
100
AcDbLine
 10
2.653886241994005
 20
1.297706972172012
 30
0.0
 11
2.653282361151802
 21
1.297358321405209
 31
0.0
  0
LINE
  5
3AC
330
2
100
AcDbEntity
  8
USP-GEO
100
AcDbLine
 10
2.651505479150486
 20
1.336100765226252
 30
0.0
 11
2.662372014768443
 21
1.329826967962059
 31
0.0
  0
LINE
  5
3AD
330
2
100
AcDbEntity
  8
USP-GEO
100
AcDbLine
 10
2.651505479150486
 20
1.391915961188107
 30
0.0
 11
2.662372014768443
 21
1.385642163923922
 31
0.0
  0
LINE
  5
3AE
330
2
100
AcDbEntity
  8
USP-GEO
100
AcDbLine
 10
2.684133209044102
 20
1.275401739617731
 30
0.0
 11
2.687401299000306
 21
1.275401739617731
 31
0.0
  0
LINE
  5
3AF
330
2
100
AcDbEntity
  8
USP-GEO
100
AcDbLine
 10
2.672056262839085
 20
1.282374367760187
 30
0.0
 11
2.684133209044102
 21
1.275401739617731
 31
0.0
  0
LINE
  5
3B0
330
2
100
AcDbEntity
  8
USP-GEO
100
AcDbLine
 10
2.673225116693192
 20
1.282397219622399
 30
0.0
 11
2.673225116693192
 21
1.286540867170668
 31
0.0
  0
LINE
  5
3B1
330
2
100
AcDbEntity
  8
USP-GEO
100
AcDbLine
 10
2.649657057830289
 20
1.342010478174696
 30
0.0
 11
2.678659484402395
 21
1.325265919386136
 31
0.0
  0
LINE
  5
3B2
330
2
100
AcDbEntity
  8
USP-GEO
100
AcDbLine
 10
2.649657057830289
 20
1.33503357867946
 30
0.0
 11
2.645945872628448
 21
1.339318886230049
 31
0.0
  0
LINE
  5
3B3
330
2
100
AcDbEntity
  8
USP-GEO
100
AcDbLine
 10
2.678659484402395
 20
1.318986709840427
 30
0.0
 11
2.678659484402395
 21
1.318289019890908
 31
0.0
  0
LINE
  5
3B4
330
2
100
AcDbEntity
  8
USP-GEO
100
AcDbLine
 10
2.664363085829094
 20
1.327240739405166
 30
0.0
 11
2.664363085829094
 21
1.33282225900135
 31
0.0
  0
LINE
  5
3B5
330
2
100
AcDbEntity
  8
USP-GEO
100
AcDbLine
 10
2.664363085829094
 20
1.33282225900135
 30
0.0
 11
2.678659484402395
 21
1.324568229436611
 31
0.0
  0
LINE
  5
3B6
330
2
100
AcDbEntity
  8
USP-GEO
100
AcDbLine
 10
2.653282361151802
 20
1.291079111859499
 30
0.0
 11
2.653282361151802
 21
1.291776801809024
 31
0.0
  0
LINE
  5
3B7
330
2
100
AcDbEntity
  8
USP-GEO
100
AcDbLine
 10
2.682284787723908
 20
1.274334553070939
 30
0.0
 11
2.653282361151802
 21
1.291079111859499
 31
0.0
  0
LINE
  5
3B8
330
2
100
AcDbEntity
  8
USP-GEO
100
AcDbLine
 10
2.653282361151802
 20
1.297358321405209
 30
0.0
 11
2.653282361151802
 21
1.298056011354727
 31
0.0
  0
LINE
  5
3B9
330
2
100
AcDbEntity
  8
USP-GEO
100
AcDbLine
 10
2.653282361151802
 20
1.297358321405209
 30
0.0
 11
2.667578759725103
 21
1.28910429184047
 31
0.0
  0
LINE
  5
3BA
330
2
100
AcDbEntity
  8
USP-GEO
100
AcDbLine
 10
2.667578759725103
 20
1.28910429184047
 30
0.0
 11
2.667578759725103
 21
1.283522772244285
 31
0.0
  0
LINE
  5
3BB
330
2
100
AcDbEntity
  8
USP-GEO
100
AcDbLine
 10
2.653282361151802
 20
1.346894307821354
 30
0.0
 11
2.653282361151802
 21
1.34759199777088
 31
0.0
  0
LINE
  5
3BC
330
2
100
AcDbEntity
  8
USP-GEO
100
AcDbLine
 10
2.682284787723908
 20
1.33712664852803
 30
0.0
 11
2.688326959926428
 21
1.330149749032795
 31
0.0
  0
LINE
  5
3BD
330
2
100
AcDbEntity
  8
USP-GEO
100
AcDbLine
 10
2.653282361151802
 20
1.353871207316583
 30
0.0
 11
2.682284787723908
 21
1.33712664852803
 31
0.0
  0
LINE
  5
3BE
330
2
100
AcDbEntity
  8
USP-GEO
100
AcDbLine
 10
2.667578759725103
 20
1.344919487802325
 30
0.0
 11
2.667578759725103
 21
1.339337968206141
 31
0.0
  0
LINE
  5
3BF
330
2
100
AcDbEntity
  8
USP-GEO
100
AcDbLine
 10
2.649657057830289
 20
1.279218382717605
 30
0.0
 11
2.645945872628448
 21
1.283503690268194
 31
0.0
  0
LINE
  5
3C0
330
2
100
AcDbEntity
  8
USP-GEO
100
AcDbLine
 10
2.678659484402395
 20
1.381081115347992
 30
0.0
 11
2.678659484402395
 21
1.380383425398466
 31
0.0
  0
LINE
  5
3C1
330
2
100
AcDbEntity
  8
USP-GEO
100
AcDbLine
 10
2.649657057830289
 20
1.397825674136552
 30
0.0
 11
2.678659484402395
 21
1.381081115347992
 31
0.0
  0
LINE
  5
3C2
330
2
100
AcDbEntity
  8
USP-GEO
100
AcDbLine
 10
2.645945872628448
 20
1.397825674136552
 30
0.0
 11
2.649657057830289
 21
1.397825674136552
 31
0.0
  0
LINE
  5
3C3
330
2
100
AcDbEntity
  8
USP-GEO
100
AcDbLine
 10
2.649657057830289
 20
1.390848774641316
 30
0.0
 11
2.645945872628448
 21
1.395134082191912
 31
0.0
  0
LINE
  5
3C4
330
2
100
AcDbEntity
  8
USP-GEO
100
AcDbLine
 10
2.678659484402395
 20
1.374801905802282
 30
0.0
 11
2.678659484402395
 21
1.374104215852764
 31
0.0
  0
LINE
  5
3C5
330
2
100
AcDbEntity
  8
USP-GEO
100
AcDbLine
 10
2.664363085829094
 20
1.383055935367021
 30
0.0
 11
2.664363085829094
 21
1.388637454963205
 31
0.0
  0
LINE
  5
3C6
330
2
100
AcDbEntity
  8
USP-GEO
100
AcDbLine
 10
2.803669896592836
 20
0.9128877413142895
 30
0.0
 11
2.803669896592836
 21
0.7703586240729799
 31
0.0
  0
LINE
  5
3C7
330
2
100
AcDbEntity
  8
USP-GEO
100
AcDbLine
 10
2.803669896592836
 20
0.7703586240729799
 30
0.0
 11
2.861674749737048
 21
0.8038477416500917
 31
0.0
  0
LINE
  5
3C8
330
2
100
AcDbEntity
  8
USP-GEO
100
AcDbLine
 10
2.803669896592836
 20
1.094086760651745
 30
0.0
 11
2.803669896592836
 21
0.9515576434104353
 31
0.0
  0
LINE
  5
3C9
330
2
100
AcDbEntity
  8
USP-GEO
100
AcDbLine
 10
2.803669896592836
 20
0.9515576434104353
 30
0.0
 11
2.818171109878889
 21
0.9335178884921155
 31
0.0
  0
LINE
  5
3CA
330
2
100
AcDbEntity
  8
USP-GEO
100
AcDbLine
 10
2.789168683306787
 20
0.9309274962326092
 30
0.0
 11
2.803669896592836
 21
0.9128877413142895
 31
0.0
  0
LINE
  5
3CB
330
2
100
AcDbEntity
  8
USP-GEO
100
AcDbLine
 10
2.861674749737048
 20
0.9463768588914085
 30
0.0
 11
2.854946083928538
 21
0.9547474331129102
 31
0.0
  0
LINE
  5
3CC
330
2
100
AcDbEntity
  8
USP-GEO
100
AcDbLine
 10
2.876175963023101
 20
0.9670070060692346
 30
0.0
 11
2.861674749737048
 21
0.9850467609875472
 31
0.0
  0
LINE
  5
3CD
330
2
100
AcDbEntity
  8
USP-GEO
100
AcDbLine
 10
2.861674749737048
 20
0.9850467609875472
 30
0.0
 11
2.861674749737048
 21
1.127575878228856
 31
0.0
  0
LINE
  5
3CE
330
2
100
AcDbEntity
  8
USP-GEO
100
AcDbLine
 10
2.042733670210328
 20
1.533413495789826
 30
0.0
 11
2.100738523354536
 21
1.566902613366938
 31
0.0
  0
LINE
  5
3CF
330
2
100
AcDbEntity
  8
USP-GEO
100
AcDbLine
 10
2.042733670210328
 20
1.533413495789826
 30
0.0
 11
2.042733670210328
 21
1.486923842867877
 31
0.0
  0
LINE
  5
3D0
330
2
100
AcDbEntity
  8
USP-GEO
100
AcDbLine
 10
2.184180837718031
 20
2.070934971735969
 30
0.0
 11
2.307614674027981
 21
1.999670413115314
 31
0.0
  0
LINE
  5
3D1
330
2
100
AcDbEntity
  8
USP-GEO
100
AcDbLine
 10
2.242185690862239
 20
2.104424089313081
 30
0.0
 11
2.359492069948313
 21
2.036697219770079
 31
0.0
  0
LINE
  5
3D2
330
2
100
AcDbEntity
  8
USP-GEO
100
AcDbLine
 10
2.394433207995412
 20
2.042113293626282
 30
0.0
 11
2.377688649206856
 21
2.085269886727427
 31
0.0
  0
LINE
  5
3D3
330
2
100
AcDbEntity
  8
USP-GEO
100
AcDbLine
 10
2.58794101948424
 20
2.047528423683782
 30
0.0
 11
2.645945872628448
 21
2.081017541260901
 31
0.0
  0
LINE
  5
3D4
330
2
100
AcDbEntity
  8
USP-GEO
100
AcDbLine
 10
2.464537627915042
 20
1.909070903446586
 30
0.0
 11
2.341103791605092
 21
1.980335462067241
 31
0.0
  0
LINE
  5
3D5
330
2
100
AcDbEntity
  8
USP-GEO
100
AcDbLine
 10
2.192075198360072
 20
1.576510318765368
 30
0.0
 11
2.194029579986654
 21
1.57763868152357
 31
0.0
  0
LINE
  5
3D6
330
2
100
AcDbEntity
  8
USP-GEO
100
AcDbLine
 10
2.397434305297046
 20
1.485400711058442
 30
0.0
 11
2.394545663610465
 21
1.483732953003094
 31
0.0
  0
LINE
  5
3D7
330
2
100
AcDbEntity
  8
USP-GEO
100
AcDbLine
 10
2.315986953422257
 20
2.011581234141853
 30
0.0
 11
2.307614674027981
 21
1.999670413115314
 31
0.0
  0
LINE
  5
3D8
330
2
100
AcDbEntity
  8
USP-GEO
100
AcDbLine
 10
2.332731512210813
 20
1.968424641040702
 30
0.0
 11
2.315986953422257
 21
2.011581234141853
 31
0.0
  0
LINE
  5
3D9
330
2
100
AcDbEntity
  8
USP-GEO
100
AcDbLine
 10
2.388493415550037
 20
2.007694625901482
 30
0.0
 11
2.373991806566465
 21
2.045070351718965
 31
0.0
  0
LINE
  5
3DA
330
2
100
AcDbEntity
  8
USP-GEO
100
AcDbLine
 10
2.402805487389692
 20
2.054024114652815
 30
0.0
 11
2.394433207995412
 21
2.042113293626282
 31
0.0
  0
LINE
  5
3DB
330
2
100
AcDbEntity
  8
USP-GEO
100
AcDbLine
 10
2.127470300894653
 20
1.498908110327388
 30
0.0
 11
2.12562187957446
 21
1.497840923780596
 31
0.0
  0
LINE
  5
3DC
330
2
100
AcDbEntity
  8
USP-GEO
100
AcDbLine
 10
2.175999196565292
 20
1.523450843429312
 30
0.0
 11
2.100738523354536
 21
1.566902613366938
 31
0.0
  0
LINE
  5
3DD
330
2
100
AcDbEntity
  8
USP-GEO
100
AcDbLine
 10
2.464537627915042
 20
1.909070903446586
 30
0.0
 11
2.52254248105925
 21
1.942560021023698
 31
0.0
  0
LINE
  5
3DE
330
2
100
AcDbEntity
  8
USP-GEO
100
AcDbLine
 10
2.365589082431437
 20
2.242881609550284
 30
0.0
 11
2.482895461517514
 21
2.175154740007283
 31
0.0
  0
LINE
  5
3DF
330
2
100
AcDbEntity
  8
USP-GEO
100
AcDbLine
 10
2.307584229287229
 20
2.209392491973172
 30
0.0
 11
2.431018065597179
 21
2.138127933352517
 31
0.0
  0
LINE
  5
3E0
330
2
100
AcDbEntity
  8
USP-GEO
100
AcDbLine
 10
2.242185690862239
 20
2.104424089313081
 30
0.0
 11
2.184180837718031
 21
2.070934971735969
 31
0.0
  0
LINE
  5
3E1
330
2
100
AcDbEntity
  8
USP-GEO
100
AcDbLine
 10
2.303887386646838
 20
2.178112741898662
 30
0.0
 11
2.421193765732912
 21
2.110385872355653
 31
0.0
  0
LINE
  5
3E2
330
2
100
AcDbEntity
  8
USP-GEO
100
AcDbLine
 10
2.24588253350263
 20
2.14462362432155
 30
0.0
 11
2.24588253350263
 21
2.102287338411787
 31
0.0
  0
LINE
  5
3E3
330
2
100
AcDbEntity
  8
USP-GEO
100
AcDbLine
 10
2.450195111334636
 20
2.081383278487063
 30
0.0
 11
2.435693502351064
 21
2.118759004304546
 31
0.0
  0
LINE
  5
3E4
330
2
100
AcDbEntity
  8
USP-GEO
100
AcDbLine
 10
2.439390344991455
 20
2.15003875437905
 30
0.0
 11
2.497395198135667
 21
2.183527871956169
 31
0.0
  0
LINE
  5
3E5
330
2
100
AcDbEntity
  8
USP-GEO
100
AcDbLine
 10
2.464507183174291
 20
2.118792982304444
 30
0.0
 11
2.522512036318502
 21
2.152282099881556
 31
0.0
  0
LINE
  5
3E6
330
2
100
AcDbEntity
  8
USP-GEO
100
AcDbLine
 10
2.439390344991455
 20
2.15003875437905
 30
0.0
 11
2.431018065597179
 21
2.138127933352517
 31
0.0
  0
LINE
  5
3E7
330
2
100
AcDbEntity
  8
USP-GEO
100
AcDbLine
 10
2.456134903780014
 20
2.106882161277905
 30
0.0
 11
2.439390344991455
 21
2.15003875437905
 31
0.0
  0
TEXT
  5
4D0
330
2
100
AcDbEntity
  8
0
100
AcDbText
 10
1.212816553149213
 20
-0.0563781280681486
 30
0.0
 40
0.125
  1
SIMPSON  THA413
100
AcDbText
  0
TEXT
  5
4D1
330
2
100
AcDbEntity
  8
0
100
AcDbText
 10
1.672279097722483
 20
0.1779295722072529
 30
0.0
 40
0.125
  1
USP  MSH413
100
AcDbText
  0
ENDSEC
  0
SECTION
  2
OBJECTS
  0
DICTIONARY
  5
400
330
0
100
AcDbDictionary
281
     1
  3
ACAD_COLOR
350
409
  3
ACAD_GROUP
350
3FE
  3
ACAD_LAYOUT
350
40A
  3
ACAD_MATERIAL
350
408
  3
ACAD_MLINESTYLE
350
3FF
  3
ACAD_PLOTSETTINGS
350
40B
  3
ACAD_PLOTSTYLENAME
350
406
  3
AcDbVariableDictionary
350
418
  0
DICTIONARY
  5
3E8
330
2
100
AcDbDictionary
280
     1
281
     1
  3
ACAD_LAYOUTSELFREF
360
3E9
  0
DICTIONARY
  5
3ED
330
3EC
100
AcDbDictionary
280
     1
281
     1
  3
ACAD_LAYOUTSELFREF
360
3EE
  0
DICTIONARY
  5
409
102
{ACAD_REACTORS
330
400
102
}
330
400
100
AcDbDictionary
281
     1
  0
DICTIONARY
  5
3FE
102
{ACAD_REACTORS
330
400
102
}
330
400
100
AcDbDictionary
281
     1
  0
DICTIONARY
  5
40A
102
{ACAD_REACTORS
330
400
102
}
330
400
100
AcDbDictionary
281
     1
  3
Layout1
350
40D
  3
Model
350
40C
  0
DICTIONARY
  5
408
102
{ACAD_REACTORS
330
400
102
}
330
400
100
AcDbDictionary
281
     1
  0
DICTIONARY
  5
3FF
102
{ACAD_REACTORS
330
400
102
}
330
400
100
AcDbDictionary
281
     1
  3
STANDARD
350
403
  0
DICTIONARY
  5
40B
102
{ACAD_REACTORS
330
400
102
}
330
400
100
AcDbDictionary
281
     1
  0
ACDBDICTIONARYWDFLT
  5
406
102
{ACAD_REACTORS
330
400
102
}
330
400
100
AcDbDictionary
281
     1
  3
Normal
350
407
100
AcDbDictionaryWithDefault
340
407
  0
DICTIONARY
  5
418
102
{ACAD_REACTORS
330
400
102
}
330
400
100
AcDbDictionary
281
     1
  3
DIMASSOC
350
419
  3
PROJECTNAME
350
41A
  0
XRECORD
  5
3E9
102
{ACAD_REACTORS
330
3E8
102
}
330
3E8
100
AcDbXrecord
280
     1
340
0
  0
XRECORD
  5
3EE
102
{ACAD_REACTORS
330
3ED
102
}
330
3ED
100
AcDbXrecord
280
     1
340
0
  0
LAYOUT
  5
40D
102
{ACAD_REACTORS
330
40A
102
}
330
40A
100
AcDbPlotSettings
  1

  2
\\MNPS6\laser4050
  4

  6

 40
0.0
 41
0.0
 42
0.0
 43
0.0
 44
0.0
 45
0.0
 46
0.0
 47
0.0
 48
0.0
 49
0.0
140
0.0
141
0.0
142
1.0
143
1.0
 70
   688
 72
     0
 73
     0
 74
     5
  7
USP.ctb
 75
    16
147
1.0
 76
     0
 77
     2
 78
   300
148
0.0
149
0.0
100
AcDbLayout
  1
Layout1
 70
     0
 71
     1
 10
0.0
 20
0.0
 11
12.0
 21
9.0
 12
0.0
 22
0.0
 32
0.0
 14
1.049999952316284
 24
0.7999999523162842
 34
0.0
 15
9.449999570846555
 25
7.199999570846556
 35
0.0
146
0.0
 13
0.0
 23
0.0
 33
0.0
 16
1.0
 26
0.0
 36
0.0
 17
0.0
 27
1.0
 37
0.0
 76
     0
330
3EC
  0
LAYOUT
  5
40C
102
{ACAD_REACTORS
330
40A
102
}
330
40A
100
AcDbPlotSettings
  1

  2
\\MNPS6\laser4050
  4
Letter
  6

 40
5.365749835968017
 41
5.450419902801513
 42
5.154083251953125
 43
5.069427490234375
 44
215.8999938964844
 45
279.3999938964844
 46
0.0
 47
0.0
 48
-23.06622320234473
 49
10.00239877610893
140
-20.06622320234473
141
13.00239877610893
142
1.0
143
0.3710192829726467
 70
 11952
 72
     0
 73
     1
 74
     4
  7
USP.ctb
 75
     0
147
2.695277700899779
 76
     0
 77
     2
 78
   300
148
585.8820693395561
149
-254.0609289131668
100
AcDbLayout
  1
Model
 70
     1
 71
     0
 10
0.0
 20
0.0
 11
12.0
 21
9.0
 12
0.0
 22
0.0
 32
0.0
 14
0.0
 24
0.0
 34
0.0
 15
0.0
 25
0.0
 35
0.0
146
0.0
 13
0.0
 23
0.0
 33
0.0
 16
1.0
 26
0.0
 36
0.0
 17
0.0
 27
1.0
 37
0.0
 76
     0
330
2
  0
MLINESTYLE
  5
403
102
{ACAD_REACTORS
330
3FF
102
}
330
3FF
100
AcDbMlineStyle
  2
STANDARD
 70
     0
  3

 62
     0
 51
90.0
 52
90.0
 71
     2
 49
0.5
 62
   256
  6
BYLAYER
 49
-0.5
 62
   256
  6
BYLAYER
  0
ACDBPLACEHOLDER
  5
407
102
{ACAD_REACTORS
330
406
102
}
330
406
  0
DICTIONARYVAR
  5
419
102
{ACAD_REACTORS
330
418
102
}
330
418
100
DictionaryVariables
280
     0
  1
1
  0
DICTIONARYVAR
  5
41A
102
{ACAD_REACTORS
330
418
102
}
330
418
100
DictionaryVariables
280
     0
  1

  0
ENDSEC
  0
EOF
