  0
SECTION
  2
HEADER
  9
$ACADVER
  1
AC1018
  9
$ACADMAINTVER
 70
     0
  9
$DWGCODEPAGE
  3
ANSI_1252
  9
$INSBASE
 10
0.0
 20
0.0
 30
0.0
  9
$EXTMIN
 10
0.6704698975950398
 20
1.830558108240872
 30
0.0
  9
$EXTMAX
 10
8.201156909550679
 20
6.344007644338613
 30
0.0
  9
$LIMMIN
 10
0.0
 20
0.0
  9
$LIMMAX
 10
8.5
 20
11.0
  9
$ORTHOMODE
 70
     0
  9
$REGENMODE
 70
     1
  9
$FILLMODE
 70
     1
  9
$QTEXTMODE
 70
     0
  9
$MIRRTEXT
 70
     1
  9
$LTSCALE
 40
1.0
  9
$ATTMODE
 70
     1
  9
$TEXTSIZE
 40
0.1388888888888889
  9
$TRACEWID
 40
0.05
  9
$TEXTSTYLE
  7
Standard
  9
$CLAYER
  8
0
  9
$CELTYPE
  6
ByLayer
  9
$CECOLOR
 62
   256
  9
$CELTSCALE
 40
1.0
  9
$DISPSILH
 70
     0
  9
$DIMSCALE
 40
1.0
  9
$DIMASZ
 40
0.156
  9
$DIMEXO
 40
0.05
  9
$DIMDLI
 40
0.38
  9
$DIMRND
 40
0.0
  9
$DIMDLE
 40
0.0
  9
$DIMEXE
 40
0.125
  9
$DIMTP
 40
0.0
  9
$DIMTM
 40
0.0
  9
$DIMTXT
 40
0.125
  9
$DIMCEN
 40
0.09
  9
$DIMTSZ
 40
0.0
  9
$DIMTOL
 70
     0
  9
$DIMLIM
 70
     0
  9
$DIMTIH
 70
     1
  9
$DIMTOH
 70
     1
  9
$DIMSE1
 70
     0
  9
$DIMSE2
 70
     0
  9
$DIMTAD
 70
     0
  9
$DIMZIN
 70
     0
  9
$DIMBLK
  1

  9
$DIMASO
 70
     1
  9
$DIMSHO
 70
     1
  9
$DIMPOST
  1

  9
$DIMAPOST
  1

  9
$DIMALT
 70
     0
  9
$DIMALTD
 70
     2
  9
$DIMALTF
 40
25.4
  9
$DIMLFAC
 40
16.0
  9
$DIMTOFL
 70
     0
  9
$DIMTVP
 40
0.0
  9
$DIMTIX
 70
     0
  9
$DIMSOXD
 70
     0
  9
$DIMSAH
 70
     0
  9
$DIMBLK1
  1

  9
$DIMBLK2
  1

  9
$DIMSTYLE
  2
Standard
  9
$DIMCLRD
 70
     0
  9
$DIMCLRE
 70
     0
  9
$DIMCLRT
 70
     0
  9
$DIMTFAC
 40
1.0
  9
$DIMGAP
 40
0.06
  9
$DIMJUST
 70
     0
  9
$DIMSD1
 70
     0
  9
$DIMSD2
 70
     0
  9
$DIMTOLJ
 70
     1
  9
$DIMTZIN
 70
     0
  9
$DIMALTZ
 70
     0
  9
$DIMALTTZ
 70
     0
  9
$DIMUPT
 70
     0
  9
$DIMDEC
 70
     3
  9
$DIMTDEC
 70
     3
  9
$DIMALTU
 70
     2
  9
$DIMALTTD
 70
     2
  9
$DIMTXSTY
  7
Standard
  9
$DIMAUNIT
 70
     0
  9
$DIMADEC
 70
     0
  9
$DIMALTRND
 40
0.0
  9
$DIMAZIN
 70
     0
  9
$DIMDSEP
 70
    46
  9
$DIMATFIT
 70
     3
  9
$DIMFRAC
 70
     0
  9
$DIMLDRBLK
  1

  9
$DIMLUNIT
 70
     2
  9
$DIMLWD
 70
    -2
  9
$DIMLWE
 70
    -2
  9
$DIMTMOVE
 70
     0
  9
$LUNITS
 70
     2
  9
$LUPREC
 70
     3
  9
$SKETCHINC
 40
0.1
  9
$FILLETRAD
 40
0.5
  9
$AUNITS
 70
     0
  9
$AUPREC
 70
     0
  9
$MENU
  1
.
  9
$ELEVATION
 40
0.0
  9
$PELEVATION
 40
0.0
  9
$THICKNESS
 40
0.0
  9
$LIMCHECK
 70
     0
  9
$CHAMFERA
 40
0.0
  9
$CHAMFERB
 40
0.0
  9
$CHAMFERC
 40
0.0
  9
$CHAMFERD
 40
0.0
  9
$SKPOLY
 70
     0
  9
$TDCREATE
 40
2456700.396888495
  9
$TDUCREATE
 40
2456700.646888496
  9
$TDUPDATE
 40
2456700.398271077
  9
$TDUUPDATE
 40
2456700.648271076
  9
$TDINDWG
 40
0.0011847338
  9
$TDUSRTIMER
 40
0.0011847338
  9
$USRTIMER
 70
     1
  9
$ANGBASE
 50
0.0
  9
$ANGDIR
 70
     0
  9
$PDMODE
 70
     0
  9
$PDSIZE
 40
-1.0
  9
$PLINEWID
 40
0.0
  9
$SPLFRAME
 70
     0
  9
$SPLINETYPE
 70
     6
  9
$SPLINESEGS
 70
     8
  9
$HANDSEED
  5
502
  9
$SURFTAB1
 70
     6
  9
$SURFTAB2
 70
     6
  9
$SURFTYPE
 70
     6
  9
$SURFU
 70
     6
  9
$SURFV
 70
     6
  9
$UCSBASE
  2

  9
$UCSNAME
  2

  9
$UCSORG
 10
0.0
 20
0.0
 30
0.0
  9
$UCSXDIR
 10
1.0
 20
0.0
 30
0.0
  9
$UCSYDIR
 10
0.0
 20
1.0
 30
0.0
  9
$UCSORTHOREF
  2

  9
$UCSORTHOVIEW
 70
     0
  9
$UCSORGTOP
 10
0.0
 20
0.0
 30
0.0
  9
$UCSORGBOTTOM
 10
0.0
 20
0.0
 30
0.0
  9
$UCSORGLEFT
 10
0.0
 20
0.0
 30
0.0
  9
$UCSORGRIGHT
 10
0.0
 20
0.0
 30
0.0
  9
$UCSORGFRONT
 10
0.0
 20
0.0
 30
0.0
  9
$UCSORGBACK
 10
0.0
 20
0.0
 30
0.0
  9
$PUCSBASE
  2

  9
$PUCSNAME
  2

  9
$PUCSORG
 10
0.0
 20
0.0
 30
0.0
  9
$PUCSXDIR
 10
1.0
 20
0.0
 30
0.0
  9
$PUCSYDIR
 10
0.0
 20
1.0
 30
0.0
  9
$PUCSORTHOREF
  2

  9
$PUCSORTHOVIEW
 70
     0
  9
$PUCSORGTOP
 10
0.0
 20
0.0
 30
0.0
  9
$PUCSORGBOTTOM
 10
0.0
 20
0.0
 30
0.0
  9
$PUCSORGLEFT
 10
0.0
 20
0.0
 30
0.0
  9
$PUCSORGRIGHT
 10
0.0
 20
0.0
 30
0.0
  9
$PUCSORGFRONT
 10
0.0
 20
0.0
 30
0.0
  9
$PUCSORGBACK
 10
0.0
 20
0.0
 30
0.0
  9
$USERI1
 70
     0
  9
$USERI2
 70
     0
  9
$USERI3
 70
     0
  9
$USERI4
 70
     0
  9
$USERI5
 70
     0
  9
$USERR1
 40
0.0
  9
$USERR2
 40
0.0
  9
$USERR3
 40
0.0
  9
$USERR4
 40
0.0
  9
$USERR5
 40
0.0
  9
$WORLDVIEW
 70
     1
  9
$SHADEDGE
 70
     3
  9
$SHADEDIF
 70
    70
  9
$TILEMODE
 70
     1
  9
$MAXACTVP
 70
    64
  9
$PINSBASE
 10
0.0
 20
0.0
 30
0.0
  9
$PLIMCHECK
 70
     0
  9
$PEXTMIN
 10
1.000000000000000E+20
 20
1.000000000000000E+20
 30
1.000000000000000E+20
  9
$PEXTMAX
 10
-1.000000000000000E+20
 20
-1.000000000000000E+20
 30
-1.000000000000000E+20
  9
$PLIMMIN
 10
0.0
 20
0.0
  9
$PLIMMAX
 10
12.0
 20
9.0
  9
$UNITMODE
 70
     0
  9
$VISRETAIN
 70
     1
  9
$PLINEGEN
 70
     0
  9
$PSLTSCALE
 70
     1
  9
$TREEDEPTH
 70
  3020
  9
$CMLSTYLE
  2
Standard
  9
$CMLJUST
 70
     0
  9
$CMLSCALE
 40
1.0
  9
$PROXYGRAPHICS
 70
     1
  9
$MEASUREMENT
 70
     0
  9
$CELWEIGHT
370
    -1
  9
$ENDCAPS
280
     0
  9
$JOINSTYLE
280
     0
  9
$LWDISPLAY
290
     1
  9
$INSUNITS
 70
     1
  9
$HYPERLINKBASE
  1

  9
$STYLESHEET
  1

  9
$XEDIT
290
     1
  9
$CEPSNTYPE
380
     0
  9
$PSTYLEMODE
290
     1
  9
$FINGERPRINTGUID
  2
{A8B772B9-F021-472E-8991-4A59BD8827D1}
  9
$VERSIONGUID
  2
{F195932C-9A79-43CC-97AF-8AD2691773E4}
  9
$EXTNAMES
290
     1
  9
$PSVPSCALE
 40
0.0
  9
$OLESTARTUP
290
     0
  9
$SORTENTS
280
   127
  9
$INDEXCTL
280
     0
  9
$HIDETEXT
280
     0
  9
$XCLIPFRAME
290
     0
  9
$HALOGAP
280
     0
  9
$OBSCOLOR
 70
   257
  9
$OBSLTYPE
280
     0
  9
$INTERSECTIONDISPLAY
280
     0
  9
$INTERSECTIONCOLOR
 70
   257
  9
$DIMASSOC
280
     1
  9
$PROJECTNAME
  1

  0
ENDSEC
  0
SECTION
  2
CLASSES
  0
CLASS
  1
ACDBDICTIONARYWDFLT
  2
AcDbDictionaryWithDefault
  3
ObjectDBX Classes
 90
        0
 91
        1
280
     0
281
     0
  0
CLASS
  1
VISUALSTYLE
  2
AcDbVisualStyle
  3
ObjectDBX Classes
 90
     4095
 91
        0
280
     0
281
     0
  0
CLASS
  1
MATERIAL
  2
AcDbMaterial
  3
ObjectDBX Classes
 90
        0
 91
        0
280
     0
281
     0
  0
CLASS
  1
SCALE
  2
AcDbScale
  3
ObjectDBX Classes
 90
     1153
 91
       33
280
     0
281
     0
  0
CLASS
  1
SUN
  2
AcDbSun
  3
SCENEOE
 90
     1153
 91
        1
280
     0
281
     0
  0
CLASS
  1
ACDBPLACEHOLDER
  2
AcDbPlaceHolder
  3
ObjectDBX Classes
 90
        0
 91
        1
280
     0
281
     0
  0
CLASS
  1
LAYOUT
  2
AcDbLayout
  3
ObjectDBX Classes
 90
        0
 91
        3
280
     0
281
     0
  0
ENDSEC
  0
SECTION
  2
TABLES
  0
TABLE
  2
VPORT
  5
8
330
0
100
AcDbSymbolTable
 70
     4
  0
VPORT
  5
501
330
8
100
AcDbSymbolTableRecord
100
AcDbViewportTableRecord
  2
*Active
 70
     0
 10
0.0
 20
0.0
 11
1.0
 21
1.0
 12
4.496011963940906
 22
5.001613967122148
 13
0.0
 23
0.0
 14
0.5
 24
0.5
 15
0.5
 25
0.5
 16
0.0
 26
0.0
 36
1.0
 17
0.0
 27
0.0
 37
0.0
 40
6.54714262489897
 41
2.144329896907216
 42
50.0
 43
0.0
 44
0.0
 50
0.0
 51
0.0
 71
     0
 72
  2000
 73
     1
 74
     3
 75
     0
 76
     0
 77
     0
 78
     0
281
     0
 65
     1
110
0.0
120
0.0
130
0.0
111
1.0
121
0.0
131
0.0
112
0.0
122
1.0
132
0.0
 79
     0
146
0.0
  0
ENDTAB
  0
TABLE
  2
LTYPE
  5
5
330
0
100
AcDbSymbolTable
 70
     6
  0
LTYPE
  5
14
330
5
100
AcDbSymbolTableRecord
100
AcDbLinetypeTableRecord
  2
ByBlock
 70
     0
  3

 72
    65
 73
     0
 40
0.0
  0
LTYPE
  5
15
330
5
100
AcDbSymbolTableRecord
100
AcDbLinetypeTableRecord
  2
ByLayer
 70
     0
  3

 72
    65
 73
     0
 40
0.0
  0
LTYPE
  5
16
330
5
100
AcDbSymbolTableRecord
100
AcDbLinetypeTableRecord
  2
Continuous
 70
     0
  3
Solid line
 72
    65
 73
     0
 40
0.0
  0
LTYPE
  5
6A
330
5
100
AcDbSymbolTableRecord
100
AcDbLinetypeTableRecord
  2
HIDDEN
 70
     0
  3
Hidden __ __ __ __ __ __ __ __ __ __ __ __ __ __
 72
    65
 73
     2
 40
0.075
 49
0.05
 74
     0
 49
-0.025
 74
     0
  0
LTYPE
  5
6B
330
5
100
AcDbSymbolTableRecord
100
AcDbLinetypeTableRecord
  2
PHANTOM
 70
     0
  3
Phantom ______  __  __  ______  __  __  ______
 72
    65
 73
     6
 40
0.5
 49
0.25
 74
     0
 49
-0.05
 74
     0
 49
0.05
 74
     0
 49
-0.05
 74
     0
 49
0.05
 74
     0
 49
-0.05
 74
     0
  0
LTYPE
  5
6C
330
5
100
AcDbSymbolTableRecord
100
AcDbLinetypeTableRecord
  2
CENTER
 70
     0
  3
Center ____ _ ____ _ ____ _ ____ _ ____ _ ____
 72
    65
 73
     4
 40
0.4
 49
0.25
 74
     0
 49
-0.05
 74
     0
 49
0.05
 74
     0
 49
-0.05
 74
     0
  0
LTYPE
  5
6D
330
5
100
AcDbSymbolTableRecord
100
AcDbLinetypeTableRecord
  2
CENTERX2
 70
     0
  3
Center (2x) ________  __  ________  __  _____
 72
    65
 73
     4
 40
0.8
 49
0.5
 74
     0
 49
-0.1
 74
     0
 49
0.1
 74
     0
 49
-0.1
 74
     0
  0
LTYPE
  5
6E
330
5
100
AcDbSymbolTableRecord
100
AcDbLinetypeTableRecord
  2
DOT2
 70
     0
  3
Dot (.5x) ........................................
 72
    65
 73
     2
 40
0.025
 49
0.0
 74
     0
 49
-0.025
 74
     0
  0
ENDTAB
  0
TABLE
  2
LAYER
  5
2
330
0
100
AcDbSymbolTable
 70
     8
  0
LAYER
  5
10
330
2
100
AcDbSymbolTableRecord
100
AcDbLayerTableRecord
  2
0
 70
     0
 62
     7
  6
Continuous
370
    -3
390
F
  0
LAYER
  5
6F
330
2
100
AcDbSymbolTableRecord
100
AcDbLayerTableRecord
  2
SLD-0
 70
     0
 62
   179
  6
Continuous
370
    -3
390
F
  0
LAYER
  5
70
330
2
100
AcDbSymbolTableRecord
100
AcDbLayerTableRecord
  2
SLD-DEFPOINTS
 70
     0
 62
   179
  6
Continuous
370
    -3
390
F
  0
LAYER
  5
71
330
2
100
AcDbSymbolTableRecord
100
AcDbLayerTableRecord
  2
OBJ
 70
     0
 62
   179
  6
Continuous
370
    -3
390
F
  0
LAYER
  5
72
330
2
100
AcDbSymbolTableRecord
100
AcDbLayerTableRecord
  2
FORMAT
 70
     0
 62
     7
  6
Continuous
370
    -3
390
F
  0
LAYER
  5
73
330
2
100
AcDbSymbolTableRecord
100
AcDbLayerTableRecord
  2
BLANK-SIZE-1
 70
     0
 62
     7
  6
Continuous
370
    -3
390
F
  0
LAYER
  5
74
330
2
100
AcDbSymbolTableRecord
100
AcDbLayerTableRecord
  2
TOLERANCES
 70
     0
 62
     7
  6
Continuous
370
    -3
390
F
  0
LAYER
  5
75
330
2
100
AcDbSymbolTableRecord
100
AcDbLayerTableRecord
  2
QTY-BLANK-SIZE-1
 70
     0
 62
     7
  6
Continuous
370
    -3
390
F
  0
ENDTAB
  0
TABLE
  2
STYLE
  5
3
330
0
100
AcDbSymbolTable
 70
     2
  0
STYLE
  5
11
330
3
100
AcDbSymbolTableRecord
100
AcDbTextStyleTableRecord
  2
Standard
 70
     0
 40
0.0
 41
1.0
 50
0.0
 71
     0
 42
0.1388888888888889
  3
txt
  4

  0
STYLE
  5
4F1
330
3
100
AcDbSymbolTableRecord
100
AcDbTextStyleTableRecord
  2
SLDTEXTSTYLE0
 70
     0
 40
0.0
 41
0.7
 50
0.0
 71
     0
 42
0.1388888888888889
  3
TXT
  4

  0
ENDTAB
  0
TABLE
  2
VIEW
  5
6
330
0
100
AcDbSymbolTable
 70
     0
  0
ENDTAB
  0
TABLE
  2
UCS
  5
7
330
0
100
AcDbSymbolTable
 70
     0
  0
ENDTAB
  0
TABLE
  2
APPID
  5
9
330
0
100
AcDbSymbolTable
 70
     1
  0
APPID
  5
12
330
9
100
AcDbSymbolTableRecord
100
AcDbRegAppTableRecord
  2
ACAD
 70
     0
  0
ENDTAB
  0
TABLE
  2
DIMSTYLE
  5
A
330
0
100
AcDbSymbolTable
 70
     1
100
AcDbDimStyleTable
 71
     0
  0
DIMSTYLE
105
27
330
A
100
AcDbSymbolTableRecord
100
AcDbDimStyleTableRecord
  2
Standard
 70
     0
340
11
  0
ENDTAB
  0
TABLE
  2
BLOCK_RECORD
  5
1
330
0
100
AcDbSymbolTable
 70
     2
  0
BLOCK_RECORD
  5
1F
330
1
100
AcDbSymbolTableRecord
100
AcDbBlockTableRecord
  2
*Model_Space
340
22
  0
BLOCK_RECORD
  5
1B
330
1
100
AcDbSymbolTableRecord
100
AcDbBlockTableRecord
  2
*Paper_Space
340
1E
  0
BLOCK_RECORD
  5
23
330
1
100
AcDbSymbolTableRecord
100
AcDbBlockTableRecord
  2
*Paper_Space0
340
26
  0
ENDTAB
  0
ENDSEC
  0
SECTION
  2
BLOCKS
  0
BLOCK
  5
20
330
1F
100
AcDbEntity
  8
0
100
AcDbBlockBegin
  2
*Model_Space
 70
     0
 10
0.0
 20
0.0
 30
0.0
  3
*Model_Space
  1

  0
ENDBLK
  5
21
330
1F
100
AcDbEntity
  8
0
100
AcDbBlockEnd
  0
BLOCK
  5
1C
330
1B
100
AcDbEntity
 67
     1
  8
0
100
AcDbBlockBegin
  2
*Paper_Space
 70
     0
 10
0.0
 20
0.0
 30
0.0
  3
*Paper_Space
  1

  0
ENDBLK
  5
1D
330
1B
100
AcDbEntity
 67
     1
  8
0
100
AcDbBlockEnd
  0
BLOCK
  5
24
330
23
100
AcDbEntity
  8
0
100
AcDbBlockBegin
  2
*Paper_Space0
 70
     0
 10
0.0
 20
0.0
 30
0.0
  3
*Paper_Space0
  1

  0
ENDBLK
  5
25
330
23
100
AcDbEntity
  8
0
100
AcDbBlockEnd
  0
ENDSEC
  0
SECTION
  2
ENTITIES
  0
SPLINE
  5
76
330
1F
100
AcDbEntity
  8
0
  6
Continuous
 62
     7
370
    15
100
AcDbSpline
210
0.0
220
0.0
230
1.0
 70
     8
 71
     3
 72
    16
 73
    12
 74
     0
 42
0.0000000001
 43
0.0000000001
 40
0.0
 40
0.0
 40
0.0
 40
0.0
 40
0.0201297275662765
 40
0.1511692751348878
 40
0.2822430725609379
 40
0.4133010328444036
 40
0.5443376812854231
 40
0.6753671726476913
 40
0.80641158153632
 40
0.9374899180618539
 40
1.0
 40
1.0
 40
1.0
 40
1.0
 10
6.839837783599158
 20
4.181997482444821
 30
0.0
 10
6.839976727689799
 20
4.182129605198562
 30
0.0
 10
6.841020163444074
 20
4.183121814399905
 30
0.0
 10
6.842764173347125
 20
4.185388540762871
 30
0.0
 10
6.844999674697281
 20
4.188755895833416
 30
0.0
 10
6.846909736783335
 20
4.192467028433857
 30
0.0
 10
6.84848367671421
 20
4.196400111363226
 30
0.0
 10
6.849688269539752
 20
4.200497263398638
 30
0.0
 10
6.850496383119254
 20
4.204677304343432
 30
0.0
 10
6.850843901285741
 20
4.208140695134144
 30
0.0
 10
6.850873516084257
 20
4.210171903866703
 30
0.0
 10
6.850883078761077
 20
4.210827785170519
 30
0.0
  0
SPLINE
  5
77
330
1F
100
AcDbEntity
  8
0
  6
Continuous
 62
     7
370
    15
100
AcDbSpline
210
0.0
220
0.0
230
1.0
 70
     8
 71
     3
 72
    10
 73
     6
 74
     0
 42
0.0000000001
 43
0.0000000001
 40
0.0
 40
0.0
 40
0.0
 40
0.0
 40
0.2301167430076521
 40
0.6662005686692987
 40
1.0
 40
1.0
 40
1.0
 40
1.0
 10
6.850883078761077
 20
4.210827785170519
 30
0.0
 10
6.850870507529972
 20
4.211547625170885
 30
0.0
 10
6.850834113127712
 20
4.213631601379336
 30
0.0
 10
6.850525652948064
 20
4.216689118449798
 30
0.0
 10
6.849991280233901
 20
4.218868472642215
 30
0.0
 10
6.84975959145968
 20
4.219813378487991
 30
0.0
  0
LINE
  5
78
330
1F
100
AcDbEntity
  8
0
  6
Continuous
 62
     7
370
    15
100
AcDbLine
 10
6.812981425935012
 20
4.17690081327365
 30
0.0
 11
6.820406053762823
 21
4.174911673422584
 31
0.0
  0
LINE
  5
79
330
1F
100
AcDbEntity
  8
0
  6
Continuous
 62
     7
370
    15
100
AcDbLine
 10
6.836580114294472
 20
4.235282632425519
 30
0.0
 11
6.829155486466661
 21
4.237271772276585
 31
0.0
  0
LINE
  5
7A
330
1F
100
AcDbEntity
  8
0
  6
Continuous
 62
     7
370
    15
100
AcDbLine
 10
6.541367325941673
 20
4.601355947111718
 30
0.0
 11
6.533942718855423
 21
4.599366812817546
 31
0.0
  0
LINE
  5
7B
330
1F
100
AcDbEntity
  8
0
  6
Continuous
 62
     7
370
    15
100
AcDbLine
 10
6.550116758645511
 20
4.53899588763219
 30
0.0
 11
6.557541365731762
 21
4.540985021926363
 31
0.0
  0
SPLINE
  5
7C
330
1F
100
AcDbEntity
  8
0
  6
Continuous
 62
     7
370
    15
100
AcDbSpline
210
0.0
220
0.0
230
1.0
 70
     8
 71
     3
 72
    13
 73
     9
 74
     0
 42
0.0000000001
 43
0.0000000001
 40
0.0
 40
0.0
 40
0.0
 40
0.0
 40
0.1093573325919905
 40
0.3083294586157064
 40
0.5073031361904362
 40
0.7062422861044336
 40
0.9051593600328729
 40
1.0
 40
1.0
 40
1.0
 40
1.0
 10
6.570819676427066
 20
4.556914664138806
 30
0.0
 10
6.570990791214807
 20
4.557589562616189
 30
0.0
 10
6.571473243818714
 20
4.559492417022197
 30
0.0
 10
6.57182089112182
 20
4.562886336432443
 30
0.0
 10
6.571887970420344
 20
4.566985807436376
 30
0.0
 10
6.571515570482087
 20
4.571172760308995
 30
0.0
 10
6.570890492804625
 20
4.574632047759107
 30
0.0
 10
6.570349972943797
 20
4.576657547216777
 30
0.0
 10
6.570175464336564
 20
4.577311486350055
 30
0.0
  0
SPLINE
  5
7D
330
1F
100
AcDbEntity
  8
0
  6
Continuous
 62
     7
370
    15
100
AcDbSpline
210
0.0
220
0.0
230
1.0
 70
     8
 71
     3
 72
    13
 73
     9
 74
     0
 42
0.0000000001
 43
0.0000000001
 40
0.0
 40
0.0
 40
0.0
 40
0.0
 40
0.0867789492449482
 40
0.3017840329266283
 40
0.5169834677784882
 40
0.7322920793775245
 40
0.9477376172821021
 40
1.0
 40
1.0
 40
1.0
 40
1.0
 10
6.570019902641766
 20
4.577816131531369
 30
0.0
 10
6.569855775067179
 20
4.578364582942942
 30
0.0
 10
6.569285002065158
 20
4.580271887425067
 30
0.0
 10
6.568031311950027
 20
4.583432285625568
 30
0.0
 10
6.566158291163174
 20
4.587170220683669
 30
0.0
 10
6.563948358835875
 20
4.590576344223541
 30
0.0
 10
6.562142638015717
 20
4.592954080590791
 30
0.0
 10
6.561021980669218
 20
4.594036626028074
 30
0.0
 10
6.560803204089869
 20
4.594247962337517
 30
0.0
  0
LINE
  5
7E
330
1F
100
AcDbEntity
  8
0
  6
Continuous
 62
     7
370
    15
100
AcDbLine
 10
6.570175464336564
 20
4.577311486350055
 30
0.0
 11
6.570019902641766
 21
4.577816131531369
 31
0.0
  0
LINE
  5
7F
330
1F
100
AcDbEntity
  8
0
  6
Continuous
 62
     7
370
    15
100
AcDbLine
 10
6.466272572697016
 20
4.452872022822544
 30
0.0
 11
6.458847965610764
 21
4.450882888528373
 31
0.0
  0
LINE
  5
80
330
1F
100
AcDbEntity
  8
0
  6
Continuous
 62
     7
370
    15
100
AcDbLine
 10
6.475022026142412
 20
4.390511957786124
 30
0.0
 11
6.482446633228664
 21
4.392501092080297
 31
0.0
  0
SPLINE
  5
81
330
1F
100
AcDbEntity
  8
0
  6
Continuous
 62
     7
370
    15
100
AcDbSpline
210
0.0
220
0.0
230
1.0
 70
     8
 71
     3
 72
    13
 73
     9
 74
     0
 42
0.0000000001
 43
0.0000000001
 40
0.0
 40
0.0
 40
0.0
 40
0.0
 40
0.1093573932202506
 40
0.3083294274305222
 40
0.5073032153172687
 40
0.7062424755241401
 40
0.9051593074527408
 40
1.0
 40
1.0
 40
1.0
 40
1.0
 10
6.495724943923967
 20
4.408430734292739
 30
0.0
 10
6.495896059651722
 20
4.409105632336084
 30
0.0
 10
6.496378514589695
 20
4.411008484270928
 30
0.0
 10
6.496726129523109
 20
4.414402417173786
 30
0.0
 10
6.496793221307449
 20
4.41850188234929
 30
0.0
 10
6.496420809307402
 20
4.42268883309861
 30
0.0
 10
6.495795762587488
 20
4.426148120588154
 30
0.0
 10
6.495255241156805
 20
4.428173617430772
 30
0.0
 10
6.495080731833466
 20
4.428827556503989
 30
0.0
  0
SPLINE
  5
82
330
1F
100
AcDbEntity
  8
0
  6
Continuous
 62
     7
370
    15
100
AcDbSpline
210
0.0
220
0.0
230
1.0
 70
     8
 71
     3
 72
    13
 73
     9
 74
     0
 42
0.0000000001
 43
0.0000000001
 40
0.0
 40
0.0
 40
0.0
 40
0.0
 40
0.0867789729772502
 40
0.3017848680381507
 40
0.5169834429793586
 40
0.7322921134609817
 40
0.9477389076760708
 40
1.0
 40
1.0
 40
1.0
 40
1.0
 10
6.494925170138666
 20
4.429332201685302
 30
0.0
 10
6.494761043051025
 20
4.429880653373839
 30
0.0
 10
6.494190270319037
 20
4.431787963575511
 30
0.0
 10
6.492936552554485
 20
4.434948344929074
 30
0.0
 10
6.491063560730796
 20
4.438686297946474
 30
0.0
 10
6.488853625387571
 20
4.442092429027443
 30
0.0
 10
6.487047888854644
 20
4.444470131528329
 30
0.0
 10
6.485927240949179
 20
4.445552697386617
 30
0.0
 10
6.485708471586771
 20
4.44576403249145
 30
0.0
  0
LINE
  5
83
330
1F
100
AcDbEntity
  8
0
  6
Continuous
 62
     7
370
    15
100
AcDbLine
 10
6.495080731833466
 20
4.428827556503989
 30
0.0
 11
6.494925170138666
 21
4.429332201685302
 31
0.0
  0
SPLINE
  5
84
330
1F
100
AcDbEntity
  8
0
  6
Continuous
 62
     7
370
    15
100
AcDbSpline
210
0.0
220
0.0
230
1.0
 70
     8
 71
     3
 72
    16
 73
    12
 74
     0
 42
0.0000000001
 43
0.0000000001
 40
0.0
 40
0.0
 40
0.0
 40
0.0
 40
0.0201293194096262
 40
0.1511689318091348
 40
0.2822434114904854
 40
0.4133007356150074
 40
0.5443366772010605
 40
0.675367061509924
 40
0.806410665983066
 40
0.937490855933863
 40
1.0
 40
1.0
 40
1.0
 40
1.0
 10
6.760358990671671
 20
4.37747908073762
 30
0.0
 10
6.760497934938181
 20
4.37761119363866
 30
0.0
 10
6.761541390800839
 20
4.378603346712597
 30
0.0
 10
6.763285381394043
 20
4.380870127685303
 30
0.0
 10
6.765520870230636
 20
4.384237484806082
 30
0.0
 10
6.767430943548739
 20
4.387948596924004
 30
0.0
 10
6.769004894355695
 20
4.391881667377459
 30
0.0
 10
6.770209468733638
 20
4.395978817460488
 30
0.0
 10
6.771017591086516
 20
4.400158872125823
 30
0.0
 10
6.771365130754691
 20
4.403622269709691
 30
0.0
 10
6.771394697408172
 20
4.405653476390058
 30
0.0
 10
6.771404244350473
 20
4.406309344088845
 30
0.0
  0
SPLINE
  5
85
330
1F
100
AcDbEntity
  8
0
  6
Continuous
 62
     7
370
    15
100
AcDbSpline
210
0.0
220
0.0
230
1.0
 70
     8
 71
     3
 72
    10
 73
     6
 74
     0
 42
0.0000000001
 43
0.0000000001
 40
0.0
 40
0.0
 40
0.0
 40
0.0
 40
0.2301142499457173
 40
0.6662053437165709
 40
1.0
 40
1.0
 40
1.0
 40
1.0
 10
6.771404244350473
 20
4.406309344088845
 30
0.0
 10
6.771391688890578
 20
4.407029178907085
 30
0.0
 10
6.771355339492505
 20
4.409113177627799
 30
0.0
 10
6.771046866583255
 20
4.412170683895618
 30
0.0
 10
6.770512486455912
 20
4.414350033137007
 30
0.0
 10
6.770280798532192
 20
4.415294920259414
 30
0.0
  0
LINE
  5
86
330
1F
100
AcDbEntity
  8
0
  6
Continuous
 62
     7
370
    15
100
AcDbLine
 10
6.733502633007527
 20
4.372382383305761
 30
0.0
 11
6.740927260835338
 21
4.370393243454695
 31
0.0
  0
LINE
  5
87
330
1F
100
AcDbEntity
  8
0
  6
Continuous
 62
     7
370
    15
100
AcDbLine
 10
6.757101321366985
 20
4.430764174196943
 30
0.0
 11
6.749676693539175
 21
4.432753314048009
 31
0.0
  0
SPLINE
  5
88
330
1F
100
AcDbEntity
  8
0
  6
Continuous
 62
     7
370
    15
100
AcDbSpline
210
0.0
220
0.0
230
1.0
 70
     8
 71
     3
 72
     9
 73
     5
 74
     0
 42
0.0000000001
 43
0.0000000001
 40
0.0
 40
0.0
 40
0.0
 40
0.0
 40
0.474532168959519
 40
1.0
 40
1.0
 40
1.0
 40
1.0
 10
6.91313493590148
 20
4.005721963424049
 30
0.0
 10
6.913119183217902
 20
4.006123707542849
 30
0.0
 10
6.913085986978304
 20
4.006970318468472
 30
0.0
 10
6.912581116434454
 20
4.007702322197213
 30
0.0
 10
6.912315823204821
 20
4.008086966608868
 30
0.0
  0
SPLINE
  5
89
330
1F
100
AcDbEntity
  8
0
  6
Continuous
 62
     7
370
    15
100
AcDbSpline
210
0.0
220
0.0
230
1.0
 70
     8
 71
     3
 72
    10
 73
     6
 74
     0
 42
0.0000000001
 43
0.0000000001
 40
0.0
 40
0.0
 40
0.0
 40
0.0
 40
0.3062250606019086
 40
0.7671791518312432
 40
1.0
 40
1.0
 40
1.0
 40
1.0
 10
6.852363813494582
 20
4.008873262009311
 30
0.0
 10
6.852091261738952
 20
4.008641816723184
 30
0.0
 10
6.851408443604141
 20
4.008061981754888
 30
0.0
 10
6.850862832128745
 20
4.007166455301272
 30
0.0
 10
6.850791150030771
 20
4.00647670618818
 30
0.0
 10
6.85076709455413
 20
4.006245236349166
 30
0.0
  0
SPLINE
  5
8A
330
1F
100
AcDbEntity
  8
0
  6
Continuous
 62
     7
370
    15
100
AcDbSpline
210
0.0
220
0.0
230
1.0
 70
     8
 71
     3
 72
    10
 73
     6
 74
     0
 42
0.0000000001
 43
0.0000000001
 40
0.0
 40
0.0
 40
0.0
 40
0.0
 40
0.2901635177037953
 40
0.834678567568463
 40
1.0
 40
1.0
 40
1.0
 40
1.0
 10
6.912315823204821
 20
4.008086966608868
 30
0.0
 10
6.912111702635239
 20
4.008318074113395
 30
0.0
 10
6.911524533490136
 20
4.008982873335432
 30
0.0
 10
6.91061223731282
 20
4.009703330742798
 30
0.0
 10
6.909691970969845
 20
4.010153518079134
 30
0.0
 10
6.909477640269983
 20
4.010258367036832
 30
0.0
  0
LINE
  5
8B
330
1F
100
AcDbEntity
  8
0
  6
Continuous
 62
     7
370
    15
100
AcDbLine
 10
6.913172180612083
 20
3.995691298474032
 30
0.0
 11
6.913172180612083
 21
4.005807465834688
 31
0.0
  0
LINE
  5
8C
330
1F
100
AcDbEntity
  8
0
  6
Continuous
 62
     7
370
    15
100
AcDbLine
 10
6.850672199327608
 20
4.005807471565234
 30
0.0
 11
6.850672199327608
 21
3.995691304204578
 31
0.0
  0
SPLINE
  5
8D
330
1F
100
AcDbEntity
  8
0
  6
Continuous
 62
     7
370
    15
100
AcDbSpline
210
0.0
220
0.0
230
1.0
 70
     8
 71
     3
 72
    11
 73
     7
 74
     0
 42
0.0000000001
 43
0.0000000001
 40
0.0
 40
0.0
 40
0.0
 40
0.0
 40
0.2871620462864823
 40
0.6361131803698538
 40
0.9543004852324825
 40
1.0
 40
1.0
 40
1.0
 40
1.0
 10
6.910781977440104
 20
3.992053207854294
 30
0.0
 10
6.91117901331325
 20
3.992339279239141
 30
0.0
 10
6.912058515863306
 20
3.992972976417375
 30
0.0
 10
6.912804061045196
 20
3.994087532935719
 30
0.0
 10
6.913221558974226
 20
3.995044480774951
 30
0.0
 10
6.91314541165605
 20
3.995536693901703
 30
0.0
 10
6.91313584853009
 20
3.995598509553828
 30
0.0
  0
SPLINE
  5
8E
330
1F
100
AcDbEntity
  8
0
  6
Continuous
 62
     7
370
    15
100
AcDbSpline
210
0.0
220
0.0
230
1.0
 70
     8
 71
     3
 72
    12
 73
     8
 74
     0
 42
0.0000000001
 43
0.0000000001
 40
0.0
 40
0.0
 40
0.0
 40
0.0
 40
0.0550790882968251
 40
0.3330239854383248
 40
0.612518742815313
 40
0.9204234119543231
 40
1.0
 40
1.0
 40
1.0
 40
1.0
 10
6.850717146286624
 20
3.995807608612419
 30
0.0
 10
6.850700623642769
 20
3.995718862761769
 30
0.0
 10
6.850600722993048
 20
3.99518227986274
 30
0.0
 10
6.850965998592883
 20
3.994184139136896
 30
0.0
 10
6.851825098506636
 20
3.992983333234243
 30
0.0
 10
6.852742428050672
 20
3.99214277590305
 30
0.0
 10
6.853525276340964
 20
3.99171695043152
 30
0.0
 10
6.85368604900995
 20
3.991629499135492
 30
0.0
  0
SPLINE
  5
8F
330
1F
100
AcDbEntity
  8
0
  6
Continuous
 62
     7
370
    15
100
AcDbSpline
210
0.0
220
0.0
230
1.0
 70
     8
 71
     3
 72
    16
 73
    12
 74
     0
 42
0.0000000001
 43
0.0000000001
 40
0.0
 40
0.0
 40
0.0
 40
0.0
 40
0.0201293180684585
 40
0.1511689217371155
 40
0.2822433926852914
 40
0.4133007080777818
 40
0.5443366409332279
 40
0.6753670165118546
 40
0.806410612253879
 40
0.9374907934711208
 40
1.0
 40
1.0
 40
1.0
 40
1.0
 10
6.839837783599158
 20
4.567374966372502
 30
0.0
 10
6.83997672786571
 20
4.567507079273552
 30
0.0
 10
6.841020183728691
 20
4.568499232347559
 30
0.0
 10
6.842764174308948
 20
4.570766013317449
 30
0.0
 10
6.844999663203003
 20
4.574133370450725
 30
0.0
 10
6.846909736309327
 20
4.577844482522585
 30
0.0
 10
6.848483687905786
 20
4.581777553147759
 30
0.0
 10
6.849688259337566
 20
4.585874702589989
 30
0.0
 10
6.850496392687647
 20
4.590054759647244
 30
0.0
 10
6.850843898532508
 20
4.593518150569767
 30
0.0
 10
6.850873515549665
 20
4.595549368902784
 30
0.0
 10
6.850883078761077
 20
4.596205240837512
 30
0.0
  0
SPLINE
  5
90
330
1F
100
AcDbEntity
  8
0
  6
Continuous
 62
     7
370
    15
100
AcDbSpline
210
0.0
220
0.0
230
1.0
 70
     8
 71
     3
 72
    10
 73
     6
 74
     0
 42
0.0000000001
 43
0.0000000001
 40
0.0
 40
0.0
 40
0.0
 40
0.0
 40
0.2301143949839982
 40
0.6662054065999313
 40
1.0
 40
1.0
 40
1.0
 40
1.0
 10
6.850883078761077
 20
4.596205240837512
 30
0.0
 10
6.850870506853297
 20
4.596925071136586
 30
0.0
 10
6.850834109856341
 20
4.599009055657026
 30
0.0
 10
6.850525664695264
 20
4.602066571141576
 30
0.0
 10
6.849991280951394
 20
4.604245919259139
 30
0.0
 10
6.84975959145968
 20
4.605190805894296
 30
0.0
  0
LINE
  5
91
330
1F
100
AcDbEntity
  8
0
  6
Continuous
 62
     7
370
    15
100
AcDbLine
 10
6.812981425935012
 20
4.562278268940643
 30
0.0
 11
6.820406053762823
 21
4.560289129089577
 31
0.0
  0
LINE
  5
92
330
1F
100
AcDbEntity
  8
0
  6
Continuous
 62
     7
370
    15
100
AcDbLine
 10
6.836580114294472
 20
4.620660059831824
 30
0.0
 11
6.829155486466661
 21
4.622649199682891
 31
0.0
  0
SPLINE
  5
93
330
1F
100
AcDbEntity
  8
0
  6
Continuous
 62
     7
370
    15
100
AcDbSpline
210
0.0
220
0.0
230
1.0
 70
     8
 71
     3
 72
     9
 73
     5
 74
     0
 42
0.0000000001
 43
0.0000000001
 40
0.0
 40
0.0
 40
0.0
 40
0.0
 40
0.4745344977699963
 40
1.0
 40
1.0
 40
1.0
 40
1.0
 10
6.842424245673903
 20
4.034138218531626
 30
0.0
 10
6.842408512469919
 20
4.034539966015657
 30
0.0
 10
6.842375357443136
 20
4.035386579878124
 30
0.0
 10
6.841870471836519
 20
4.03611858833396
 30
0.0
 10
6.841605171867668
 20
4.036503233524842
 30
0.0
  0
SPLINE
  5
94
330
1F
100
AcDbEntity
  8
0
  6
Continuous
 62
     7
370
    15
100
AcDbSpline
210
0.0
220
0.0
230
1.0
 70
     8
 71
     3
 72
    10
 73
     6
 74
     0
 42
0.0000000001
 43
0.0000000001
 40
0.0
 40
0.0
 40
0.0
 40
0.0
 40
0.3062182680223606
 40
0.767178231138494
 40
1.0
 40
1.0
 40
1.0
 40
1.0
 10
6.781653125859699
 20
4.037289516422276
 30
0.0
 10
6.781380591826061
 20
4.037058074214618
 30
0.0
 10
6.780697803763802
 20
4.036478234792797
 30
0.0
 10
6.780152128490515
 20
4.035582716646864
 30
0.0
 10
6.780080460210958
 20
4.034892960811513
 30
0.0
 10
6.780056409511942
 20
4.034661490067519
 30
0.0
  0
SPLINE
  5
95
330
1F
100
AcDbEntity
  8
0
  6
Continuous
 62
     7
370
    15
100
AcDbSpline
210
0.0
220
0.0
230
1.0
 70
     8
 71
     3
 72
    10
 73
     6
 74
     0
 42
0.0000000001
 43
0.0000000001
 40
0.0
 40
0.0
 40
0.0
 40
0.0
 40
0.290163583542098
 40
0.834678756957607
 40
1.0
 40
1.0
 40
1.0
 40
1.0
 10
6.841605171867668
 20
4.036503233524842
 30
0.0
 10
6.841401051315631
 20
4.036734341032929
 30
0.0
 10
6.840813882220997
 20
4.037399140265206
 30
0.0
 10
6.83990158578934
 20
4.0381195974155
 30
0.0
 10
6.838981320465929
 20
4.038569784756989
 30
0.0
 10
6.838766990229178
 20
4.038674633605501
 30
0.0
  0
LINE
  5
96
330
1F
100
AcDbEntity
  8
0
  6
Continuous
 62
     7
370
    15
100
AcDbLine
 10
6.842461528626757
 20
4.024107565563659
 30
0.0
 11
6.842461528626757
 21
4.034223732924315
 31
0.0
  0
LINE
  5
97
330
1F
100
AcDbEntity
  8
0
  6
Continuous
 62
     7
370
    15
100
AcDbLine
 10
6.779961506507336
 20
4.034223727367423
 30
0.0
 11
6.779961506507336
 21
4.024107560006767
 31
0.0
  0
SPLINE
  5
98
330
1F
100
AcDbEntity
  8
0
  6
Continuous
 62
     7
370
    15
100
AcDbSpline
210
0.0
220
0.0
230
1.0
 70
     8
 71
     3
 72
    11
 73
     7
 74
     0
 42
0.0000000001
 43
0.0000000001
 40
0.0
 40
0.0
 40
0.0
 40
0.0
 40
0.287161038544888
 40
0.6361111487000813
 40
0.9542975038855271
 40
1.0
 40
1.0
 40
1.0
 40
1.0
 10
6.84007129207383
 20
4.020469461659475
 30
0.0
 10
6.840468324431156
 20
4.020755533375862
 30
0.0
 10
6.841347819470487
 20
4.021389231488404
 30
0.0
 10
6.842093418790941
 20
4.022503785463509
 30
0.0
 10
6.842510759777802
 20
4.023460747371197
 30
0.0
 10
6.842434746630882
 20
4.02395295688878
 30
0.0
 10
6.842425199785631
 20
4.02401477577519
 30
0.0
  0
SPLINE
  5
99
330
1F
100
AcDbEntity
  8
0
  6
Continuous
 62
     7
370
    15
100
AcDbSpline
210
0.0
220
0.0
230
1.0
 70
     8
 71
     3
 72
    12
 73
     8
 74
     0
 42
0.0000000001
 43
0.0000000001
 40
0.0
 40
0.0
 40
0.0
 40
0.0
 40
0.0550792897353551
 40
0.3330240505266202
 40
0.6125172346085377
 40
0.9204233892654647
 40
1.0
 40
1.0
 40
1.0
 40
1.0
 10
6.780006453466352
 20
4.024223864414606
 30
0.0
 10
6.779989931913511
 20
4.024135118349053
 30
0.0
 10
6.779890038206185
 20
4.023598536008198
 30
0.0
 10
6.780255276057475
 20
4.022600395684396
 30
0.0
 10
6.781114502585249
 20
4.021399596686817
 30
0.0
 10
6.782031729832939
 20
4.020559032180872
 30
0.0
 10
6.782814585233173
 20
4.020133205476772
 30
0.0
 10
6.782975358782373
 20
4.020045754243068
 30
0.0
  0
SPLINE
  5
9A
330
1F
100
AcDbEntity
  8
0
  6
Continuous
 62
     7
370
    15
100
AcDbSpline
210
0.0
220
0.0
230
1.0
 70
     8
 71
     3
 72
     9
 73
     5
 74
     0
 42
0.0000000001
 43
0.0000000001
 40
0.0
 40
0.0
 40
0.0
 40
0.0
 40
0.4745352461012997
 40
1.0
 40
1.0
 40
1.0
 40
1.0
 10
7.027969056442064
 20
4.027015207138923
 30
0.0
 10
7.027953321683338
 20
4.027416954852109
 30
0.0
 10
7.027920163432495
 20
4.028263567862391
 30
0.0
 10
7.027415282410497
 20
4.028995576630396
 30
0.0
 10
7.027149985228524
 20
4.029380221437528
 30
0.0
  0
SPLINE
  5
9B
330
1F
100
AcDbEntity
  8
0
  6
Continuous
 62
     7
370
    15
100
AcDbSpline
210
0.0
220
0.0
230
1.0
 70
     8
 71
     3
 72
    10
 73
     6
 74
     0
 42
0.0000000001
 43
0.0000000001
 40
0.0
 40
0.0
 40
0.0
 40
0.0
 40
0.3062206108811805
 40
0.7671773705790641
 40
1.0
 40
1.0
 40
1.0
 40
1.0
 10
6.967197932090644
 20
4.030166506245144
 30
0.0
 10
6.966925397818997
 20
4.029935063928051
 30
0.0
 10
6.966242615150274
 20
4.029355229318755
 30
0.0
 10
6.965696988519466
 20
4.028459710212805
 30
0.0
 10
6.965625311146691
 20
4.027769961122018
 30
0.0
 10
6.965601257226006
 20
4.027538491004174
 30
0.0
  0
SPLINE
  5
9C
330
1F
100
AcDbEntity
  8
0
  6
Continuous
 62
     7
370
    15
100
AcDbSpline
210
0.0
220
0.0
230
1.0
 70
     8
 71
     3
 72
    10
 73
     6
 74
     0
 42
0.0000000001
 43
0.0000000001
 40
0.0
 40
0.0
 40
0.0
 40
0.0
 40
0.290163575231363
 40
0.8346785121060356
 40
1.0
 40
1.0
 40
1.0
 40
1.0
 10
7.027149985228524
 20
4.029380221437528
 30
0.0
 10
7.026945864408787
 20
4.029611328994827
 30
0.0
 10
7.026358694699525
 20
4.03027612819269
 30
0.0
 10
7.025446398910284
 20
4.030996585811255
 30
0.0
 10
7.024526132213273
 20
4.031446773124542
 30
0.0
 10
7.024311801341681
 20
4.031551622120545
 30
0.0
  0
LINE
  5
9D
330
1F
100
AcDbEntity
  8
0
  6
Continuous
 62
     7
370
    15
100
AcDbLine
 10
7.028006341987612
 20
4.016984553476345
 30
0.0
 11
7.028006341987612
 21
4.027100720837001
 31
0.0
  0
LINE
  5
9E
330
1F
100
AcDbEntity
  8
0
  6
Continuous
 62
     7
370
    15
100
AcDbLine
 10
6.965506320516365
 20
4.027100715106455
 30
0.0
 11
6.965506320516365
 21
4.016984547745799
 31
0.0
  0
SPLINE
  5
9F
330
1F
100
AcDbEntity
  8
0
  6
Continuous
 62
     7
370
    15
100
AcDbSpline
210
0.0
220
0.0
230
1.0
 70
     8
 71
     3
 72
    11
 73
     7
 74
     0
 42
0.0000000001
 43
0.0000000001
 40
0.0
 40
0.0
 40
0.0
 40
0.0
 40
0.2871606821864712
 40
0.6361148435691469
 40
0.9543006941089696
 40
0.9999999999999998
 40
0.9999999999999998
 40
0.9999999999999998
 40
0.9999999999999998
 10
7.025616097008428
 20
4.013346451829648
 30
0.0
 10
7.026013130588618
 20
4.013632523608787
 30
0.0
 10
7.026892634536832
 20
4.014266226327597
 30
0.0
 10
7.027638229373439
 20
4.015380780276285
 30
0.0
 10
7.028055720101003
 20
4.016337735814773
 30
0.0
 10
7.027979573003824
 20
4.016829948908202
 30
0.0
 10
7.027970009905619
 20
4.016891764556141
 30
0.0
  0
SPLINE
  5
A0
330
1F
100
AcDbEntity
  8
0
  6
Continuous
 62
     7
370
    15
100
AcDbSpline
210
0.0
220
0.0
230
1.0
 70
     8
 71
     3
 72
    12
 73
     8
 74
     0
 42
0.0000000001
 43
0.0000000001
 40
0.0
 40
0.0
 40
0.0
 40
0.0
 40
0.0550756915038842
 40
0.333024290609421
 40
0.6125173243816232
 40
0.920424482009748
 40
1.0
 40
1.0
 40
1.0
 40
1.0
 10
6.965551267475382
 20
4.01710085215364
 30
0.0
 10
6.965534759754257
 20
4.017012110059114
 30
0.0
 10
6.965434943084383
 20
4.016475516286623
 30
0.0
 10
6.965800045430037
 20
4.01547739369811
 30
0.0
 10
6.966659339616753
 20
4.014276585767839
 30
0.0
 10
6.967576477379801
 20
4.013436015206663
 30
0.0
 10
6.968359421983762
 20
4.013010201229842
 30
0.0
 10
6.968520211681827
 20
4.012922753790499
 30
0.0
  0
LINE
  5
A1
330
1F
100
AcDbEntity
  8
0
  6
Continuous
 62
     7
370
    15
100
AcDbLine
 10
6.541367325941673
 20
4.215978519705413
 30
0.0
 11
6.533942718855423
 21
4.21398938541124
 31
0.0
  0
LINE
  5
A2
330
1F
100
AcDbEntity
  8
0
  6
Continuous
 62
     7
370
    15
100
AcDbLine
 10
6.550116758645511
 20
4.153618431965198
 30
0.0
 11
6.557541365731762
 21
4.15560756625937
 31
0.0
  0
SPLINE
  5
A3
330
1F
100
AcDbEntity
  8
0
  6
Continuous
 62
     7
370
    15
100
AcDbSpline
210
0.0
220
0.0
230
1.0
 70
     8
 71
     3
 72
    13
 73
     9
 74
     0
 42
0.0000000001
 43
0.0000000001
 40
0.0
 40
0.0
 40
0.0
 40
0.0
 40
0.1093585079546187
 40
0.3083276677973873
 40
0.5073010901621558
 40
0.7062427049064465
 40
0.9051581992420631
 40
0.9999999999999998
 40
0.9999999999999998
 40
0.9999999999999998
 40
0.9999999999999998
 10
6.570819676427066
 20
4.171537208471812
 30
0.0
 10
6.570990790853441
 20
4.172212116542909
 30
0.0
 10
6.571473234451087
 20
4.174114966494236
 30
0.0
 10
6.571820896504397
 20
4.177508869080654
 30
0.0
 10
6.571887966147752
 20
4.181608342871188
 30
0.0
 10
6.57151558014571
 20
4.185795304771585
 30
0.0
 10
6.570890483499286
 20
4.189254609127863
 30
0.0
 10
6.570349972475397
 20
4.191280110315736
 30
0.0
 10
6.570175464336564
 20
4.19193405894375
 30
0.0
  0
SPLINE
  5
A4
330
1F
100
AcDbEntity
  8
0
  6
Continuous
 62
     7
370
    15
100
AcDbSpline
210
0.0
220
0.0
230
1.0
 70
     8
 71
     3
 72
    13
 73
     9
 74
     0
 42
0.0000000001
 43
0.0000000001
 40
0.0
 40
0.0
 40
0.0
 40
0.0
 40
0.0867764279047044
 40
0.3017844964504681
 40
0.5169832006208399
 40
0.7322922444822179
 40
0.9477382149240357
 40
1.0
 40
1.0
 40
1.0
 40
1.0
 10
6.570019902641766
 20
4.192438704125063
 30
0.0
 10
6.569855773396371
 20
4.192987135981145
 30
0.0
 10
6.569284977122887
 20
4.194894430802118
 30
0.0
 10
6.568031336687007
 20
4.198054843863341
 30
0.0
 10
6.566158281890951
 20
4.201792769591178
 30
0.0
 10
6.563948356214982
 20
4.205198879839163
 30
0.0
 10
6.562142651785909
 20
4.207576646511526
 30
0.0
 10
6.561021980938069
 20
4.208659152155255
 30
0.0
 10
6.560803204089869
 20
4.208870478409837
 30
0.0
  0
LINE
  5
A5
330
1F
100
AcDbEntity
  8
0
  6
Continuous
 62
     7
370
    15
100
AcDbLine
 10
6.570175464336564
 20
4.19193405894375
 30
0.0
 11
6.570019902641766
 21
4.192438704125063
 31
0.0
  0
LINE
  5
A6
330
1F
100
AcDbEntity
  8
0
  6
Continuous
 62
     7
370
    15
100
AcDbLine
 10
6.466272572697016
 20
3.995236313647213
 30
0.0
 11
6.458847965610764
 21
3.993247179353041
 31
0.0
  0
LINE
  5
A7
330
1F
100
AcDbEntity
  8
0
  6
Continuous
 62
     7
370
    15
100
AcDbLine
 10
6.475022026142412
 20
3.932876238013035
 30
0.0
 11
6.482446633228664
 21
3.934865372307208
 31
0.0
  0
SPLINE
  5
A8
330
1F
100
AcDbEntity
  8
0
  6
Continuous
 62
     7
370
    15
100
AcDbSpline
210
0.0
220
0.0
230
1.0
 70
     8
 71
     3
 72
    13
 73
     9
 74
     0
 42
0.0000000001
 43
0.0000000001
 40
0.0
 40
0.0
 40
0.0
 40
0.0
 40
0.1093587492928867
 40
0.3083283552021898
 40
0.5073017461563535
 40
0.7062431607669279
 40
0.9051587737824375
 40
1.0
 40
1.0
 40
1.0
 40
1.0
 10
6.495724943923967
 20
3.950794993324135
 30
0.0
 10
6.495896059310021
 20
3.951469902140273
 30
0.0
 10
6.496378505624311
 20
3.953372754235207
 30
0.0
 10
6.496726134146939
 20
3.956766674151964
 30
0.0
 10
6.496793217721016
 20
3.960866141921672
 30
0.0
 10
6.496420816792658
 20
3.965053100300761
 30
0.0
 10
6.495795757107827
 20
3.968512401019117
 30
0.0
 10
6.495255240869474
 20
3.97053789644311
 30
0.0
 10
6.495080731833466
 20
3.971191840263486
 30
0.0
  0
SPLINE
  5
A9
330
1F
100
AcDbEntity
  8
0
  6
Continuous
 62
     7
370
    15
100
AcDbSpline
210
0.0
220
0.0
230
1.0
 70
     8
 71
     3
 72
    13
 73
     9
 74
     0
 42
0.0000000001
 43
0.0000000001
 40
0.0
 40
0.0
 40
0.0
 40
0.0
 40
0.0867770789760922
 40
0.3017852052578336
 40
0.5169832247558701
 40
0.7322927256830489
 40
0.9477391820843344
 40
1.0
 40
1.0
 40
1.0
 40
1.0
 10
6.494925170138666
 20
3.97169649250997
 30
0.0
 10
6.494761041781091
 20
3.972244929509016
 30
0.0
 10
6.494190251537125
 20
3.974152232385311
 30
0.0
 10
6.492936571975724
 20
3.977312626168815
 30
0.0
 10
6.491063549117479
 20
3.981050569668997
 30
0.0
 10
6.488853633828297
 20
3.98445671002808
 30
0.0
 10
6.487047892395358
 20
3.986834406643858
 30
0.0
 10
6.485927240984999
 20
3.987916950702298
 30
0.0
 10
6.485708471586771
 20
3.988128280925088
 30
0.0
  0
LINE
  5
AA
330
1F
100
AcDbEntity
  8
0
  6
Continuous
 62
     7
370
    15
100
AcDbLine
 10
6.495080731833466
 20
3.971191840263486
 30
0.0
 11
6.494925170138666
 21
3.97169649250997
 31
0.0
  0
SPLINE
  5
AB
330
1F
100
AcDbEntity
  8
0
  6
Continuous
 62
     7
370
    15
100
AcDbSpline
210
0.0
220
0.0
230
1.0
 70
     8
 71
     3
 72
    12
 73
     8
 74
     0
 42
0.0000000001
 43
0.0000000001
 40
0.0
 40
0.0
 40
0.0
 40
0.0
 40
0.112929754272355
 40
0.3270040544987877
 40
0.5450052247003863
 40
0.7865091080676799
 40
1.0
 40
1.0
 40
1.0
 40
1.0
 10
4.541916456115851
 20
4.645473105070074
 30
0.0
 10
4.541953866872423
 20
4.645710598215253
 30
0.0
 10
4.54206219500224
 20
4.646398293162343
 30
0.0
 10
4.541625647731262
 20
4.64752343278146
 30
0.0
 10
4.540703184202728
 20
4.648714432274349
 30
0.0
 10
4.539383762851476
 20
4.649777714709934
 30
0.0
 10
4.538121935145886
 20
4.650407665378313
 30
0.0
 10
4.537529865221229
 20
4.650703248398969
 30
0.0
  0
LINE
  5
AC
330
1F
100
AcDbEntity
  8
0
  6
Continuous
 62
     7
370
    15
100
AcDbLine
 10
4.542002741002566
 20
4.635727746172528
 30
0.0
 11
4.542002741002566
 21
4.645843913533184
 31
0.0
  0
SPLINE
  5
AD
330
1F
100
AcDbEntity
  8
0
  6
Continuous
 62
     7
370
    15
100
AcDbSpline
210
0.0
220
0.0
230
1.0
 70
     8
 71
     3
 72
    11
 73
     7
 74
     0
 42
0.0000000001
 43
0.0000000001
 40
0.0
 40
0.0
 40
0.0
 40
0.0
 40
0.195935833695902
 40
0.5578141019444204
 40
0.8543571419387479
 40
1.0
 40
1.0
 40
1.0
 40
1.0
 10
4.538881841539948
 20
4.631615352364451
 30
0.0
 10
4.539234185566791
 20
4.631820423499999
 30
0.0
 10
4.540237281647796
 20
4.632404245096861
 30
0.0
 10
4.541208720818885
 20
4.633439874596306
 30
0.0
 10
4.541891038399192
 20
4.634548252964054
 30
0.0
 10
4.541916773997735
 20
4.635225349703659
 30
0.0
 10
4.541925250536998
 20
4.635448365192787
 30
0.0
  0
LINE
  5
AE
330
1F
100
AcDbEntity
  8
0
  6
Continuous
 62
     7
370
    15
100
AcDbLine
 10
1.843491112368014
 20
5.197275899072066
 30
0.0
 11
1.850915926869858
 21
5.195286709208964
 31
0.0
  0
LINE
  5
AF
330
1F
100
AcDbEntity
  8
0
  6
Continuous
 62
     7
370
    15
100
AcDbLine
 10
1.867090028884625
 20
5.255657665195342
 30
0.0
 11
1.859665214382781
 21
5.257646855058444
 31
0.0
  0
SPLINE
  5
B0
330
1F
100
AcDbEntity
  8
0
  6
Continuous
 62
     7
370
    15
100
AcDbSpline
210
0.0
220
0.0
230
1.0
 70
     8
 71
     3
 72
    16
 73
    12
 74
     0
 42
0.0000000001
 43
0.0000000001
 40
0.0
 40
0.0
 40
0.0
 40
0.0
 40
0.0940457471972184
 40
0.2151988700271452
 40
0.3363858714207912
 40
0.4575573136749687
 40
0.5787098725647528
 40
0.6998550413159285
 40
0.8210147766995291
 40
0.9422062166539475
 40
1.0
 40
1.0
 40
1.0
 40
1.0
 10
1.84191525165814
 20
5.252183422092505
 30
0.0
 10
1.841206109654936
 20
5.251529990289728
 30
0.0
 10
1.839583425351539
 20
5.250034784075857
 30
0.0
 10
1.837298917389553
 20
5.24718687701177
 30
0.0
 10
1.835073853915349
 20
5.24379809774834
 30
0.0
 10
1.833160934456727
 20
5.240092717319251
 30
0.0
 10
1.831588072984576
 20
5.236158024022258
 30
0.0
 10
1.830383052681917
 20
5.232061331978516
 30
0.0
 10
1.829574796138323
 20
5.22788121089005
 30
0.0
 10
1.829227186102835
 20
5.224417835674086
 30
0.0
 10
1.829197864618189
 20
5.222386596835359
 30
0.0
 10
1.829188396800119
 20
5.221730716002267
 30
0.0
  0
SPLINE
  5
B1
330
1F
100
AcDbEntity
  8
0
  6
Continuous
 62
     7
370
    15
100
AcDbSpline
210
0.0
220
0.0
230
1.0
 70
     8
 71
     3
 72
    10
 73
     6
 74
     0
 42
0.0000000001
 43
0.0000000001
 40
0.0
 40
0.0
 40
0.0
 40
0.0
 40
0.2214126190641315
 40
0.6410042923358624
 40
1.0
 40
1.0
 40
1.0
 40
1.0
 10
1.829188396800119
 20
5.221730716002266
 30
0.0
 10
1.82920078377041
 20
5.221010783382206
 30
0.0
 10
1.829236644875156
 20
5.218926530453885
 30
0.0
 10
1.829562814310784
 20
5.215751959407788
 30
0.0
 10
1.830126969130573
 20
5.213462903510786
 30
0.0
 10
1.830387092995563
 20
5.212407451981839
 30
0.0
  0
LINE
  5
B2
330
1F
100
AcDbEntity
  8
0
  6
Continuous
 62
     7
370
    15
100
AcDbLine
 10
6.541367325941673
 20
3.830601053440663
 30
0.0
 11
6.533942718855423
 21
3.82861191914649
 31
0.0
  0
LINE
  5
B3
330
1F
100
AcDbEntity
  8
0
  6
Continuous
 62
     7
370
    15
100
AcDbLine
 10
6.550116758645511
 20
3.768240983363377
 30
0.0
 11
6.557541365731762
 21
3.77023011765755
 31
0.0
  0
SPLINE
  5
B4
330
1F
100
AcDbEntity
  8
0
  6
Continuous
 62
     7
370
    15
100
AcDbSpline
210
0.0
220
0.0
230
1.0
 70
     8
 71
     3
 72
    13
 73
     9
 74
     0
 42
0.0000000001
 43
0.0000000001
 40
0.0
 40
0.0
 40
0.0
 40
0.0
 40
0.1093585402775444
 40
0.3083284366726881
 40
0.5073015752498293
 40
0.7062432487949867
 40
0.9051591330376545
 40
0.9999999999999998
 40
0.9999999999999998
 40
0.9999999999999998
 40
0.9999999999999998
 10
6.570819676427066
 20
3.786159738674476
 30
0.0
 10
6.570990790900925
 20
3.786834646730488
 30
0.0
 10
6.571473235692921
 20
3.788737500821989
 30
0.0
 10
6.571820895352427
 20
3.792131406750762
 30
0.0
 10
6.571887966704529
 20
3.796230882523529
 30
0.0
 10
6.571515578136129
 20
3.800417844061847
 30
0.0
 10
6.570890488831521
 20
3.803877145247911
 30
0.0
 10
6.570349972722181
 20
3.805902640573719
 30
0.0
 10
6.570175464336564
 20
3.806556582081242
 30
0.0
  0
SPLINE
  5
B5
330
1F
100
AcDbEntity
  8
0
  6
Continuous
 62
     7
370
    15
100
AcDbSpline
210
0.0
220
0.0
230
1.0
 70
     8
 71
     3
 72
    13
 73
     9
 74
     0
 42
0.0000000001
 43
0.0000000001
 40
0.0
 40
0.0
 40
0.0
 40
0.0
 40
0.0867770515443641
 40
0.3017843572845273
 40
0.5169832275229314
 40
0.7322926603870714
 40
0.9477380695483052
 40
1.0
 40
1.0
 40
1.0
 40
1.0
 10
6.570019902641766
 20
3.807061234327726
 30
0.0
 10
6.56985577380036
 20
3.807609671055745
 30
0.0
 10
6.56928498329718
 20
3.809516968233174
 30
0.0
 10
6.568031331211329
 20
3.812677378530732
 30
0.0
 10
6.566158280133469
 20
3.816415305495043
 30
0.0
 10
6.563948364353778
 20
3.819821434181059
 30
0.0
 10
6.56214264609696
 20
3.822199179527929
 30
0.0
 10
6.56102198080241
 20
3.823281693873357
 30
0.0
 10
6.56080320408987
 20
3.823493022742844
 30
0.0
  0
LINE
  5
B6
330
1F
100
AcDbEntity
  8
0
  6
Continuous
 62
     7
370
    15
100
AcDbLine
 10
6.570175464336564
 20
3.806556582081242
 30
0.0
 11
6.570019902641766
 21
3.807061234327726
 31
0.0
  0
LINE
  5
B7
330
1F
100
AcDbEntity
  8
0
  6
Continuous
 62
     7
370
    15
100
AcDbLine
 10
6.550135446790448
 20
3.939953636390467
 30
0.0
 11
6.542710839704196
 21
3.937964502096294
 31
0.0
  0
LINE
  5
B8
330
1F
100
AcDbEntity
  8
0
  6
Continuous
 62
     7
370
    15
100
AcDbLine
 10
6.558884879494286
 20
3.877593561455876
 30
0.0
 11
6.566309486580537
 21
3.879582695750049
 31
0.0
  0
SPLINE
  5
B9
330
1F
100
AcDbEntity
  8
0
  6
Continuous
 62
     7
370
    15
100
AcDbSpline
210
0.0
220
0.0
230
1.0
 70
     8
 71
     3
 72
    13
 73
     9
 74
     0
 42
0.0000000001
 43
0.0000000001
 40
0.0
 40
0.0
 40
0.0
 40
0.0
 40
0.1093587316535839
 40
0.3083285075961452
 40
0.5073018664563804
 40
0.7062433339781108
 40
0.9051594327477957
 40
1.0
 40
1.0
 40
1.0
 40
1.0
 10
6.579587797275839
 20
3.895512316325402
 30
0.0
 10
6.579758911713375
 20
3.896187225573654
 30
0.0
 10
6.580241355669662
 20
3.898090080134326
 30
0.0
 10
6.580589016855146
 20
3.901483986625555
 30
0.0
 10
6.580656086733625
 20
3.905583460527909
 30
0.0
 10
6.58028370214825
 20
3.909770423846152
 30
0.0
 10
6.579658598986084
 20
3.913229718435823
 30
0.0
 10
6.579118106261712
 20
3.915255218359202
 30
0.0
 10
6.578943605926897
 20
3.915909159474153
 30
0.0
  0
SPLINE
  5
BA
330
1F
100
AcDbEntity
  8
0
  6
Continuous
 62
     7
370
    15
100
AcDbSpline
210
0.0
220
0.0
230
1.0
 70
     8
 71
     3
 72
    13
 73
     9
 74
     0
 42
0.0000000001
 43
0.0000000001
 40
0.0
 40
0.0
 40
0.0
 40
0.0
 40
0.086777153999525
 40
0.3017847135926102
 40
0.5169839832506868
 40
0.7322936703244615
 40
0.9477392247248019
 40
1.0
 40
1.0
 40
1.0
 40
1.0
 10
6.578788023490538
 20
3.916413813744945
 30
0.0
 10
6.578623894654234
 20
3.916962250470643
 30
0.0
 10
6.578053104168797
 20
3.918869547640003
 30
0.0
 10
6.576799451443792
 20
3.922029958956447
 30
0.0
 10
6.574926401066744
 20
3.925767886134222
 30
0.0
 10
6.572716488652605
 20
3.929174023541921
 30
0.0
 10
6.570910764195714
 20
3.931551737434764
 30
0.0
 10
6.569790115200428
 20
3.932634271324739
 30
0.0
 10
6.569571345680202
 20
3.932845600135756
 30
0.0
  0
LINE
  5
BB
330
1F
100
AcDbEntity
  8
0
  6
Continuous
 62
     7
370
    15
100
AcDbLine
 10
6.578943605926897
 20
3.915909159474153
 30
0.0
 11
6.578788023490538
 21
3.916413813744945
 31
0.0
  0
LINE
  5
BC
330
1F
100
AcDbEntity
  8
0
  6
Continuous
 62
     7
370
    15
100
AcDbLine
 10
4.492822637146417
 20
5.012922735442122
 30
0.0
 11
4.500247285715786
 21
5.010933590034165
 31
0.0
  0
LINE
  5
BD
330
1F
100
AcDbEntity
  8
0
  6
Continuous
 62
     7
370
    15
100
AcDbLine
 10
4.516421346247436
 20
5.071304520776412
 30
0.0
 11
4.51604733445002
 21
5.071404722670468
 31
0.0
  0
LINE
  5
BE
330
1F
100
AcDbEntity
  8
0
  6
Continuous
 62
     7
370
    15
100
AcDbLine
 10
4.441326613744336
 20
5.219788450622479
 30
0.0
 11
4.433901965174967
 21
5.221777596030437
 31
0.0
  0
SPLINE
  5
BF
330
1F
100
AcDbEntity
  8
0
  6
Continuous
 62
     7
370
    15
100
AcDbSpline
210
0.0
220
0.0
230
1.0
 70
     8
 71
     3
 72
    13
 73
     9
 74
     0
 42
0.0000000001
 43
0.0000000001
 40
0.0
 40
0.0
 40
0.0
 40
0.0
 40
0.1464071246713226
 40
0.3350154421550116
 40
0.5236759838878573
 40
0.7123118572311373
 40
0.900920544128512
 40
1.0
 40
1.0
 40
1.0
 40
1.0
 10
4.416151836517851
 20
5.216314221649985
 30
0.0
 10
4.415442728608926
 20
5.215660793979655
 30
0.0
 10
4.413820115637206
 20
5.214165591062561
 30
0.0
 10
4.411536241830164
 20
5.211317450460285
 30
0.0
 10
4.40930743683629
 20
5.207929877355109
 30
0.0
 10
4.407409786230249
 20
5.204219649942879
 30
0.0
 10
4.406037457158189
 20
5.200922717565767
 30
0.0
 10
4.405455790916834
 20
5.198835412441683
 30
0.0
 10
4.405255465751752
 20
5.198116547027413
 30
0.0
  0
LINE
  5
C0
330
1F
100
AcDbEntity
  8
0
  6
Continuous
 62
     7
370
    15
100
AcDbLine
 10
4.488438618205148
 20
4.380603342937212
 30
0.0
 11
4.481014011118896
 21
4.378614208643039
 31
0.0
  0
LINE
  5
C1
330
1F
100
AcDbEntity
  8
0
  6
Continuous
 62
     7
370
    15
100
AcDbLine
 10
4.497188113133664
 20
4.318243256189247
 30
0.0
 11
4.504612720219916
 21
4.32023239048342
 31
0.0
  0
SPLINE
  5
C2
330
1F
100
AcDbEntity
  8
0
  6
Continuous
 62
     7
370
    15
100
AcDbSpline
210
0.0
220
0.0
230
1.0
 70
     8
 71
     3
 72
    13
 73
     9
 74
     0
 42
0.0000000001
 43
0.0000000001
 40
0.0
 40
0.0
 40
0.0
 40
0.0
 40
0.1093565547971266
 40
0.3083271377310585
 40
0.50730015424773
 40
0.7062415364057534
 40
0.9051587078371557
 40
0.9999999999999998
 40
0.9999999999999998
 40
0.9999999999999998
 40
0.9999999999999998
 10
4.517891010173659
 20
4.336162017057239
 30
0.0
 10
4.518062079772753
 20
4.336836940428233
 30
0.0
 10
4.518544404768626
 20
4.338739864231498
 30
0.0
 10
4.51889225974261
 20
4.342133659459248
 30
0.0
 10
4.518959252333381
 20
4.346233172381109
 30
0.0
 10
4.518586948483166
 20
4.350420132848935
 30
0.0
 10
4.517961739862773
 20
4.353879441403142
 30
0.0
 10
4.517421207706821
 20
4.355904944962794
 30
0.0
 10
4.517246694375361
 20
4.35655888824847
 30
0.0
  0
SPLINE
  5
C3
330
1F
100
AcDbEntity
  8
0
  6
Continuous
 62
     7
370
    15
100
AcDbSpline
210
0.0
220
0.0
230
1.0
 70
     8
 71
     3
 72
    13
 73
     9
 74
     0
 42
0.0000000001
 43
0.0000000001
 40
0.0
 40
0.0
 40
0.0
 40
0.0
 40
0.0867764757594539
 40
0.3017838813777391
 40
0.5169828515832533
 40
0.7322902485348163
 40
0.9477393499728316
 40
1.0
 40
1.0
 40
1.0
 40
1.0
 10
4.51709117416368
 20
4.357063529381169
 30
0.0
 10
4.516927053039469
 20
4.357611964488622
 30
0.0
 10
4.516356286487281
 20
4.359519265677826
 30
0.0
 10
4.515102621642485
 20
4.362679670047799
 30
0.0
 10
4.513229569941316
 20
4.366417569802601
 30
0.0
 10
4.511019695973811
 20
4.369823769946082
 30
0.0
 10
4.509213930217758
 20
4.372201437882931
 30
0.0
 10
4.5080932656023
 20
4.373283984208404
 30
0.0
 10
4.507874496353344
 20
4.373495312239393
 30
0.0
  0
LINE
  5
C4
330
1F
100
AcDbEntity
  8
0
  6
Continuous
 62
     7
370
    15
100
AcDbLine
 10
4.517246694375361
 20
4.35655888824847
 30
0.0
 11
4.51709117416368
 21
4.357063529381169
 31
0.0
  0
LINE
  5
C5
330
1F
100
AcDbEntity
  8
0
  6
Continuous
 62
     7
370
    15
100
AcDbLine
 10
4.408959783794544
 20
4.546413146940399
 30
0.0
 11
4.401535176708293
 21
4.544424012646227
 31
0.0
  0
LINE
  5
C6
330
1F
100
AcDbEntity
  8
0
  6
Continuous
 62
     7
370
    15
100
AcDbLine
 10
4.41770927872306
 20
4.484053060192435
 30
0.0
 11
4.425133885809311
 21
4.486042194486607
 31
0.0
  0
SPLINE
  5
C7
330
1F
100
AcDbEntity
  8
0
  6
Continuous
 62
     7
370
    15
100
AcDbSpline
210
0.0
220
0.0
230
1.0
 70
     8
 71
     3
 72
    13
 73
     9
 74
     0
 42
0.0000000001
 43
0.0000000001
 40
0.0
 40
0.0
 40
0.0
 40
0.0
 40
0.109357126020499
 40
0.3083282796164859
 40
0.5073022075394281
 40
0.706243989685601
 40
0.9051619010160713
 40
1.0
 40
1.0
 40
1.0
 40
1.0
 10
4.438412175763055
 20
4.501971821060427
 30
0.0
 10
4.438583245262884
 20
4.502646745608063
 30
0.0
 10
4.439065569245752
 20
4.504549669836381
 30
0.0
 10
4.439413427922602
 20
4.507943466166657
 30
0.0
 10
4.439480409972339
 20
4.512042974387578
 30
0.0
 10
4.439108144018719
 20
4.516229943208822
 30
0.0
 10
4.438482821334097
 20
4.519689195190827
 30
0.0
 10
4.437942474862802
 20
4.521714718291042
 30
0.0
 10
4.437768025897231
 20
4.5223686513291
 30
0.0
  0
SPLINE
  5
C8
330
1F
100
AcDbEntity
  8
0
  6
Continuous
 62
     7
370
    15
100
AcDbSpline
210
0.0
220
0.0
230
1.0
 70
     8
 71
     3
 72
    13
 73
     9
 74
     0
 42
0.0000000001
 43
0.0000000001
 40
0.0
 40
0.0
 40
0.0
 40
0.0
 40
0.086776479457294
 40
0.3017838942377742
 40
0.5169828736136467
 40
0.7322902797401884
 40
0.9477391721009682
 40
1.0
 40
1.0
 40
1.0
 40
1.0
 10
4.437612339753076
 20
4.522873336916942
 30
0.0
 10
4.437448218625772
 20
4.523421772018474
 30
0.0
 10
4.436877452062824
 20
4.525329073187087
 30
0.0
 10
4.435623787391871
 20
4.528489477889822
 30
0.0
 10
4.43375073494705
 20
4.53222737622114
 30
0.0
 10
4.431540864486106
 20
4.535633580496641
 30
0.0
 10
4.429735091266087
 20
4.538011233568443
 30
0.0
 10
4.428614431094316
 20
4.539093789186275
 30
0.0
 10
4.42839566194274
 20
4.539305119775167
 30
0.0
  0
LINE
  5
C9
330
1F
100
AcDbEntity
  8
0
  6
Continuous
 62
     7
370
    15
100
AcDbLine
 10
4.437768025897231
 20
4.5223686513291
 30
0.0
 11
4.437612339753076
 21
4.522873336916942
 31
0.0
  0
LINE
  5
CA
330
1F
100
AcDbEntity
  8
0
  6
Continuous
 62
     7
370
    15
100
AcDbLine
 10
4.391282167628764
 20
4.430718722552223
 30
0.0
 11
4.383857560542513
 21
4.42872958825805
 31
0.0
  0
LINE
  5
CB
330
1F
100
AcDbEntity
  8
0
  6
Continuous
 62
     7
370
    15
100
AcDbLine
 10
4.400031496624806
 20
4.368358676726816
 30
0.0
 11
4.407456103711057
 21
4.370347811020989
 31
0.0
  0
SPLINE
  5
CC
330
1F
100
AcDbEntity
  8
0
  6
Continuous
 62
     7
370
    15
100
AcDbSpline
210
0.0
220
0.0
230
1.0
 70
     8
 71
     3
 72
    13
 73
     9
 74
     0
 42
0.0000000001
 43
0.0000000001
 40
0.0
 40
0.0
 40
0.0
 40
0.0
 40
0.1093566797537245
 40
0.3083274900419943
 40
0.5073007339157845
 40
0.7062436984243801
 40
0.9051582788588062
 40
1.0
 40
1.0
 40
1.0
 40
1.0
 10
4.420734559597274
 20
4.386277393139665
 30
0.0
 10
4.420905629868714
 20
4.386952316472338
 30
0.0
 10
4.421387956760246
 20
4.388855240167559
 30
0.0
 10
4.421735788471593
 20
4.392249036721167
 30
0.0
 10
4.421802878006363
 20
4.396348553432934
 30
0.0
 10
4.421430213845423
 20
4.400535524437296
 30
0.0
 10
4.420805312024312
 20
4.40399484046267
 30
0.0
 10
4.420264764247511
 20
4.406020326119594
 30
0.0
 10
4.420090243798976
 20
4.406674271396067
 30
0.0
  0
SPLINE
  5
CD
330
1F
100
AcDbEntity
  8
0
  6
Continuous
 62
     7
370
    15
100
AcDbSpline
210
0.0
220
0.0
230
1.0
 70
     8
 71
     3
 72
    13
 73
     9
 74
     0
 42
0.0000000001
 43
0.0000000001
 40
0.0
 40
0.0
 40
0.0
 40
0.0
 40
0.0867763096741555
 40
0.3017837212095975
 40
0.5169829880185532
 40
0.732290262474256
 40
0.9477392607124073
 40
1.0
 40
1.0
 40
1.0
 40
1.0
 10
4.419934723587296
 20
4.407178908996179
 30
0.0
 10
4.419770602416997
 20
4.407727342917602
 30
0.0
 10
4.419199834915034
 20
4.409634642620316
 30
0.0
 10
4.417946169548495
 20
4.412795047187765
 30
0.0
 10
4.416073121768844
 20
4.416532951375848
 30
0.0
 10
4.413863245666632
 20
4.419939150957017
 30
0.0
 10
4.412057477405263
 20
4.422316811608743
 30
0.0
 10
4.410936814982848
 20
4.423399362550335
 30
0.0
 10
4.410718045776959
 20
4.423610691854404
 30
0.0
  0
LINE
  5
CE
330
1F
100
AcDbEntity
  8
0
  6
Continuous
 62
     7
370
    15
100
AcDbLine
 10
4.420090243798976
 20
4.406674271396067
 30
0.0
 11
4.419934723587296
 21
4.407178908996179
 31
0.0
  0
SPLINE
  5
CF
330
1F
100
AcDbEntity
  8
0
  6
Continuous
 62
     7
370
    15
100
AcDbSpline
210
0.0
220
0.0
230
1.0
 70
     8
 71
     3
 72
    12
 73
     8
 74
     0
 42
0.0000000001
 43
0.0000000001
 40
0.0
 40
0.0
 40
0.0
 40
0.0
 40
0.2358464916140906
 40
0.5186769973625739
 40
0.7598695933887557
 40
0.9823434208769988
 40
1.0
 40
1.0
 40
1.0
 40
1.0
 10
4.543543589960331
 20
4.679523406028791
 30
0.0
 10
4.542958542541473
 20
4.679219672238137
 30
0.0
 10
4.541671897841137
 20
4.678551696516068
 30
0.0
 10
4.540359759621426
 20
4.677428976564157
 30
0.0
 10
4.539546473930883
 20
4.676178818801978
 30
0.0
 10
4.539201099155535
 20
4.675236835293962
 30
0.0
 10
4.539294879558522
 20
4.674779103995172
 30
0.0
 10
4.539301775149668
 20
4.67474544741245
 30
0.0
  0
SPLINE
  5
D0
330
1F
100
AcDbEntity
  8
0
  6
Continuous
 62
     7
370
    15
100
AcDbSpline
210
0.0
220
0.0
230
1.0
 70
     8
 71
     3
 72
    12
 73
     8
 74
     0
 42
0.0000000001
 43
0.0000000001
 40
0.0
 40
0.0
 40
0.0
 40
0.0
 40
0.1129288523300406
 40
0.3269975342053057
 40
0.5450119678759754
 40
0.7865193296241727
 40
1.0
 40
1.0
 40
1.0
 40
1.0
 10
4.601695247878931
 20
4.674393298825139
 30
0.0
 10
4.601732632441961
 20
4.674630787568285
 30
0.0
 10
4.601840883430751
 20
4.675318461548919
 30
0.0
 10
4.601404726658406
 20
4.676443632321061
 30
0.0
 10
4.600481862497707
 20
4.67763458805584
 30
0.0
 10
4.599162545315656
 20
4.678697876018341
 30
0.0
 10
4.597900795322672
 20
4.67932781759961
 30
0.0
 10
4.597308781433667
 20
4.679623386585104
 30
0.0
  0
LINE
  5
D1
330
1F
100
AcDbEntity
  8
0
  6
Continuous
 62
     7
370
    15
100
AcDbLine
 10
4.601781491282529
 20
4.664647928813807
 30
0.0
 11
4.601781491282529
 21
4.674764096174463
 31
0.0
  0
LINE
  5
D2
330
1F
100
AcDbEntity
  8
0
  6
Continuous
 62
     7
370
    15
100
AcDbLine
 10
4.539281572870904
 20
4.674764062833105
 30
0.0
 11
4.539281572870904
 21
4.664647895472449
 31
0.0
  0
SPLINE
  5
D3
330
1F
100
AcDbEntity
  8
0
  6
Continuous
 62
     7
370
    15
100
AcDbSpline
210
0.0
220
0.0
230
1.0
 70
     8
 71
     3
 72
    15
 73
    11
 74
     0
 42
0.0000000001
 43
0.0000000001
 40
0.0
 40
0.0
 40
0.0
 40
0.0
 40
0.0071975969283505
 40
0.1553778787076837
 40
0.3020428692759179
 40
0.4619141297267383
 40
0.6363197396816548
 40
0.8130330126496664
 40
0.9773318721887964
 40
1.0
 40
1.0
 40
1.0
 40
1.0
 10
4.539297585354688
 20
4.664795431334069
 30
0.0
 10
4.539292370931482
 20
4.664773746768027
 30
0.0
 10
4.539179804748016
 20
4.66430563193667
 30
0.0
 10
4.539490846298614
 20
4.663352501910552
 30
0.0
 10
4.54023687227121
 20
4.662126283101285
 30
0.0
 10
4.541529060916634
 20
4.660984310319346
 30
0.0
 10
4.543357477808854
 20
4.659896984218047
 30
0.0
 10
4.545697458274786
 20
4.658907885764205
 30
0.0
 10
4.547657754092773
 20
4.658283412591907
 30
0.0
 10
4.548750370409178
 20
4.657987252307193
 30
0.0
 10
4.548882840673902
 20
4.657951345437848
 30
0.0
  0
SPLINE
  5
D4
330
1F
100
AcDbEntity
  8
0
  6
Continuous
 62
     7
370
    15
100
AcDbSpline
210
0.0
220
0.0
230
1.0
 70
     8
 71
     3
 72
    11
 73
     7
 74
     0
 42
0.0000000001
 43
0.0000000001
 40
0.0
 40
0.0
 40
0.0
 40
0.0
 40
0.1959354260587027
 40
0.5578129414329716
 40
0.8543444024673901
 40
1.0
 40
1.0
 40
1.0
 40
1.0
 10
4.598660591819911
 20
4.66053553500573
 30
0.0
 10
4.599012940443231
 20
4.660740606323411
 30
0.0
 10
4.600016049610053
 20
4.661324428438789
 30
0.0
 10
4.600987325183353
 20
4.662360038661766
 30
0.0
 10
4.601670092376433
 20
4.663468435263863
 30
0.0
 10
4.601695598986785
 20
4.664145518026855
 30
0.0
 10
4.60170400081696
 20
4.664368547834065
 30
0.0
  0
SPLINE
  5
D5
330
1F
100
AcDbEntity
  8
0
  6
Continuous
 62
     7
370
    15
100
AcDbSpline
210
0.0
220
0.0
230
1.0
 70
     8
 71
     3
 72
    12
 73
     8
 74
     0
 42
0.0000000001
 43
0.0000000001
 40
0.0
 40
0.0
 40
0.0
 40
0.0
 40
0.2358431606312807
 40
0.5186739875376235
 40
0.7598668574412562
 40
0.9823409375515353
 40
1.0
 40
1.0
 40
1.0
 40
1.0
 10
4.574514844833741
 20
4.630988424781388
 30
0.0
 10
4.573929811252259
 20
4.630684694412087
 30
0.0
 10
4.572643186277684
 20
4.630016720656309
 30
0.0
 10
4.571331083393799
 20
4.628894004734904
 30
0.0
 10
4.570517684440074
 20
4.627643854345396
 30
0.0
 10
4.570172575102335
 20
4.626701848282075
 30
0.0
 10
4.570266148745506
 20
4.626244126405047
 30
0.0
 10
4.570273030023079
 20
4.626210466165047
 30
0.0
  0
SPLINE
  5
D6
330
1F
100
AcDbEntity
  8
0
  6
Continuous
 62
     7
370
    15
100
AcDbSpline
210
0.0
220
0.0
230
1.0
 70
     8
 71
     3
 72
    12
 73
     8
 74
     0
 42
0.0000000001
 43
0.0000000001
 40
0.0
 40
0.0
 40
0.0
 40
0.0
 40
0.112931255837357
 40
0.327008402492343
 40
0.545012471335931
 40
0.7865195658479001
 40
1.0
 40
1.0
 40
1.0
 40
1.0
 10
4.632666502752342
 20
4.625858317577735
 30
0.0
 10
4.632703913538925
 20
4.626095810728621
 30
0.0
 10
4.632812241755639
 20
4.626783505692234
 30
0.0
 10
4.632375693371371
 20
4.627908645099663
 30
0.0
 10
4.631453234743653
 20
4.629099645524428
 30
0.0
 10
4.630133820063266
 20
4.630162903264672
 30
0.0
 10
4.628872084778225
 20
4.630792846629258
 30
0.0
 10
4.628280077790195
 20
4.631088416451487
 30
0.0
  0
LINE
  5
D7
330
1F
100
AcDbEntity
  8
0
  6
Continuous
 62
     7
370
    15
100
AcDbLine
 10
4.632752787639057
 20
4.61611295868019
 30
0.0
 11
4.632752787639057
 21
4.626229126040846
 31
0.0
  0
LINE
  5
D8
330
1F
100
AcDbEntity
  8
0
  6
Continuous
 62
     7
370
    15
100
AcDbLine
 10
4.570252869227433
 20
4.626229092699488
 30
0.0
 11
4.570252869227433
 21
4.616112925338832
 31
0.0
  0
SPLINE
  5
D9
330
1F
100
AcDbEntity
  8
0
  6
Continuous
 62
     7
370
    15
100
AcDbSpline
210
0.0
220
0.0
230
1.0
 70
     8
 71
     3
 72
    15
 73
    11
 74
     0
 42
0.0000000001
 43
0.0000000001
 40
0.0
 40
0.0
 40
0.0
 40
0.0
 40
0.0071958008792562
 40
0.1553763251998385
 40
0.3020415558290955
 40
0.4619130779569403
 40
0.636318973378681
 40
0.8130232227054911
 40
0.9773318350856408
 40
1.0
 40
1.0
 40
1.0
 40
1.0
 10
4.570268840228098
 20
4.616260450086666
 30
0.0
 10
4.570263640061715
 20
4.616238769171112
 30
0.0
 10
4.570151354750227
 20
4.615770621004962
 30
0.0
 10
4.570462031212352
 20
4.614817547230916
 30
0.0
 10
4.571208201946586
 20
4.6135913086097
 30
0.0
 10
4.572500344161853
 20
4.612449340797579
 30
0.0
 10
4.574328756646196
 20
4.611362036707921
 30
0.0
 10
4.576668660654606
 20
4.610372920644233
 30
0.0
 10
4.578628996170893
 20
4.609748457798437
 30
0.0
 10
4.579721666889465
 20
4.609452282207897
 30
0.0
 10
4.579854137030431
 20
4.609416375304231
 30
0.0
  0
SPLINE
  5
DA
330
1F
100
AcDbEntity
  8
0
  6
Continuous
 62
     7
370
    15
100
AcDbSpline
210
0.0
220
0.0
230
1.0
 70
     8
 71
     3
 72
    11
 73
     7
 74
     0
 42
0.0000000001
 43
0.0000000001
 40
0.0
 40
0.0
 40
0.0
 40
0.0
 40
0.1959354260587027
 40
0.5578129414329716
 40
0.8543444024673901
 40
1.0
 40
1.0
 40
1.0
 40
1.0
 10
4.629631888176439
 20
4.612000564872113
 30
0.0
 10
4.629984236799761
 20
4.612205636189794
 30
0.0
 10
4.630987345966582
 20
4.612789458305172
 30
0.0
 10
4.631958621539881
 20
4.613825068528148
 30
0.0
 10
4.632641388732962
 20
4.614933465130246
 30
0.0
 10
4.632666895343313
 20
4.615610547893238
 30
0.0
 10
4.632675297173489
 20
4.615833577700448
 30
0.0
  0
LINE
  5
DB
330
1F
100
AcDbEntity
  8
0
  6
Continuous
 62
     7
370
    15
100
AcDbLine
 10
1.918585886354232
 20
5.434169436006778
 30
0.0
 11
1.926010700856076
 21
5.432180246143676
 31
0.0
  0
LINE
  5
DC
330
1F
100
AcDbEntity
  8
0
  6
Continuous
 62
     7
370
    15
100
AcDbLine
 10
1.942184719904606
 20
5.492551194032825
 30
0.0
 11
1.934759905402762
 21
5.494540383895929
 31
0.0
  0
SPLINE
  5
DD
330
1F
100
AcDbEntity
  8
0
  6
Continuous
 62
     7
370
    15
100
AcDbSpline
210
0.0
220
0.0
230
1.0
 70
     8
 71
     3
 72
    16
 73
    12
 74
     0
 42
0.0000000001
 43
0.0000000001
 40
0.0
 40
0.0
 40
0.0
 40
0.0
 40
0.0940457734942713
 40
0.2152005330496116
 40
0.3363857795689261
 40
0.4575586317060212
 40
0.5787107147954606
 40
0.6998561993794292
 40
0.8210146650983016
 40
0.9422061389402463
 40
1.0
 40
1.0
 40
1.0
 40
1.0
 10
1.917009984161239
 20
5.489076947913431
 30
0.0
 10
1.916300843315936
 20
5.488423514416975
 30
0.0
 10
1.914678149576
 20
5.486928293190917
 30
0.0
 10
1.912393620463793
 20
5.484080419425783
 30
0.0
 10
1.910168584731206
 20
5.480691593082343
 30
0.0
 10
1.908255607741374
 20
5.476986267940278
 30
0.0
 10
1.906682838354067
 20
5.47305151233895
 30
0.0
 10
1.905477705170113
 20
5.468954875299036
 30
0.0
 10
1.904669592168294
 20
5.464774739982406
 30
0.0
 10
1.90432198184987
 20
5.46131139204587
 30
0.0
 10
1.90429261256324
 20
5.459280141152143
 30
0.0
 10
1.904283129303219
 20
5.458624255953536
 30
0.0
  0
SPLINE
  5
DE
330
1F
100
AcDbEntity
  8
0
  6
Continuous
 62
     7
370
    15
100
AcDbSpline
210
0.0
220
0.0
230
1.0
 70
     8
 71
     3
 72
    10
 73
     6
 74
     0
 42
0.0000000001
 43
0.0000000001
 40
0.0
 40
0.0
 40
0.0
 40
0.0
 40
0.22141216657306
 40
0.6410036345713614
 40
1.0
 40
1.0
 40
1.0
 40
1.0
 10
1.904283129303219
 20
5.458624255953536
 30
0.0
 10
1.904295518030415
 20
5.457904324122621
 30
0.0
 10
1.904331384258019
 20
5.455820071358182
 30
0.0
 10
1.904657493652998
 20
5.452645466511456
 30
0.0
 10
1.905221656242577
 20
5.450356407051056
 30
0.0
 10
1.905481784015545
 20
5.449300952558635
 30
0.0
  0
LINE
  5
DF
330
1F
100
AcDbEntity
  8
0
  6
Continuous
 62
     7
370
    15
100
AcDbLine
 10
1.918585886354232
 20
5.819546891673772
 30
0.0
 11
1.926010700856076
 21
5.817557701810669
 31
0.0
  0
LINE
  5
E0
330
1F
100
AcDbEntity
  8
0
  6
Continuous
 62
     7
370
    15
100
AcDbLine
 10
1.942184719904606
 20
5.877928621439131
 30
0.0
 11
1.934759905402762
 21
5.879917811302234
 31
0.0
  0
SPLINE
  5
E1
330
1F
100
AcDbEntity
  8
0
  6
Continuous
 62
     7
370
    15
100
AcDbSpline
210
0.0
220
0.0
230
1.0
 70
     8
 71
     3
 72
    16
 73
    12
 74
     0
 42
0.0000000001
 43
0.0000000001
 40
0.0
 40
0.0
 40
0.0
 40
0.0
 40
0.0940453620529935
 40
0.2152000895614189
 40
0.3363858748652393
 40
0.4575580468365705
 40
0.5787108113544971
 40
0.6998554982428601
 40
0.8210155392697672
 40
0.942206154227429
 40
1.0
 40
1.0
 40
1.0
 40
1.0
 10
1.917009984161239
 20
5.874454403580424
 30
0.0
 10
1.91630084298154
 20
5.873800980645546
 30
0.0
 10
1.914678144721343
 20
5.872305780127014
 30
0.0
 10
1.912393612565099
 20
5.869457901666331
 30
0.0
 10
1.910168600079194
 20
5.866069053041128
 30
0.0
 10
1.908255592158149
 20
5.862363743923316
 30
0.0
 10
1.906682852455121
 20
5.858428980283509
 30
0.0
 10
1.905477690152893
 20
5.854332334448784
 30
0.0
 10
1.904669602450805
 20
5.850152194542973
 30
0.0
 10
1.904321980568776
 20
5.846688838378413
 30
0.0
 10
1.904292612283661
 20
5.844657596831088
 30
0.0
 10
1.904283129303219
 20
5.844001711620529
 30
0.0
  0
SPLINE
  5
E2
330
1F
100
AcDbEntity
  8
0
  6
Continuous
 62
     7
370
    15
100
AcDbSpline
210
0.0
220
0.0
230
1.0
 70
     8
 71
     3
 72
    10
 73
     6
 74
     0
 42
0.0000000001
 43
0.0000000001
 40
0.0
 40
0.0
 40
0.0
 40
0.0
 40
0.221415664303507
 40
0.6410054273629559
 40
1.0
 40
1.0
 40
1.0
 40
1.0
 10
1.904283129303219
 20
5.844001711620529
 30
0.0
 10
1.904295517744415
 20
5.843281770293554
 30
0.0
 10
1.904331382677767
 20
5.84119751713366
 30
0.0
 10
1.904657493335858
 20
5.838022921522893
 30
0.0
 10
1.905221656231779
 20
5.835733881491143
 30
0.0
 10
1.905481784015545
 20
5.834678436486316
 30
0.0
  0
LINE
  5
E3
330
1F
100
AcDbEntity
  8
0
  6
Continuous
 62
     7
370
    15
100
AcDbLine
 10
1.918585886354232
 20
5.048791983872372
 30
0.0
 11
1.926010700856076
 21
5.046802794009269
 31
0.0
  0
LINE
  5
E4
330
1F
100
AcDbEntity
  8
0
  6
Continuous
 62
     7
370
    15
100
AcDbLine
 10
1.942184719904606
 20
5.107173727768075
 30
0.0
 11
1.934759905402762
 21
5.109162917631178
 31
0.0
  0
SPLINE
  5
E5
330
1F
100
AcDbEntity
  8
0
  6
Continuous
 62
     7
370
    15
100
AcDbSpline
210
0.0
220
0.0
230
1.0
 70
     8
 71
     3
 72
    16
 73
    12
 74
     0
 42
0.0000000001
 43
0.0000000001
 40
0.0
 40
0.0
 40
0.0
 40
0.0
 40
0.0940456538088003
 40
0.2152002619730152
 40
0.3363858044404295
 40
0.4575582717003706
 40
0.5787102270921634
 40
0.6998558183562244
 40
0.8210148009056108
 40
0.9422058844792157
 40
1.0
 40
1.0
 40
1.0
 40
1.0
 10
1.917009984161239
 20
5.103699490480145
 30
0.0
 10
1.916300843495924
 20
5.103046058618331
 30
0.0
 10
1.914678150146777
 20
5.101550841113335
 30
0.0
 10
1.912393614185915
 20
5.098702972586123
 30
0.0
 10
1.910168592900719
 20
5.095314130705822
 30
0.0
 10
1.908255604376819
 20
5.091608817006192
 30
0.0
 10
1.906682837582423
 20
5.087674061724804
 30
0.0
 10
1.905477702878753
 20
5.083577416844601
 30
0.0
 10
1.904669595394848
 20
5.079397276110374
 30
0.0
 10
1.904321981066555
 20
5.075933922059654
 30
0.0
 10
1.904292612409048
 20
5.073902671781629
 30
0.0
 10
1.904283129303219
 20
5.073246783396368
 30
0.0
  0
SPLINE
  5
E6
330
1F
100
AcDbEntity
  8
0
  6
Continuous
 62
     7
370
    15
100
AcDbSpline
210
0.0
220
0.0
230
1.0
 70
     8
 71
     3
 72
    10
 73
     6
 74
     0
 42
0.0000000001
 43
0.0000000001
 40
0.0
 40
0.0
 40
0.0
 40
0.0
 40
0.2214128781135369
 40
0.6410032151875908
 40
0.9999999999999998
 40
0.9999999999999998
 40
0.9999999999999998
 40
0.9999999999999998
 10
1.904283129303219
 20
5.073246783396368
 30
0.0
 10
1.904295517908557
 20
5.072526851004784
 30
0.0
 10
1.904331383644645
 20
5.07044260467885
 30
0.0
 10
1.904657495176378
 20
5.06726800898909
 30
0.0
 10
1.905221656352631
 20
5.064978957742607
 30
0.0
 10
1.905481784015545
 20
5.063923504839961
 30
0.0
  0
SPLINE
  5
E7
330
1F
100
AcDbEntity
  8
0
  6
Continuous
 62
     7
370
    15
100
AcDbSpline
210
0.0
220
0.0
230
1.0
 70
     8
 71
     3
 72
    10
 73
     6
 74
     0
 42
0.0000000001
 43
0.0000000001
 40
0.0
 40
0.0
 40
0.0
 40
0.0
 40
0.3780020530281742
 40
0.7993042396897334
 40
1.0
 40
1.0
 40
1.0
 40
1.0
 10
2.054961306929799
 20
5.843411652363266
 30
0.0
 10
2.054694431850944
 20
5.842301499218538
 30
0.0
 10
2.054130111154038
 20
5.839954024890877
 30
0.0
 10
2.053821152126512
 20
5.836787781843176
 30
0.0
 10
2.053790001752807
 20
5.834773643986102
 30
0.0
 10
2.053779950677935
 20
5.834123756103734
 30
0.0
  0
SPLINE
  5
E8
330
1F
100
AcDbEntity
  8
0
  6
Continuous
 62
     7
370
    15
100
AcDbSpline
210
0.0
220
0.0
230
1.0
 70
     8
 71
     3
 72
    16
 73
    12
 74
     0
 42
0.0000000001
 43
0.0000000001
 40
0.0
 40
0.0
 40
0.0
 40
0.0
 40
0.0689942570274309
 40
0.1996287958956367
 40
0.33031421147314
 40
0.4609985962731835
 40
0.5917132794236368
 40
0.7224670577069701
 40
0.8533022021606482
 40
0.9842120096234509
 40
1.0
 40
1.0
 40
1.0
 40
1.0
 10
2.053779950677935
 20
5.834123756103734
 30
0.0
 10
2.05379155226329
 20
5.833397623558533
 30
0.0
 10
2.053825120427004
 20
5.831296623099877
 30
0.0
 10
2.054197859270357
 20
5.827761849192816
 30
0.0
 10
2.055025979494882
 20
5.82358544175519
 30
0.0
 10
2.056249531723315
 20
5.819494233668861
 30
0.0
 10
2.057841825104947
 20
5.815570695331767
 30
0.0
 10
2.059768566018212
 20
5.811870615110191
 30
0.0
 10
2.062021855403404
 20
5.808519774904046
 30
0.0
 10
2.063748297398805
 20
5.806293396747697
 30
0.0
 10
2.06476659529786
 20
5.805335468995528
 30
0.0
 10
2.064876187109513
 20
5.805232374372735
 30
0.0
  0
LINE
  5
E9
330
1F
100
AcDbEntity
  8
0
  6
Continuous
 62
     7
370
    15
100
AcDbLine
 10
2.075507480747674
 20
5.860567720506005
 30
0.0
 11
2.068082873661423
 21
5.858578586211832
 31
0.0
  0
LINE
  5
EA
330
1F
100
AcDbEntity
  8
0
  6
Continuous
 62
     7
370
    15
100
AcDbLine
 10
2.084256975676189
 20
5.798207644355798
 30
0.0
 11
2.091681582762441
 21
5.800196778649971
 31
0.0
  0
LINE
  5
EB
330
1F
100
AcDbEntity
  8
0
  6
Continuous
 62
     7
370
    15
100
AcDbLine
 10
1.927354007203006
 20
5.710194301658795
 30
0.0
 11
1.934778821704849
 21
5.708205111795692
 31
0.0
  0
LINE
  5
EC
330
1F
100
AcDbEntity
  8
0
  6
Continuous
 62
     7
370
    15
100
AcDbLine
 10
1.95095284075338
 20
5.76857608794553
 30
0.0
 11
1.943528026251536
 21
5.770565277808632
 31
0.0
  0
SPLINE
  5
ED
330
1F
100
AcDbEntity
  8
0
  6
Continuous
 62
     7
370
    15
100
AcDbSpline
210
0.0
220
0.0
230
1.0
 70
     8
 71
     3
 72
    16
 73
    12
 74
     0
 42
0.0000000001
 43
0.0000000001
 40
0.0
 40
0.0
 40
0.0
 40
0.0
 40
0.0940453952687035
 40
0.2152001655675462
 40
0.3363859936727532
 40
0.4575571564941757
 40
0.5787108302081093
 40
0.6998548950927615
 40
0.8210138223985669
 40
0.9422061338153259
 40
1.0
 40
1.0
 40
1.0
 40
1.0
 10
1.925778105010012
 20
5.765101813565447
 30
0.0
 10
1.925068963621482
 20
5.76444839078233
 30
0.0
 10
1.923446264883423
 20
5.762953190611066
 30
0.0
 10
1.921161737107924
 20
5.760105308966837
 30
0.0
 10
1.918936713627225
 20
5.756716482817655
 30
0.0
 10
1.91702377032085
 20
5.75301112973384
 30
0.0
 10
1.915450948026204
 20
5.749076420032664
 30
0.0
 10
1.914245889094452
 20
5.744979752743692
 30
0.0
 10
1.91343769345374
 20
5.740799632339334
 30
0.0
 10
1.91309010520632
 20
5.737336266837907
 30
0.0
 10
1.91306073399098
 20
5.735305006744749
 30
0.0
 10
1.913051250151992
 20
5.734649121605553
 30
0.0
  0
SPLINE
  5
EE
330
1F
100
AcDbEntity
  8
0
  6
Continuous
 62
     7
370
    15
100
AcDbSpline
210
0.0
220
0.0
230
1.0
 70
     8
 71
     3
 72
    10
 73
     6
 74
     0
 42
0.0000000001
 43
0.0000000001
 40
0.0
 40
0.0
 40
0.0
 40
0.0
 40
0.2214099011619977
 40
0.6410054094308727
 40
1.0
 40
1.0
 40
1.0
 40
1.0
 10
1.913051250151992
 20
5.734649121605553
 30
0.0
 10
1.913063639302858
 20
5.733929199354988
 30
0.0
 10
1.913099507223313
 20
5.73184494723004
 30
0.0
 10
1.913425608761326
 20
5.728670347890441
 30
0.0
 10
1.913989776678032
 20
5.726381291335171
 30
0.0
 10
1.914249904864317
 20
5.725325846471339
 30
0.0
  0
LINE
  5
EF
330
1F
100
AcDbEntity
  8
0
  6
Continuous
 62
     7
370
    15
100
AcDbLine
 10
1.843491112368014
 20
5.654911664768772
 30
0.0
 11
1.850915926869858
 21
5.65292247490567
 31
0.0
  0
LINE
  5
F0
330
1F
100
AcDbEntity
  8
0
  6
Continuous
 62
     7
370
    15
100
AcDbLine
 10
1.867090028884625
 20
5.713293416761704
 30
0.0
 11
1.859665214382781
 21
5.715282606624807
 31
0.0
  0
SPLINE
  5
F1
330
1F
100
AcDbEntity
  8
0
  6
Continuous
 62
     7
370
    15
100
AcDbSpline
210
0.0
220
0.0
230
1.0
 70
     8
 71
     3
 72
    16
 73
    12
 74
     0
 42
0.0000000001
 43
0.0000000001
 40
0.0
 40
0.0
 40
0.0
 40
0.0
 40
0.0940453623239209
 40
0.2151987288831089
 40
0.336385732456705
 40
0.4575568528309922
 40
0.5787090571662779
 40
0.6998546109248951
 40
0.8210139466521194
 40
0.9422062156143347
 40
1.0
 40
1.0
 40
1.0
 40
1.0
 10
1.84191525165814
 20
5.709819131267837
 30
0.0
 10
1.841206108689249
 20
5.709165710910756
 30
0.0
 10
1.839583416599699
 20
5.707670525749092
 30
0.0
 10
1.837298921355682
 20
5.704822597657639
 30
0.0
 10
1.83507385638607
 20
5.701433824267902
 30
0.0
 10
1.833160935170461
 20
5.697728455147724
 30
0.0
 10
1.831588067263312
 20
5.693793768504135
 30
0.0
 10
1.830383057813724
 20
5.689697077621445
 30
0.0
 10
1.829574791359693
 20
5.685516948524325
 30
0.0
 10
1.829227186951765
 20
5.68205356838655
 30
0.0
 10
1.829197864792337
 20
5.680022320146749
 30
0.0
 10
1.829188396800119
 20
5.679366439307941
 30
0.0
  0
SPLINE
  5
F2
330
1F
100
AcDbEntity
  8
0
  6
Continuous
 62
     7
370
    15
100
AcDbSpline
210
0.0
220
0.0
230
1.0
 70
     8
 71
     3
 72
    10
 73
     6
 74
     0
 42
0.0000000001
 43
0.0000000001
 40
0.0
 40
0.0
 40
0.0
 40
0.0
 40
0.2214097287224596
 40
0.6410056890247892
 40
1.0
 40
1.0
 40
1.0
 40
1.0
 10
1.829188396800119
 20
5.679366439307941
 30
0.0
 10
1.82920078424054
 20
5.678646516279926
 30
0.0
 10
1.829236647252638
 20
5.67656225937179
 30
0.0
 10
1.829562808744005
 20
5.673387684639261
 30
0.0
 10
1.830126968727396
 20
5.671098621932109
 30
0.0
 10
1.830387092995565
 20
5.670043175287514
 30
0.0
  0
SPLINE
  5
F3
330
1F
100
AcDbEntity
  8
0
  6
Continuous
 62
     7
370
    15
100
AcDbSpline
210
0.0
220
0.0
230
1.0
 70
     8
 71
     3
 72
    10
 73
     6
 74
     0
 42
0.0000000001
 43
0.0000000001
 40
0.0
 40
0.0
 40
0.0
 40
0.0
 40
0.3780020530281742
 40
0.7993042396897334
 40
1.0
 40
1.0
 40
1.0
 40
1.0
 10
2.152117757506184
 20
5.456090984909292
 30
0.0
 10
2.151850882427329
 20
5.454980831764564
 30
0.0
 10
2.151286561730423
 20
5.452633357436904
 30
0.0
 10
2.150977602702897
 20
5.449467114389202
 30
0.0
 10
2.150946452329191
 20
5.447452976532129
 30
0.0
 10
2.150936401254319
 20
5.44680308864976
 30
0.0
  0
SPLINE
  5
F4
330
1F
100
AcDbEntity
  8
0
  6
Continuous
 62
     7
370
    15
100
AcDbSpline
210
0.0
220
0.0
230
1.0
 70
     8
 71
     3
 72
    16
 73
    12
 74
     0
 42
0.0000000001
 43
0.0000000001
 40
0.0
 40
0.0
 40
0.0
 40
0.0
 40
0.0689943022809959
 40
0.1996289268328347
 40
0.3303135628877838
 40
0.4609996803251701
 40
0.5917129163751487
 40
0.7224667804203245
 40
0.8533026218545767
 40
0.9842119992680551
 40
1.0
 40
1.0
 40
1.0
 40
1.0
 10
2.15093640125432
 20
5.44680308864976
 30
0.0
 10
2.150948002976463
 20
5.446076956137763
 30
0.0
 10
2.150981571535959
 20
5.443975955775179
 30
0.0
 10
2.15135430437333
 20
5.440441189906374
 30
0.0
 10
2.152182445992738
 20
5.436264779181957
 30
0.0
 10
2.153405958349082
 20
5.432173565063775
 30
0.0
 10
2.15499828971184
 20
5.428250043967035
 30
0.0
 10
2.156925022660132
 20
5.424549975796515
 30
0.0
 10
2.159178291508256
 20
5.421199105066851
 30
0.0
 10
2.160904751929552
 20
5.418972754777521
 30
0.0
 10
2.161923045910503
 20
5.418014829859762
 30
0.0
 10
2.162032637685897
 20
5.417911735179449
 30
0.0
  0
LINE
  5
F5
330
1F
100
AcDbEntity
  8
0
  6
Continuous
 62
     7
370
    15
100
AcDbLine
 10
2.172663931324058
 20
5.473247081312719
 30
0.0
 11
2.165239324237807
 21
5.471257947018546
 31
0.0
  0
LINE
  5
F6
330
1F
100
AcDbEntity
  8
0
  6
Continuous
 62
     7
370
    15
100
AcDbLine
 10
2.181413426252574
 20
5.410886976901825
 30
0.0
 11
2.188838033338825
 21
5.412876111195997
 31
0.0
  0
SPLINE
  5
F7
330
1F
100
AcDbEntity
  8
0
  6
Continuous
 62
     7
370
    15
100
AcDbSpline
210
0.0
220
0.0
230
1.0
 70
     8
 71
     3
 72
    10
 73
     6
 74
     0
 42
0.0000000001
 43
0.0000000001
 40
0.0
 40
0.0
 40
0.0
 40
0.0
 40
0.3779993880418738
 40
0.7993043603420161
 40
1.0
 40
1.0
 40
1.0
 40
1.0
 10
2.072639089028054
 20
5.718245147232529
 30
0.0
 10
2.072372195239988
 20
5.71713499983003
 30
0.0
 10
2.071807830917461
 20
5.714787520740087
 30
0.0
 10
2.071499137059046
 20
5.711621172541377
 30
0.0
 10
2.071467582388141
 20
5.709607135530072
 30
0.0
 10
2.071457400911241
 20
5.70895728336191
 30
0.0
  0
SPLINE
  5
F8
330
1F
100
AcDbEntity
  8
0
  6
Continuous
 62
     7
370
    15
100
AcDbSpline
210
0.0
220
0.0
230
1.0
 70
     8
 71
     3
 72
    16
 73
    12
 74
     0
 42
0.0000000001
 43
0.0000000001
 40
0.0
 40
0.0
 40
0.0
 40
0.0
 40
0.0689926578559194
 40
0.1996282556193012
 40
0.3303072318437064
 40
0.4609925400928549
 40
0.5917049667866815
 40
0.7224671754063979
 40
0.8532922395230659
 40
0.9842120970249151
 40
1.0
 40
1.0
 40
1.0
 40
1.0
 10
2.071457400911241
 20
5.70895728336191
 30
0.0
 10
2.07146913139839
 20
5.70823113503694
 30
0.0
 10
2.071503073222922
 20
5.706130045907465
 30
0.0
 10
2.071875676762037
 20
5.702595395122364
 30
0.0
 10
2.072703358811291
 20
5.698418927890354
 30
0.0
 10
2.073927007403088
 20
5.694327815480452
 30
0.0
 10
2.075519230911722
 20
5.690404089196817
 30
0.0
 10
2.07744640047942
 20
5.686704440083091
 30
0.0
 10
2.079699282219037
 20
5.683352941682034
 30
0.0
 10
2.081426011081082
 20
5.681126971779829
 30
0.0
 10
2.082444378015697
 20
5.680168964817339
 30
0.0
 10
2.082553969207767
 20
5.680065869241999
 30
0.0
  0
LINE
  5
F9
330
1F
100
AcDbEntity
  8
0
  6
Continuous
 62
     7
370
    15
100
AcDbLine
 10
2.09318493098098
 20
5.735401304285556
 30
0.0
 11
2.085760323894728
 21
5.733412169991384
 31
0.0
  0
LINE
  5
FA
330
1F
100
AcDbEntity
  8
0
  6
Continuous
 62
     7
370
    15
100
AcDbLine
 10
2.101934425909494
 20
5.67304122813535
 30
0.0
 11
2.109359032995747
 21
5.675030362429522
 31
0.0
  0
SPLINE
  5
FB
330
1F
100
AcDbEntity
  8
0
  6
Continuous
 62
     7
370
    15
100
AcDbSpline
210
0.0
220
0.0
230
1.0
 70
     8
 71
     3
 72
    10
 73
     6
 74
     0
 42
0.0000000001
 43
0.0000000001
 40
0.0
 40
0.0
 40
0.0
 40
0.0
 40
0.3780020530281742
 40
0.7993042396897334
 40
1.0
 40
1.0
 40
1.0
 40
1.0
 10
2.152117757506184
 20
5.841468440576285
 30
0.0
 10
2.151850882427329
 20
5.840358287431556
 30
0.0
 10
2.151286561730423
 20
5.838010813103896
 30
0.0
 10
2.150977602702897
 20
5.834844570056195
 30
0.0
 10
2.150946452329191
 20
5.832830432199122
 30
0.0
 10
2.150936401254319
 20
5.832180544316753
 30
0.0
  0
SPLINE
  5
FC
330
1F
100
AcDbEntity
  8
0
  6
Continuous
 62
     7
370
    15
100
AcDbSpline
210
0.0
220
0.0
230
1.0
 70
     8
 71
     3
 72
    16
 73
    12
 74
     0
 42
0.0000000001
 43
0.0000000001
 40
0.0
 40
0.0
 40
0.0
 40
0.0
 40
0.0689943455858404
 40
0.1996290521315819
 40
0.3303129049721985
 40
0.4609991044358074
 40
0.5917139553666665
 40
0.7224665109648864
 40
0.8533030456884254
 40
0.9842119893585859
 40
1.0
 40
1.0
 40
1.0
 40
1.0
 10
2.15093640125432
 20
5.832180544316753
 30
0.0
 10
2.150948003025442
 20
5.831454411799008
 30
0.0
 10
2.150981571726654
 20
5.829353411419794
 30
0.0
 10
2.151354301786763
 20
5.825818655021455
 30
0.0
 10
2.152182447827622
 20
5.821642252570653
 30
0.0
 10
2.153405972400986
 20
5.817551039321293
 30
0.0
 10
2.154998261011723
 20
5.813627487668886
 30
0.0
 10
2.156925047677331
 20
5.809927455838222
 30
0.0
 10
2.159178273947478
 20
5.806576556067691
 30
0.0
 10
2.16090475595268
 20
5.80435023597918
 30
0.0
 10
2.161923045953446
 20
5.803392313849904
 30
0.0
 10
2.162032637685897
 20
5.803289219107129
 30
0.0
  0
LINE
  5
FD
330
1F
100
AcDbEntity
  8
0
  6
Continuous
 62
     7
370
    15
100
AcDbLine
 10
2.172663931324058
 20
5.858624508719024
 30
0.0
 11
2.165239324237807
 21
5.856635374424852
 31
0.0
  0
LINE
  5
FE
330
1F
100
AcDbEntity
  8
0
  6
Continuous
 62
     7
370
    15
100
AcDbLine
 10
2.181413426252574
 20
5.796264432568817
 30
0.0
 11
2.188838033338825
 21
5.798253566862991
 31
0.0
  0
SPLINE
  5
FF
330
1F
100
AcDbEntity
  8
0
  6
Continuous
 62
     7
370
    15
100
AcDbSpline
210
0.0
220
0.0
230
1.0
 70
     8
 71
     3
 72
    10
 73
     6
 74
     0
 42
0.0000000001
 43
0.0000000001
 40
0.0
 40
0.0
 40
0.0
 40
0.0
 40
0.3780010155534103
 40
0.7993020458974759
 40
1.0
 40
1.0
 40
1.0
 40
1.0
 10
2.072639089028054
 20
5.260609381535823
 30
0.0
 10
2.072372195639644
 20
5.259499233994472
 30
0.0
 10
2.071807836226269
 20
5.257151771515431
 30
0.0
 10
2.071499135185655
 20
5.253985440564846
 30
0.0
 10
2.071467582040036
 20
5.251971417060681
 30
0.0
 10
2.071457400911241
 20
5.251321560056235
 30
0.0
  0
SPLINE
  5
100
330
1F
100
AcDbEntity
  8
0
  6
Continuous
 62
     7
370
    15
100
AcDbSpline
210
0.0
220
0.0
230
1.0
 70
     8
 71
     3
 72
    16
 73
    12
 74
     0
 42
0.0000000001
 43
0.0000000001
 40
0.0
 40
0.0
 40
0.0
 40
0.0
 40
0.0689935340348533
 40
0.1996277508130223
 40
0.3303075478575835
 40
0.4609923999369713
 40
0.5917055485922372
 40
0.7224673651409481
 40
0.8532917735541429
 40
0.9842121023938666
 40
1.0
 40
1.0
 40
1.0
 40
1.0
 10
2.071457400911241
 20
5.251321560056235
 30
0.0
 10
2.071469130855788
 20
5.250595402358636
 30
0.0
 10
2.071503070593475
 20
5.248494318105812
 30
0.0
 10
2.071875684889556
 20
5.244959662863142
 30
0.0
 10
2.07270335059155
 20
5.240783202662293
 30
0.0
 10
2.073927017093952
 20
5.236692082539175
 30
0.0
 10
2.075519221466858
 20
5.232768346540615
 30
0.0
 10
2.077446397066617
 20
5.229068700728011
 30
0.0
 10
2.079699296504624
 20
5.22571723462793
 30
0.0
 10
2.081426007131247
 20
5.223491237126181
 30
0.0
 10
2.082444377979843
 20
5.222533227324365
 30
0.0
 10
2.082553969207767
 20
5.222430131805981
 30
0.0
  0
LINE
  5
101
330
1F
100
AcDbEntity
  8
0
  6
Continuous
 62
     7
370
    15
100
AcDbLine
 10
2.09318493098098
 20
5.277765552719194
 30
0.0
 11
2.085760323894728
 21
5.275776418425021
 31
0.0
  0
LINE
  5
102
330
1F
100
AcDbEntity
  8
0
  6
Continuous
 62
     7
370
    15
100
AcDbLine
 10
2.101934425909494
 20
5.215405462438643
 30
0.0
 11
2.109359032995747
 21
5.217394596732816
 31
0.0
  0
SPLINE
  5
103
330
1F
100
AcDbEntity
  8
0
  6
Continuous
 62
     7
370
    15
100
AcDbSpline
210
0.0
220
0.0
230
1.0
 70
     8
 71
     3
 72
    10
 73
     6
 74
     0
 42
0.0000000001
 43
0.0000000001
 40
0.0
 40
0.0
 40
0.0
 40
0.0
 40
0.3780012283429739
 40
0.7993031478901949
 40
0.9999999999999998
 40
0.9999999999999998
 40
0.9999999999999998
 40
0.9999999999999998
 10
2.152117757506184
 20
5.070713533658032
 30
0.0
 10
2.15185088238831
 20
5.069603380528559
 30
0.0
 10
2.151286561148546
 20
5.067255904318182
 30
0.0
 10
2.150977602322469
 20
5.064089653959943
 30
0.0
 10
2.15094645226765
 20
5.06207550895507
 30
0.0
 10
2.15093640125432
 20
5.061425616092591
 30
0.0
  0
SPLINE
  5
104
330
1F
100
AcDbEntity
  8
0
  6
Continuous
 62
     7
370
    15
100
AcDbSpline
210
0.0
220
0.0
230
1.0
 70
     8
 71
     3
 72
    16
 73
    12
 74
     0
 42
0.0000000001
 43
0.0000000001
 40
0.0
 40
0.0
 40
0.0
 40
0.0
 40
0.0689935088328957
 40
0.1996284447369754
 40
0.3303132906822809
 40
0.4609991997521433
 40
0.5917130853283794
 40
0.7224665461188794
 40
0.853302653326158
 40
0.9842121700537209
 40
1.0
 40
1.0
 40
1.0
 40
1.0
 10
2.15093640125432
 20
5.061425616092591
 30
0.0
 10
2.150948003185291
 20
5.060699492249784
 30
0.0
 10
2.150981572653998
 20
5.058598497882662
 30
0.0
 10
2.151354304673895
 20
5.055063737406182
 30
0.0
 10
2.152182442787279
 20
5.050887324352453
 30
0.0
 10
2.153405965672449
 20
5.046796109984814
 30
0.0
 10
2.154998279601489
 20
5.042872581025307
 30
0.0
 10
2.156925029489756
 20
5.039172520588395
 30
0.0
 10
2.159178293353597
 20
5.035821655580734
 30
0.0
 10
2.160904740449897
 20
5.033595270474717
 30
0.0
 10
2.161923045844171
 20
5.032637375207502
 30
0.0
 10
2.162032637685897
 20
5.032534284811335
 30
0.0
  0
LINE
  5
105
330
1F
100
AcDbEntity
  8
0
  6
Continuous
 62
     7
370
    15
100
AcDbLine
 10
2.172663931324058
 20
5.087869615047969
 30
0.0
 11
2.165239324237807
 21
5.085880480753796
 31
0.0
  0
LINE
  5
106
330
1F
100
AcDbEntity
  8
0
  6
Continuous
 62
     7
370
    15
100
AcDbLine
 10
2.181413426252574
 20
5.025509524767418
 30
0.0
 11
2.188838033338825
 21
5.027498659061591
 31
0.0
  0
LINE
  5
107
330
1F
100
AcDbEntity
  8
0
  6
Continuous
 62
     7
370
    15
100
AcDbLine
 10
1.829879588522452
 20
5.609145835345028
 30
0.0
 11
1.837233715790179
 21
5.607175583373171
 31
0.0
  0
LINE
  5
112
330
1F
100
AcDbEntity
  8
0
  6
Continuous
 62
     7
370
    15
100
AcDbLine
 10
4.329600752630494
 20
5.216375774450221
 30
0.0
 11
4.329600752630494
 21
4.650421966087266
 31
0.0
  0
LINE
  5
113
330
1F
100
AcDbEntity
  8
0
  6
Continuous
 62
     7
370
    15
100
AcDbLine
 10
4.624672166515059
 20
4.655255986388729
 30
0.0
 11
4.624672166515059
 21
4.665275798936078
 31
0.0
  0
LINE
  5
114
330
1F
100
AcDbEntity
  8
0
  6
Continuous
 62
     7
370
    15
100
AcDbLine
 10
6.468783089552361
 20
4.045321401823029
 30
0.0
 11
6.461429169700227
 21
4.043351205420101
 31
0.0
  0
LWPOLYLINE
  5
115
330
1F
100
AcDbEntity
  8
0
  6
Continuous
 62
     7
370
    15
100
AcDbPolyline
 90
       35
 70
   128
 43
0.0
 10
6.83948447187793
 20
4.181923128058196
 10
6.837135365837108
 20
4.179703095543204
 10
6.834082166824066
 20
4.177465914589871
 10
6.830909869777487
 20
4.175817628474737
 10
6.82768605069759
 20
4.174793411010223
 10
6.824479447111916
 20
4.17441506902211
 10
6.821358381716825
 20
4.174690648286359
 10
6.818389351951449
 20
4.17561428174589
 10
6.815635702537911
 20
4.177166314301113
 10
6.813156049122815
 20
4.179313615263931
 10
6.811003324165506
 20
4.182010481428846
 10
6.809223325028938
 20
4.185199378517937
 10
6.807854050249757
 20
4.188812374219467
 10
6.80692466246035
 20
4.192772442941715
 10
6.806454949108293
 20
4.196995186539129
 10
6.806454949108293
 20
4.201390599493601
 10
6.80692466246035
 20
4.205865054148152
 10
6.807854050249757
 20
4.210323109390905
 10
6.809223325028938
 20
4.214669764524516
 10
6.811003324165506
 20
4.218812424495607
 10
6.813156049122815
 20
4.222662768275903
 10
6.815635702537911
 20
4.226138722348127
 10
6.818389351951449
 20
4.229166221125054
 10
6.821358381716825
 20
4.231680726359515
 10
6.824479447111916
 20
4.233628641449651
 10
6.82768605069759
 20
4.234968468540651
 10
6.830909869777487
 20
4.235671644597582
 10
6.834082166824066
 20
4.235723145359612
 10
6.837135365837108
 20
4.235121935924563
 10
6.840004338320389
 20
4.233880806583901
 10
6.842627979640192
 20
4.232026173411489
 10
6.844950370552628
 20
4.229597626411026
 10
6.846922021697189
 20
4.226646878155957
 10
6.848500869191602
 20
4.223236843571466
 10
6.849494846196691
 20
4.220085321736597
  0
ARC
  5
116
330
1F
100
AcDbEntity
  8
0
  6
Continuous
 62
     7
370
    15
100
AcDbCircle
 10
6.849141882372192
 20
4.199570502383953
 30
0.0
 40
0.0413272319633666
100
AcDbArc
 50
139.0237078050819
 51
191.3412474829575
  0
LWPOLYLINE
  5
117
330
1F
100
AcDbEntity
  8
0
  6
Continuous
 62
     7
370
    15
100
AcDbPolyline
 90
       23
 70
   128
 43
0.0
 10
6.829155486466661
 20
4.237271772276585
 10
6.826657538996256
 20
4.237712285210678
 10
6.823485241949676
 20
4.237660784448648
 10
6.820261422869779
 20
4.236957608391716
 10
6.817054819284106
 20
4.235617781300716
 10
6.813933753889013
 20
4.23366986621058
 10
6.810964724123638
 20
4.23115536097612
 10
6.808211074710101
 20
4.228127862199193
 10
6.805731421295003
 20
4.224651908126969
 10
6.803578696337696
 20
4.220801564346672
 10
6.801798697201127
 20
4.216658904375582
 10
6.800429422421947
 20
4.21231224924197
 10
6.79950003463254
 20
4.207854193999217
 10
6.799030321280483
 20
4.203379739344667
 10
6.799030321280483
 20
4.198984326390194
 10
6.79950003463254
 20
4.194761582792781
 10
6.800429422421947
 20
4.190801514070533
 10
6.801798697201127
 20
4.187188518369003
 10
6.803578696337696
 20
4.183999621279911
 10
6.805731421295003
 20
4.181302755114997
 10
6.808211074710101
 20
4.179155454152179
 10
6.810964724123638
 20
4.177603421596956
 10
6.812981425935012
 20
4.17690081327365
  0
ARC
  5
118
330
1F
100
AcDbEntity
  8
0
  6
Continuous
 62
     7
370
    15
100
AcDbCircle
 10
6.543603022747878
 20
4.55766799309488
 30
0.0
 40
0.0197756486051397
100
AcDbArc
 50
289.2312488701804
 51
351.2860553986003
  0
ARC
  5
119
330
1F
100
AcDbEntity
  8
0
  6
Continuous
 62
     7
370
    15
100
AcDbCircle
 10
6.537367208063972
 20
4.579219580723522
 30
0.0
 40
0.0204361955214255
100
AcDbArc
 50
39.95558487281774
 51
99.64655207919859
  0
ARC
  5
11A
330
1F
100
AcDbEntity
  8
0
  6
Continuous
 62
     7
370
    15
100
AcDbCircle
 10
6.545147711725913
 20
4.582181052962462
 30
0.0
 40
0.0195439986265061
100
AcDbArc
 50
38.49842909222349
 51
101.152993645822
  0
ARC
  5
11B
330
1F
100
AcDbEntity
  8
0
  6
Continuous
 62
     7
370
    15
100
AcDbCircle
 10
6.550214332862881
 20
4.560332581005429
 30
0.0
 40
0.0206884860001788
100
AcDbArc
 50
290.7419675612575
 51
349.7506362478858
  0
ARC
  5
11C
330
1F
100
AcDbEntity
  8
0
  6
Continuous
 62
     7
370
    15
100
AcDbCircle
 10
6.468508243384213
 20
4.409184102210367
 30
0.0
 40
0.019775700827551
100
AcDbArc
 50
289.2313398806961
 51
351.2859643880823
  0
ARC
  5
11D
330
1F
100
AcDbEntity
  8
0
  6
Continuous
 62
     7
370
    15
100
AcDbCircle
 10
6.462272455532621
 20
4.43073562249339
 30
0.0
 40
0.020436229101998
100
AcDbArc
 50
39.95560981279498
 51
99.64653810514761
  0
ARC
  5
11E
330
1F
100
AcDbEntity
  8
0
  6
Continuous
 62
     7
370
    15
100
AcDbCircle
 10
6.470052961186767
 20
4.433697100417798
 30
0.0
 40
0.019544026871695
100
AcDbArc
 50
38.49844825678552
 51
101.152985404934
  0
ARC
  5
11F
330
1F
100
AcDbEntity
  8
0
  6
Continuous
 62
     7
370
    15
100
AcDbCircle
 10
6.475119566733563
 20
4.411848679129665
 30
0.0
 40
0.0206885240666537
100
AcDbArc
 50
290.7420272172919
 51
349.7505765918559
  0
LWPOLYLINE
  5
120
330
1F
100
AcDbEntity
  8
0
  6
Continuous
 62
     7
370
    15
100
AcDbPolyline
 90
       35
 70
   128
 43
0.0
 10
6.760005678950443
 20
4.377404698090306
 10
6.757656572909622
 20
4.375184665575314
 10
6.75460337389658
 20
4.372947484621982
 10
6.751431076850001
 20
4.371299226767535
 10
6.748207257770102
 20
4.370275009303021
 10
6.745000654184431
 20
4.36989663905422
 10
6.741879588789338
 20
4.370172246579158
 10
6.738910559023961
 20
4.371095851778002
 10
6.736156909610426
 20
4.372647856072537
 10
6.733677256195329
 20
4.374795185296043
 10
6.731524531238021
 20
4.377492051460957
 10
6.729744532101452
 20
4.380680920289361
 10
6.728375257322271
 20
4.38429391599089
 10
6.727445869532864
 20
4.388254012973826
 10
6.726976156180809
 20
4.392476756571239
 10
6.726976156180809
 20
4.3968721977864
 10
6.727445869532864
 20
4.401346624180263
 10
6.728375257322271
 20
4.405804651162329
 10
6.729744532101452
 20
4.410151334556627
 10
6.731524531238021
 20
4.414294022788404
 10
6.733677256195329
 20
4.418144366568702
 10
6.736156909610426
 20
4.421620292380239
 10
6.738910559023961
 20
4.424647819417852
 10
6.741879588789338
 20
4.427162296391625
 10
6.745000654184431
 20
4.429110239742449
 10
6.748207257770102
 20
4.430450038572762
 10
6.751431076850001
 20
4.431153214629693
 10
6.75460337389658
 20
4.43120474365241
 10
6.757656572909622
 20
4.43060353421736
 10
6.760525545392902
 20
4.429362376616012
 10
6.763149186712706
 20
4.4275077434436
 10
6.765471577625141
 20
4.425079196443137
 10
6.767443187286584
 20
4.422128465334969
 10
6.769022034780999
 20
4.41871840248979
 10
6.770016011786085
 20
4.415566908915609
  0
ARC
  5
121
330
1F
100
AcDbEntity
  8
0
  6
Continuous
 62
     7
370
    15
100
AcDbCircle
 10
6.769663179546593
 20
4.395052048580637
 30
0.0
 40
0.0413273156186005
100
AcDbArc
 50
139.0237647700758
 51
191.3411905179621
  0
LWPOLYLINE
  5
122
330
1F
100
AcDbEntity
  8
0
  6
Continuous
 62
     7
370
    15
100
AcDbPolyline
 90
       23
 70
   128
 43
0.0
 10
6.749676693539175
 20
4.432753314048009
 10
6.747178746068769
 20
4.433193883503475
 10
6.74400644902219
 20
4.433142354480758
 10
6.740782629942293
 20
4.432439178423828
 10
6.737576026356619
 20
4.431099379593515
 10
6.734454960961527
 20
4.429151436242691
 10
6.731485931196151
 20
4.426636959268918
 10
6.728732281782614
 20
4.423609432231304
 10
6.726252628367519
 20
4.420133506419768
 10
6.72409990341021
 20
4.41628316263947
 10
6.722319904273642
 20
4.412140474407693
 10
6.720950629494461
 20
4.407793791013395
 10
6.720021241705053
 20
4.403335764031329
 10
6.719551528352997
 20
4.398861337637465
 10
6.719551528352997
 20
4.394465896422305
 10
6.720021241705053
 20
4.390243152824893
 10
6.720950629494461
 20
4.386283055841956
 10
6.722319904273642
 20
4.382670060140426
 10
6.72409990341021
 20
4.379481191312023
 10
6.726252628367519
 20
4.376784325147109
 10
6.728732281782614
 20
4.374636995923603
 10
6.731485931196151
 20
4.373084991629068
 10
6.733502633007527
 20
4.372382383305761
  0
LWPOLYLINE
  5
123
330
1F
100
AcDbEntity
  8
0
  6
Continuous
 62
     7
370
    15
100
AcDbPolyline
 90
        3
 70
   128
 43
0.0
 10
6.850672199327608
 20
4.005807471565234
 10
6.850674613126572
 20
4.005912050207117
 10
6.850694460206133
 20
4.00612356291889
  0
ARC
  5
124
330
1F
100
AcDbEntity
  8
0
  6
Continuous
 62
     7
370
    15
100
AcDbCircle
 10
6.882421257692196
 20
3.942522264181861
 30
0.0
 40
0.0728767779677011
100
AcDbArc
 50
68.5853986976749
 51
113.7054184614381
  0
ARC
  5
125
330
1F
100
AcDbEntity
  8
0
  6
Continuous
 62
     7
370
    15
100
AcDbCircle
 10
6.881805676036127
 20
4.065714923205796
 30
0.0
 40
0.0678053864637848
100
AcDbArc
 50
245.0170320231325
 51
295.4606483018253
  0
ARC
  5
126
330
1F
100
AcDbEntity
  8
0
  6
Continuous
 62
     7
370
    15
100
AcDbCircle
 10
6.881787802890651
 20
4.058065079605352
 30
0.0
 40
0.0720681614148168
100
AcDbArc
 50
247.4855880315608
 51
293.1688805314599
  0
LWPOLYLINE
  5
127
330
1F
100
AcDbEntity
  8
0
  6
Continuous
 62
     7
370
    15
100
AcDbPolyline
 90
       35
 70
   128
 43
0.0
 10
6.83948447187793
 20
4.567300583725188
 10
6.837135365837108
 20
4.565080551210196
 10
6.834082166824066
 20
4.562843370256864
 10
6.830909869777487
 20
4.561195112402416
 10
6.82768605069759
 20
4.560170894937902
 10
6.824479447111916
 20
4.559792524689102
 10
6.821358381716825
 20
4.560068132214039
 10
6.818389351951449
 20
4.560991737412884
 10
6.815635702537911
 20
4.562543741707418
 10
6.813156049122815
 20
4.564691070930924
 10
6.811003324165506
 20
4.567387937095839
 10
6.809223325028938
 20
4.570576805924242
 10
6.807854050249757
 20
4.574189801625772
 10
6.80692466246035
 20
4.578149898608708
 10
6.806454949108293
 20
4.582372642206121
 10
6.806454949108293
 20
4.586768083421282
 10
6.80692466246035
 20
4.591242509815145
 10
6.807854050249757
 20
4.59570053679721
 10
6.809223325028938
 20
4.600047220191509
 10
6.811003324165506
 20
4.604189908423286
 10
6.813156049122815
 20
4.608040252203584
 10
6.815635702537911
 20
4.61151617801512
 10
6.818389351951449
 20
4.614543705052734
 10
6.821358381716825
 20
4.617058182026507
 10
6.824479447111916
 20
4.619006125377331
 10
6.82768605069759
 20
4.620345924207644
 10
6.830909869777487
 20
4.621049100264574
 10
6.834082166824066
 20
4.621100629287291
 10
6.837135365837108
 20
4.620499419852242
 10
6.840004338320389
 20
4.619258262250894
 10
6.842627979640192
 20
4.617403629078482
 10
6.844950370552628
 20
4.614975082078018
 10
6.846922021697189
 20
4.612024362083637
 10
6.848500869191602
 20
4.608614299238458
 10
6.849494846196691
 20
4.605462805664276
  0
ARC
  5
128
330
1F
100
AcDbEntity
  8
0
  6
Continuous
 62
     7
370
    15
100
AcDbCircle
 10
6.849141972474058
 20
4.584947934215525
 30
0.0
 40
0.0413273156185808
100
AcDbArc
 50
139.0237647700629
 51
191.3411905179763
  0
LWPOLYLINE
  5
129
330
1F
100
AcDbEntity
  8
0
  6
Continuous
 62
     7
370
    15
100
AcDbPolyline
 90
       23
 70
   128
 43
0.0
 10
6.829155486466661
 20
4.622649199682891
 10
6.826657538996256
 20
4.623089769138357
 10
6.823485241949676
 20
4.62303824011564
 10
6.820261422869779
 20
4.622335064058709
 10
6.817054819284106
 20
4.620995265228397
 10
6.813933753889013
 20
4.619047321877573
 10
6.810964724123638
 20
4.6165328449038
 10
6.808211074710101
 20
4.613505317866185
 10
6.805731421295003
 20
4.610029392054649
 10
6.803578696337696
 20
4.606179048274352
 10
6.801798697201127
 20
4.602036360042575
 10
6.800429422421947
 20
4.597689676648275
 10
6.79950003463254
 20
4.59323164966621
 10
6.799030321280483
 20
4.588757223272347
 10
6.799030321280483
 20
4.584361782057187
 10
6.79950003463254
 20
4.580139038459773
 10
6.800429422421947
 20
4.576178941476837
 10
6.801798697201127
 20
4.572565945775308
 10
6.803578696337696
 20
4.569377076946905
 10
6.805731421295003
 20
4.56668021078199
 10
6.808211074710101
 20
4.564532881558485
 10
6.810964724123638
 20
4.562980877263949
 10
6.812981425935012
 20
4.562278268940643
  0
LWPOLYLINE
  5
12A
330
1F
100
AcDbEntity
  8
0
  6
Continuous
 62
     7
370
    15
100
AcDbPolyline
 90
        3
 70
   128
 43
0.0
 10
6.779961506507336
 20
4.034223727367423
 10
6.779963964382114
 20
4.03432831642848
 10
6.779983814054371
 20
4.03453982844564
  0
ARC
  5
12B
330
1F
100
AcDbEntity
  8
0
  6
Continuous
 62
     7
370
    15
100
AcDbCircle
 10
6.81171056789401
 20
3.970938697101937
 30
0.0
 40
0.0728766119741558
100
AcDbArc
 50
68.58535006728875
 51
113.705471679916
  0
ARC
  5
12C
330
1F
100
AcDbEntity
  8
0
  6
Continuous
 62
     7
370
    15
100
AcDbCircle
 10
6.81109498396811
 20
4.094131137989061
 30
0.0
 40
0.0678053486697729
100
AcDbArc
 50
245.0170212753476
 51
295.4606621969846
  0
ARC
  5
12D
330
1F
100
AcDbEntity
  8
0
  6
Continuous
 62
     7
370
    15
100
AcDbCircle
 10
6.811077155418186
 20
4.086481094449919
 30
0.0
 40
0.072067928982044
100
AcDbArc
 50
247.4855148025849
 51
293.168957392687
  0
LWPOLYLINE
  5
12E
330
1F
100
AcDbEntity
  8
0
  6
Continuous
 62
     7
370
    15
100
AcDbPolyline
 90
        3
 70
   128
 43
0.0
 10
6.965506320516365
 20
4.027100715106455
 10
6.965508773205754
 20
4.027205305556735
 10
6.96552862287801
 20
4.027416817573897
  0
ARC
  5
12F
330
1F
100
AcDbEntity
  8
0
  6
Continuous
 62
     7
370
    15
100
AcDbCircle
 10
6.997255382386106
 20
3.963815743230343
 30
0.0
 40
0.0728765572390938
100
AcDbArc
 50
68.58533506069425
 51
113.7054620488011
  0
ARC
  5
130
330
1F
100
AcDbEntity
  8
0
  6
Continuous
 62
     7
370
    15
100
AcDbCircle
 10
6.99663983894974
 20
4.087007997304812
 30
0.0
 40
0.0678052229039481
100
AcDbArc
 50
245.0169673998833
 51
295.4607132747799
  0
ARC
  5
131
330
1F
100
AcDbEntity
  8
0
  6
Continuous
 62
     7
370
    15
100
AcDbCircle
 10
6.996621965817719
 20
4.079358102543032
 30
0.0
 40
0.0720679474560038
100
AcDbArc
 50
247.4855173030307
 51
293.1689519864399
  0
ARC
  5
132
330
1F
100
AcDbEntity
  8
0
  6
Continuous
 62
     7
370
    15
100
AcDbCircle
 10
6.543603145986003
 20
4.1722904349633
 30
0.0
 40
0.019775511266191
100
AcDbArc
 50
289.2310095202544
 51
351.2862947485248
  0
ARC
  5
133
330
1F
100
AcDbEntity
  8
0
  6
Continuous
 62
     7
370
    15
100
AcDbCircle
 10
6.537367219103994
 20
4.193842288942345
 30
0.0
 40
0.0204360636640089
100
AcDbArc
 50
39.95519180349307
 51
99.64664631188412
  0
ARC
  5
134
330
1F
100
AcDbEntity
  8
0
  6
Continuous
 62
     7
370
    15
100
AcDbCircle
 10
6.545147555194021
 20
4.196803248581351
 30
0.0
 40
0.0195443382052606
100
AcDbArc
 50
38.49894350358542
 51
101.1523296615386
  0
ARC
  5
135
330
1F
100
AcDbEntity
  8
0
  6
Continuous
 62
     7
370
    15
100
AcDbCircle
 10
6.550214332862879
 20
4.174955125338438
 30
0.0
 40
0.0206884860001822
100
AcDbArc
 50
290.7419675612618
 51
349.7506362478799
  0
ARC
  5
136
330
1F
100
AcDbEntity
  8
0
  6
Continuous
 62
     7
370
    15
100
AcDbCircle
 10
6.46850840867205
 20
3.951548249061865
 30
0.0
 40
0.0197755204522626
100
AcDbArc
 50
289.2310149981062
 51
351.286213102831
  0
ARC
  5
137
330
1F
100
AcDbEntity
  8
0
  6
Continuous
 62
     7
370
    15
100
AcDbCircle
 10
6.462272485616515
 20
3.97310007430154
 30
0.0
 40
0.0204360754360046
100
AcDbArc
 50
39.95522690183796
 51
99.64669688880203
  0
ARC
  5
138
330
1F
100
AcDbEntity
  8
0
  6
Continuous
 62
     7
370
    15
100
AcDbCircle
 10
6.470052832954181
 20
3.976061066761252
 30
0.0
 40
0.0195443204217866
100
AcDbArc
 50
38.49892629349067
 51
101.1524325818323
  0
ARC
  5
139
330
1F
100
AcDbEntity
  8
0
  6
Continuous
 62
     7
370
    15
100
AcDbCircle
 10
6.47511959574919
 20
3.954212939371666
 30
0.0
 40
0.0206884951008854
100
AcDbArc
 50
290.7419716701555
 51
349.7505686215732
  0
LWPOLYLINE
  5
13A
330
1F
100
AcDbEntity
  8
0
  6
Continuous
 62
     7
370
    15
100
AcDbPolyline
 90
        3
 70
   128
 43
0.0
 10
4.542002741002566
 20
4.645843913533184
 10
4.541997472646502
 20
4.645690998952404
 10
4.541986811485019
 20
4.645577093760281
  0
ARC
  5
13B
330
1F
100
AcDbEntity
  8
0
  6
Continuous
 62
     7
370
    15
100
AcDbCircle
 10
4.528392622066498
 20
4.658862851420471
 30
0.0
 40
0.0182476061463361
100
AcDbArc
 50
278.7667444471472
 51
310.2861777767534
  0
ARC
  5
13C
330
1F
100
AcDbEntity
  8
0
  6
Continuous
 62
     7
370
    15
100
AcDbCircle
 10
4.524428319819055
 20
4.622982470554693
 30
0.0
 40
0.0305576265919877
100
AcDbArc
 50
65.47976508313368
 51
77.24701324558381
  0
LWPOLYLINE
  5
13D
330
1F
100
AcDbEntity
  8
0
  6
Continuous
 62
     7
370
    15
100
AcDbPolyline
 90
        3
 70
   128
 43
0.0
 10
4.541993739165827
 20
4.635526797808905
 10
4.541997472646502
 20
4.635574831591748
 10
4.542002741002566
 20
4.635727746172528
  0
ARC
  5
13E
330
1F
100
AcDbEntity
  8
0
  6
Continuous
 62
     7
370
    15
100
AcDbCircle
 10
4.525729912700393
 20
4.654458300513762
 30
0.0
 40
0.0262437384351358
100
AcDbArc
 50
281.9720738133263
 51
298.8718446652578
  0
ARC
  5
13F
330
1F
100
AcDbEntity
  8
0
  6
Continuous
 62
     7
370
    15
100
AcDbCircle
 10
1.863208565684591
 20
5.236756819569528
 30
0.0
 40
0.0192952771927245
100
AcDbArc
 50
78.39512261904473
 51
141.9621638105301
  0
ARC
  5
140
330
1F
100
AcDbEntity
  8
0
  6
Continuous
 62
     7
370
    15
100
AcDbCircle
 10
1.857594928593447
 20
5.214048646538308
 30
0.0
 40
0.019915304576479
100
AcDbArc
 50
190.310904380597
 51
250.4049425745348
  0
ARC
  5
141
330
1F
100
AcDbEntity
  8
0
  6
Continuous
 62
     7
370
    15
100
AcDbCircle
 10
1.877656495337572
 20
5.220792754794898
 30
0.0
 40
0.0391902785403907
100
AcDbArc
 50
131.3244627881877
 51
173.2827569160858
  0
ARC
  5
142
330
1F
100
AcDbEntity
  8
0
  6
Continuous
 62
     7
370
    15
100
AcDbCircle
 10
1.849390601941728
 20
5.215333877784495
 30
0.0
 40
0.0189972253871164
100
AcDbArc
 50
189.6772663141141
 51
251.907934224764
  0
ARC
  5
143
330
1F
100
AcDbEntity
  8
0
  6
Continuous
 62
     7
370
    15
100
AcDbCircle
 10
1.856062514307937
 20
5.238470982659193
 30
0.0
 40
0.0195113692523528
100
AcDbArc
 50
79.35949455020793
 51
134.8992428570501
  0
ARC
  5
144
330
1F
100
AcDbEntity
  8
0
  6
Continuous
 62
     7
370
    15
100
AcDbCircle
 10
6.543603192469976
 20
3.786912951763796
 30
0.0
 40
0.0197754632883617
100
AcDbArc
 50
289.2309153737471
 51
351.2863127271876
  0
ARC
  5
145
330
1F
100
AcDbEntity
  8
0
  6
Continuous
 62
     7
370
    15
100
AcDbCircle
 10
6.537367228521461
 20
3.808464815269619
 30
0.0
 40
0.0204360725453366
100
AcDbArc
 50
39.95526264021704
 51
99.64666886154269
  0
ARC
  5
146
330
1F
100
AcDbEntity
  8
0
  6
Continuous
 62
     7
370
    15
100
AcDbCircle
 10
6.545147581761479
 20
3.811425836228725
 30
0.0
 40
0.0195442904498519
100
AcDbArc
 50
38.49889260999324
 51
101.1524366449562
  0
ARC
  5
147
330
1F
100
AcDbEntity
  8
0
  6
Continuous
 62
     7
370
    15
100
AcDbCircle
 10
6.550214351556234
 20
3.789577666167817
 30
0.0
 40
0.0206884694959669
100
AcDbArc
 50
290.7419295125616
 51
349.7505980756581
  0
ARC
  5
148
330
1F
100
AcDbEntity
  8
0
  6
Continuous
 62
     7
370
    15
100
AcDbCircle
 10
6.552371342381071
 20
3.896265505439634
 30
0.0
 40
0.0197754306617545
100
AcDbArc
 50
289.2308591705133
 51
351.2863736909253
  0
ARC
  5
149
330
1F
100
AcDbEntity
  8
0
  6
Continuous
 62
     7
370
    15
100
AcDbCircle
 10
6.546135315335263
 20
3.917817276431678
 30
0.0
 40
0.0204361869077563
100
AcDbArc
 50
39.95540621904701
 51
99.64651757160559
  0
ARC
  5
14A
330
1F
100
AcDbEntity
  8
0
  6
Continuous
 62
     7
370
    15
100
AcDbCircle
 10
6.553915689119121
 20
3.920778382459959
 30
0.0
 40
0.0195443238655874
100
AcDbArc
 50
38.49895223388152
 51
101.1523770210716
  0
ARC
  5
14B
330
1F
100
AcDbEntity
  8
0
  6
Continuous
 62
     7
370
    15
100
AcDbCircle
 10
6.558982795469269
 20
3.898929974393716
 30
0.0
 40
0.0206881027055568
100
AcDbArc
 50
290.7413574740001
 51
349.7511875815324
  0
LINE
  5
14C
330
1F
100
AcDbEntity
  8
0
  6
Continuous
 62
     7
370
    15
100
AcDbLine
 10
4.516043642452464
 20
5.0714003067458
 30
0.0
 11
4.516421346247436
 21
5.071304520776412
 31
0.0
  0
ARC
  5
14D
330
1F
100
AcDbEntity
  8
0
  6
Continuous
 62
     7
370
    15
100
AcDbCircle
 10
4.506926423840162
 20
5.029695696053551
 30
0.0
 40
0.0199155092419745
100
AcDbArc
 50
190.3112817166013
 51
250.4047356426787
  0
ARC
  5
14E
330
1F
100
AcDbEntity
  8
0
  6
Continuous
 62
     7
370
    15
100
AcDbCircle
 10
4.498722132745325
 20
5.030980722389679
 30
0.0
 40
0.0189972350861816
100
AcDbArc
 50
189.6773297539728
 51
251.9079246642498
  0
LWPOLYLINE
  5
14F
330
1F
100
AcDbEntity
  8
0
  6
Continuous
 62
     7
370
    15
100
AcDbPolyline
 90
       18
 70
   128
 43
0.0
 10
4.422248154146111
 20
5.212777041394455
 10
4.424597301670051
 20
5.214997085023234
 10
4.427650500683093
 20
5.217234265976566
 10
4.430822797729673
 20
5.218882523831013
 10
4.43404661680957
 20
5.219906741295528
 10
4.437253220395243
 20
5.220285111544328
 10
4.440374285790335
 20
5.22000950401939
 10
4.443343315555711
 20
5.219085898820546
 10
4.446096964969248
 20
5.217533838004636
 10
4.448576576901226
 20
5.215386554188719
 10
4.450729343341652
 20
5.212689699137591
 10
4.452509342478221
 20
5.209500773787813
 10
4.453878617257402
 20
5.205887778086284
 10
4.454808005046809
 20
5.201927737624722
 10
4.455277718398866
 20
5.197704994027309
 10
4.455277718398866
 20
5.193309552812148
 10
4.454808005046809
 20
5.188835126418285
 10
4.454047536516394
 20
5.185044598585268
  0
ARC
  5
150
330
1F
100
AcDbEntity
  8
0
  6
Continuous
 62
     7
370
    15
100
AcDbCircle
 10
4.451061201218791
 20
5.185634981666612
 30
0.0
 40
0.0381071692084713
100
AcDbArc
 50
131.0916097880231
 51
164.6974783846478
  0
ARC
  5
151
330
1F
100
AcDbEntity
  8
0
  6
Continuous
 62
     7
370
    15
100
AcDbCircle
 10
4.430299119899205
 20
5.20260212181815
 30
0.0
 40
0.0195110047241847
100
AcDbArc
 50
79.3588595779738
 51
134.8997076132856
  0
ARC
  5
152
330
1F
100
AcDbEntity
  8
0
  6
Continuous
 62
     7
370
    15
100
AcDbCircle
 10
4.490674234478855
 20
4.336915295914613
 30
0.0
 40
0.0197756335583781
100
AcDbArc
 50
289.2317021327739
 51
351.2862932900047
  0
ARC
  5
153
330
1F
100
AcDbEntity
  8
0
  6
Continuous
 62
     7
370
    15
100
AcDbCircle
 10
4.484438616087242
 20
4.358467363803723
 30
0.0
 40
0.0204358331410467
100
AcDbArc
 50
39.95487751918344
 51
99.6470539825828
  0
ARC
  5
154
330
1F
100
AcDbEntity
  8
0
  6
Continuous
 62
     7
370
    15
100
AcDbCircle
 10
4.492218940910508
 20
4.361428450242597
 30
0.0
 40
0.0195439849981177
100
AcDbArc
 50
38.49847252056921
 51
101.152813039053
  0
ARC
  5
155
330
1F
100
AcDbEntity
  8
0
  6
Continuous
 62
     7
370
    15
100
AcDbCircle
 10
4.497286903469965
 20
4.339578745173608
 30
0.0
 40
0.0206869289855315
100
AcDbArc
 50
290.7399990254651
 51
349.7532961440609
  0
ARC
  5
156
330
1F
100
AcDbEntity
  8
0
  6
Continuous
 62
     7
370
    15
100
AcDbCircle
 10
4.411195171890835
 20
4.502725505041325
 30
0.0
 40
0.0197760912330136
100
AcDbArc
 50
289.2319397067108
 51
351.2851787772079
  0
ARC
  5
157
330
1F
100
AcDbEntity
  8
0
  6
Continuous
 62
     7
370
    15
100
AcDbCircle
 10
4.404959791302719
 20
4.524277200572101
 30
0.0
 40
0.020435802452326
100
AcDbArc
 50
39.95481684058335
 51
99.64709598389868
  0
ARC
  5
158
330
1F
100
AcDbEntity
  8
0
  6
Continuous
 62
     7
370
    15
100
AcDbCircle
 10
4.412739929575696
 20
4.527237481629231
 30
0.0
 40
0.0195447088045006
100
AcDbArc
 50
38.49952556990547
 51
101.1518660765427
  0
ARC
  5
159
330
1F
100
AcDbEntity
  8
0
  6
Continuous
 62
     7
370
    15
100
AcDbCircle
 10
4.417805807399496
 20
4.505390655659278
 30
0.0
 40
0.0206896999236517
100
AcDbArc
 50
290.743790553445
 51
349.7486400842026
  0
ARC
  5
15A
330
1F
100
AcDbEntity
  8
0
  6
Continuous
 62
     7
370
    15
100
AcDbCircle
 10
4.39351827350438
 20
4.387030386823666
 30
0.0
 40
0.0197751064057129
100
AcDbArc
 50
289.2302233859055
 51
351.2868950980091
  0
ARC
  5
15B
330
1F
100
AcDbEntity
  8
0
  6
Continuous
 62
     7
370
    15
100
AcDbCircle
 10
4.387281902296527
 20
4.408582034587205
 30
0.0
 40
0.0204364878432653
100
AcDbArc
 50
39.95591938015819
 51
99.64599344432013
  0
ARC
  5
15C
330
1F
100
AcDbEntity
  8
0
  6
Continuous
 62
     7
370
    15
100
AcDbCircle
 10
4.395062483992426
 20
4.411543812597545
 30
0.0
 40
0.019544000705571
100
AcDbArc
 50
38.49850054837757
 51
101.1527850112469
  0
ARC
  5
15D
330
1F
100
AcDbEntity
  8
0
  6
Continuous
 62
     7
370
    15
100
AcDbCircle
 10
4.400130822991945
 20
4.389693944236473
 30
0.0
 40
0.0206865320439419
100
AcDbArc
 50
290.7388278127995
 51
349.7536155283468
  0
LWPOLYLINE
  5
15E
330
1F
100
AcDbEntity
  8
0
  6
Continuous
 62
     7
370
    15
100
AcDbPolyline
 90
        3
 70
   128
 43
0.0
 10
4.601781491282529
 20
4.674764096174463
 10
4.601776430342058
 20
4.674611148252324
 10
4.601765727697456
 20
4.674497231946416
  0
ARC
  5
15F
330
1F
100
AcDbEntity
  8
0
  6
Continuous
 62
     7
370
    15
100
AcDbCircle
 10
4.569705738871822
 20
4.735692644738381
 30
0.0
 40
0.0688390470045811
100
AcDbArc
 50
252.6188375263472
 51
296.0811385232437
  0
ARC
  5
160
330
1F
100
AcDbEntity
  8
0
  6
Continuous
 62
     7
370
    15
100
AcDbCircle
 10
4.570569327565486
 20
4.603729623066215
 30
0.0
 40
0.0804045598005456
100
AcDbArc
 50
70.89261553414003
 51
109.3118346609257
  0
LWPOLYLINE
  5
161
330
1F
100
AcDbEntity
  8
0
  6
Continuous
 62
     7
370
    15
100
AcDbPolyline
 90
        3
 70
   128
 43
0.0
 10
4.544885444398108
 20
4.671429752444371
 10
4.54625500955912
 20
4.670892367552701
 10
4.549141653850929
 20
4.669996885364184
  0
LWPOLYLINE
  5
162
330
1F
100
AcDbEntity
  8
0
  6
Continuous
 62
     7
370
    15
100
AcDbPolyline
 90
        3
 70
   128
 43
0.0
 10
4.60177248944579
 20
4.664446980450184
 10
4.601776430342058
 20
4.664494980891668
 10
4.601781491282529
 20
4.664647928813807
  0
ARC
  5
163
330
1F
100
AcDbEntity
  8
0
  6
Continuous
 62
     7
370
    15
100
AcDbCircle
 10
4.569901055420964
 20
4.734652988292076
 30
0.0
 40
0.079458862955967
100
AcDbArc
 50
254.855176440231
 51
290.8486785215848
  0
LWPOLYLINE
  5
164
330
1F
100
AcDbEntity
  8
0
  6
Continuous
 62
     7
370
    15
100
AcDbPolyline
 90
        3
 70
   128
 43
0.0
 10
4.632752787639057
 20
4.626229126040846
 10
4.632747519282993
 20
4.626076211460065
 10
4.632737024053985
 20
4.625962261812799
  0
ARC
  5
165
330
1F
100
AcDbEntity
  8
0
  6
Continuous
 62
     7
370
    15
100
AcDbCircle
 10
4.600676990394752
 20
4.687157854523335
 30
0.0
 40
0.0688392283132796
100
AcDbArc
 50
252.6188876848729
 51
296.0811062030875
  0
ARC
  5
166
330
1F
100
AcDbEntity
  8
0
  6
Continuous
 62
     7
370
    15
100
AcDbCircle
 10
4.601540619223599
 20
4.555194534867349
 30
0.0
 40
0.0804046728991781
100
AcDbArc
 50
70.8926399104221
 51
109.3118341942336
  0
LWPOLYLINE
  5
167
330
1F
100
AcDbEntity
  8
0
  6
Continuous
 62
     7
370
    15
100
AcDbPolyline
 90
        3
 70
   128
 43
0.0
 10
4.575856699271518
 20
4.622894771196968
 10
4.577226305915648
 20
4.622357397419084
 10
4.580112908724339
 20
4.621461904116781
  0
LWPOLYLINE
  5
168
330
1F
100
AcDbEntity
  8
0
  6
Continuous
 62
     7
370
    15
100
AcDbPolyline
 90
        3
 70
   128
 43
0.0
 10
4.632743785802318
 20
4.615912010316566
 10
4.632747519282993
 20
4.615960044099409
 10
4.632752787639057
 20
4.61611295868019
  0
ARC
  5
169
330
1F
100
AcDbEntity
  8
0
  6
Continuous
 62
     7
370
    15
100
AcDbCircle
 10
4.600872302982533
 20
4.686118153819635
 30
0.0
 40
0.0794590027229436
100
AcDbArc
 50
254.8552091800523
 51
290.848645781765
  0
ARC
  5
16A
330
1F
100
AcDbEntity
  8
0
  6
Continuous
 62
     7
370
    15
100
AcDbCircle
 10
1.938303197957125
 20
5.473650650395964
 30
0.0
 40
0.0192949931950668
100
AcDbArc
 50
78.39477134625396
 51
141.9625588080016
  0
ARC
  5
16B
330
1F
100
AcDbEntity
  8
0
  6
Continuous
 62
     7
370
    15
100
AcDbCircle
 10
1.93268953963772
 20
5.45094209778048
 30
0.0
 40
0.0199151692012054
100
AcDbArc
 50
190.310715832095
 51
250.4053015271869
  0
ARC
  5
16C
330
1F
100
AcDbEntity
  8
0
  6
Continuous
 62
     7
370
    15
100
AcDbCircle
 10
1.952751561785127
 20
5.457686217633539
 30
0.0
 40
0.039190576008301
100
AcDbArc
 50
131.324811263835
 51
173.2827198622417
  0
ARC
  5
16D
330
1F
100
AcDbEntity
  8
0
  6
Continuous
 62
     7
370
    15
100
AcDbCircle
 10
1.924485272042191
 20
5.452227328106427
 30
0.0
 40
0.0189971107955348
100
AcDbArc
 50
189.6771034848572
 51
251.9081509333609
  0
ARC
  5
16E
330
1F
100
AcDbEntity
  8
0
  6
Continuous
 62
     7
370
    15
100
AcDbCircle
 10
1.93115738654682
 20
5.475363923508009
 30
0.0
 40
0.0195119136713157
100
AcDbArc
 50
79.36033635062911
 51
134.8984010566326
  0
ARC
  5
16F
330
1F
100
AcDbEntity
  8
0
  6
Continuous
 62
     7
370
    15
100
AcDbCircle
 10
1.937399051637576
 20
5.860336672369597
 30
0.0
 40
0.0177828781904763
100
AcDbArc
 50
10.04198230988932
 51
143.488416463626
  0
ARC
  5
170
330
1F
100
AcDbEntity
  8
0
  6
Continuous
 62
     7
370
    15
100
AcDbCircle
 10
1.930681796369832
 20
5.835136655648987
 30
0.0
 40
0.0177463672337613
100
AcDbArc
 50
187.712625137569
 51
320.3943633722358
  0
ARC
  5
171
330
1F
100
AcDbEntity
  8
0
  6
Continuous
 62
     7
370
    15
100
AcDbCircle
 10
1.952751587897369
 20
5.843063654379538
 30
0.0
 40
0.0391906074601721
100
AcDbArc
 50
131.3248216668035
 51
173.2826558226022
  0
ARC
  5
172
330
1F
100
AcDbEntity
  8
0
  6
Continuous
 62
     7
370
    15
100
AcDbCircle
 10
1.924485314746555
 20
5.837604820625249
 30
0.0
 40
0.0189971590868945
100
AcDbArc
 50
189.6771913989112
 51
251.9080630193039
  0
ARC
  5
173
330
1F
100
AcDbEntity
  8
0
  6
Continuous
 62
     7
370
    15
100
AcDbCircle
 10
1.931157157606262
 20
5.860742020803937
 30
0.0
 40
0.019511297571401
100
AcDbArc
 50
79.35931241464962
 51
134.8992547766092
  0
ARC
  5
174
330
1F
100
AcDbEntity
  8
0
  6
Continuous
 62
     7
370
    15
100
AcDbCircle
 10
1.938303128419066
 20
5.088273388322568
 30
0.0
 40
0.019294807167111
100
AcDbArc
 50
78.39444709815954
 51
141.9629297891284
  0
ARC
  5
175
330
1F
100
AcDbEntity
  8
0
  6
Continuous
 62
     7
370
    15
100
AcDbCircle
 10
1.932689562845806
 20
5.065564668889848
 30
0.0
 40
0.019915198882069
100
AcDbArc
 50
190.3108121695852
 51
250.4052610510326
  0
ARC
  5
176
330
1F
100
AcDbEntity
  8
0
  6
Continuous
 62
     7
370
    15
100
AcDbCircle
 10
1.952751555041488
 20
5.072308745292054
 30
0.0
 40
0.0391905721394473
100
AcDbArc
 50
131.3248031089678
 51
173.2826835992523
  0
ARC
  5
177
330
1F
100
AcDbEntity
  8
0
  6
Continuous
 62
     7
370
    15
100
AcDbCircle
 10
1.924485052944261
 20
5.066849685762675
 30
0.0
 40
0.0189968619518057
100
AcDbArc
 50
189.6766332895543
 51
251.9086009239091
  0
ARC
  5
178
330
1F
100
AcDbEntity
  8
0
  6
Continuous
 62
     7
370
    15
100
AcDbCircle
 10
1.931157290315888
 20
5.089986774035982
 30
0.0
 40
0.0195116200928512
100
AcDbArc
 50
79.35988687156856
 51
134.898861174186
  0
LWPOLYLINE
  5
179
330
1F
100
AcDbEntity
  8
0
  6
Continuous
 62
     7
370
    15
100
AcDbPolyline
 90
       35
 70
   128
 43
0.0
 10
2.055244678113044
 20
5.843673559874742
 10
2.056161952831817
 20
5.846532870073609
 10
2.057740966258706
 20
5.84994283194227
 10
2.059712575920148
 20
5.852893619571812
 10
2.062034966832583
 20
5.855322166572275
 10
2.064658691118624
 20
5.857176777517116
 10
2.067527663601905
 20
5.858417878597089
 10
2.070580821131828
 20
5.859019155667299
 10
2.073753118178408
 20
5.858967626644583
 10
2.076976854292067
 20
5.858264472815223
 10
2.080183333428385
 20
5.856924650804893
 10
2.083304523272833
 20
5.854976730634087
 10
2.086273718970684
 20
5.852462152683795
 10
2.089027202451745
 20
5.849434726622699
 10
2.091506897349961
 20
5.845958733176003
 10
2.093659705273505
 20
5.842108423689508
 10
2.095439496994481
 20
5.83796579102666
 10
2.096808771773662
 20
5.833619107632361
 10
2.097738325495544
 20
5.829161036195152
 10
2.098207914398244
 20
5.824686586621273
 10
2.098207914398244
 20
5.820291201927487
 10
2.097738325495544
 20
5.816068424988715
 10
2.096808771773662
 20
5.812108372460923
 10
2.095439496994481
 20
5.808495376759394
 10
2.093659705273505
 20
5.80530645236206
 10
2.091506897349961
 20
5.802609608424718
 10
2.089027202451745
 20
5.800462290314999
 10
2.086273718970684
 20
5.798910241565319
 10
2.083304523272833
 20
5.797986624300245
 10
2.080183333428385
 20
5.797711106638039
 10
2.076976854292067
 20
5.798089387024107
 10
2.073753118178408
 20
5.799113638782423
 10
2.070580821131828
 20
5.800761896636871
 10
2.067527663601905
 20
5.802999066476417
 10
2.065228171370945
 20
5.805166976719091
  0
ARC
  5
17A
330
1F
100
AcDbEntity
  8
0
  6
Continuous
 62
     7
370
    15
100
AcDbCircle
 10
2.056187724512382
 20
5.823003297623162
 30
0.0
 40
0.0406834370707652
100
AcDbArc
 50
346.7432687479148
 51
45.2294713270049
  0
LWPOLYLINE
  5
17B
330
1F
100
AcDbEntity
  8
0
  6
Continuous
 62
     7
370
    15
100
AcDbPolyline
 90
       23
 70
   128
 43
0.0
 10
2.091681582762441
 20
5.800196778649971
 10
2.093698326056935
 20
5.800899375859492
 10
2.096451809537997
 20
5.802451424609171
 10
2.098931504436213
 20
5.804598742718891
 10
2.101084312359757
 20
5.807295586656232
 10
2.102864104080733
 20
5.810484511053567
 10
2.104233378859914
 20
5.814097506755096
 10
2.105162932581796
 20
5.818057559282888
 10
2.105632521484495
 20
5.822280336221658
 10
2.105632521484495
 20
5.826675720915445
 10
2.105162932581796
 20
5.831150170489324
 10
2.104233378859914
 20
5.835608241926533
 10
2.102864104080733
 20
5.839954925320832
 10
2.101084312359757
 20
5.844097557983681
 10
2.098931504436213
 20
5.847947867470175
 10
2.096451809537997
 20
5.851423860916872
 10
2.093698326056935
 20
5.854451286977967
 10
2.090729130359085
 20
5.856965864928259
 10
2.087607940514637
 20
5.858913785099066
 10
2.084401461378319
 20
5.860253607109395
 10
2.08117772526466
 20
5.860956760938755
 10
2.07800542821808
 20
5.861008289961472
 10
2.075507480747674
 20
5.860567720506005
  0
ARC
  5
17C
330
1F
100
AcDbEntity
  8
0
  6
Continuous
 62
     7
370
    15
100
AcDbCircle
 10
1.947071443097495
 20
5.74967525402756
 30
0.0
 40
0.0192952525393627
100
AcDbArc
 50
78.39530627533939
 51
141.9621734245742
  0
ARC
  5
17D
330
1F
100
AcDbEntity
  8
0
  6
Continuous
 62
     7
370
    15
100
AcDbCircle
 10
1.941457808187029
 20
5.726967088948967
 30
0.0
 40
0.0199153369825661
100
AcDbArc
 50
190.3109950510522
 51
250.4050223082209
  0
ARC
  5
17E
330
1F
100
AcDbEntity
  8
0
  6
Continuous
 62
     7
370
    15
100
AcDbCircle
 10
1.961519708746125
 20
5.733711064364571
 30
0.0
 40
0.039190607460153
100
AcDbArc
 50
131.3248216667955
 51
173.2826558226147
  0
ARC
  5
17F
330
1F
100
AcDbEntity
  8
0
  6
Continuous
 62
     7
370
    15
100
AcDbCircle
 10
1.933253435595336
 20
5.728252230610277
 30
0.0
 40
0.018997159086902
100
AcDbArc
 50
189.6771913989209
 51
251.9080630192892
  0
ARC
  5
180
330
1F
100
AcDbEntity
  8
0
  6
Continuous
 62
     7
370
    15
100
AcDbCircle
 10
1.939925419693968
 20
5.751389174919984
 30
0.0
 40
0.0195115785113516
100
AcDbArc
 50
79.35988941640224
 51
134.8990182067047
  0
ARC
  5
181
330
1F
100
AcDbEntity
  8
0
  6
Continuous
 62
     7
370
    15
100
AcDbCircle
 10
1.863208780024784
 20
5.694392035829633
 30
0.0
 40
0.0192957584419815
100
AcDbArc
 50
78.39606580675429
 51
141.9613701678771
  0
ARC
  5
182
330
1F
100
AcDbEntity
  8
0
  6
Continuous
 62
     7
370
    15
100
AcDbCircle
 10
1.857594786540038
 20
5.671684301460703
 30
0.0
 40
0.0199151525772485
100
AcDbArc
 50
190.310783970062
 51
250.4052207113191
  0
ARC
  5
183
330
1F
100
AcDbEntity
  8
0
  6
Continuous
 62
     7
370
    15
100
AcDbCircle
 10
1.877656527758045
 20
5.678428461082051
 30
0.0
 40
0.0391903127289644
100
AcDbArc
 50
131.3244819541089
 51
173.2827377501684
  0
ARC
  5
184
330
1F
100
AcDbEntity
  8
0
  6
Continuous
 62
     7
370
    15
100
AcDbCircle
 10
1.849389947395303
 20
5.672969081674523
 30
0.0
 40
0.0189964880961524
100
AcDbArc
 50
189.67596981802
 51
251.9092846002073
  0
ARC
  5
185
330
1F
100
AcDbEntity
  8
0
  6
Continuous
 62
     7
370
    15
100
AcDbCircle
 10
1.856062503030669
 20
5.696106843754112
 30
0.0
 40
0.0195112636894634
100
AcDbArc
 50
79.3594026145362
 51
134.8995050085761
  0
LWPOLYLINE
  5
186
330
1F
100
AcDbEntity
  8
0
  6
Continuous
 62
     7
370
    15
100
AcDbPolyline
 90
       35
 70
   128
 43
0.0
 10
2.152401128689429
 20
5.456352864160082
 10
2.153318403408202
 20
5.459212202619635
 10
2.15489741683509
 20
5.462622192748984
 10
2.156869026496533
 20
5.465572952117839
 10
2.159191417408968
 20
5.468001499118301
 10
2.161815141695007
 20
5.469856110063142
 10
2.164684114178289
 20
5.471097239403803
 10
2.167737271708213
 20
5.471698459952639
 10
2.170909568754791
 20
5.471646959190609
 10
2.174133304868452
 20
5.470943805361249
 10
2.177340115869718
 20
5.46960392270132
 10
2.180460973849218
 20
5.467656063180113
 10
2.183430169547067
 20
5.465141513490508
 10
2.18618365302813
 20
5.462114059168725
 10
2.188663347926345
 20
5.458638093982716
 10
2.19081615584989
 20
5.454787727974847
 10
2.192595947570866
 20
5.450645123572686
 10
2.193965222350046
 20
5.446298468439075
 10
2.194894776071928
 20
5.441840368741178
 10
2.195364364974628
 20
5.437365947427987
 10
2.195364364974628
 20
5.432970534473513
 10
2.194894776071928
 20
5.428747757534742
 10
2.193965222350046
 20
5.424787705006949
 10
2.192595947570866
 20
5.421174737566108
 10
2.19081615584989
 20
5.417985784908086
 10
2.188663347926345
 20
5.415288940970745
 10
2.18618365302813
 20
5.413141651121713
 10
2.183430169547067
 20
5.411589574111345
 10
2.180460973849218
 20
5.410665985106959
 10
2.177340115869718
 20
5.410390350273779
 10
2.174133304868452
 20
5.410768747830822
 10
2.170909568754791
 20
5.411792943067763
 10
2.167737271708213
 20
5.413441229182897
 10
2.164684114178289
 20
5.415678399022444
 10
2.162384621947328
 20
5.417846337525804
  0
ARC
  5
187
330
1F
100
AcDbEntity
  8
0
  6
Continuous
 62
     7
370
    15
100
AcDbCircle
 10
2.15334420399652
 20
5.435682645350683
 30
0.0
 40
0.0406834059340838
100
AcDbArc
 50
346.7432773411236
 51
45.22948517192313
  0
LWPOLYLINE
  5
188
330
1F
100
AcDbEntity
  8
0
  6
Continuous
 62
     7
370
    15
100
AcDbPolyline
 90
       23
 70
   128
 43
0.0
 10
2.188838033338825
 20
5.412876111195997
 10
2.190854776633319
 20
5.413578708405518
 10
2.193608260114381
 20
5.415130785415884
 10
2.196087955012597
 20
5.417278075264917
 10
2.198240762936142
 20
5.419974919202259
 10
2.200020554657117
 20
5.42316387186028
 10
2.201389829436298
 20
5.426776839301123
 10
2.20231938315818
 20
5.430736891828915
 10
2.20278897206088
 20
5.434959668767686
 10
2.20278897206088
 20
5.439355081722159
 10
2.20231938315818
 20
5.443829503035352
 10
2.201389829436298
 20
5.448287602733248
 10
2.200020554657117
 20
5.45263425786686
 10
2.198240762936142
 20
5.456776862269021
 10
2.196087955012597
 20
5.460627228276889
 10
2.193608260114381
 20
5.464103193462899
 10
2.190854776633319
 20
5.467130647784681
 10
2.187885580935469
 20
5.469645197474286
 10
2.18476472295597
 20
5.471593056995493
 10
2.181557911954703
 20
5.472932939655422
 10
2.178334175841043
 20
5.473636093484781
 10
2.175161878794464
 20
5.473687594246811
 10
2.172663931324058
 20
5.473247081312719
  0
LWPOLYLINE
  5
189
330
1F
100
AcDbEntity
  8
0
  6
Continuous
 62
     7
370
    15
100
AcDbPolyline
 90
       35
 70
   128
 43
0.0
 10
2.07292212834635
 20
5.718507087132918
 10
2.073839734930071
 20
5.721366308421498
 10
2.075418416492011
 20
5.724776415721821
 10
2.077390358018403
 20
5.727727057919701
 10
2.079712748930838
 20
5.730155604920164
 10
2.082336141351929
 20
5.732010304775292
 10
2.08520511383521
 20
5.733251462376641
 10
2.088258271365133
 20
5.733852682925475
 10
2.091430568411713
 20
5.733801153902758
 10
2.094654636390322
 20
5.733097911163111
 10
2.097861115526639
 20
5.731758145674157
 10
2.100982305371087
 20
5.729810168981976
 10
2.103951169203989
 20
5.727295736463346
 10
2.10670498455
 20
5.724268221491963
 10
2.109184679448215
 20
5.720792228045266
 10
2.111337155506811
 20
5.716941950947685
 10
2.113117279092736
 20
5.712799285895923
 10
2.114486553871917
 20
5.708452602501625
 10
2.11541577572885
 20
5.703994563453329
 10
2.115885696496499
 20
5.699520081490535
 10
2.115885696496499
 20
5.695124640275375
 10
2.11541577572885
 20
5.690901952246892
 10
2.114486553871917
 20
5.686941867330188
 10
2.113117279092736
 20
5.683328871628657
 10
2.111337155506811
 20
5.680139979620236
 10
2.109184679448215
 20
5.677443046772607
 10
2.10670498455
 20
5.675295785184261
 10
2.103951169203989
 20
5.673743768823495
 10
2.100982305371087
 20
5.672820119169507
 10
2.097861115526639
 20
5.672544544985929
 10
2.094654636390322
 20
5.672922881893371
 10
2.091430568411713
 20
5.673947166040601
 10
2.088258271365133
 20
5.675595423895047
 10
2.08520511383521
 20
5.677832593734594
 10
2.082905953469198
 20
5.680000471588354
  0
ARC
  5
18A
330
1F
100
AcDbEntity
  8
0
  6
Continuous
 62
     7
370
    15
100
AcDbCircle
 10
2.073867130972684
 20
5.69783758074045
 30
0.0
 40
0.0406816933567976
100
AcDbArc
 50
346.7416782594715
 51
45.23025755258438
  0
LWPOLYLINE
  5
18B
330
1F
100
AcDbEntity
  8
0
  6
Continuous
 62
     7
370
    15
100
AcDbPolyline
 90
       23
 70
   128
 43
0.0
 10
2.109359032995747
 20
5.675030362429522
 10
2.111375776290241
 20
5.675732903117668
 10
2.114129591636252
 20
5.677284919478434
 10
2.116609286534467
 20
5.679432181066779
 10
2.118761762593063
 20
5.68212911391441
 10
2.120541886178988
 20
5.68531800592283
 10
2.121911160958168
 20
5.688931001624359
 10
2.122840382815101
 20
5.692891086541065
 10
2.12331030358275
 20
5.697113774569548
 10
2.12331030358275
 20
5.701509215784708
 10
2.122840382815101
 20
5.705983697747502
 10
2.121911160958168
 20
5.710441736795798
 10
2.120541886178988
 20
5.714788420190097
 10
2.118761762593063
 20
5.718931085241857
 10
2.116609286534467
 20
5.722781362339438
 10
2.114129591636252
 20
5.726257355786136
 10
2.111375776290241
 20
5.729284870757519
 10
2.108406912457339
 20
5.731799303276149
 10
2.105285722612891
 20
5.73374727996833
 10
2.102079243476574
 20
5.735087045457285
 10
2.098855175497965
 20
5.735790288196931
 10
2.095682878451385
 20
5.735841817219649
 10
2.09318493098098
 20
5.735401304285556
  0
LWPOLYLINE
  5
18C
330
1F
100
AcDbEntity
  8
0
  6
Continuous
 62
     7
370
    15
100
AcDbPolyline
 90
       35
 70
   128
 43
0.0
 10
2.152401128689429
 20
5.841730348087761
 10
2.153318403408202
 20
5.844589658286628
 10
2.15489741683509
 20
5.847999676676663
 10
2.156869026496533
 20
5.850950407784832
 10
2.159191417408968
 20
5.853378954785294
 10
2.161815141695007
 20
5.855233565730135
 10
2.164684114178289
 20
5.856474723331484
 10
2.167737271708213
 20
5.857075943880318
 10
2.170909568754791
 20
5.8570244148576
 10
2.174133304868452
 20
5.856321261028242
 10
2.177340115869718
 20
5.854981406629001
 10
2.180460973849218
 20
5.853033518847106
 10
2.183430169547067
 20
5.850518997418189
 10
2.18618365302813
 20
5.847491514835718
 10
2.188663347926345
 20
5.844015577910396
 10
2.19081615584989
 20
5.840165211902528
 10
2.192595947570866
 20
5.836022579239679
 10
2.193965222350046
 20
5.831675895845381
 10
2.194894776071928
 20
5.827217824408172
 10
2.195364364974628
 20
5.822743431355666
 10
2.195364364974628
 20
5.818347990140505
 10
2.194894776071928
 20
5.814125213201735
 10
2.193965222350046
 20
5.810165160673942
 10
2.192595947570866
 20
5.806552164972413
 10
2.19081615584989
 20
5.803363240575079
 10
2.188663347926345
 20
5.800666396637737
 10
2.18618365302813
 20
5.798519078528017
 10
2.183430169547067
 20
5.796967029778339
 10
2.180460973849218
 20
5.796043469034638
 10
2.177340115869718
 20
5.795767805940772
 10
2.174133304868452
 20
5.796146231758501
 10
2.170909568754791
 20
5.797170426995443
 10
2.167737271708213
 20
5.79881868484989
 10
2.164684114178289
 20
5.801055854689437
 10
2.162384621947328
 20
5.803223764932109
  0
ARC
  5
18D
330
1F
100
AcDbEntity
  8
0
  6
Continuous
 62
     7
370
    15
100
AcDbCircle
 10
2.153344182978386
 20
5.821060088096463
 30
0.0
 40
0.040683429909701
100
AcDbArc
 50
346.74326310155
 51
45.2294769733696
  0
LWPOLYLINE
  5
18E
330
1F
100
AcDbEntity
  8
0
  6
Continuous
 62
     7
370
    15
100
AcDbPolyline
 90
       23
 70
   128
 43
0.0
 10
2.188838033338825
 20
5.798253566862991
 10
2.190854776633319
 20
5.798956164072511
 10
2.193608260114381
 20
5.800508212822191
 10
2.196087955012597
 20
5.802655530931909
 10
2.198240762936142
 20
5.805352374869253
 10
2.200020554657117
 20
5.808541299266586
 10
2.201389829436298
 20
5.812154294968116
 10
2.20231938315818
 20
5.816114347495908
 10
2.20278897206088
 20
5.820337124434678
 10
2.20278897206088
 20
5.824732565649838
 10
2.20231938315818
 20
5.829206958702343
 10
2.201389829436298
 20
5.833665030139553
 10
2.200020554657117
 20
5.838011713533853
 10
2.198240762936142
 20
5.8421543461967
 10
2.196087955012597
 20
5.846004712204568
 10
2.193608260114381
 20
5.849480649129891
 10
2.190854776633319
 20
5.852508131712361
 10
2.187885580935469
 20
5.855022653141279
 10
2.18476472295597
 20
5.856970540923173
 10
2.181557911954703
 20
5.858310395322416
 10
2.178334175841043
 20
5.859013549151773
 10
2.175161878794464
 20
5.859065078174491
 10
2.172663931324058
 20
5.858624508719024
  0
LWPOLYLINE
  5
18F
330
1F
100
AcDbEntity
  8
0
  6
Continuous
 62
     7
370
    15
100
AcDbPolyline
 90
       35
 70
   128
 43
0.0
 10
2.07292212834635
 20
5.260871363827243
 10
2.073839734930071
 20
5.263730585115824
 10
2.075418416492011
 20
5.267140678285802
 10
2.077390358018403
 20
5.270091334614027
 10
2.079712748930838
 20
5.272519895744832
 10
2.082336141351929
 20
5.274374581469618
 10
2.08520511383521
 20
5.275615724940622
 10
2.088258271365133
 20
5.276216959619801
 10
2.091430568411713
 20
5.276165430597083
 10
2.094654636390322
 20
5.275462201987781
 10
2.097861115526639
 20
5.274122408238139
 10
2.100982305371087
 20
5.272174459806644
 10
2.103951169203989
 20
5.269659999027327
 10
2.10670498455
 20
5.266632469925601
 10
2.109184679448215
 20
5.263156490609247
 10
2.111337155506811
 20
5.25930622764201
 10
2.113117279092736
 20
5.255163534329561
 10
2.114486553871917
 20
5.250816850935263
 10
2.11541577572885
 20
5.246358840147653
 10
2.115885696496499
 20
5.241884344054517
 10
2.115885696496499
 20
5.2374889169697
 10
2.11541577572885
 20
5.233266228941218
 10
2.114486553871917
 20
5.229306115763824
 10
2.113117279092736
 20
5.225693120062295
 10
2.111337155506811
 20
5.222504256314562
 10
2.109184679448215
 20
5.219807337597275
 10
2.10670498455
 20
5.217660033617899
 10
2.103951169203989
 20
5.216108059648164
 10
2.100982305371087
 20
5.215184381733489
 10
2.097861115526639
 20
5.214908821680253
 10
2.094654636390322
 20
5.215287144457352
 10
2.091430568411713
 20
5.216311442734926
 10
2.088258271365133
 20
5.217959700589372
 10
2.08520511383521
 20
5.220196870428919
 10
2.082905953469198
 20
5.222364720021992
  0
ARC
  5
190
330
1F
100
AcDbEntity
  8
0
  6
Continuous
 62
     7
370
    15
100
AcDbCircle
 10
2.073866849799869
 20
5.240201780664238
 30
0.0
 40
0.0406819559100395
100
AcDbArc
 50
346.7418355780269
 51
45.23006657752033
  0
LWPOLYLINE
  5
191
330
1F
100
AcDbEntity
  8
0
  6
Continuous
 62
     7
370
    15
100
AcDbPolyline
 90
       23
 70
   128
 43
0.0
 10
2.109359032995747
 20
5.217394596732816
 10
2.111375776290241
 20
5.218097193942337
 10
2.114129591636252
 20
5.219649167912072
 10
2.116609286534467
 20
5.221796471891448
 10
2.118761762593063
 20
5.224493390608735
 10
2.120541886178988
 20
5.227682254356468
 10
2.121911160958168
 20
5.231295250057997
 10
2.122840382815101
 20
5.23525536323539
 10
2.12331030358275
 20
5.239478051263874
 10
2.12331030358275
 20
5.24387347834869
 10
2.122840382815101
 20
5.248347974441827
 10
2.121911160958168
 20
5.252805985229436
 10
2.120541886178988
 20
5.257152668623733
 10
2.118761762593063
 20
5.261295361936182
 10
2.116609286534467
 20
5.26514562490342
 10
2.114129591636252
 20
5.268621604219774
 10
2.111375776290241
 20
5.271649133321501
 10
2.108406912457339
 20
5.274163594100818
 10
2.105285722612891
 20
5.276111542532311
 10
2.102079243476574
 20
5.277451336281954
 10
2.098855175497965
 20
5.278154564891256
 10
2.095682878451385
 20
5.278206093913974
 10
2.09318493098098
 20
5.277765552719194
  0
LWPOLYLINE
  5
192
330
1F
100
AcDbEntity
  8
0
  6
Continuous
 62
     7
370
    15
100
AcDbPolyline
 90
       35
 70
   128
 43
0.0
 10
2.152401128689429
 20
5.070975415558259
 10
2.153318403408202
 20
5.073834739004325
 10
2.15489741683509
 20
5.077244735315698
 10
2.156869026496533
 20
5.080195485853088
 10
2.159191417408968
 20
5.082624046983895
 10
2.161815141695007
 20
5.084478642032099
 10
2.164684114178289
 20
5.08571978903569
 10
2.167737271708213
 20
5.086321011350818
 10
2.170909568754791
 20
5.086269489393273
 10
2.174133304868452
 20
5.085566346161671
 10
2.177340115869718
 20
5.0842264740995
 10
2.180460973849218
 20
5.082278609279413
 10
2.183430169547067
 20
5.079764056057223
 10
2.18618365302813
 20
5.076736610566904
 10
2.188663347926345
 20
5.073260634783138
 10
2.19081615584989
 20
5.069410281139319
 10
2.192595947570866
 20
5.065267674970866
 10
2.193965222350046
 20
5.060920997758592
 10
2.194894776071928
 20
5.05646289452811
 10
2.195364364974628
 20
5.051988497280659
 10
2.195364364974628
 20
5.047593067767189
 10
2.194894776071928
 20
5.04337028685426
 10
2.193965222350046
 20
5.039410258171423
 10
2.192595947570866
 20
5.035797268651918
 10
2.19081615584989
 20
5.032608315110751
 10
2.188663347926345
 20
5.029911483537459
 10
2.18618365302813
 20
5.027764183090669
 10
2.183430169547067
 20
5.026212114911767
 10
2.180460973849218
 20
5.025288522374793
 10
2.177340115869718
 20
5.025012884009028
 10
2.174133304868452
 20
5.025391290397536
 10
2.170909568754791
 20
5.026415494465942
 10
2.167737271708213
 20
5.028063761151854
 10
2.164684114178289
 20
5.030300932757694
 10
2.162384621947328
 20
5.032468864195882
  0
ARC
  5
193
330
1F
100
AcDbEntity
  8
0
  6
Continuous
 62
     7
370
    15
100
AcDbCircle
 10
2.153344219014901
 20
5.050305186531221
 30
0.0
 40
0.040683393833297
100
AcDbArc
 50
346.7432574423972
 51
45.22949805873436
  0
LWPOLYLINE
  5
194
330
1F
100
AcDbEntity
  8
0
  6
Continuous
 62
     7
370
    15
100
AcDbPolyline
 90
       23
 70
   128
 43
0.0
 10
2.188838033338825
 20
5.027498659061591
 10
2.190854776633319
 20
5.02820124920594
 10
2.193608260114381
 20
5.029753317384842
 10
2.196087955012597
 20
5.031900617831631
 10
2.198240762936142
 20
5.034597449404923
 10
2.200020554657117
 20
5.037786402946091
 10
2.201389829436298
 20
5.041399392465595
 10
2.20231938315818
 20
5.045359421148432
 10
2.20278897206088
 20
5.049582202061362
 10
2.20278897206088
 20
5.053977631574831
 10
2.20231938315818
 20
5.058452028822282
 10
2.201389829436298
 20
5.062910132052765
 10
2.200020554657117
 20
5.067256809265038
 10
2.198240762936142
 20
5.071399415433492
 10
2.196087955012597
 20
5.07524976907731
 10
2.193608260114381
 20
5.078725744861078
 10
2.190854776633319
 20
5.081753190351396
 10
2.187885580935469
 20
5.084267743573587
 10
2.18476472295597
 20
5.086215608393671
 10
2.181557911954703
 20
5.087555480455844
 10
2.178334175841043
 20
5.088258623687444
 10
2.175161878794464
 20
5.08831014564499
 10
2.172663931324058
 20
5.087869615047969
  0
LINE
  5
195
330
1F
100
AcDbEntity
  8
0
  6
Continuous
 62
     7
370
    15
100
AcDbLine
 10
1.890186418902358
 20
5.082178032228388
 30
0.0
 11
1.890186418902358
 21
5.021408896192737
 31
0.0
  0
ARC
  5
196
330
1F
100
AcDbEntity
  8
0
  6
Continuous
 62
     7
370
    15
100
AcDbCircle
 10
1.854888108525955
 20
5.083561647028088
 30
0.0
 40
0.0353254172706131
100
AcDbArc
 50
357.7552827936269
 51
37.12216413115399
  0
LINE
  5
197
330
1F
100
AcDbEntity
  8
0
  6
Continuous
 62
     7
370
    15
100
AcDbLine
 10
1.81387938374091
 20
5.187119032795782
 30
0.0
 11
1.88305484856599
 21
5.104881118430072
 31
0.0
  0
ARC
  5
198
330
1F
100
AcDbEntity
  8
0
  6
Continuous
 62
     7
370
    15
100
AcDbCircle
 10
1.842045719832011
 20
5.208438313704333
 30
0.0
 40
0.0353249802159125
100
AcDbArc
 50
177.7549220223224
 51
217.1223131891467
  0
LINE
  5
199
330
1F
100
AcDbEntity
  8
0
  6
Continuous
 62
     7
370
    15
100
AcDbLine
 10
1.80674785488766
 20
5.209822133643839
 30
0.0
 11
1.80674785488766
 21
5.246886604365154
 31
0.0
  0
ARC
  5
19A
330
1F
100
AcDbEntity
  8
0
  6
Continuous
 62
     7
370
    15
100
AcDbCircle
 10
1.860450621195571
 20
5.246668563394009
 30
0.0
 40
0.0537032089449714
100
AcDbArc
 50
150.1344767921384
 51
179.767372155664
  0
LINE
  5
19B
330
1F
100
AcDbEntity
  8
0
  6
Continuous
 62
     7
370
    15
100
AcDbLine
 10
1.88305484856599
 20
5.39271460759152
 30
0.0
 11
1.81387938374091
 21
5.27341093600619
 31
0.0
  0
ARC
  5
19C
330
1F
100
AcDbEntity
  8
0
  6
Continuous
 62
     7
370
    15
100
AcDbCircle
 10
1.836482848341286
 20
5.419457269303009
 30
0.0
 40
0.0537040143783032
100
AcDbArc
 50
330.134614555925
 51
359.7670639891849
  0
LINE
  5
19D
330
1F
100
AcDbEntity
  8
0
  6
Continuous
 62
     7
370
    15
100
AcDbLine
 10
1.890186418902358
 20
5.575935347282484
 30
0.0
 11
1.890186418902358
 21
5.419238936215999
 31
0.0
  0
ARC
  5
19E
330
1F
100
AcDbEntity
  8
0
  6
Continuous
 62
     7
370
    15
100
AcDbCircle
 10
1.864550613541743
 20
5.580034128063247
 30
0.0
 40
0.0259614044376677
100
AcDbArc
 50
350.9161476520197
 51
79.59578992998882
  0
LINE
  5
19F
330
1F
100
AcDbEntity
  8
0
  6
Continuous
 62
     7
370
    15
100
AcDbLine
 10
1.844834003883757
 20
5.606098304632374
 30
0.0
 11
1.869239020361258
 21
5.605568680377139
 31
0.0
  0
LWPOLYLINE
  5
1A0
330
1F
100
AcDbEntity
  8
0
  6
Continuous
 62
     7
370
    15
100
AcDbPolyline
 90
       23
 70
   128
 43
0.0
 10
1.822038366475968
 20
5.711987639942105
 10
1.818717891729703
 20
5.706439104196711
 10
1.815752346546291
 20
5.700560617267039
 10
1.813170686142523
 20
5.694409957992174
 10
1.810998464119468
 20
5.688047498205983
 10
1.809256836867617
 20
5.681535822963487
 10
1.807963061364312
 20
5.674938846521572
 10
1.807129831443849
 20
5.668321521475646
 10
1.806765277797478
 20
5.661748708332155
 10
1.806873050939634
 20
5.65528508469341
 10
1.807452072309236
 20
5.64899417423287
 10
1.808496617235913
 20
5.642937747187598
 10
1.809996397906251
 20
5.637175277372088
 10
1.811936729296259
 20
5.631763477941035
 10
1.814298612137614
 20
5.626755475796287
 10
1.817058649951416
 20
5.622200506752408
 10
1.820189961676807
 20
5.618143255697962
 10
1.823661517941061
 20
5.614623678774955
 10
1.827439468519392
 20
5.611676341635228
 10
1.831486478605048
 20
5.60933012857714
 10
1.835762890336633
 20
5.607608158081951
 10
1.840226722798113
 20
5.606527330642826
 10
1.844834003883757
 20
5.606098304632374
  0
LINE
  5
1A1
330
1F
100
AcDbEntity
  8
0
  6
Continuous
 62
     7
370
    15
100
AcDbLine
 10
1.881776629232165
 20
5.803893547721018
 30
0.0
 11
1.822038366475968
 21
5.711987639942105
 31
0.0
  0
ARC
  5
1A2
330
1F
100
AcDbEntity
  8
0
  6
Continuous
 62
     7
370
    15
100
AcDbCircle
 10
1.836758431143791
 20
5.832667493935494
 30
0.0
 40
0.0534282522629896
100
AcDbArc
 50
327.4148096301784
 51
359.8197111809227
  0
LINE
  5
1A3
330
1F
100
AcDbEntity
  8
0
  6
Continuous
 62
     7
370
    15
100
AcDbLine
 10
1.890186418902358
 20
5.888508157313126
 30
0.0
 11
1.890186418902358
 21
5.832499375084647
 31
0.0
  0
LINE
  5
1A4
330
1F
100
AcDbEntity
  8
0
  6
Continuous
 62
     7
370
    15
100
AcDbLine
 10
1.890186418902358
 20
5.888508157313126
 30
0.0
 11
2.005515545182051
 21
5.91940610484556
 31
0.0
  0
LINE
  5
1A5
330
1F
100
AcDbEntity
  8
0
  6
Continuous
 62
     7
370
    15
100
AcDbLine
 10
2.005515545182051
 20
5.630373034290831
 30
0.0
 11
2.005515545182051
 21
5.91940610484556
 31
0.0
  0
ARC
  5
1A6
330
1F
100
AcDbEntity
  8
0
  6
Continuous
 62
     7
370
    15
100
AcDbCircle
 10
2.016245521189487
 20
5.62967309976497
 30
0.0
 40
0.0107527807315431
100
AcDbArc
 50
176.2677869121374
 51
227.8017578825035
  0
LINE
  5
1A7
330
1F
100
AcDbEntity
  8
0
  6
Continuous
 62
     7
370
    15
100
AcDbLine
 10
2.009022901377669
 20
5.053246503212807
 30
0.0
 11
1.890186418902358
 21
5.021408896192737
 31
0.0
  0
LWPOLYLINE
  5
1A8
330
1F
100
AcDbEntity
  8
0
  6
Continuous
 62
     7
370
    15
100
AcDbPolyline
 90
       12
 70
   128
 43
0.0
 10
1.952411802035001
 20
5.619228969503797
 10
1.950539212577688
 20
5.618360458371586
 10
1.948818285402025
 20
5.616828548999081
 10
1.947388486752788
 20
5.614757479287339
 10
1.946365678980263
 20
5.61231495872422
 10
1.945832662389204
 20
5.609698838858641
 10
1.945832662389204
 20
5.607121125049797
 10
1.946365678980263
 20
5.604790607255364
 10
1.947388486752788
 20
5.602896129704633
 10
1.948818285402025
 20
5.601591177713041
 10
1.950539212577688
 20
5.600981379160169
 10
1.952411802035001
 20
5.601116242850404
  0
LINE
  5
1A9
330
1F
100
AcDbEntity
  8
0
  6
Continuous
 62
     7
370
    15
100
AcDbLine
 10
1.952411802035001
 20
5.601116242850404
 30
0.0
 11
1.983241682440179
 21
5.609375908538672
 31
0.0
  0
LWPOLYLINE
  5
1AA
330
1F
100
AcDbEntity
  8
0
  6
Continuous
 62
     7
370
    15
100
AcDbPolyline
 90
       12
 70
   128
 43
0.0
 10
1.983241682440179
 20
5.627488635192066
 10
1.985114271897492
 20
5.6276234988823
 10
1.986835199073156
 20
5.62701370032943
 10
1.988264997722393
 20
5.625708748337837
 10
1.989287805494917
 20
5.623814270787106
 10
1.989820822085976
 20
5.621483752992674
 10
1.989820822085976
 20
5.618906039183829
 10
1.989287805494917
 20
5.61628991931825
 10
1.988264997722393
 20
5.613847398755131
 10
1.986835199073156
 20
5.61177632904339
 10
1.985114271897492
 20
5.610244419670884
 10
1.983241682440179
 20
5.609375908538672
  0
LINE
  5
1AB
330
1F
100
AcDbEntity
  8
0
  6
Continuous
 62
     7
370
    15
100
AcDbLine
 10
1.983241682440179
 20
5.627488635192066
 30
0.0
 11
1.952411802035001
 21
5.619228969503797
 31
0.0
  0
LWPOLYLINE
  5
1FE
330
1F
100
AcDbEntity
  8
0
  6
Continuous
 62
     7
370
    15
100
AcDbPolyline
 90
       12
 70
   128
 43
0.0
 10
2.115131408950757
 20
5.608620260677401
 10
2.113258695044087
 20
5.608755157708993
 10
2.111537975284017
 20
5.608145303587192
 10
2.110107969219187
 20
5.60684040716453
 10
2.109085161446663
 20
5.604945929613799
 10
2.108552186338722
 20
5.60261540070558
 10
2.108552186338722
 20
5.600037686896735
 10
2.109085161446663
 20
5.597421578144943
 10
2.110107969219187
 20
5.594979057581824
 10
2.111537975284017
 20
5.592907932301153
 10
2.113258695044087
 20
5.591376078497576
 10
2.115131408950757
 20
5.590507534024007
  0
LINE
  5
1FF
330
1F
100
AcDbEntity
  8
0
  6
Continuous
 62
     7
370
    15
100
AcDbLine
 10
2.115131408950757
 20
5.590507534024007
 30
0.0
 11
2.145961330839052
 21
5.582247857221953
 31
0.0
  0
LWPOLYLINE
  5
200
330
1F
100
AcDbEntity
  8
0
  6
Continuous
 62
     7
370
    15
100
AcDbPolyline
 90
       12
 70
   128
 43
0.0
 10
2.145961330839052
 20
5.600360583875347
 10
2.147834044745721
 20
5.599492039401778
 10
2.149554764505793
 20
5.597960185598201
 10
2.150984438705674
 20
5.595889149227817
 10
2.152007578343146
 20
5.593446539754411
 10
2.152540553451088
 20
5.590830431002618
 10
2.152540553451088
 20
5.588252717193774
 10
2.152007578343146
 20
5.585922188285556
 10
2.150984438705674
 20
5.584027799645112
 10
2.149554764505793
 20
5.582722814312161
 10
2.147834044745721
 20
5.582112960190361
 10
2.145961330839052
 20
5.582247857221953
  0
LINE
  5
201
330
1F
100
AcDbEntity
  8
0
  6
Continuous
 62
     7
370
    15
100
AcDbLine
 10
2.145961330839052
 20
5.600360583875347
 30
0.0
 11
2.115131408950757
 21
5.608620260677401
 31
0.0
  0
ARC
  5
242
330
1F
100
AcDbEntity
  8
0
  6
Continuous
 62
     7
370
    15
100
AcDbCircle
 10
2.011699932702219
 20
5.629672798990326
 30
0.0
 40
0.0107524775013884
100
AcDbArc
 50
312.198846089539
 51
3.734221343476349
  0
LINE
  5
243
330
1F
100
AcDbEntity
  8
0
  6
Continuous
 62
     7
370
    15
100
AcDbLine
 10
2.022429581583521
 20
5.919406160414489
 30
0.0
 11
2.022429581583521
 21
5.630373089859761
 31
0.0
  0
LINE
  5
244
330
1F
100
AcDbEntity
  8
0
  6
Continuous
 62
     7
370
    15
100
AcDbLine
 10
2.022429581583521
 20
5.919406160414489
 30
0.0
 11
2.208045298020344
 21
5.869677658580952
 31
0.0
  0
LINE
  5
245
330
1F
100
AcDbEntity
  8
0
  6
Continuous
 62
     7
370
    15
100
AcDbLine
 10
2.208045298020344
 20
5.869677658580952
 30
0.0
 11
2.208045298020344
 21
5.813668876352473
 31
0.0
  0
ARC
  5
246
330
1F
100
AcDbEntity
  8
0
  6
Continuous
 62
     7
370
    15
100
AcDbCircle
 10
2.174045844516864
 20
5.812016106258613
 30
0.0
 40
0.0340396017532291
100
AcDbArc
 50
318.7432001957848
 51
2.78305249853924
  0
LINE
  5
247
330
1F
100
AcDbEntity
  8
0
  6
Continuous
 62
     7
370
    15
100
AcDbLine
 10
2.139897162627718
 20
5.729672396253913
 30
0.0
 11
2.199635508350151
 21
5.789569200181878
 31
0.0
  0
LWPOLYLINE
  5
248
330
1F
100
AcDbEntity
  8
0
  6
Continuous
 62
     7
370
    15
100
AcDbPolyline
 90
       23
 70
   128
 43
0.0
 10
2.16269296596798
 20
5.611568610097263
 10
2.158085684882336
 20
5.614466319151516
 10
2.153621769454619
 20
5.617938988918433
 10
2.149345357723033
 20
5.621952355344067
 10
2.14529826467114
 20
5.626467068087651
 10
2.14152031409281
 20
5.631438714654059
 10
2.138048674862318
 20
5.636818450385378
 10
2.134917529069403
 20
5.642553483020821
 10
2.132157408289362
 20
5.648587363560048
 10
2.129795525448007
 20
5.65486091473762
 10
2.127855111091762
 20
5.66131240884358
 10
2.126355413387662
 20
5.667878472065437
 10
2.125311034393459
 20
5.67449454491562
 10
2.12473193005762
 20
5.681095730052097
 10
2.124624073949226
 20
5.687617123150171
 10
2.124988793528073
 20
5.693994555936795
 10
2.125821774549823
 20
5.700165484656562
 10
2.127115715985603
 20
5.706069183131395
 10
2.128857343237454
 20
5.711647655995883
 10
2.131029399328035
 20
5.716846235663051
 10
2.133611308630514
 20
5.721613517546529
 10
2.136576853813926
 20
5.725902999817311
 10
2.139897162627718
 20
5.729672396253913
  0
LINE
  5
249
330
1F
100
AcDbEntity
  8
0
  6
Continuous
 62
     7
370
    15
100
AcDbLine
 10
2.208045298020344
 20
5.586283612524772
 30
0.0
 11
2.16269296596798
 21
5.611568610097263
 31
0.0
  0
LINE
  5
24A
330
1F
100
AcDbEntity
  8
0
  6
Continuous
 62
     7
370
    15
100
AcDbLine
 10
2.208045298020344
 20
5.586283612524772
 30
0.0
 11
2.208045298020344
 21
5.400408437483825
 31
0.0
  0
ARC
  5
24B
330
1F
100
AcDbEntity
  8
0
  6
Continuous
 62
     7
370
    15
100
AcDbCircle
 10
2.172747900117438
 20
5.399024855511386
 30
0.0
 40
0.0353245042115315
100
AcDbArc
 50
322.8767827336181
 51
2.244721970796192
  0
LINE
  5
24C
330
1F
100
AcDbEntity
  8
0
  6
Continuous
 62
     7
370
    15
100
AcDbLine
 10
2.131738262858896
 20
5.295467433383846
 30
0.0
 11
2.200913520268382
 21
5.377705417448829
 31
0.0
  0
ARC
  5
24D
330
1F
100
AcDbEntity
  8
0
  6
Continuous
 62
     7
370
    15
100
AcDbCircle
 10
2.15990656974042
 20
5.274147150468754
 30
0.0
 40
0.0353271563552927
100
AcDbArc
 50
142.8783200827029
 51
182.2432050139291
  0
LINE
  5
24E
330
1F
100
AcDbEntity
  8
0
  6
Continuous
 62
     7
370
    15
100
AcDbLine
 10
2.124606485106934
 20
5.235699928497189
 30
0.0
 11
2.124606485106934
 21
5.272764399218505
 31
0.0
  0
ARC
  5
24F
330
1F
100
AcDbEntity
  8
0
  6
Continuous
 62
     7
370
    15
100
AcDbCircle
 10
2.1783134601996
 20
5.235919470891694
 30
0.0
 40
0.0537074238114923
100
AcDbArc
 50
180.2342113392967
 51
209.8648702836486
  0
LINE
  5
250
330
1F
100
AcDbEntity
  8
0
  6
Continuous
 62
     7
370
    15
100
AcDbLine
 10
2.200913520268382
 20
5.089871928287381
 30
0.0
 11
2.131738262858896
 21
5.209175530173436
 31
0.0
  0
ARC
  5
251
330
1F
100
AcDbEntity
  8
0
  6
Continuous
 62
     7
370
    15
100
AcDbCircle
 10
2.154342479498887
 20
5.063129105142842
 30
0.0
 40
0.0537032627322971
100
AcDbArc
 50
0.2330409111831633
 51
29.86604453857967
  0
LINE
  5
252
330
1F
100
AcDbEntity
  8
0
  6
Continuous
 62
     7
370
    15
100
AcDbLine
 10
2.208045298020344
 20
5.063347533496214
 30
0.0
 11
2.208045298020344
 21
5.002578397460562
 31
0.0
  0
LINE
  5
253
330
1F
100
AcDbEntity
  8
0
  6
Continuous
 62
     7
370
    15
100
AcDbLine
 10
2.208045298020344
 20
5.002578397460562
 30
0.0
 11
2.018922432803495
 21
5.053246503212807
 31
0.0
  0
LINE
  5
254
330
1F
100
AcDbEntity
  8
0
  6
Continuous
 62
     7
370
    15
100
AcDbLine
 10
2.215399217872478
 20
5.871647854983879
 30
0.0
 11
2.208045298020344
 21
5.869677658580952
 31
0.0
  0
LINE
  5
255
330
1F
100
AcDbEntity
  8
0
  6
Continuous
 62
     7
370
    15
100
AcDbLine
 10
2.022429581583521
 20
5.919406160414489
 30
0.0
 11
2.029783501435655
 21
5.921376356817416
 31
0.0
  0
LINE
  5
256
330
1F
100
AcDbEntity
  8
0
  6
Continuous
 62
     7
370
    15
100
AcDbLine
 10
2.029783501435655
 20
5.921376356817416
 30
0.0
 11
2.215399217872478
 21
5.871647854983879
 31
0.0
  0
LINE
  5
257
330
1F
100
AcDbEntity
  8
0
  6
Continuous
 62
     7
370
    15
100
AcDbLine
 10
2.215399217872478
 20
5.871647854983879
 30
0.0
 11
2.215399217872478
 21
5.815639072755399
 31
0.0
  0
ARC
  5
258
330
1F
100
AcDbEntity
  8
0
  6
Continuous
 62
     7
370
    15
100
AcDbCircle
 10
2.181399764369002
 20
5.81398630266154
 30
0.0
 40
0.0340396017532262
100
AcDbArc
 50
318.7432001957818
 51
2.783052498539494
  0
LINE
  5
259
330
1F
100
AcDbEntity
  8
0
  6
Continuous
 62
     7
370
    15
100
AcDbLine
 10
1.874422501964438
 20
5.805863799692875
 30
0.0
 11
1.814684239208241
 21
5.713957891913961
 31
0.0
  0
LINE
  5
25A
330
1F
100
AcDbEntity
  8
0
  6
Continuous
 62
     7
370
    15
100
AcDbLine
 10
2.147251082479852
 20
5.731642592656839
 30
0.0
 11
2.206989428202286
 21
5.791539396584805
 31
0.0
  0
LWPOLYLINE
  5
25B
330
1F
100
AcDbEntity
  8
0
  6
Continuous
 62
     7
370
    15
100
AcDbPolyline
 90
       22
 70
   128
 43
0.0
 10
1.814684239208241
 20
5.713957891913961
 10
1.811363764461976
 20
5.708409356168568
 10
1.808398219278563
 20
5.702530869238896
 10
1.805816558874797
 20
5.696380209964031
 10
1.803644336851741
 20
5.690017750177839
 10
1.80190270959989
 20
5.683506074935345
 10
1.800608934096584
 20
5.676909098493429
 10
1.799775704176122
 20
5.670291773447503
 10
1.79941115052975
 20
5.663718960304012
 10
1.799518923671907
 20
5.657255336665267
 10
1.800097945041509
 20
5.650964426204727
 10
1.801142489968186
 20
5.644907999159455
 10
1.802642270638524
 20
5.639145529343945
 10
1.804582602028532
 20
5.633733729912892
 10
1.806944484869887
 20
5.628725727768144
 10
1.809704522683689
 20
5.624170758724264
 10
1.81283583440908
 20
5.620113507669818
 10
1.816307390673334
 20
5.616593930746812
 10
1.820085341251665
 20
5.613646593607085
 10
1.824132351337321
 20
5.611300380548996
 10
1.828408763068906
 20
5.609578410053808
 10
1.829879588522452
 20
5.609145835345028
  0
LINE
  5
25C
330
1F
100
AcDbEntity
  8
0
  6
Continuous
 62
     7
370
    15
100
AcDbLine
 10
1.882832291634631
 20
5.890478409284983
 30
0.0
 11
1.890186418902358
 21
5.888508157313126
 31
0.0
  0
LINE
  5
25D
330
1F
100
AcDbEntity
  8
0
  6
Continuous
 62
     7
370
    15
100
AcDbLine
 10
1.882832291634631
 20
5.890478409284983
 30
0.0
 11
1.882832291634631
 21
5.834469627056503
 31
0.0
  0
LINE
  5
25E
330
1F
100
AcDbEntity
  8
0
  6
Continuous
 62
     7
370
    15
100
AcDbLine
 10
2.005515545182051
 20
5.91940610484556
 30
0.0
 11
1.998161417914324
 21
5.921376356817416
 31
0.0
  0
LINE
  5
25F
330
1F
100
AcDbEntity
  8
0
  6
Continuous
 62
     7
370
    15
100
AcDbLine
 10
1.882832291634631
 20
5.890478409284983
 30
0.0
 11
1.998161417914324
 21
5.921376356817416
 31
0.0
  0
LINE
  5
260
330
1F
100
AcDbEntity
  8
0
  6
Continuous
 62
     7
370
    15
100
AcDbLine
 10
2.215399217872478
 20
5.588253808927699
 30
0.0
 11
2.208045298020344
 21
5.586283612524772
 31
0.0
  0
LINE
  5
261
330
1F
100
AcDbEntity
  8
0
  6
Continuous
 62
     7
370
    15
100
AcDbLine
 10
2.215399217872478
 20
5.588253808927699
 30
0.0
 11
2.170046885820114
 21
5.61353880650019
 31
0.0
  0
ARC
  5
262
330
1F
100
AcDbEntity
  8
0
  6
Continuous
 62
     7
370
    15
100
AcDbCircle
 10
1.829404303876075
 20
5.834637745907348
 30
0.0
 40
0.053428252262978
100
AcDbArc
 50
327.4148096301749
 51
359.8197111809264
  0
LINE
  5
263
330
1F
100
AcDbEntity
  8
0
  6
Continuous
 62
     7
370
    15
100
AcDbLine
 10
2.215399217872478
 20
5.588253808927699
 30
0.0
 11
2.215399217872478
 21
5.402378633886752
 31
0.0
  0
LWPOLYLINE
  5
264
330
1F
100
AcDbEntity
  8
0
  6
Continuous
 62
     7
370
    15
100
AcDbPolyline
 90
       23
 70
   128
 43
0.0
 10
2.170046885820114
 20
5.61353880650019
 10
2.165439604734471
 20
5.616436515554442
 10
2.160975689306754
 20
5.61990918532136
 10
2.156699277575168
 20
5.623922551746995
 10
2.152652184523276
 20
5.628437264490579
 10
2.148874233944944
 20
5.633408911056986
 10
2.145402594714453
 20
5.638788646788305
 10
2.142271448921537
 20
5.644523679423747
 10
2.139511328141497
 20
5.650557559962975
 10
2.137149445300142
 20
5.656831111140548
 10
2.135209030943897
 20
5.663282605246507
 10
2.133709333239797
 20
5.669848668468364
 10
2.132664954245594
 20
5.676464741318547
 10
2.132085849909755
 20
5.683065926455024
 10
2.131977993801361
 20
5.689587319553098
 10
2.132342713380208
 20
5.695964752339722
 10
2.133175694401958
 20
5.702135681059489
 10
2.134469635837738
 20
5.708039379534322
 10
2.136211263089589
 20
5.713617852398811
 10
2.13838331918017
 20
5.718816432065978
 10
2.140965228482649
 20
5.723583713949455
 10
2.143930773666061
 20
5.727873196220238
 10
2.147251082479852
 20
5.731642592656839
  0
ARC
  5
265
330
1F
100
AcDbEntity
  8
0
  6
Continuous
 62
     7
370
    15
100
AcDbCircle
 10
1.853057806530423
 20
5.580668119852475
 30
0.0
 40
0.0299023658474687
100
AcDbArc
 50
354.6991889000219
 51
56.33594129125877
  0
ARC
  5
266
330
1F
100
AcDbEntity
  8
0
  6
Continuous
 62
     7
370
    15
100
AcDbCircle
 10
2.180101819969573
 20
5.400995051914313
 30
0.0
 40
0.0353245042115321
100
AcDbArc
 50
322.8767827336175
 51
2.244721970794752
  0
LINE
  5
267
330
1F
100
AcDbEntity
  8
0
  6
Continuous
 62
     7
370
    15
100
AcDbLine
 10
1.875700721298263
 20
5.394684859563376
 30
0.0
 11
1.806525256473183
 21
5.275381187978047
 31
0.0
  0
LINE
  5
268
330
1F
100
AcDbEntity
  8
0
  6
Continuous
 62
     7
370
    15
100
AcDbLine
 10
2.139092182711031
 20
5.297437629786773
 30
0.0
 11
2.208267440120518
 21
5.379675613851755
 31
0.0
  0
LINE
  5
269
330
1F
100
AcDbEntity
  8
0
  6
Continuous
 62
     7
370
    15
100
AcDbLine
 10
2.122485328802892
 20
5.592477730426934
 30
0.0
 11
2.151445855434007
 21
5.584718885274585
 31
0.0
  0
ARC
  5
26A
330
1F
100
AcDbEntity
  8
0
  6
Continuous
 62
     7
370
    15
100
AcDbCircle
 10
1.853096493927839
 20
5.248638815365866
 30
0.0
 40
0.0537032089449666
100
AcDbArc
 50
150.1344767921354
 51
179.767372155663
  0
LINE
  5
26B
330
1F
100
AcDbEntity
  8
0
  6
Continuous
 62
     7
370
    15
100
AcDbLine
 10
1.882832291634631
 20
5.577905599254341
 30
0.0
 11
1.882832291634631
 21
5.421209188187856
 31
0.0
  0
LINE
  5
26C
330
1F
100
AcDbEntity
  8
0
  6
Continuous
 62
     7
370
    15
100
AcDbLine
 10
1.799393727619933
 20
5.211792385615695
 30
0.0
 11
1.799393727619933
 21
5.248856856337011
 31
0.0
  0
ARC
  5
26D
330
1F
100
AcDbEntity
  8
0
  6
Continuous
 62
     7
370
    15
100
AcDbCircle
 10
2.127241911972053
 20
5.602928092223926
 30
0.0
 40
0.0114819486644571
100
AcDbArc
 50
153.1192165075415
 51
245.5268862973982
  0
ARC
  5
26E
330
1F
100
AcDbEntity
  8
0
  6
Continuous
 62
     7
370
    15
100
AcDbCircle
 10
1.834691592564283
 20
5.210408565676192
 30
0.0
 40
0.0353249802159129
100
AcDbArc
 50
177.7549220223253
 51
217.1223131891499
  0
LINE
  5
26F
330
1F
100
AcDbEntity
  8
0
  6
Continuous
 62
     7
370
    15
100
AcDbLine
 10
1.806525256473183
 20
5.189089284767638
 30
0.0
 11
1.875700721298263
 21
5.106851370401931
 31
0.0
  0
ARC
  5
270
330
1F
100
AcDbEntity
  8
0
  6
Continuous
 62
     7
370
    15
100
AcDbCircle
 10
1.829128721073551
 20
5.421427521274869
 30
0.0
 40
0.0537040143783108
100
AcDbArc
 50
330.1346145559256
 51
359.7670639891821
  0
LINE
  5
271
330
1F
100
AcDbEntity
  8
0
  6
Continuous
 62
     7
370
    15
100
AcDbLine
 10
2.208267440120518
 20
5.091842124690308
 30
0.0
 11
2.139092182711031
 21
5.211145726576364
 31
0.0
  0
LINE
  5
272
330
1F
100
AcDbEntity
  8
0
  6
Continuous
 62
     7
370
    15
100
AcDbLine
 10
1.946926945575098
 20
5.603587293130609
 30
0.0
 11
1.975887555172452
 21
5.61134616051053
 31
0.0
  0
ARC
  5
273
330
1F
100
AcDbEntity
  8
0
  6
Continuous
 62
     7
370
    15
100
AcDbCircle
 10
2.161696399351023
 20
5.065099301545772
 30
0.0
 40
0.0537032627322948
100
AcDbArc
 50
0.2330409111803302
 51
29.86604453857815
  0
LINE
  5
274
330
1F
100
AcDbEntity
  8
0
  6
Continuous
 62
     7
370
    15
100
AcDbLine
 10
2.215399217872478
 20
5.004548593863489
 30
0.0
 11
2.208045298020344
 21
5.002578397460562
 31
0.0
  0
LINE
  5
275
330
1F
100
AcDbEntity
  8
0
  6
Continuous
 62
     7
370
    15
100
AcDbLine
 10
2.215399217872478
 20
5.065317729899141
 30
0.0
 11
2.215399217872478
 21
5.004548593863489
 31
0.0
  0
ARC
  5
276
330
1F
100
AcDbEntity
  8
0
  6
Continuous
 62
     7
370
    15
100
AcDbCircle
 10
1.971130937576685
 20
5.621796472680426
 30
0.0
 40
0.0114819177579642
100
AcDbArc
 50
294.473372650256
 51
26.88101496007384
  0
ARC
  5
277
330
1F
100
AcDbEntity
  8
0
  6
Continuous
 62
     7
370
    15
100
AcDbCircle
 10
2.167260489592554
 20
5.276117346871679
 30
0.0
 40
0.0353271563552927
100
AcDbArc
 50
142.8783200827013
 51
182.2432050139276
  0
LINE
  5
278
330
1F
100
AcDbEntity
  8
0
  6
Continuous
 62
     7
370
    15
100
AcDbLine
 10
2.131960404959069
 20
5.237670124900116
 30
0.0
 11
2.131960404959069
 21
5.274734595621432
 31
0.0
  0
ARC
  5
279
330
1F
100
AcDbEntity
  8
0
  6
Continuous
 62
     7
370
    15
100
AcDbCircle
 10
2.18566738005173
 20
5.23788966729462
 30
0.0
 40
0.053707423811487
100
AcDbArc
 50
180.2342113392958
 51
209.8648702836498
  0
SPLINE
  5
27A
330
1F
100
AcDbEntity
  8
0
  6
Continuous
 62
     7
370
    15
100
AcDbSpline
210
0.0
220
0.0
230
1.0
 70
     8
 71
     3
 72
    11
 73
     7
 74
     0
 42
0.0000000001
 43
0.0000000001
 40
0.0
 40
0.0
 40
0.0
 40
0.0
 40
0.2398302668376528
 40
0.4892061159818783
 40
0.9713061589512866
 40
0.9999999999999998
 40
0.9999999999999998
 40
0.9999999999999998
 40
0.9999999999999998
 10
2.00816685574197
 20
5.622799599356285
 30
0.0
 10
2.009087315655258
 20
5.622724233757525
 30
0.0
 10
2.010964871082415
 20
5.622570502903055
 30
0.0
 10
2.014912601625834
 20
5.622472957508234
 30
0.0
 10
2.018112789993873
 20
5.622748122097603
 30
0.0
 10
2.019937839244586
 20
5.622947844159354
 30
0.0
 10
2.020040361366999
 20
5.622959063544068
 30
0.0
  0
SPLINE
  5
27B
330
1F
100
AcDbEntity
  8
0
  6
Continuous
 62
     7
370
    15
100
AcDbSpline
210
0.0
220
0.0
230
1.0
 70
     8
 71
     3
 72
    15
 73
    11
 74
     0
 42
0.0000000001
 43
0.0000000001
 40
0.0
 40
0.0
 40
0.0
 40
0.0
 40
0.1553681556895607
 40
0.2885641941585678
 40
0.4025734587728434
 40
0.5021911595387749
 40
0.5910758756813106
 40
0.7018781933610763
 40
0.8376747950439613
 40
1.0
 40
1.0
 40
1.0
 40
1.0
 10
2.009022901377669
 20
5.621707168776405
 30
0.0
 10
2.009396474032442
 20
5.621409830276247
 30
0.0
 10
2.010090307923988
 20
5.62085758554946
 30
0.0
 10
2.01138502261736
 20
5.620220812001989
 30
0.0
 10
2.012679810044109
 20
5.619828733101869
 30
0.0
 10
2.013933474036538
 20
5.619696263824006
 30
0.0
 10
2.015157943534127
 20
5.619893917509127
 30
0.0
 10
2.016402737107162
 20
5.620314424815783
 30
0.0
 10
2.017750301862535
 20
5.620935323009642
 30
0.0
 10
2.018509211758651
 20
5.621435063584865
 30
0.0
 10
2.018922432803495
 20
5.621707168776405
 30
0.0
  0
ARC
  5
27C
330
1F
100
AcDbEntity
  8
0
  6
Continuous
 62
     7
370
    15
100
AcDbCircle
 10
2.013972667090582
 20
5.031836290620315
 30
0.0
 40
0.0219749262539935
100
AcDbArc
 50
76.98265179123376
 51
103.0173482087651
  0
ARC
  5
27D
330
1F
100
AcDbEntity
  8
0
  6
Continuous
 62
     7
370
    15
100
AcDbCircle
 10
1.847533981258217
 20
5.085531898999944
 30
0.0
 40
0.0353254172706236
100
AcDbArc
 50
357.755282793629
 51
37.12216413114656
  0
LINE
  5
27E
330
1F
100
AcDbEntity
  8
0
  6
Continuous
 62
     7
370
    15
100
AcDbLine
 10
1.882832291634631
 20
5.023379148164593
 30
0.0
 11
1.890186418902358
 21
5.021408896192737
 31
0.0
  0
LINE
  5
27F
330
1F
100
AcDbEntity
  8
0
  6
Continuous
 62
     7
370
    15
100
AcDbLine
 10
1.882832291634631
 20
5.084148284200245
 30
0.0
 11
1.882832291634631
 21
5.023379148164593
 31
0.0
  0
LINE
  5
318
330
1F
100
AcDbEntity
  8
0
  6
Continuous
 62
     7
370
    15
100
AcDbLine
 10
0.9533122540449422
 20
5.236507869239108
 30
0.0
 11
0.8826016234493474
 21
5.188955953030278
 31
0.0
  0
LINE
  5
319
330
1F
100
AcDbEntity
  8
0
  6
Continuous
 62
     7
370
    15
100
AcDbLine
 10
0.9533122540449422
 20
5.737794131656329
 30
0.0
 11
0.9533122540449422
 21
5.236507869239108
 31
0.0
  0
LINE
  5
31A
330
1F
100
AcDbEntity
  8
0
  6
Continuous
 62
     7
370
    15
100
AcDbLine
 10
0.9533122540449422
 20
5.737794131656329
 30
0.0
 11
2.01397245967499
 21
6.021956723019571
 31
0.0
  0
LINE
  5
31B
330
1F
100
AcDbEntity
  8
0
  6
Continuous
 62
     7
370
    15
100
AcDbLine
 10
2.01397245967499
 20
6.021956723019571
 30
0.0
 11
2.01397245967499
 21
5.622535825322363
 31
0.0
  0
LINE
  5
31C
330
1F
100
AcDbEntity
  8
0
  6
Continuous
 62
     7
370
    15
100
AcDbLine
 10
2.01397245967499
 20
5.053795855853718
 30
0.0
 11
2.01397245967499
 21
4.962168684609483
 31
0.0
  0
LINE
  5
31D
330
1F
100
AcDbEntity
  8
0
  6
Continuous
 62
     7
370
    15
100
AcDbLine
 10
2.01397245967499
 20
4.962168684609483
 30
0.0
 11
0.9886676523089768
 21
4.687478195184316
 31
0.0
  0
LINE
  5
31E
330
1F
100
AcDbEntity
  8
0
  6
Continuous
 62
     7
370
    15
100
AcDbLine
 10
0.9886676523089768
 20
5.13902971751495
 30
0.0
 11
0.9886676523089768
 21
4.687478195184316
 31
0.0
  0
LINE
  5
31F
330
1F
100
AcDbEntity
  8
0
  6
Continuous
 62
     7
370
    15
100
AcDbLine
 10
0.8826016234493474
 20
5.188955953030278
 30
0.0
 11
0.9886676523089768
 21
5.13902971751495
 31
0.0
  0
LINE
  5
320
330
1F
100
AcDbEntity
  8
0
  6
Continuous
 62
     7
370
    15
100
AcDbLine
 10
1.801840733820682
 20
6.078789156827446
 30
0.0
 11
2.01397245967499
 21
6.021956723019571
 31
0.0
  0
LINE
  5
321
330
1F
100
AcDbEntity
  8
0
  6
Continuous
 62
     7
370
    15
100
AcDbLine
 10
0.9533122540449422
 20
5.737794131656329
 30
0.0
 11
0.7411805281906342
 21
5.794626565464204
 31
0.0
  0
LINE
  5
322
330
1F
100
AcDbEntity
  8
0
  6
Continuous
 62
     7
370
    15
100
AcDbLine
 10
0.7411805281906342
 20
5.794626565464204
 30
0.0
 11
1.801840733820682
 21
6.078789156827446
 31
0.0
  0
LINE
  5
323
330
1F
100
AcDbEntity
  8
0
  6
Continuous
 62
     7
370
    15
100
AcDbLine
 10
0.9533122540449422
 20
5.236507869239108
 30
0.0
 11
0.7411805281906342
 21
5.293340303046983
 31
0.0
  0
LINE
  5
324
330
1F
100
AcDbEntity
  8
0
  6
Continuous
 62
     7
370
    15
100
AcDbLine
 10
0.7411805281906342
 20
5.794626565464204
 30
0.0
 11
0.7411805281906342
 21
5.293340303046983
 31
0.0
  0
LINE
  5
325
330
1F
100
AcDbEntity
  8
0
  6
Continuous
 62
     7
370
    15
100
AcDbLine
 10
0.8826016234493474
 20
5.188955953030278
 30
0.0
 11
0.6704698975950398
 21
5.245788386838153
 31
0.0
  0
LINE
  5
326
330
1F
100
AcDbEntity
  8
0
  6
Continuous
 62
     7
370
    15
100
AcDbLine
 10
0.7411805281906342
 20
5.293340303046983
 30
0.0
 11
0.6704698975950398
 21
5.245788386838153
 31
0.0
  0
LINE
  5
327
330
1F
100
AcDbEntity
  8
0
  6
Continuous
 62
     7
370
    15
100
AcDbLine
 10
0.9886676523089768
 20
5.13902971751495
 30
0.0
 11
0.7765359264546686
 21
5.195862151322825
 31
0.0
  0
LINE
  5
328
330
1F
100
AcDbEntity
  8
0
  6
Continuous
 62
     7
370
    15
100
AcDbLine
 10
0.6704698975950398
 20
5.245788386838153
 30
0.0
 11
0.7765359264546686
 21
5.195862151322825
 31
0.0
  0
LINE
  5
329
330
1F
100
AcDbEntity
  8
0
  6
Continuous
 62
     7
370
    15
100
AcDbLine
 10
0.9886676523089768
 20
4.687478195184316
 30
0.0
 11
0.7765359264546686
 21
4.744310628992191
 31
0.0
  0
LINE
  5
32A
330
1F
100
AcDbEntity
  8
0
  6
Continuous
 62
     7
370
    15
100
AcDbLine
 10
0.7765359264546686
 20
5.195862151322825
 30
0.0
 11
0.7765359264546686
 21
4.744310628992191
 31
0.0
  0
LINE
  5
32B
330
1F
100
AcDbEntity
  8
0
  6
Continuous
 62
     7
370
    15
100
AcDbLine
 10
4.523819984901435
 20
5.101642261032302
 30
0.0
 11
4.523819984901435
 21
5.162411386470195
 31
0.0
  0
ARC
  5
32C
330
1F
100
AcDbEntity
  8
0
  6
Continuous
 62
     7
370
    15
100
AcDbCircle
 10
4.488521978896827
 20
5.100258622476347
 30
0.0
 40
0.0353251140628717
100
AcDbArc
 50
322.8775561213957
 51
2.244775044616332
  0
LINE
  5
32D
330
1F
100
AcDbEntity
  8
0
  6
Continuous
 62
     7
370
    15
100
AcDbLine
 10
4.516688373081947
 20
5.078939196542161
 30
0.0
 11
4.447512949739986
 21
4.99670128519301
 31
0.0
  0
ARC
  5
32E
330
1F
100
AcDbEntity
  8
0
  6
Continuous
 62
     7
370
    15
100
AcDbCircle
 10
4.475679343925111
 20
4.975381859258821
 30
0.0
 40
0.035325114062876
100
AcDbArc
 50
142.8775561213969
 51
182.244775044614
  0
LINE
  5
32F
330
1F
100
AcDbEntity
  8
0
  6
Continuous
 62
     7
370
    15
100
AcDbLine
 10
4.440381337920499
 20
4.973998220702869
 30
0.0
 11
4.440381337920499
 21
4.936933707590522
 31
0.0
  0
ARC
  5
330
330
1F
100
AcDbEntity
  8
0
  6
Continuous
 62
     7
370
    15
100
AcDbCircle
 10
4.494084583256708
 20
4.937152014865812
 30
0.0
 40
0.0537036890511953
100
AcDbArc
 50
180.2329098834865
 51
209.8655666669596
  0
LINE
  5
331
330
1F
100
AcDbEntity
  8
0
  6
Continuous
 62
     7
370
    15
100
AcDbLine
 10
4.447512949739986
 20
4.910409367852257
 30
0.0
 11
4.516688373081947
 21
4.791105707380713
 31
0.0
  0
ARC
  5
332
330
1F
100
AcDbEntity
  8
0
  6
Continuous
 62
     7
370
    15
100
AcDbCircle
 10
4.470116811069547
 20
4.764363079592556
 30
0.0
 40
0.0537036174693173
100
AcDbArc
 50
0.2328896824060477
 51
29.86558686804387
  0
LINE
  5
333
330
1F
100
AcDbEntity
  8
0
  6
Continuous
 62
     7
370
    15
100
AcDbLine
 10
4.523819984901435
 20
4.578706178471159
 30
0.0
 11
4.523819984901435
 21
4.764581367642448
 31
0.0
  0
LINE
  5
334
330
1F
100
AcDbEntity
  8
0
  6
Continuous
 62
     7
370
    15
100
AcDbLine
 10
4.523819984901435
 20
4.578706178471159
 30
0.0
 11
4.478467486916596
 21
4.57772203558399
 31
0.0
  0
LWPOLYLINE
  5
335
330
1F
100
AcDbEntity
  8
0
  6
Continuous
 62
     7
370
    15
100
AcDbPolyline
 90
       23
 70
   128
 43
0.0
 10
4.478467486916596
 20
4.57772203558399
 10
4.473860205830953
 20
4.577292981312849
 10
4.46939645633571
 20
4.57621215990684
 10
4.465120044604124
 20
4.574490203541995
 10
4.461072951552232
 20
4.572144012711479
 10
4.457295166906376
 20
4.569196616986265
 10
4.453823527675884
 20
4.56567702696497
 10
4.450692215950494
 20
4.561619818301557
 10
4.447932095170453
 20
4.557064829094217
 10
4.445570212329099
 20
4.552056841079814
 10
4.443629963905327
 20
4.546645012356016
 10
4.442130100268753
 20
4.540882593028765
 10
4.441085555342075
 20
4.53482615185315
 10
4.440506616938711
 20
4.528535205034694
 10
4.440398926762791
 20
4.522071573298721
 10
4.440763314476689
 20
4.51549882580589
 10
4.441596627363388
 20
4.50888143614136
 10
4.442890402866694
 20
4.502284495025304
 10
4.444632030118546
 20
4.495772798587294
 10
4.446804252141601
 20
4.489410370594375
 10
4.449385829579131
 20
4.483259698221224
 10
4.452351540695016
 20
4.477381175667873
 10
4.455671849508808
 20
4.471832675546156
  0
LINE
  5
336
330
1F
100
AcDbEntity
  8
0
  6
Continuous
 62
     7
370
    15
100
AcDbLine
 10
4.455671849508808
 20
4.471832675546156
 30
0.0
 11
4.515410195231241
 21
4.379926745539672
 31
0.0
  0
ARC
  5
337
330
1F
100
AcDbEntity
  8
0
  6
Continuous
 62
     7
370
    15
100
AcDbCircle
 10
4.470391246136018
 20
4.351152578308975
 30
0.0
 40
0.0534290040844707
100
AcDbArc
 50
0.1805649659046677
 51
32.58495634540756
  0
LINE
  5
338
330
1F
100
AcDbEntity
  8
0
  6
Continuous
 62
     7
370
    15
100
AcDbLine
 10
4.523819984901435
 20
4.295312132414977
 30
0.0
 11
4.523819984901435
 21
4.351320957034489
 31
0.0
  0
LINE
  5
339
330
1F
100
AcDbEntity
  8
0
  6
Continuous
 62
     7
370
    15
100
AcDbLine
 10
4.338204434397085
 20
4.34504058979337
 30
0.0
 11
4.523819984901435
 21
4.295312132414977
 31
0.0
  0
LINE
  5
33A
330
1F
100
AcDbEntity
  8
0
  6
Continuous
 62
     7
370
    15
100
AcDbLine
 10
4.338204434397085
 20
4.34504058979337
 30
0.0
 11
4.338204434397085
 21
4.634073674478443
 31
0.0
  0
ARC
  5
33B
330
1F
100
AcDbEntity
  8
0
  6
Continuous
 62
     7
370
    15
100
AcDbCircle
 10
4.320558110468038
 20
4.634060389411634
 30
0.0
 40
0.0176463289298898
100
AcDbArc
 50
0.0431352228359316
 51
36.75097200159237
  0
LINE
  5
33C
330
1F
100
AcDbEntity
  8
0
  6
Continuous
 62
     7
370
    15
100
AcDbLine
 10
4.523819984901435
 20
5.162411386470195
 30
0.0
 11
4.334697119684586
 21
5.213079492222441
 31
0.0
  0
LWPOLYLINE
  5
33D
330
1F
100
AcDbEntity
  8
0
  6
Continuous
 62
     7
370
    15
100
AcDbPolyline
 90
       32
 70
   128
 43
0.0
 10
4.508829313294461
 20
5.118255402903503
 10
4.50859186392352
 20
5.121499645525669
 10
4.507889471759163
 20
5.124738226213655
 10
4.506750843119472
 20
5.127838541989782
 10
4.505222439097291
 20
5.130673802673029
 10
4.503366982167965
 20
5.133127783121176
 10
4.501260303472318
 20
5.135100133067123
 10
4.49898885382954
 20
5.136510039578898
 10
4.49664538949285
 20
5.137299813312507
 10
4.494325985364954
 20
5.137437101738885
 10
4.492125720753717
 20
5.13691621454175
 10
4.490134365127815
 20
5.135758601194857
 10
4.488433723197152
 20
5.134011583996182
 10
4.487093320668527
 20
5.131746687832929
 10
4.48616808119098
 20
5.129056645185579
 10
4.485695671436214
 20
5.12605164222159
 10
4.485695671436214
 20
5.122854623711533
 10
4.48616808119098
 20
5.119596493158922
 10
4.487093320668527
 20
5.116410686748256
 10
4.488433723197152
 20
5.11342762980364
 10
4.490134365127815
 20
5.110769371067982
 10
4.492125720753717
 20
5.108544745360336
 10
4.494325985364954
 20
5.106844907750439
 10
4.49664538949285
 20
5.105739408177601
 10
4.49898885382954
 20
5.105273501920302
 10
4.501260303472318
 20
5.105466258984586
 10
4.503366982167965
 20
5.106309803919941
 10
4.505222439097291
 20
5.107769646054206
 10
4.506750843119472
 20
5.109785954078935
 10
4.507889471759163
 20
5.112276167461972
 10
4.50859186392352
 20
5.115138390902806
 10
4.508829313294461
 20
5.118255402903503
  0
LWPOLYLINE
  5
33E
330
1F
100
AcDbEntity
  8
0
  6
Continuous
 62
     7
370
    15
100
AcDbPolyline
 90
       32
 70
   128
 43
0.0
 10
4.508829313294461
 20
4.732877947236511
 10
4.50859186392352
 20
4.736122161597988
 10
4.507889471759163
 20
4.739360742285975
 10
4.506750843119472
 20
4.742461086322789
 10
4.505222439097291
 20
4.745296318745349
 10
4.503366982167965
 20
4.747750327454183
 10
4.501260303472318
 20
4.749722677400129
 10
4.49898885382954
 20
4.751132583911905
 10
4.49664538949285
 20
4.751922329384828
 10
4.494325985364954
 20
4.752059617811205
 10
4.492125720753717
 20
4.751538758874758
 10
4.490134365127815
 20
4.750381145527864
 10
4.488433723197152
 20
4.748634128329188
 10
4.487093320668527
 20
4.746369260426623
 10
4.48616808119098
 20
4.743679217779273
 10
4.485695671436214
 20
4.740674214815285
 10
4.485695671436214
 20
4.737477196305228
 10
4.48616808119098
 20
4.734219037491929
 10
4.487093320668527
 20
4.73103325934195
 10
4.488433723197152
 20
4.728050145875961
 10
4.490134365127815
 20
4.725391887140301
 10
4.492125720753717
 20
4.723167261432656
 10
4.494325985364954
 20
4.721467452083446
 10
4.49664538949285
 20
4.720361952510608
 10
4.49898885382954
 20
4.719896046253309
 10
4.501260303472318
 20
4.720088831578282
 10
4.503366982167965
 20
4.720932376513636
 10
4.505222439097291
 20
4.722392190387213
 10
4.506750843119472
 20
4.724408470151255
 10
4.507889471759163
 20
4.726898711794978
 10
4.50859186392352
 20
4.729760935235814
 10
4.508829313294461
 20
4.732877947236511
  0
LWPOLYLINE
  5
33F
330
1F
100
AcDbEntity
  8
0
  6
Continuous
 62
     7
370
    15
100
AcDbPolyline
 90
       32
 70
   128
 43
0.0
 10
4.429350478883857
 20
4.970946022410967
 10
4.429113029512916
 20
4.974190265033131
 10
4.428410637348559
 20
4.977428845721118
 10
4.427272008708867
 20
4.980529161497244
 10
4.425743604686687
 20
4.983364422180493
 10
4.42388814775736
 20
4.985818402628639
 10
4.421781469061714
 20
4.987790752574586
 10
4.419510019418936
 20
4.98920065908636
 10
4.417166555082245
 20
4.989990432819971
 10
4.414847316886825
 20
4.990127676791205
 10
4.412646886343112
 20
4.989606834049213
 10
4.410655696649684
 20
4.988449176247176
 10
4.408954888786548
 20
4.986702203503644
 10
4.407614486257922
 20
4.984437307340392
 10
4.406689246780375
 20
4.981747264693042
 10
4.40621683702561
 20
4.978742261729053
 10
4.40621683702561
 20
4.975545243218996
 10
4.406689246780375
 20
4.972287112666385
 10
4.407614486257922
 20
4.969101306255719
 10
4.408954888786548
 20
4.966118249311104
 10
4.410655696649684
 20
4.9634599461203
 10
4.412646886343112
 20
4.9612353648678
 10
4.414847316886825
 20
4.959535482802759
 10
4.417166555082245
 20
4.958430027685063
 10
4.419510019418936
 20
4.957964121427766
 10
4.421781469061714
 20
4.95815687849205
 10
4.42388814775736
 20
4.959000423427405
 10
4.425743604686687
 20
4.960460265561668
 10
4.427272008708867
 20
4.962476573586398
 10
4.428410637348559
 20
4.964966786969434
 10
4.429113029512916
 20
4.96782901041027
 10
4.429350478883857
 20
4.970946022410967
  0
LINE
  5
340
330
1F
100
AcDbEntity
  8
0
  6
Continuous
 62
     7
370
    15
100
AcDbLine
 10
4.430906095831847
 20
4.624267600739885
 30
0.0
 11
4.461736017720143
 21
4.616007923937829
 31
0.0
  0
LWPOLYLINE
  5
341
330
1F
100
AcDbEntity
  8
0
  6
Continuous
 62
     7
370
    15
100
AcDbPolyline
 90
       12
 70
   128
 43
0.0
 10
4.430906095831847
 20
4.606154859956146
 10
4.429033547857653
 20
4.607023388235259
 10
4.427312662165108
 20
4.608555244102949
 10
4.425882822032752
 20
4.610626353189164
 10
4.424860014260228
 20
4.613068887882627
 10
4.424327039152287
 20
4.615684982504075
 10
4.424327039152287
 20
4.618262682182576
 10
4.424860014260228
 20
4.620593196960451
 10
4.425882822032752
 20
4.622487674511182
 10
4.427312662165108
 20
4.623792657780019
 10
4.429033547857653
 20
4.624402425055645
 10
4.430906095831847
 20
4.624267600739885
  0
LINE
  5
342
330
1F
100
AcDbEntity
  8
0
  6
Continuous
 62
     7
370
    15
100
AcDbLine
 10
4.461736017720143
 20
4.597895183154093
 30
0.0
 11
4.430906095831847
 21
4.606154859956146
 31
0.0
  0
LWPOLYLINE
  5
343
330
1F
100
AcDbEntity
  8
0
  6
Continuous
 62
     7
370
    15
100
AcDbPolyline
 90
       12
 70
   128
 43
0.0
 10
4.461736017720143
 20
4.597895183154093
 10
4.463608565694338
 20
4.597760358838332
 10
4.465329451386883
 20
4.598370126113957
 10
4.466759291519239
 20
4.599675095252451
 10
4.467782099291763
 20
4.601569586933526
 10
4.468315074399704
 20
4.603900101711401
 10
4.468315074399704
 20
4.606477801389901
 10
4.467782099291763
 20
4.60909389601135
 10
4.466759291519239
 20
4.61153641657447
 10
4.465329451386883
 20
4.613607539791028
 10
4.463608565694338
 20
4.615139395658717
 10
4.461736017720143
 20
4.616007923937829
  0
LINE
  5
344
330
1F
100
AcDbEntity
  8
0
  6
Continuous
 62
     7
370
    15
100
AcDbLine
 10
4.531173904753569
 20
5.164381582873123
 30
0.0
 11
4.342051039536721
 21
5.215049688625368
 31
0.0
  0
LINE
  5
345
330
1F
100
AcDbEntity
  8
0
  6
Continuous
 62
     7
370
    15
100
AcDbLine
 10
4.523819984901435
 20
5.162411386470195
 30
0.0
 11
4.531173904753569
 21
5.164381582873123
 31
0.0
  0
LINE
  5
346
330
1F
100
AcDbEntity
  8
0
  6
Continuous
 62
     7
370
    15
100
AcDbLine
 10
4.531173904753569
 20
5.103612457435229
 30
0.0
 11
4.531173904753569
 21
5.164381582873123
 31
0.0
  0
ARC
  5
347
330
1F
100
AcDbEntity
  8
0
  6
Continuous
 62
     7
370
    15
100
AcDbCircle
 10
4.495875898748955
 20
5.102228818879275
 30
0.0
 40
0.035325114062877
100
AcDbArc
 50
322.8775561214007
 51
2.244775044614554
  0
ARC
  5
348
330
1F
100
AcDbEntity
  8
0
  6
Continuous
 62
     7
370
    15
100
AcDbCircle
 10
4.511918445345799
 20
5.125296669375055
 30
0.0
 40
0.0191736352416833
100
AcDbArc
 50
141.4681736766858
 51
248.5274268718127
  0
LINE
  5
349
330
1F
100
AcDbEntity
  8
0
  6
Continuous
 62
     7
370
    15
100
AcDbLine
 10
4.524042292934082
 20
5.080909392945088
 30
0.0
 11
4.454866869592121
 21
4.998671481595937
 31
0.0
  0
LINE
  5
34A
330
1F
100
AcDbEntity
  8
0
  6
Continuous
 62
     7
370
    15
100
AcDbLine
 10
4.454866869592121
 20
4.912379564255184
 30
0.0
 11
4.524042292934082
 21
4.79307590378364
 31
0.0
  0
ARC
  5
34B
330
1F
100
AcDbEntity
  8
0
  6
Continuous
 62
     7
370
    15
100
AcDbCircle
 10
4.47747073092168
 20
4.766333275995486
 30
0.0
 40
0.0537036174693177
100
AcDbArc
 50
0.2328896824032011
 51
29.86558686804046
  0
LINE
  5
34C
330
1F
100
AcDbEntity
  8
0
  6
Continuous
 62
     7
370
    15
100
AcDbLine
 10
4.523819984901435
 20
4.578706178471159
 30
0.0
 11
4.531173904753569
 21
4.580676374874085
 31
0.0
  0
LINE
  5
34D
330
1F
100
AcDbEntity
  8
0
  6
Continuous
 62
     7
370
    15
100
AcDbLine
 10
4.531173904753569
 20
4.580676374874085
 30
0.0
 11
4.531173904753569
 21
4.766551564045375
 31
0.0
  0
ARC
  5
34E
330
1F
100
AcDbEntity
  8
0
  6
Continuous
 62
     7
370
    15
100
AcDbCircle
 10
4.483033263777234
 20
4.977352055661753
 30
0.0
 40
0.0353251140628638
100
AcDbArc
 50
142.8775561213905
 51
182.244775044622
  0
ARC
  5
34F
330
1F
100
AcDbEntity
  8
0
  6
Continuous
 62
     7
370
    15
100
AcDbCircle
 10
4.511918387903832
 20
4.739919186986734
 30
0.0
 40
0.0191735893480894
100
AcDbArc
 50
141.4680703447044
 51
248.527557380105
  0
LINE
  5
350
330
1F
100
AcDbEntity
  8
0
  6
Continuous
 62
     7
370
    15
100
AcDbLine
 10
4.447735257772634
 20
4.975968417105796
 30
0.0
 11
4.447735257772634
 21
4.938903903993449
 31
0.0
  0
ARC
  5
351
330
1F
100
AcDbEntity
  8
0
  6
Continuous
 62
     7
370
    15
100
AcDbCircle
 10
4.50143850310883
 20
4.939122211268737
 30
0.0
 40
0.0537036890511828
100
AcDbArc
 50
180.2329098834847
 51
209.865566666965
  0
ARC
  5
352
330
1F
100
AcDbEntity
  8
0
  6
Continuous
 62
     7
370
    15
100
AcDbCircle
 10
4.432439610935194
 20
4.977987288882517
 30
0.0
 40
0.0191736352416832
100
AcDbArc
 50
141.4681736766821
 51
248.5274268718152
  0
LWPOLYLINE
  5
353
330
1F
100
AcDbEntity
  8
0
  6
Continuous
 62
     7
370
    15
100
AcDbPolyline
 90
       12
 70
   128
 43
0.0
 10
4.624630890812039
 20
4.664639968128532
 10
4.624531995057266
 20
4.666445647158154
 10
4.623766258170787
 20
4.668239823419327
 10
4.622341271563309
 20
4.67000488156133
 10
4.620270994304245
 20
4.671723489634987
 10
4.617575856829512
 20
4.673378715787416
 10
4.614282242402548
 20
4.674954333891139
 10
4.610422590822109
 20
4.676434851328554
 10
4.606034817658606
 20
4.677805709040076
 10
4.601161982389161
 20
4.679053459344714
 10
4.595852080982008
 20
4.680165799281432
 10
4.595833413578633
 20
4.680169333465362
  0
ARC
  5
354
330
1F
100
AcDbEntity
  8
0
  6
Continuous
 62
     7
370
    15
100
AcDbCircle
 10
4.556458763292956
 20
4.443564721001415
 30
0.0
 40
0.2399357571419992
100
AcDbArc
 50
88.82943989600779
 51
96.0491931905353
  0
LINE
  5
355
330
1F
100
AcDbEntity
  8
0
  6
Continuous
 62
     7
370
    15
100
AcDbLine
 10
4.620599353929627
 20
4.633711002019534
 30
0.0
 11
4.624630890812039
 21
4.664639968128532
 31
0.0
  0
LINE
  5
356
330
1F
100
AcDbEntity
  8
0
  6
Continuous
 62
     7
370
    15
100
AcDbLine
 10
4.620579276100218
 20
4.633482191394553
 30
0.0
 11
4.620599353929627
 21
4.633711002019534
 31
0.0
  0
LINE
  5
357
330
1F
100
AcDbEntity
  8
0
  6
Continuous
 62
     7
370
    15
100
AcDbLine
 10
4.672637727624454
 20
4.615263173164927
 30
0.0
 11
4.632752870605295
 21
4.625948767162473
 31
0.0
  0
LINE
  5
358
330
1F
100
AcDbEntity
  8
0
  6
Continuous
 62
     7
370
    15
100
AcDbLine
 10
4.672637727624454
 20
4.615263173164927
 30
0.0
 11
4.55730864282788
 21
4.58436523674628
 31
0.0
  0
LINE
  5
359
330
1F
100
AcDbEntity
  8
0
  6
Continuous
 62
     7
370
    15
100
AcDbLine
 10
4.431647813992649
 20
4.618031161577937
 30
0.0
 11
4.46800262355031
 21
4.60829130630894
 31
0.0
  0
LINE
  5
35A
330
1F
100
AcDbEntity
  8
0
  6
Continuous
 62
     7
370
    15
100
AcDbLine
 10
4.531173946236688
 20
4.591367010800237
 30
0.0
 11
4.55730864282788
 21
4.58436523674628
 31
0.0
  0
LINE
  5
35B
330
1F
100
AcDbEntity
  8
0
  6
Continuous
 62
     7
370
    15
100
AcDbLine
 10
4.55730864282788
 20
4.58436523674628
 30
0.0
 11
4.55730864282788
 21
4.57434542419893
 31
0.0
  0
LINE
  5
35C
330
1F
100
AcDbEntity
  8
0
  6
Continuous
 62
     7
370
    15
100
AcDbLine
 10
4.531173946236688
 20
4.581347198252887
 30
0.0
 11
4.55730864282788
 21
4.57434542419893
 31
0.0
  0
LINE
  5
35D
330
1F
100
AcDbEntity
  8
0
  6
Continuous
 62
     7
370
    15
100
AcDbLine
 10
4.672637727624454
 20
4.605243360617576
 30
0.0
 11
4.672637727624454
 21
4.615263173164927
 31
0.0
  0
LINE
  5
35E
330
1F
100
AcDbEntity
  8
0
  6
Continuous
 62
     7
370
    15
100
AcDbLine
 10
4.672637727624454
 20
4.605243360617576
 30
0.0
 11
4.55730864282788
 21
4.57434542419893
 31
0.0
  0
LWPOLYLINE
  5
35F
330
1F
100
AcDbEntity
  8
0
  6
Continuous
 62
     7
370
    15
100
AcDbPolyline
 90
        9
 70
   128
 43
0.0
 10
4.334697119684586
 20
5.213079492222441
 10
4.332533152802135
 20
5.213785917798293
 10
4.330925184158455
 20
5.21459186732726
 10
4.329935065083397
 20
5.215466344460345
 10
4.329600752630494
 20
5.216375774450221
 10
4.32993498211716
 20
5.217285248895239
 10
4.330925142675336
 20
5.218159737142112
 10
4.332533152802135
 20
5.21896565332972
 10
4.334697036718349
 20
5.219672078905573
  0
SPLINE
  5
360
330
1F
100
AcDbEntity
  8
0
  6
Continuous
 62
     7
370
    15
100
AcDbSpline
210
0.0
220
0.0
230
1.0
 70
     8
 71
     3
 72
    11
 73
     7
 74
     0
 42
0.0000000001
 43
0.0000000001
 40
0.0
 40
0.0
 40
0.0
 40
0.0
 40
0.0004674896382508
 40
0.4231737531255048
 40
0.6921335034616392
 40
1.0
 40
1.0
 40
1.0
 40
1.0
 10
4.329601167461681
 20
4.650421988314838
 30
0.0
 10
4.329601001277894
 20
4.650421504782795
 30
0.0
 10
4.329450570955359
 20
4.649983809372407
 30
0.0
 10
4.330214947579348
 20
4.648534029634294
 30
0.0
 10
4.332079441147037
 20
4.646497621328352
 30
0.0
 10
4.333786187017375
 20
4.645272656266699
 30
0.0
 10
4.334697119684586
 20
4.644618861984701
 30
0.0
  0
LWPOLYLINE
  5
361
330
1F
100
AcDbEntity
  8
0
  6
Continuous
 62
     7
370
    15
100
AcDbPolyline
 90
        9
 70
   128
 43
0.0
 10
4.342051039536721
 20
5.215049688625368
 10
4.34118039184327
 20
5.215333890359485
 10
4.340533504091617
 20
5.215658123950567
 10
4.340135224669813
 20
5.216009930844571
 10
4.340000736399269
 20
5.216375774450221
 10
4.340135224669813
 20
5.216741662511014
 10
4.340533462608498
 20
5.217093480518805
 10
4.341180433326388
 20
5.217417691882315
 10
4.342050998053602
 20
5.21770187138886
  0
LINE
  5
362
330
1F
100
AcDbEntity
  8
0
  6
Continuous
 62
     7
370
    15
100
AcDbLine
 10
4.342050998053602
 20
5.21770187138886
 30
0.0
 11
4.460887480528913
 21
5.24953947840893
 31
0.0
  0
LINE
  5
363
330
1F
100
AcDbEntity
  8
0
  6
Continuous
 62
     7
370
    15
100
AcDbLine
 10
4.460887480528913
 20
5.188770352971038
 30
0.0
 11
4.460887480528913
 21
5.24953947840893
 31
0.0
  0
LWPOLYLINE
  5
364
330
1F
100
AcDbEntity
  8
0
  6
Continuous
 62
     7
370
    15
100
AcDbPolyline
 90
        3
 70
   128
 43
0.0
 10
4.461225111631305
 20
5.183121684221902
 10
4.461004255507809
 20
5.185419625309426
 10
4.460887480528913
 20
5.188770352971038
  0
LINE
  5
365
330
1F
100
AcDbEntity
  8
0
  6
Continuous
 62
     7
370
    15
100
AcDbLine
 10
4.537194515690361
 20
5.083829377131745
 30
0.0
 11
4.529820518008818
 21
5.092595801937053
 31
0.0
  0
LINE
  5
366
330
1F
100
AcDbEntity
  8
0
  6
Continuous
 62
     7
370
    15
100
AcDbLine
 10
4.508818112852437
 20
5.117564102058431
 30
0.0
 11
4.494734842982006
 21
5.13430671478578
 31
0.0
  0
ARC
  5
367
330
1F
100
AcDbEntity
  8
0
  6
Continuous
 62
     7
370
    15
100
AcDbCircle
 10
4.509028096688581
 20
5.062510007221299
 30
0.0
 40
0.0353251000389563
100
AcDbArc
 50
357.7551150859745
 51
37.12234713253593
  0
LINE
  5
368
330
1F
100
AcDbEntity
  8
0
  6
Continuous
 62
     7
370
    15
100
AcDbLine
 10
4.54432608602673
 20
5.061126301527818
 30
0.0
 11
4.54432608602673
 21
5.024061788415472
 31
0.0
  0
ARC
  5
369
330
1F
100
AcDbEntity
  8
0
  6
Continuous
 62
     7
370
    15
100
AcDbCircle
 10
4.490622970179319
 20
5.024279999244063
 30
0.0
 40
0.0537035591714943
100
AcDbArc
 50
330.1344860930314
 51
359.7671924520785
  0
LINE
  5
36A
330
1F
100
AcDbEntity
  8
0
  6
Continuous
 62
     7
370
    15
100
AcDbLine
 10
4.471342304980495
 20
4.883965208704282
 30
0.0
 11
4.537194515690361
 21
4.997537459790992
 31
0.0
  0
LINE
  5
36B
330
1F
100
AcDbEntity
  8
0
  6
Continuous
 62
     7
370
    15
100
AcDbLine
 10
4.453533519193659
 20
5.251509685925644
 30
0.0
 11
4.460887480528913
 21
5.24953947840893
 31
0.0
  0
LINE
  5
36C
330
1F
100
AcDbEntity
  8
0
  6
Continuous
 62
     7
370
    15
100
AcDbLine
 10
4.334697036718349
 20
5.219672078905573
 30
0.0
 11
4.453533519193659
 21
5.251509685925644
 31
0.0
  0
LINE
  5
36D
330
1F
100
AcDbEntity
  8
0
  6
Continuous
 62
     7
370
    15
100
AcDbLine
 10
4.463025769360942
 20
4.473802871949084
 30
0.0
 11
4.522764115083376
 21
4.381896941942599
 31
0.0
  0
LWPOLYLINE
  5
36E
330
1F
100
AcDbEntity
  8
0
  6
Continuous
 62
     7
370
    15
100
AcDbPolyline
 90
       21
 70
   128
 43
0.0
 10
4.474603707765854
 20
4.577407727949529
 10
4.472473964456259
 20
4.576460399944923
 10
4.468426871404366
 20
4.574114209114406
 10
4.46464908675851
 20
4.571166813389192
 10
4.461177447528018
 20
4.567647223367897
 10
4.458046135802628
 20
4.563590014704484
 10
4.455286015022588
 20
4.559035025497144
 10
4.452924132181233
 20
4.55402703748274
 10
4.450983883757462
 20
4.548615208758943
 10
4.449484020120888
 20
4.542852789431692
 10
4.44843947519421
 20
4.536796348256077
 10
4.447860536790845
 20
4.530505401437621
 10
4.447752846614926
 20
4.524041769701648
 10
4.448117234328823
 20
4.517469022208817
 10
4.448950547215523
 20
4.510851632544287
 10
4.450244322718828
 20
4.504254691428231
 10
4.45198594997068
 20
4.497742994990221
 10
4.454158171993735
 20
4.491380566997301
 10
4.456739749431265
 20
4.485229894624151
 10
4.459705460547152
 20
4.4793513720708
 10
4.463025769360942
 20
4.473802871949084
  0
ARC
  5
36F
330
1F
100
AcDbEntity
  8
0
  6
Continuous
 62
     7
370
    15
100
AcDbCircle
 10
4.47774516598814
 20
4.353122774711899
 30
0.0
 40
0.0534290040844832
100
AcDbArc
 50
0.180564965907483
 51
32.58495634540228
  0
LINE
  5
370
330
1F
100
AcDbEntity
  8
0
  6
Continuous
 62
     7
370
    15
100
AcDbLine
 10
4.467220708247572
 20
4.600366166751581
 30
0.0
 11
4.438260015683982
 21
4.608125056359074
 31
0.0
  0
LINE
  5
371
330
1F
100
AcDbEntity
  8
0
  6
Continuous
 62
     7
370
    15
100
AcDbLine
 10
4.523819984901435
 20
4.295312132414977
 30
0.0
 11
4.531173904753569
 21
4.297282328817904
 31
0.0
  0
LINE
  5
372
330
1F
100
AcDbEntity
  8
0
  6
Continuous
 62
     7
370
    15
100
AcDbLine
 10
4.531173904753569
 20
4.297282328817904
 30
0.0
 11
4.531173904753569
 21
4.353291153437416
 31
0.0
  0
ARC
  5
373
330
1F
100
AcDbEntity
  8
0
  6
Continuous
 62
     7
370
    15
100
AcDbCircle
 10
4.443016713932339
 20
4.618575339800203
 30
0.0
 40
0.0114819250226558
100
AcDbArc
 50
153.1188879910728
 51
245.5262016568741
  0
LINE
  5
374
330
1F
100
AcDbEntity
  8
0
  6
Continuous
 62
     7
370
    15
100
AcDbLine
 10
4.621837873918939
 20
4.633192498439716
 30
0.0
 11
4.624630890812039
 21
4.654620155581181
 31
0.0
  0
LINE
  5
375
330
1F
100
AcDbEntity
  8
0
  6
Continuous
 62
     7
370
    15
100
AcDbLine
 10
4.624630890812039
 20
4.654620155581181
 30
0.0
 11
4.624672166515059
 21
4.655255986388729
 31
0.0
  0
LINE
  5
376
330
1F
100
AcDbEntity
  8
0
  6
Continuous
 62
     7
370
    15
100
AcDbLine
 10
3.940838595314075
 20
4.526587163223465
 30
0.0
 11
4.338204434397085
 21
4.633045863147993
 31
0.0
  0
LINE
  5
377
330
1F
100
AcDbEntity
  8
0
  6
Continuous
 62
     7
370
    15
100
AcDbLine
 10
4.531173863270451
 20
4.684744505815526
 30
0.0
 11
5.496473464011994
 21
4.943358937216467
 31
0.0
  0
LINE
  5
378
330
1F
100
AcDbEntity
  8
0
  6
Continuous
 62
     7
370
    15
100
AcDbLine
 10
3.940838595314075
 20
4.526587163223465
 30
0.0
 11
3.940838595314075
 21
4.835184683676846
 31
0.0
  0
LINE
  5
379
330
1F
100
AcDbEntity
  8
0
  6
Continuous
 62
     7
370
    15
100
AcDbLine
 10
3.940838595314075
 20
4.835184683676846
 30
0.0
 11
3.870127881752243
 21
4.844848230555403
 31
0.0
  0
LINE
  5
37A
330
1F
100
AcDbEntity
  8
0
  6
Continuous
 62
     7
370
    15
100
AcDbLine
 10
3.870127881752243
 20
4.844848230555403
 30
0.0
 11
3.976193910611872
 21
4.951607017049583
 31
0.0
  0
LINE
  5
37B
330
1F
100
AcDbEntity
  8
0
  6
Continuous
 62
     7
370
    15
100
AcDbLine
 10
3.976193910611872
 20
4.951607017049583
 30
0.0
 11
3.976193910611872
 21
5.21046976915569
 31
0.0
  0
LINE
  5
37C
330
1F
100
AcDbEntity
  8
0
  6
Continuous
 62
     7
370
    15
100
AcDbLine
 10
5.461118148714197
 20
5.608297383727685
 30
0.0
 11
3.976193910611872
 21
5.21046976915569
 31
0.0
  0
LINE
  5
37D
330
1F
100
AcDbEntity
  8
0
  6
Continuous
 62
     7
370
    15
100
AcDbLine
 10
5.461118148714197
 20
5.608297383727685
 30
0.0
 11
5.461118148714197
 21
5.349434631621579
 31
0.0
  0
LINE
  5
37E
330
1F
100
AcDbEntity
  8
0
  6
Continuous
 62
     7
370
    15
100
AcDbLine
 10
5.461118148714197
 20
5.349434631621579
 30
0.0
 11
5.567184177573825
 21
5.299508367845563
 31
0.0
  0
LINE
  5
37F
330
1F
100
AcDbEntity
  8
0
  6
Continuous
 62
     7
370
    15
100
AcDbLine
 10
5.567184177573825
 20
5.299508367845563
 30
0.0
 11
5.496473464011994
 21
5.251956457669849
 31
0.0
  0
LINE
  5
380
330
1F
100
AcDbEntity
  8
0
  6
Continuous
 62
     7
370
    15
100
AcDbLine
 10
5.496473464011994
 20
5.251956457669849
 30
0.0
 11
5.496473464011994
 21
4.943358937216467
 31
0.0
  0
LINE
  5
381
330
1F
100
AcDbEntity
  8
0
  6
Continuous
 62
     7
370
    15
100
AcDbLine
 10
3.657995824032986
 20
4.901680753273566
 30
0.0
 11
3.870127881752243
 21
4.844848230555403
 31
0.0
  0
LINE
  5
382
330
1F
100
AcDbEntity
  8
0
  6
Continuous
 62
     7
370
    15
100
AcDbLine
 10
3.657995824032986
 20
4.901680753273566
 30
0.0
 11
3.764061852892615
 21
5.008439539767746
 31
0.0
  0
LINE
  5
383
330
1F
100
AcDbEntity
  8
0
  6
Continuous
 62
     7
370
    15
100
AcDbLine
 10
3.764061852892615
 20
5.008439539767746
 30
0.0
 11
3.976193910611872
 21
4.951607017049583
 31
0.0
  0
LINE
  5
384
330
1F
100
AcDbEntity
  8
0
  6
Continuous
 62
     7
370
    15
100
AcDbLine
 10
3.764061852892615
 20
5.267302291873853
 30
0.0
 11
3.976193910611872
 21
5.21046976915569
 31
0.0
  0
LINE
  5
385
330
1F
100
AcDbEntity
  8
0
  6
Continuous
 62
     7
370
    15
100
AcDbLine
 10
5.24898609099494
 20
5.665129906445848
 30
0.0
 11
3.764061852892615
 21
5.267302291873853
 31
0.0
  0
LINE
  5
386
330
1F
100
AcDbEntity
  8
0
  6
Continuous
 62
     7
370
    15
100
AcDbLine
 10
5.24898609099494
 20
5.665129906445848
 30
0.0
 11
5.461118148714197
 21
5.608297383727685
 31
0.0
  0
LINE
  5
387
330
1F
100
AcDbEntity
  8
0
  6
Continuous
 62
     7
370
    15
100
AcDbLine
 10
3.764061852892615
 20
5.008439539767746
 30
0.0
 11
3.764061852892615
 21
5.267302291873853
 31
0.0
  0
LINE
  5
388
330
1F
100
AcDbEntity
  8
0
  6
Continuous
 62
     7
370
    15
100
AcDbLine
 10
3.728706537594818
 20
4.583419685941628
 30
0.0
 11
3.940838595314075
 21
4.526587163223465
 31
0.0
  0
LINE
  5
389
330
1F
100
AcDbEntity
  8
0
  6
Continuous
 62
     7
370
    15
100
AcDbLine
 10
3.728706537594818
 20
4.583419685941628
 30
0.0
 11
3.728706537594818
 21
4.882736622775375
 31
0.0
  0
LINE
  5
38A
330
1F
100
AcDbEntity
  8
0
  6
Continuous
 62
     7
370
    15
100
AcDbLine
 10
7.423339454460164
 20
4.218744355913283
 30
0.0
 11
7.423339454460164
 21
5.615737699825264
 31
0.0
  0
LINE
  5
38B
330
1F
100
AcDbEntity
  8
0
  6
Continuous
 62
     7
370
    15
100
AcDbLine
 10
6.645522020111204
 20
4.010358468916781
 30
0.0
 11
6.659375183122688
 21
4.014069884390866
 31
0.0
  0
LINE
  5
38C
330
1F
100
AcDbEntity
  8
0
  6
Continuous
 62
     7
370
    15
100
AcDbLine
 10
6.850473474447892
 20
4.065267228629685
 30
0.0
 11
7.423339454460164
 21
4.218744355913283
 31
0.0
  0
LINE
  5
38D
330
1F
100
AcDbEntity
  8
0
  6
Continuous
 62
     7
370
    15
100
AcDbLine
 10
6.645522020111204
 20
5.455523962993864
 30
0.0
 11
6.645522020111204
 21
4.597924355275788
 31
0.0
  0
LINE
  5
38E
330
1F
100
AcDbEntity
  8
0
  6
Continuous
 62
     7
370
    15
100
AcDbLine
 10
6.645522020111204
 20
4.029961226177053
 30
0.0
 11
6.645522020111204
 21
4.010358468916781
 31
0.0
  0
LINE
  5
38F
330
1F
100
AcDbEntity
  8
0
  6
Continuous
 62
     7
370
    15
100
AcDbLine
 10
6.645522020111204
 20
5.455523962993864
 30
0.0
 11
7.013434430147738
 21
5.554091763761476
 31
0.0
  0
LINE
  5
390
330
1F
100
AcDbEntity
  8
0
  6
Continuous
 62
     7
370
    15
100
AcDbLine
 10
7.013434430147738
 20
5.554091763761476
 30
0.0
 11
7.034430726914904
 21
5.65606120404387
 31
0.0
  0
LINE
  5
391
330
1F
100
AcDbEntity
  8
0
  6
Continuous
 62
     7
370
    15
100
AcDbLine
 10
7.034430726914904
 20
5.65606120404387
 30
0.0
 11
7.091929160535485
 21
5.526949219380531
 31
0.0
  0
LINE
  5
392
330
1F
100
AcDbEntity
  8
0
  6
Continuous
 62
     7
370
    15
100
AcDbLine
 10
7.091929160535485
 20
5.526949219380531
 30
0.0
 11
7.423339454460164
 21
5.615737699825264
 31
0.0
  0
LINE
  5
393
330
1F
100
AcDbEntity
  8
0
  6
Continuous
 62
     7
370
    15
100
AcDbLine
 10
6.645522020111204
 20
4.010358468916781
 30
0.0
 11
6.637064898202673
 21
4.01262422534306
 31
0.0
  0
LINE
  5
394
330
1F
100
AcDbEntity
  8
0
  6
Continuous
 62
     7
370
    15
100
AcDbLine
 10
6.503533000217118
 20
4.048398896590095
 30
0.0
 11
6.433389983133507
 21
4.067190986078053
 31
0.0
  0
LINE
  5
395
330
1F
100
AcDbEntity
  8
0
  6
Continuous
 62
     7
370
    15
100
AcDbLine
 10
6.433389983133507
 20
5.512356480155134
 30
0.0
 11
6.433389983133507
 21
4.455186229208463
 31
0.0
  0
LINE
  5
396
330
1F
100
AcDbEntity
  8
0
  6
Continuous
 62
     7
370
    15
100
AcDbLine
 10
6.433389983133507
 20
4.387847624403775
 30
0.0
 11
6.433389983133507
 21
4.067190986078053
 31
0.0
  0
LINE
  5
397
330
1F
100
AcDbEntity
  8
0
  6
Continuous
 62
     7
370
    15
100
AcDbLine
 10
6.433389983133507
 20
5.512356480155134
 30
0.0
 11
6.645522020111204
 21
5.455523962993864
 31
0.0
  0
LINE
  5
398
330
1F
100
AcDbEntity
  8
0
  6
Continuous
 62
     7
370
    15
100
AcDbLine
 10
6.433389983133507
 20
5.512356480155134
 30
0.0
 11
6.801302393170042
 21
5.610924280922747
 31
0.0
  0
LINE
  5
399
330
1F
100
AcDbEntity
  8
0
  6
Continuous
 62
     7
370
    15
100
AcDbLine
 10
6.801302393170042
 20
5.610924280922747
 30
0.0
 11
7.013434430147738
 21
5.554091763761476
 31
0.0
  0
LINE
  5
39A
330
1F
100
AcDbEntity
  8
0
  6
Continuous
 62
     7
370
    15
100
AcDbLine
 10
6.822298689937206
 20
5.712893721205141
 30
0.0
 11
7.034430726914904
 21
5.65606120404387
 31
0.0
  0
LINE
  5
39B
330
1F
100
AcDbEntity
  8
0
  6
Continuous
 62
     7
370
    15
100
AcDbLine
 10
6.801302393170042
 20
5.610924280922747
 30
0.0
 11
6.822298689937206
 21
5.712893721205141
 31
0.0
  0
LINE
  5
39C
330
1F
100
AcDbEntity
  8
0
  6
Continuous
 62
     7
370
    15
100
AcDbLine
 10
7.211207417482467
 20
5.672570216986535
 30
0.0
 11
7.423339454460164
 21
5.615737699825264
 31
0.0
  0
LINE
  5
39D
330
1F
100
AcDbEntity
  8
0
  6
Continuous
 62
     7
370
    15
100
AcDbLine
 10
7.046705540229398
 20
5.628498346017657
 30
0.0
 11
7.211207417482467
 21
5.672570216986535
 31
0.0
  0
LINE
  5
39E
330
1F
100
AcDbEntity
  8
0
  6
Continuous
 62
     7
370
    15
100
AcDbLine
 10
3.304442588088782
 20
4.905470573919312
 30
0.0
 11
3.728706703527294
 21
4.791805528482985
 31
0.0
  0
LINE
  5
39F
330
1F
100
AcDbEntity
  8
0
  6
Continuous
 62
     7
370
    15
100
AcDbLine
 10
4.329747312488554
 20
4.630780106721715
 30
0.0
 11
4.338204392913967
 21
4.628514361409224
 31
0.0
  0
LINE
  5
3A0
330
1F
100
AcDbEntity
  8
0
  6
Continuous
 62
     7
370
    15
100
AcDbLine
 10
4.5239687848479
 20
4.57874602776687
 30
0.0
 11
5.142920145101546
 21
4.412922117787138
 31
0.0
  0
LINE
  5
3A1
330
1F
100
AcDbEntity
  8
0
  6
Continuous
 62
     7
370
    15
100
AcDbLine
 10
3.304442588088782
 20
4.905470573919312
 30
0.0
 11
3.672354998125316
 21
5.004038374686923
 31
0.0
  0
LINE
  5
3A2
330
1F
100
AcDbEntity
  8
0
  6
Continuous
 62
     7
370
    15
100
AcDbLine
 10
3.672354998125316
 20
5.004038374686923
 30
0.0
 11
3.622640498364413
 21
5.028607718515266
 31
0.0
  0
LINE
  5
3A3
330
1F
100
AcDbEntity
  8
0
  6
Continuous
 62
     7
370
    15
100
AcDbLine
 10
3.622640498364413
 20
5.028607718515266
 30
0.0
 11
3.76406178029716
 21
5.017357460838454
 31
0.0
  0
LINE
  5
3A4
330
1F
100
AcDbEntity
  8
0
  6
Continuous
 62
     7
370
    15
100
AcDbLine
 10
5.885382181186471
 20
4.630780106721714
 30
0.0
 11
5.107564746837514
 21
4.839165993718216
 31
0.0
  0
LINE
  5
3A5
330
1F
100
AcDbEntity
  8
0
  6
Continuous
 62
     7
370
    15
100
AcDbLine
 10
5.885382181186471
 20
4.630780106721714
 30
0.0
 11
5.553971887261792
 21
4.54199162627698
 31
0.0
  0
LINE
  5
3A6
330
1F
100
AcDbEntity
  8
0
  6
Continuous
 62
     7
370
    15
100
AcDbLine
 10
5.553971887261792
 20
4.54199162627698
 30
0.0
 11
5.602539482500839
 21
4.498170899085936
 31
0.0
  0
LINE
  5
3A7
330
1F
100
AcDbEntity
  8
0
  6
Continuous
 62
     7
370
    15
100
AcDbLine
 10
5.602539482500839
 20
4.498170899085936
 30
0.0
 11
5.510832555138081
 21
4.51148991855475
 31
0.0
  0
LINE
  5
3A8
330
1F
100
AcDbEntity
  8
0
  6
Continuous
 62
     7
370
    15
100
AcDbLine
 10
5.510832555138081
 20
4.51148991855475
 30
0.0
 11
5.142920145101546
 21
4.412922117787138
 31
0.0
  0
LINE
  5
3A9
330
1F
100
AcDbEntity
  8
0
  6
Continuous
 62
     7
370
    15
100
AcDbLine
 10
3.304442588088782
 20
4.616437475103895
 30
0.0
 11
3.304442588088782
 21
4.905470573919312
 31
0.0
  0
LINE
  5
3AA
330
1F
100
AcDbEntity
  8
0
  6
Continuous
 62
     7
370
    15
100
AcDbLine
 10
5.142920145101546
 20
4.123889018971722
 30
0.0
 11
5.142920145101546
 21
4.412922117787138
 31
0.0
  0
LINE
  5
3AB
330
1F
100
AcDbEntity
  8
0
  6
Continuous
 62
     7
370
    15
100
AcDbLine
 10
3.304442588088782
 20
4.616437475103895
 30
0.0
 11
5.142920145101546
 21
4.123889018971722
 31
0.0
  0
LINE
  5
3AC
330
1F
100
AcDbEntity
  8
0
  6
Continuous
 62
     7
370
    15
100
AcDbLine
 10
5.510832555138081
 20
4.222456819739335
 30
0.0
 11
5.510832555138081
 21
4.51148991855475
 31
0.0
  0
LINE
  5
3AD
330
1F
100
AcDbEntity
  8
0
  6
Continuous
 62
     7
370
    15
100
AcDbLine
 10
5.510832555138081
 20
4.222456819739335
 30
0.0
 11
5.142920145101546
 21
4.123889018971722
 31
0.0
  0
LINE
  5
3AE
330
1F
100
AcDbEntity
  8
0
  6
Continuous
 62
     7
370
    15
100
AcDbLine
 10
5.602539482500839
 20
4.20913780027052
 30
0.0
 11
5.602539482500839
 21
4.498170899085936
 31
0.0
  0
LINE
  5
3AF
330
1F
100
AcDbEntity
  8
0
  6
Continuous
 62
     7
370
    15
100
AcDbLine
 10
5.602539482500839
 20
4.20913780027052
 30
0.0
 11
5.510832555138081
 21
4.222456819739335
 31
0.0
  0
LINE
  5
3B0
330
1F
100
AcDbEntity
  8
0
  6
Continuous
 62
     7
370
    15
100
AcDbLine
 10
5.885382181186471
 20
4.356089603441793
 30
0.0
 11
5.885382181186471
 21
4.630780106721714
 31
0.0
  0
LINE
  5
3B1
330
1F
100
AcDbEntity
  8
0
  6
Continuous
 62
     7
370
    15
100
AcDbLine
 10
5.620217142742434
 20
4.270706363538546
 30
0.0
 11
5.60253947213006
 21
4.265970320210236
 31
0.0
  0
LINE
  5
3B2
330
1F
100
AcDbEntity
  8
0
  6
Continuous
 62
     7
370
    15
100
AcDbLine
 10
3.622640498364413
 20
4.990719371042636
 30
0.0
 11
3.622640498364413
 21
5.028607718515266
 31
0.0
  0
LINE
  5
3B3
330
1F
100
AcDbEntity
  8
0
  6
Continuous
 62
     7
370
    15
100
AcDbLine
 10
2.01397245967499
 20
4.962168684609483
 30
0.0
 11
2.827145458220455
 21
4.744310651219762
 31
0.0
  0
LINE
  5
3B4
330
1F
100
AcDbEntity
  8
0
  6
Continuous
 62
     7
370
    15
100
AcDbLine
 10
1.024022967606777
 20
5.870403303470149
 30
0.0
 11
1.024022967606777
 21
6.287175132734236
 31
0.0
  0
LINE
  5
3B5
330
1F
100
AcDbEntity
  8
0
  6
Continuous
 62
     7
370
    15
100
AcDbLine
 10
2.791790225888895
 20
5.813570747112782
 30
0.0
 11
1.024022967606777
 21
6.287175132734236
 31
0.0
  0
LINE
  5
3B6
330
1F
100
AcDbEntity
  8
0
  6
Continuous
 62
     7
370
    15
100
AcDbLine
 10
2.791790225888895
 20
5.813570747112782
 30
0.0
 11
2.791790225888895
 21
5.36201919652146
 31
0.0
  0
LINE
  5
3B7
330
1F
100
AcDbEntity
  8
0
  6
Continuous
 62
     7
370
    15
100
AcDbLine
 10
2.791790225888895
 20
5.36201919652146
 30
0.0
 11
2.897855922883575
 21
5.255260555458943
 31
0.0
  0
LINE
  5
3B8
330
1F
100
AcDbEntity
  8
0
  6
Continuous
 62
     7
370
    15
100
AcDbLine
 10
2.897855922883575
 20
5.255260555458943
 30
0.0
 11
2.827145458220455
 21
5.245596885376295
 31
0.0
  0
LINE
  5
3B9
330
1F
100
AcDbEntity
  8
0
  6
Continuous
 62
     7
370
    15
100
AcDbLine
 10
2.827145458220455
 20
5.245596885376295
 30
0.0
 11
2.827145458220455
 21
4.744310651219762
 31
0.0
  0
LINE
  5
3BA
330
1F
100
AcDbEntity
  8
0
  6
Continuous
 62
     7
370
    15
100
AcDbLine
 10
1.236154983842915
 20
6.344007644338613
 30
0.0
 11
1.024022967606777
 21
6.287175132734236
 31
0.0
  0
LINE
  5
3BB
330
1F
100
AcDbEntity
  8
0
  6
Continuous
 62
     7
370
    15
100
AcDbLine
 10
3.003922242125034
 20
5.870403258717159
 30
0.0
 11
1.236154983842915
 21
6.344007644338613
 31
0.0
  0
LINE
  5
3BC
330
1F
100
AcDbEntity
  8
0
  6
Continuous
 62
     7
370
    15
100
AcDbLine
 10
3.003922242125034
 20
5.870403258717159
 30
0.0
 11
2.791790225888895
 21
5.813570747112782
 31
0.0
  0
LINE
  5
3BD
330
1F
100
AcDbEntity
  8
0
  6
Continuous
 62
     7
370
    15
100
AcDbLine
 10
3.003922242125034
 20
5.870403258717159
 30
0.0
 11
3.003922242125034
 21
5.418851708125837
 31
0.0
  0
LINE
  5
3BE
330
1F
100
AcDbEntity
  8
0
  6
Continuous
 62
     7
370
    15
100
AcDbLine
 10
3.003922242125034
 20
5.418851708125837
 30
0.0
 11
2.791790225888895
 21
5.36201919652146
 31
0.0
  0
LINE
  5
3BF
330
1F
100
AcDbEntity
  8
0
  6
Continuous
 62
     7
370
    15
100
AcDbLine
 10
3.003922242125034
 20
5.418851708125837
 30
0.0
 11
3.109987939119713
 21
5.31209306706332
 31
0.0
  0
LINE
  5
3C0
330
1F
100
AcDbEntity
  8
0
  6
Continuous
 62
     7
370
    15
100
AcDbLine
 10
3.109987939119713
 20
5.31209306706332
 30
0.0
 11
2.897855922883575
 21
5.255260555458943
 31
0.0
  0
LINE
  5
3C1
330
1F
100
AcDbEntity
  8
0
  6
Continuous
 62
     7
370
    15
100
AcDbLine
 10
3.039277474456593
 20
4.801143162824138
 30
0.0
 11
2.827145458220455
 21
4.744310651219762
 31
0.0
  0
LINE
  5
3C2
330
1F
100
AcDbEntity
  8
0
  6
Continuous
 62
     7
370
    15
100
AcDbLine
 10
3.039277474456593
 20
5.293148813361039
 30
0.0
 11
3.039277474456593
 21
4.801143162824138
 31
0.0
  0
LINE
  5
3C3
330
1F
100
AcDbEntity
  8
0
  6
Continuous
 62
     7
370
    15
100
AcDbLine
 10
5.620217192003635
 20
4.285048963898844
 30
0.0
 11
6.503533000217118
 21
4.048398896590095
 31
0.0
  0
LINE
  5
3C4
330
1F
100
AcDbEntity
  8
0
  6
Continuous
 62
     7
370
    15
100
AcDbLine
 10
6.637064898202673
 20
4.01262422534306
 30
0.0
 11
7.458694831982636
 21
3.792500485539098
 31
0.0
  0
LINE
  5
3C5
330
1F
100
AcDbEntity
  8
0
  6
Continuous
 62
     7
370
    15
100
AcDbLine
 10
5.620217192003635
 20
4.285048963898844
 30
0.0
 11
5.98812960204017
 21
4.383616764666456
 31
0.0
  0
LINE
  5
3C6
330
1F
100
AcDbEntity
  8
0
  6
Continuous
 62
     7
370
    15
100
AcDbLine
 10
5.98812960204017
 20
4.383616764666456
 30
0.0
 11
5.938415185245504
 21
4.408186086267225
 31
0.0
  0
LINE
  5
3C7
330
1F
100
AcDbEntity
  8
0
  6
Continuous
 62
     7
370
    15
100
AcDbLine
 10
5.938415185245504
 20
4.408186086267225
 30
0.0
 11
6.101979647725713
 21
4.395174290740108
 31
0.0
  0
LINE
  5
3C8
330
1F
100
AcDbEntity
  8
0
  6
Continuous
 62
     7
370
    15
100
AcDbLine
 10
6.101979647725713
 20
4.395174290740108
 30
0.0
 11
6.433389941650392
 21
4.483962771184841
 31
0.0
  0
LINE
  5
3C9
330
1F
100
AcDbEntity
  8
0
  6
Continuous
 62
     7
370
    15
100
AcDbLine
 10
8.201156909550679
 20
4.010358463359889
 30
0.0
 11
7.423339454460164
 21
4.218744355913283
 31
0.0
  0
LINE
  5
3CA
330
1F
100
AcDbEntity
  8
0
  6
Continuous
 62
     7
370
    15
100
AcDbLine
 10
8.201156909550679
 20
4.010358463359889
 30
0.0
 11
7.869746615626001
 21
3.921569982915155
 31
0.0
  0
LINE
  5
3CB
330
1F
100
AcDbEntity
  8
0
  6
Continuous
 62
     7
370
    15
100
AcDbLine
 10
7.869746615626001
 20
3.921569982915155
 30
0.0
 11
7.918314210865048
 21
3.87774925572411
 31
0.0
  0
LINE
  5
3CC
330
1F
100
AcDbEntity
  8
0
  6
Continuous
 62
     7
370
    15
100
AcDbLine
 10
7.918314210865048
 20
3.87774925572411
 30
0.0
 11
7.82660724201917
 21
3.89106828630671
 31
0.0
  0
LINE
  5
3CD
330
1F
100
AcDbEntity
  8
0
  6
Continuous
 62
     7
370
    15
100
AcDbLine
 10
7.82660724201917
 20
3.89106828630671
 30
0.0
 11
7.458694831982636
 21
3.792500485539098
 31
0.0
  0
LINE
  5
3CE
330
1F
100
AcDbEntity
  8
0
  6
Continuous
 62
     7
370
    15
100
AcDbLine
 10
7.82660724201917
 20
3.602035187491295
 30
0.0
 11
7.82660724201917
 21
3.89106828630671
 31
0.0
  0
LINE
  5
3CF
330
1F
100
AcDbEntity
  8
0
  6
Continuous
 62
     7
370
    15
100
AcDbLine
 10
7.82660724201917
 20
3.602035187491295
 30
0.0
 11
7.458694831982636
 21
3.503467386723682
 31
0.0
  0
LINE
  5
3D0
330
1F
100
AcDbEntity
  8
0
  6
Continuous
 62
     7
370
    15
100
AcDbLine
 10
7.458694831982636
 20
3.503467386723682
 30
0.0
 11
7.458694831982636
 21
3.792500485539098
 31
0.0
  0
LINE
  5
3D1
330
1F
100
AcDbEntity
  8
0
  6
Continuous
 62
     7
370
    15
100
AcDbLine
 10
5.620217192003635
 20
3.996015865083427
 30
0.0
 11
5.620217192003635
 21
4.285048963898844
 31
0.0
  0
LINE
  5
3D2
330
1F
100
AcDbEntity
  8
0
  6
Continuous
 62
     7
370
    15
100
AcDbLine
 10
5.620217192003635
 20
3.996015865083427
 30
0.0
 11
7.458694831982636
 21
3.503467386723682
 31
0.0
  0
LINE
  5
3D3
330
1F
100
AcDbEntity
  8
0
  6
Continuous
 62
     7
370
    15
100
AcDbLine
 10
7.918314210865048
 20
3.588716156908694
 30
0.0
 11
7.918314210865048
 21
3.87774925572411
 31
0.0
  0
LINE
  5
3D4
330
1F
100
AcDbEntity
  8
0
  6
Continuous
 62
     7
370
    15
100
AcDbLine
 10
7.918314210865048
 20
3.588716156908694
 30
0.0
 11
7.82660724201917
 21
3.602035187491295
 31
0.0
  0
LINE
  5
3D5
330
1F
100
AcDbEntity
  8
0
  6
Continuous
 62
     7
370
    15
100
AcDbLine
 10
8.201156909550679
 20
3.721325364544472
 30
0.0
 11
8.201156909550679
 21
4.010358463359889
 31
0.0
  0
LINE
  5
3D6
330
1F
100
AcDbEntity
  8
0
  6
Continuous
 62
     7
370
    15
100
AcDbLine
 10
8.201156909550679
 20
3.721325364544472
 30
0.0
 11
7.918314200494269
 21
3.64554867684841
 31
0.0
  0
LINE
  5
3D7
330
1F
100
AcDbEntity
  8
0
  6
Continuous
 62
     7
370
    15
100
AcDbLine
 10
5.938415185245504
 20
4.370297738794597
 30
0.0
 11
5.938415185245504
 21
4.408186086267225
 31
0.0
  0
LWPOLYLINE
  5
3D8
330
1F
100
AcDbEntity
  8
0
  6
Continuous
 62
     7
370
    15
100
AcDbPolyline
 90
        8
 70
   128
 43
0.0
 10
6.814993097918256
 20
4.054662685705035
 10
6.811606633901057
 20
4.053101273798191
 10
6.80881380368199
 20
4.051457706007217
 10
6.806642037973238
 20
4.049748127884638
 10
6.805112752434788
 20
4.047989362923924
 10
6.804240870618558
 20
4.046198662499305
 10
6.80403502101322
 20
4.044393630847714
 10
6.80430660062
 20
4.043077527981083
  0
ARC
  5
3D9
330
1F
100
AcDbEntity
  8
0
  6
Continuous
 62
     7
370
    15
100
AcDbCircle
 10
6.871644368640964
 20
4.261841846335119
 30
0.0
 40
0.235324308492952
100
AcDbArc
 50
262.8763424529279
 51
270.6699358105538
  0
LINE
  5
3DA
330
1F
100
AcDbEntity
  8
0
  6
Continuous
 62
     7
370
    15
100
AcDbLine
 10
6.874395855581888
 20
4.026533624023828
 30
0.0
 11
6.965524513456571
 21
4.027386197274045
 31
0.0
  0
LINE
  5
3DB
330
1F
100
AcDbEntity
  8
0
  6
Continuous
 62
     7
370
    15
100
AcDbLine
 10
7.05869888539871
 20
4.013672038259837
 30
0.0
 11
7.028006331616833
 21
4.021894912628008
 31
0.0
  0
LINE
  5
3DC
330
1F
100
AcDbEntity
  8
0
  6
Continuous
 62
     7
370
    15
100
AcDbLine
 10
6.873083376377477
 20
3.963943591995231
 30
0.0
 11
7.05869888539871
 21
4.013672038259837
 31
0.0
  0
LINE
  5
3DD
330
1F
100
AcDbEntity
  8
0
  6
Continuous
 62
     7
370
    15
100
AcDbLine
 10
6.873083376377477
 20
3.963943591995231
 30
0.0
 11
6.666282806843224
 21
4.019347750105736
 31
0.0
  0
LINE
  5
3DE
330
1F
100
AcDbEntity
  8
0
  6
Continuous
 62
     7
370
    15
100
AcDbLine
 10
6.846286852926544
 20
4.067572823432138
 30
0.0
 11
6.814993097918256
 21
4.054662685705035
 31
0.0
  0
LINE
  5
3DF
330
1F
100
AcDbEntity
  8
0
  6
Continuous
 62
     7
370
    15
100
AcDbLine
 10
6.873083376377477
 20
3.95392377944788
 30
0.0
 11
6.873083376377477
 21
3.963943591995231
 31
0.0
  0
LINE
  5
3E0
330
1F
100
AcDbEntity
  8
0
  6
Continuous
 62
     7
370
    15
100
AcDbLine
 10
6.873083376377477
 20
3.95392377944788
 30
0.0
 11
6.666282806843224
 21
4.009327937558387
 31
0.0
  0
LINE
  5
3E1
330
1F
100
AcDbEntity
  8
0
  6
Continuous
 62
     7
370
    15
100
AcDbLine
 10
7.05869888539871
 20
4.013672038259837
 30
0.0
 11
7.05869888539871
 21
4.003652225712487
 31
0.0
  0
LINE
  5
3E2
330
1F
100
AcDbEntity
  8
0
  6
Continuous
 62
     7
370
    15
100
AcDbLine
 10
6.873083376377477
 20
3.95392377944788
 30
0.0
 11
7.05869888539871
 21
4.003652225712487
 31
0.0
  0
ARC
  5
3E3
330
1F
100
AcDbEntity
  8
0
  6
Continuous
 62
     7
370
    15
100
AcDbCircle
 10
6.645522021759465
 20
4.650503565337509
 30
0.0
 40
0.0546269299618975
100
AcDbArc
 50
256.983550316439
 51
283.0164238061711
  0
SPLINE
  5
3E4
330
1F
100
AcDbEntity
  8
0
  6
Continuous
 62
     7
370
    15
100
AcDbSpline
210
0.0
220
0.0
230
1.0
 70
     8
 71
     3
 72
    14
 73
    10
 74
     0
 42
0.0000000001
 43
0.0000000001
 40
0.0
 40
0.0
 40
0.0
 40
0.0
 40
0.1423228186050399
 40
0.2727536705236544
 40
0.3920425898071275
 40
0.5011704821825088
 40
0.7121295216261386
 40
0.846353216740511
 40
1.0
 40
1.0
 40
1.0
 40
1.0
 10
6.633218355287715
 20
4.028819620016867
 30
0.0
 10
6.634164704336325
 20
4.028986725316037
 30
0.0
 10
6.635978329018122
 20
4.029306973215559
 30
0.0
 10
6.639197526353777
 20
4.029678584482057
 30
0.0
 10
6.64238800189226
 20
4.029917430502782
 30
0.0
 10
6.646477003763954
 20
4.030027554273462
 30
0.0
 10
6.650695339224249
 20
4.029644745420775
 30
0.0
 10
6.654836527487827
 20
4.029191242146545
 30
0.0
 10
6.656785452904917
 20
4.02894893986483
 30
0.0
 10
6.657825664193134
 20
4.028819614459974
 30
0.0
  0
LINE
  5
3E5
330
1F
100
AcDbEntity
  8
0
  6
Continuous
 62
     7
370
    15
100
AcDbLine
 10
6.576607255945048
 20
4.049410545942868
 30
0.0
 11
6.607437115608666
 21
4.041150885811493
 31
0.0
  0
LWPOLYLINE
  5
3E6
330
1F
100
AcDbEntity
  8
0
  6
Continuous
 62
     7
370
    15
100
AcDbPolyline
 90
       12
 70
   128
 43
0.0
 10
6.576607255945048
 20
4.031297805159131
 10
6.574734645746176
 20
4.032166350108923
 10
6.573013718570512
 20
4.033698217090398
 10
6.571583940662835
 20
4.035769309505933
 10
6.570561112148751
 20
4.038211849756289
 10
6.57002811629925
 20
4.040827949934631
 10
6.57002811629925
 20
4.043405649613132
 10
6.570561112148751
 20
4.045736158834114
 10
6.571583940662835
 20
4.047630630827952
 10
6.573013718570512
 20
4.048935630767468
 10
6.574734645746176
 20
4.049545386929309
 10
6.576607255945048
 20
4.049410545942868
  0
LINE
  5
3E7
330
1F
100
AcDbEntity
  8
0
  6
Continuous
 62
     7
370
    15
100
AcDbLine
 10
6.607437115608666
 20
4.023038145027756
 30
0.0
 11
6.576607255945048
 21
4.031297805159131
 31
0.0
  0
LWPOLYLINE
  5
3E8
330
1F
100
AcDbEntity
  8
0
  6
Continuous
 62
     7
370
    15
100
AcDbPolyline
 90
       12
 70
   128
 43
0.0
 10
6.607437115608666
 20
4.023038145027756
 10
6.609309746549097
 20
4.022903298484423
 10
6.611030652983203
 20
4.023513060203155
 10
6.61246043089088
 20
4.024818046012328
 10
6.613483259404964
 20
4.02671253213651
 10
6.614016255254464
 20
4.029043041357492
 10
6.614016255254464
 20
4.031620741035993
 10
6.613483259404964
 20
4.034236841214334
 10
6.61246043089088
 20
4.036679367334347
 10
6.611030652983203
 20
4.038750473880226
 10
6.609309746549097
 20
4.040282335304809
 10
6.607437115608666
 20
4.041150885811493
  0
ARC
  5
3E9
330
1F
100
AcDbEntity
  8
0
  6
Continuous
 62
     7
370
    15
100
AcDbCircle
 10
6.64044105086321
 20
4.020853631989704
 30
0.0
 40
0.0107528738774887
100
AcDbArc
 50
132.198337042884
 51
183.7319219208056
  0
LINE
  5
3EA
330
1F
100
AcDbEntity
  8
0
  6
Continuous
 62
     7
370
    15
100
AcDbLine
 10
6.629710978350538
 20
4.020153745928991
 30
0.0
 11
6.629710978350538
 21
3.731120661243919
 31
0.0
  0
LINE
  5
3EB
330
1F
100
AcDbEntity
  8
0
  6
Continuous
 62
     7
370
    15
100
AcDbLine
 10
6.514381872812405
 20
3.762018603219459
 30
0.0
 11
6.629710978350538
 21
3.731120661243919
 31
0.0
  0
LINE
  5
3EC
330
1F
100
AcDbEntity
  8
0
  6
Continuous
 62
     7
370
    15
100
AcDbLine
 10
6.514381872812405
 20
3.762018603219459
 30
0.0
 11
6.514381872812405
 21
3.81802742783897
 31
0.0
  0
ARC
  5
3ED
330
1F
100
AcDbEntity
  8
0
  6
Continuous
 62
     7
370
    15
100
AcDbCircle
 10
6.460953903837694
 20
3.817859248371199
 30
0.0
 40
0.0534282336699999
100
AcDbArc
 50
0.1803538869825443
 51
32.58523787899268
  0
LINE
  5
3EE
330
1F
100
AcDbEntity
  8
0
  6
Continuous
 62
     7
370
    15
100
AcDbLine
 10
6.505972062400653
 20
3.846633221901047
 30
0.0
 11
6.446233820386016
 21
3.938539124123066
 31
0.0
  0
LWPOLYLINE
  5
3EF
330
1F
100
AcDbEntity
  8
0
  6
Continuous
 62
     7
370
    15
100
AcDbPolyline
 90
       23
 70
   128
 43
0.0
 10
6.446233820386016
 20
3.938539124123066
 10
6.442913387122869
 20
3.944087657586139
 10
6.43994775897322
 20
3.949966157911919
 10
6.437366140052571
 20
3.956116841398856
 10
6.435193876546397
 20
3.962479280505561
 10
6.433452290777665
 20
3.968990965829786
 10
6.432158515274359
 20
3.975587906945842
 10
6.431325285353897
 20
3.982205274382799
 10
6.430960773190643
 20
3.988778055216988
 10
6.431068504849682
 20
3.995241675839176
 10
6.431647484736164
 20
4.001532611543844
 10
6.432692029662842
 20
4.007589052719461
 10
6.434191851816298
 20
4.013351483160497
 10
6.436132183206307
 20
4.018763289656723
 10
6.438494024564542
 20
4.023771288784912
 10
6.441254103861464
 20
4.028326289106037
 10
6.444385374103736
 20
4.032383508883237
 10
6.447857013334227
 20
4.035903098904532
 10
6.45163488094632
 20
4.038850472402175
 10
6.455681932515095
 20
4.041196674346477
 10
6.459958385729799
 20
4.042918619597535
 10
6.464422176708159
 20
4.043999429889758
 10
6.469029457793803
 20
4.044428484160899
  0
LINE
  5
3F0
330
1F
100
AcDbEntity
  8
0
  6
Continuous
 62
     7
370
    15
100
AcDbLine
 10
6.469029457793803
 20
4.044428484160899
 30
0.0
 11
6.493434453529745
 21
4.04495808571234
 31
0.0
  0
ARC
  5
3F1
330
1F
100
AcDbEntity
  8
0
  6
Continuous
 62
     7
370
    15
100
AcDbCircle
 10
6.488746047066389
 20
4.070492656903849
 30
0.0
 40
0.0259614229405845
100
AcDbArc
 50
280.404201773089
 51
9.083822789354353
  0
LINE
  5
3F2
330
1F
100
AcDbEntity
  8
0
  6
Continuous
 62
     7
370
    15
100
AcDbLine
 10
6.514381872812405
 20
4.074591427380445
 30
0.0
 11
6.514381872812405
 21
4.231287838446929
 31
0.0
  0
ARC
  5
3F3
330
1F
100
AcDbEntity
  8
0
  6
Continuous
 62
     7
370
    15
100
AcDbCircle
 10
6.46067844863893
 20
4.231069513903281
 30
0.0
 40
0.0537038679571834
100
AcDbArc
 50
0.2329275310604546
 51
29.86547147163406
  0
LINE
  5
3F4
330
1F
100
AcDbEntity
  8
0
  6
Continuous
 62
     7
370
    15
100
AcDbLine
 10
6.507250281734478
 20
4.257812172628302
 30
0.0
 11
6.438074837650957
 21
4.377115838656738
 31
0.0
  0
ARC
  5
3F5
330
1F
100
AcDbEntity
  8
0
  6
Continuous
 62
     7
370
    15
100
AcDbCircle
 10
6.484646346750156
 20
4.403858368319792
 30
0.0
 40
0.0537035227201723
100
AcDbArc
 50
180.232797260979
 51
209.8655241939129
  0
LINE
  5
3F6
330
1F
100
AcDbEntity
  8
0
  6
Continuous
 62
     7
370
    15
100
AcDbLine
 10
6.430943267314589
 20
4.440704680393564
 30
0.0
 11
6.430943267314589
 21
4.403640167281218
 31
0.0
  0
ARC
  5
3F7
330
1F
100
AcDbEntity
  8
0
  6
Continuous
 62
     7
370
    15
100
AcDbCircle
 10
6.466241233255183
 20
4.442088393436768
 30
0.0
 40
0.0353250769472522
100
AcDbArc
 50
142.8776394691553
 51
182.2448983123356
  0
LINE
  5
3F8
330
1F
100
AcDbEntity
  8
0
  6
Continuous
 62
     7
370
    15
100
AcDbLine
 10
6.438074837650957
 20
4.463407755997491
 30
0.0
 11
6.507250281734478
 21
4.545645661789749
 31
0.0
  0
ARC
  5
3F9
330
1F
100
AcDbEntity
  8
0
  6
Continuous
 62
     7
370
    15
100
AcDbCircle
 10
6.479083671842018
 20
4.566965123573264
 30
0.0
 40
0.0353253076925418
100
AcDbArc
 50
322.8777209102428
 51
2.244713563505765
  0
LINE
  5
3FA
330
1F
100
AcDbEntity
  8
0
  6
Continuous
 62
     7
370
    15
100
AcDbLine
 10
6.514381872812405
 20
4.568348731836783
 30
0.0
 11
6.514381872812405
 21
4.629117857274677
 31
0.0
  0
LINE
  5
3FB
330
1F
100
AcDbEntity
  8
0
  6
Continuous
 62
     7
370
    15
100
AcDbLine
 10
6.633218355287715
 20
4.597280250254606
 30
0.0
 11
6.514381872812405
 21
4.629117857274677
 31
0.0
  0
LWPOLYLINE
  5
3FC
330
1F
100
AcDbEntity
  8
0
  6
Continuous
 62
     7
370
    15
100
AcDbPolyline
 90
        9
 70
   128
 43
0.0
 10
6.791443535942014
 20
4.062275977608001
 10
6.791170867403369
 20
4.063773754604833
 10
6.790697835401826
 20
4.06512693738456
 10
6.790039498309435
 20
4.066292548598177
 10
6.789216763617982
 20
4.067233558347027
 10
6.78825580717531
 20
4.067920099233129
 10
6.787187077590481
 20
4.068330315925465
 10
6.786044591020758
 20
4.06845122187105
 10
6.78486460371181
 20
4.068278937128212
  0
LINE
  5
3FD
330
1F
100
AcDbEntity
  8
0
  6
Continuous
 62
     7
370
    15
100
AcDbLine
 10
6.754034723306633
 20
4.060019271439944
 30
0.0
 11
6.78486460371181
 21
4.068278937128212
 31
0.0
  0
ARC
  5
3FE
330
1F
100
AcDbEntity
  8
0
  6
Continuous
 62
     7
370
    15
100
AcDbCircle
 10
6.758216782239986
 20
4.050096306419894
 30
0.0
 40
0.0107682334535981
100
AcDbArc
 50
112.8531146155021
 51
177.8985082008908
  0
ARC
  5
3FF
330
1F
100
AcDbEntity
  8
0
  6
Continuous
 62
     7
370
    15
100
AcDbCircle
 10
6.653233894874481
 20
4.022899278999841
 30
0.0
 40
0.00749231055391
100
AcDbArc
 50
32.6248162392922
 51
52.20310342360377
  0
LINE
  5
400
330
1F
100
AcDbEntity
  8
0
  6
Continuous
 62
     7
370
    15
100
AcDbLine
 10
6.846948570893101
 20
4.647948361563744
 30
0.0
 11
6.657825664193134
 21
4.597280244697714
 31
0.0
  0
LINE
  5
401
330
1F
100
AcDbEntity
  8
0
  6
Continuous
 62
     7
370
    15
100
AcDbLine
 10
6.846948570893101
 20
4.61197663270742
 30
0.0
 11
6.846948570893101
 21
4.647948361563744
 31
0.0
  0
ARC
  5
402
330
1F
100
AcDbEntity
  8
0
  6
Continuous
 62
     7
370
    15
100
AcDbCircle
 10
6.79350508622896
 20
4.587272490207357
 30
0.0
 40
0.053416187788094
100
AcDbArc
 50
330.1120408934146
 51
346.2904419357246
  0
LINE
  5
403
330
1F
100
AcDbEntity
  8
0
  6
Continuous
 62
     7
370
    15
100
AcDbLine
 10
6.839817000556732
 20
4.560654907501371
 30
0.0
 11
6.770641535731653
 21
4.441351264176729
 31
0.0
  0
ARC
  5
404
330
1F
100
AcDbEntity
  8
0
  6
Continuous
 62
     7
370
    15
100
AcDbCircle
 10
6.816932708366042
 20
4.414731833170534
 30
0.0
 40
0.0533991270617832
100
AcDbArc
 50
150.0992315579934
 51
167.8645499117332
  0
LINE
  5
405
330
1F
100
AcDbEntity
  8
0
  6
Continuous
 62
     7
370
    15
100
AcDbLine
 10
6.763509965395283
 20
4.381298512676033
 30
0.0
 11
6.763509965395283
 21
4.377762422439904
 31
0.0
  0
ARC
  5
406
330
1F
100
AcDbEntity
  8
0
  6
Continuous
 62
     7
370
    15
100
AcDbCircle
 10
6.798808243760866
 20
4.376378807536741
 30
0.0
 40
0.0353253852884076
100
AcDbArc
 50
177.7552805923676
 51
217.1221816261434
  0
LINE
  5
407
330
1F
100
AcDbEntity
  8
0
  6
Continuous
 62
     7
370
    15
100
AcDbLine
 10
6.770641535731653
 20
4.355059346835976
 30
0.0
 11
6.839817000556732
 21
4.272821418339924
 31
0.0
  0
ARC
  5
408
330
1F
100
AcDbEntity
  8
0
  6
Continuous
 62
     7
370
    15
100
AcDbCircle
 10
6.811650674407808
 20
4.251502077596743
 30
0.0
 40
0.0353250083998775
100
AcDbArc
 50
357.7550619148823
 51
37.12240030363471
  0
LINE
  5
409
330
1F
100
AcDbEntity
  8
0
  6
Continuous
 62
     7
370
    15
100
AcDbLine
 10
6.846948570893101
 20
4.077146389905631
 30
0.0
 11
6.846948570893101
 21
4.19274126281113
 31
0.0
  0
LINE
  5
40A
330
1F
100
AcDbEntity
  8
0
  6
Continuous
 62
     7
370
    15
100
AcDbLine
 10
6.846948570893101
 20
4.226599148779741
 30
0.0
 11
6.846948570893101
 21
4.250118342735997
 31
0.0
  0
LINE
  5
40B
330
1F
100
AcDbEntity
  8
0
  6
Continuous
 62
     7
370
    15
100
AcDbLine
 10
6.839594651040966
 20
4.649918557966671
 30
0.0
 11
6.650471744340999
 21
4.59925044110064
 31
0.0
  0
LINE
  5
40C
330
1F
100
AcDbEntity
  8
0
  6
Continuous
 62
     7
370
    15
100
AcDbLine
 10
6.846948570893101
 20
4.647948361563744
 30
0.0
 11
6.839594651040966
 21
4.649918557966671
 31
0.0
  0
LINE
  5
40D
330
1F
100
AcDbEntity
  8
0
  6
Continuous
 62
     7
370
    15
100
AcDbLine
 10
6.514381872812405
 20
4.629117857274677
 30
0.0
 11
6.52173579266454
 21
4.631088053677604
 31
0.0
  0
LINE
  5
40E
330
1F
100
AcDbEntity
  8
0
  6
Continuous
 62
     7
370
    15
100
AcDbLine
 10
6.640572275139851
 20
4.599250446657533
 30
0.0
 11
6.52173579266454
 21
4.631088053677604
 31
0.0
  0
SPLINE
  5
40F
330
1F
100
AcDbEntity
  8
0
  6
Continuous
 62
     7
370
    15
100
AcDbSpline
210
0.0
220
0.0
230
1.0
 70
     8
 71
     3
 72
    13
 73
     9
 74
     0
 42
0.0000000001
 43
0.0000000001
 40
0.0
 40
0.0
 40
0.0
 40
0.0
 40
0.2807937523812263
 40
0.4987495961234988
 40
0.6164905870704098
 40
0.7348014691650523
 40
0.8606901336579776
 40
1.0
 40
1.0
 40
1.0
 40
1.0
 10
6.756822285169635
 20
4.045440287677029
 30
0.0
 10
6.755834726025875
 20
4.045286304806814
 30
0.0
 10
6.754080610345165
 20
4.045012798385541
 30
0.0
 10
6.751547901186264
 20
4.045258268736231
 30
0.0
 10
6.749751597325075
 20
4.046127978699289
 30
0.0
 10
6.748560903746156
 20
4.047223782034907
 30
0.0
 10
6.747683800715021
 20
4.048730705518789
 30
0.0
 10
6.747534316003226
 20
4.049884881353735
 30
0.0
 10
6.747455791076427
 20
4.050491174611828
 30
0.0
  0
LINE
  5
410
330
1F
100
AcDbEntity
  8
0
  6
Continuous
 62
     7
370
    15
100
AcDbLine
 10
6.787652165574812
 20
4.053699953365296
 30
0.0
 11
6.756822285169635
 21
4.045440287677029
 31
0.0
  0
SPLINE
  5
411
330
1F
100
AcDbEntity
  8
0
  6
Continuous
 62
     7
370
    15
100
AcDbSpline
210
0.0
220
0.0
230
1.0
 70
     8
 71
     3
 72
    13
 73
     9
 74
     0
 42
0.0000000001
 43
0.0000000001
 40
0.0
 40
0.0
 40
0.0
 40
0.0
 40
0.1393098663420224
 40
0.2651985308349478
 40
0.3835094129295903
 40
0.5012504038765014
 40
0.7192062476187738
 40
1.0
 40
1.0
 40
1.0
 40
1.0
 10
6.791443535942014
 20
4.062275977608001
 30
0.0
 10
6.791435685376834
 20
4.061646543400996
 30
0.0
 10
6.791420740574957
 20
4.060448315082084
 30
0.0
 10
6.791487118448255
 20
4.058724189368393
 30
0.0
 10
6.791430909952556
 20
4.057294327186389
 30
0.0
 10
6.791080907149781
 20
4.055849597947359
 30
0.0
 10
6.789878118750142
 20
4.054603346516517
 30
0.0
 10
6.788453960299793
 20
4.054025358172217
 30
0.0
 10
6.787652165574812
 20
4.053699953365296
 30
0.0
  0
ARC
  5
412
330
1F
100
AcDbEntity
  8
0
  6
Continuous
 62
     7
370
    15
100
AcDbCircle
 10
6.85576446300174
 20
4.076856179043335
 30
0.0
 40
0.0088206675493272
100
AcDbArc
 50
178.1145577853153
 51
237.5611252910965
  0
LINE
  5
413
330
1F
100
AcDbEntity
  8
0
  6
Continuous
 62
     7
370
    15
100
AcDbLine
 10
6.846286852926544
 20
4.067572823432138
 30
0.0
 11
6.851033060976423
 21
4.069411851612965
 31
0.0
  0
ARC
  5
414
330
1F
100
AcDbEntity
  8
0
  6
Continuous
 62
     7
370
    15
100
AcDbCircle
 10
6.66825811030224
 20
4.025280280188457
 30
0.0
 40
0.0062527383551207
100
AcDbArc
 50
208.8759770074435
 51
251.5842330524279
  0
SPLINE
  5
415
330
1F
100
AcDbEntity
  8
0
  6
Continuous
 62
     7
370
    15
100
AcDbSpline
210
0.0
220
0.0
230
1.0
 70
     8
 71
     3
 72
    11
 73
     7
 74
     0
 42
0.0000000001
 43
0.0000000001
 40
0.0
 40
0.0
 40
0.0
 40
0.0
 40
0.2152168615428208
 40
0.4502420002840608
 40
0.7105098418402203
 40
1.0
 40
1.0
 40
1.0
 40
1.0
 10
6.659544060898562
 20
4.026938650508475
 30
0.0
 10
6.659755046459518
 20
4.026667610089636
 30
0.0
 10
6.660196436415281
 20
4.026100583047882
 30
0.0
 10
6.660892067525288
 20
4.024957437708762
 30
0.0
 10
6.661730463311665
 20
4.023615598829347
 30
0.0
 10
6.662419802629021
 20
4.022728083086323
 30
0.0
 10
6.6627827931596
 20
4.022260737321549
 30
0.0
  0
ARC
  5
416
330
1F
100
AcDbEntity
  8
0
  6
Continuous
 62
     7
370
    15
100
AcDbCircle
 10
6.648872716361029
 20
4.022563791563515
 30
0.0
 40
0.0118160076594138
100
AcDbArc
 50
141.7375513246661
 51
182.1333202548441
  0
LINE
  5
417
330
1F
100
AcDbEntity
  8
0
  6
Continuous
 62
     7
370
    15
100
AcDbLine
 10
6.652190141046427
 20
4.028908846911402
 30
0.0
 11
6.659544060898562
 21
4.026938650508475
 31
0.0
  0
LINE
  5
418
330
1F
100
AcDbEntity
  8
0
  6
Continuous
 62
     7
370
    15
100
AcDbLine
 10
6.657582801275213
 20
4.01656880527133
 30
0.0
 11
6.6627827931596
 21
4.022260737321549
 31
0.0
  0
ARC
  5
419
330
1F
100
AcDbEntity
  8
0
  6
Continuous
 62
     7
370
    15
100
AcDbCircle
 10
6.671192655753475
 20
4.024074214959131
 30
0.0
 40
0.0155421785313777
100
AcDbArc
 50
208.8753634445567
 51
251.5845551946856
  0
SPLINE
  5
41A
330
1F
100
AcDbEntity
  8
0
  6
Continuous
 62
     7
370
    15
100
AcDbSpline
210
0.0
220
0.0
230
1.0
 70
     8
 71
     3
 72
    10
 73
     6
 74
     0
 42
0.0000000001
 43
0.0000000001
 40
0.0
 40
0.0
 40
0.0
 40
0.0
 40
0.4225460030473572
 40
0.6916665987904364
 40
1.0
 40
1.0
 40
1.0
 40
1.0
 10
6.652190141046427
 20
4.028908846911402
 30
0.0
 10
6.652712499164511
 20
4.027167670329297
 30
0.0
 10
6.653567548461582
 20
4.024317534070163
 30
0.0
 10
6.655410462087185
 20
4.019986368387069
 30
0.0
 10
6.656826632546898
 20
4.017758423526806
 30
0.0
 10
6.657582801275213
 20
4.01656880527133
 30
0.0
  0
LINE
  5
41B
330
1F
100
AcDbEntity
  8
0
  6
Continuous
 62
     7
370
    15
100
AcDbLine
 10
6.637064898202673
 20
3.733090857646846
 30
0.0
 11
6.629710978350538
 21
3.731120661243919
 31
0.0
  0
LINE
  5
41C
330
1F
100
AcDbEntity
  8
0
  6
Continuous
 62
     7
370
    15
100
AcDbLine
 10
6.637064898202673
 20
4.022123942331918
 30
0.0
 11
6.637064898202673
 21
3.733090857646846
 31
0.0
  0
LINE
  5
41D
330
1F
100
AcDbEntity
  8
0
  6
Continuous
 62
     7
370
    15
100
AcDbLine
 10
6.814993097918256
 20
4.044642873157684
 30
0.0
 11
6.812012369913431
 21
4.043288636113039
 31
0.0
  0
LINE
  5
41E
330
1F
100
AcDbEntity
  8
0
  6
Continuous
 62
     7
370
    15
100
AcDbLine
 10
6.612921785394537
 20
4.025509134182137
 30
0.0
 11
6.583961175797183
 21
4.033268001562058
 31
0.0
  0
ARC
  5
41F
330
1F
100
AcDbEntity
  8
0
  6
Continuous
 62
     7
370
    15
100
AcDbCircle
 10
6.588717767909652
 20
4.04371830948625
 30
0.0
 40
0.0114819033367675
100
AcDbArc
 50
153.1188457540935
 51
245.526734311689
  0
LINE
  5
420
330
1F
100
AcDbEntity
  8
0
  6
Continuous
 62
     7
370
    15
100
AcDbLine
 10
6.50078837338188
 20
4.046928282115267
 30
0.0
 11
6.501182960806128
 21
4.046941135496897
 31
0.0
  0
LINE
  5
421
330
1F
100
AcDbEntity
  8
0
  6
Continuous
 62
     7
370
    15
100
AcDbLine
 10
6.784089616089879
 20
4.064246174010928
 30
0.0
 11
6.791443535942014
 21
4.062275977608001
 31
0.0
  0
SPLINE
  5
422
330
1F
100
AcDbEntity
  8
0
  6
Continuous
 62
     7
370
    15
100
AcDbSpline
210
0.0
220
0.0
230
1.0
 70
     8
 71
     3
 72
    10
 73
     6
 74
     0
 42
0.0000000001
 43
0.0000000001
 40
0.0
 40
0.0
 40
0.0
 40
0.0
 40
0.4079544980057877
 40
0.7623214630646071
 40
1.0
 40
1.0
 40
1.0
 40
1.0
 10
6.784089616089879
 20
4.064246174010928
 30
0.0
 10
6.784132347115115
 20
4.062711715343489
 30
0.0
 10
6.784212196161605
 20
4.059844359346455
 30
0.0
 10
6.784906602966431
 20
4.056023614928161
 30
0.0
 10
6.785388153501237
 20
4.053969723441177
 30
0.0
 10
6.785581473484562
 20
4.053145182215872
 30
0.0
  0
ARC
  5
423
330
1F
100
AcDbEntity
  8
0
  6
Continuous
 62
     7
370
    15
100
AcDbCircle
 10
6.775269701751806
 20
4.063449069240946
 30
0.0
 40
0.0088558604858742
100
AcDbArc
 50
5.164109416153425
 51
29.26418800874513
  0
LINE
  5
424
330
1F
100
AcDbEntity
  8
0
  6
Continuous
 62
     7
370
    15
100
AcDbLine
 10
6.846286852926544
 20
4.057553010884788
 30
0.0
 11
6.846286852926544
 21
4.067572823432138
 31
0.0
  0
LINE
  5
425
330
1F
100
AcDbEntity
  8
0
  6
Continuous
 62
     7
370
    15
100
AcDbLine
 10
6.846286852926544
 20
4.057553010884788
 30
0.0
 11
6.814993097918256
 21
4.044642873157684
 31
0.0
  0
LINE
  5
426
330
1F
100
AcDbEntity
  8
0
  6
Continuous
 62
     7
370
    15
100
AcDbLine
 10
6.476383377645938
 20
4.046398680563826
 30
0.0
 11
6.50078837338188
 21
4.046928282115267
 31
0.0
  0
LWPOLYLINE
  5
427
330
1F
100
AcDbEntity
  8
0
  6
Continuous
 62
     7
370
    15
100
AcDbPolyline
 90
        3
 70
   128
 43
0.0
 10
6.468783089552361
 20
4.045321401823029
 10
6.471776096560295
 20
4.045969626292685
 10
6.476383377645938
 20
4.046398680563826
  0
LINE
  5
428
330
1F
100
AcDbEntity
  8
0
  6
Continuous
 62
     7
370
    15
100
AcDbLine
 10
6.849747540613722
 20
4.059890719270083
 30
0.0
 11
6.851033060976423
 21
4.069411851612965
 31
0.0
  0
LINE
  5
429
330
1F
100
AcDbEntity
  8
0
  6
Continuous
 62
     7
370
    15
100
AcDbLine
 10
6.846286852926544
 20
4.057553010884788
 30
0.0
 11
6.849747540613722
 21
4.059890719270083
 31
0.0
  0
LWPOLYLINE
  5
42A
330
1F
100
AcDbEntity
  8
0
  6
Continuous
 62
     7
370
    15
100
AcDbPolyline
 90
       16
 70
   128
 43
0.0
 10
6.85059018720211
 20
4.210638345132239
 10
6.850362237465331
 20
4.214820701856728
 10
6.849683241779872
 20
4.21879175592666
 10
6.848567719237247
 20
4.222466941215905
 10
6.847039398181304
 20
4.225767861008848
 10
6.845130842860153
 20
4.228624166224423
 10
6.842882789696274
 20
4.230975016715404
 10
6.840343110208543
 20
4.232770301240181
 10
6.837565898383634
 20
4.233971721211768
 10
6.834610433598045
 20
4.234553699802027
 10
6.831539645742711
 20
4.234503818552203
 10
6.828418995178804
 20
4.233823139035823
 10
6.825314979345462
 20
4.232526198412031
 10
6.82229376381687
 20
4.230640614409953
 10
6.819419771876238
 20
4.228206566156547
 10
6.817940608315852
 20
4.22667069793703
  0
LWPOLYLINE
  5
42B
330
1F
100
AcDbEntity
  8
0
  6
Continuous
 62
     7
370
    15
100
AcDbPolyline
 90
       21
 70
   128
 43
0.0
 10
6.808621633135016
 20
4.191443417819916
 10
6.809221603479516
 20
4.189144035416958
 10
6.810547072085442
 20
4.185646674475077
 10
6.812270073417035
 20
4.182559788896344
 10
6.814353936397445
 20
4.179949264475226
 10
6.816754232606635
 20
4.177870656607535
 10
6.819419771876238
 20
4.176368298333107
 10
6.82229376381687
 20
4.175474198487443
 10
6.825314979345462
 20
4.175207448545725
 10
6.828418995178804
 20
4.175573708215774
 10
6.831539645742711
 20
4.176565142249563
 10
6.834610433598045
 20
4.178160657008501
 10
6.837565898383634
 20
4.18032626721837
 10
6.840343110208543
 20
4.183015778672491
 10
6.842882789696274
 20
4.186171851342503
 10
6.845130842860153
 20
4.189727258409059
 10
6.847039398181304
 20
4.193606238012591
 10
6.848567719237247
 20
4.197726066008909
 10
6.849683241779872
 20
4.201998944673017
 10
6.850362237465331
 20
4.206333847900245
 10
6.85059018720211
 20
4.210638345132239
  0
ARC
  5
42C
330
1F
100
AcDbEntity
  8
0
  6
Continuous
 62
     7
370
    15
100
AcDbCircle
 10
6.523120965792062
 20
4.56359154413714
 30
0.0
 40
0.0410111549520986
100
AcDbArc
 50
347.4382438299681
 51
16.50902814379247
  0
ARC
  5
42D
330
1F
100
AcDbEntity
  8
0
  6
Continuous
 62
     7
370
    15
100
AcDbCircle
 10
6.522955288035226
 20
4.564654291908023
 30
0.0
 40
0.0408819062176732
100
AcDbArc
 50
15.01484286708544
 51
42.6329520607008
  0
LWPOLYLINE
  5
42E
330
1F
100
AcDbEntity
  8
0
  6
Continuous
 62
     7
370
    15
100
AcDbPolyline
 90
       44
 70
   128
 43
0.0
 10
6.561081140984576
 20
4.574862055818096
 10
6.559677601149422
 20
4.57903885948493
 10
6.557882875505745
 20
4.583001572557853
 10
6.555735190747349
 20
4.586665684596924
 10
6.553280323495624
 20
4.58995308413798
 10
6.550570604704698
 20
4.592793738457849
 10
6.547663778875683
 20
4.595127129630965
 10
6.544621780304667
 20
4.59690348672804
 10
6.54150948858916
 20
4.598084910528889
 10
6.538393214494267
 20
4.59864628786799
 10
6.535339372492887
 20
4.59857564727563
 10
6.532413049598124
 20
4.597874485882147
 10
6.529676615678812
 20
4.59655774608014
 10
6.527188416741281
 20
4.594653487352227
 10
6.525001447469558
 20
4.592202281048828
 10
6.523162334888966
 20
4.589256408769806
 10
6.521710280546592
 20
4.585878619688895
 10
6.520676210107365
 20
4.582140945351947
 10
6.520082213331944
 20
4.578122984507676
 10
6.519940901088389
 20
4.573910436251487
 10
6.520255301644358
 20
4.569593036519073
 10
6.521018715476193
 20
4.56526284482206
 10
6.522214881201403
 20
4.561012108502
 10
6.523818286702035
 20
4.556931483735743
 10
6.525794770629914
 20
4.553107839616052
 10
6.52810220687809
 20
4.549622831303895
 10
6.530691417209444
 20
4.5465505642343
 10
6.533507208334663
 20
4.543956638015205
 10
6.536489554181114
 20
4.541896303607448
 10
6.53957492335264
 20
4.540413429427124
 10
6.542697544364679
 20
4.539539653682737
 10
6.545790857553421
 20
4.539293656264453
 10
6.548788946243385
 20
4.539680549232977
 10
6.55162788494879
 20
4.540692250399384
 10
6.554247191282699
 20
4.542307037821242
 10
6.556591049709015
 20
4.544490578458907
 10
6.558609473069813
 20
4.547196351767388
 10
6.560259443371088
 20
4.550366644058855
 10
6.561505824411379
 20
4.553933886597831
 10
6.56232204625321
 20
4.557822111343587
 10
6.562690685986765
 20
4.561948377955629
 10
6.562603903302625
 20
4.566224748389802
 10
6.562063544199572
 20
4.570560124319189
 10
6.561081140984576
 20
4.574862055818096
  0
ARC
  5
42F
330
1F
100
AcDbEntity
  8
0
  6
Continuous
 62
     7
370
    15
100
AcDbCircle
 10
6.530724963981605
 20
4.566832603969467
 30
0.0
 40
0.0404997158161144
100
AcDbArc
 50
14.88281782653442
 51
42.79474627752236
  0
ARC
  5
430
330
1F
100
AcDbEntity
  8
0
  6
Continuous
 62
     7
370
    15
100
AcDbCircle
 10
6.530186027818465
 20
4.565568662212979
 30
0.0
 40
0.0413593917033287
100
AcDbArc
 50
347.5490528204943
 51
16.38344955096578
  0
ARC
  5
431
330
1F
100
AcDbEntity
  8
0
  6
Continuous
 62
     7
370
    15
100
AcDbCircle
 10
6.44802581655182
 20
4.41510759993028
 30
0.0
 40
0.0410115585902298
100
AcDbArc
 50
347.4383900382306
 51
16.50888193552965
  0
ARC
  5
432
330
1F
100
AcDbEntity
  8
0
  6
Continuous
 62
     7
370
    15
100
AcDbCircle
 10
6.447860128301408
 20
4.416170126957778
 30
0.0
 40
0.0408823797706319
100
AcDbArc
 50
15.015005992293
 51
42.63278893549495
  0
LWPOLYLINE
  5
433
330
1F
100
AcDbEntity
  8
0
  6
Continuous
 62
     7
370
    15
100
AcDbPolyline
 90
       44
 70
   128
 43
0.0
 10
6.485986408481478
 20
4.426378125972029
 10
6.484582868646322
 20
4.430554929638864
 10
6.482788143002646
 20
4.434517642711786
 10
6.480640458244251
 20
4.438181754750858
 10
6.478185590992525
 20
4.441469154291914
 10
6.47547585146004
 20
4.444309814168676
 10
6.472569025631025
 20
4.446643205341791
 10
6.469527047801568
 20
4.448419556881973
 10
6.466414735344502
 20
4.449600986239715
 10
6.463298481991169
 20
4.450162358021924
 10
6.460244619248229
 20
4.450091722986456
 10
6.457318317095025
 20
4.449390556036082
 10
6.454581883175713
 20
4.448073816234074
 10
6.452093684238182
 20
4.44616955750616
 10
6.4499066942249
 20
4.443718356759654
 10
6.448067581644307
 20
4.440772484480632
 10
6.446615548043493
 20
4.43739468984283
 10
6.445581456862707
 20
4.433657021062773
 10
6.444987460087286
 20
4.429639060218502
 10
6.444846168585289
 20
4.42542650640542
 10
6.445160569141259
 20
4.421109106673006
 10
6.445923982973094
 20
4.416778914975993
 10
6.447120148698303
 20
4.412528178655934
 10
6.448723554198936
 20
4.408447553889677
 10
6.450700017385257
 20
4.404623915326878
 10
6.45300747437499
 20
4.401138901457828
 10
6.455596684706345
 20
4.398066634388234
 10
6.458412475831564
 20
4.395472708169138
 10
6.461394821678014
 20
4.393412373761382
 10
6.464480170107981
 20
4.391929505137951
 10
6.46760281186158
 20
4.391055723836671
 10
6.470696125050321
 20
4.390809726418386
 10
6.473694192998727
 20
4.391196624943803
 10
6.47653315244569
 20
4.392208320553318
 10
6.479152458779599
 20
4.393823107975176
 10
6.481496296464356
 20
4.396006654169733
 10
6.483514719825155
 20
4.398712427478214
 10
6.485164710867989
 20
4.401882714212788
 10
6.486411091908279
 20
4.405449956751764
 10
6.487227293008551
 20
4.409338187054413
 10
6.487595953483666
 20
4.413464448109563
 10
6.487509170799526
 20
4.417740818543735
 10
6.486968811696473
 20
4.422076194473123
 10
6.485986408481478
 20
4.426378125972029
  0
ARC
  5
434
330
1F
100
AcDbEntity
  8
0
  6
Continuous
 62
     7
370
    15
100
AcDbCircle
 10
6.455629810359674
 20
4.418348442240033
 30
0.0
 40
0.0405001823655154
100
AcDbArc
 50
14.88298185157874
 51
42.79458225247156
  0
ARC
  5
435
330
1F
100
AcDbEntity
  8
0
  6
Continuous
 62
     7
370
    15
100
AcDbCircle
 10
6.455090880009919
 20
4.417084718109047
 30
0.0
 40
0.0413597941672672
100
AcDbArc
 50
347.5491961492082
 51
16.38330622224964
  0
LWPOLYLINE
  5
436
330
1F
100
AcDbEntity
  8
0
  6
Continuous
 62
     7
370
    15
100
AcDbPolyline
 90
       16
 70
   128
 43
0.0
 10
6.771111352791505
 20
4.406119904050565
 10
6.770883403054726
 20
4.410302232514366
 10
6.770204448852386
 20
4.414273354219458
 10
6.769088884826643
 20
4.41794850013423
 10
6.7675605637707
 20
4.421249391666486
 10
6.765652049932667
 20
4.424105736256534
 10
6.763403996768787
 20
4.426456586747516
 10
6.760864275797938
 20
4.428251860158506
 10
6.758087105456149
 20
4.429453291243879
 10
6.755131640670559
 20
4.43003524157345
 10
6.752060852815225
 20
4.429985416845
 10
6.7489401607682
 20
4.429304726214835
 10
6.745836186417975
 20
4.428007796704829
 10
6.742814970889385
 20
4.42612221270275
 10
6.739940978948752
 20
4.423688136188657
 10
6.738461815388364
 20
4.42215226796914
  0
LWPOLYLINE
  5
437
330
1F
100
AcDbEntity
  8
0
  6
Continuous
 62
     7
370
    15
100
AcDbPolyline
 90
       21
 70
   128
 43
0.0
 10
6.729142840207528
 20
4.386924987852028
 10
6.72974281055203
 20
4.384625633709757
 10
6.731068279157955
 20
4.381128244507189
 10
6.73279128048955
 20
4.378041387189142
 10
6.734875143469959
 20
4.37543080624665
 10
6.737275439679149
 20
4.37335219837896
 10
6.739940978948752
 20
4.371849896625906
 10
6.742814970889385
 20
4.370955768519555
 10
6.745836186417975
 20
4.370689018577835
 10
6.7489401607682
 20
4.371055267134099
 10
6.752060852815225
 20
4.372046712281674
 10
6.755131640670559
 20
4.373642227040613
 10
6.758087105456149
 20
4.375807837250482
 10
6.760864275797938
 20
4.378497337590817
 10
6.763403996768787
 20
4.381653449635302
 10
6.765652049932667
 20
4.385208856701858
 10
6.7675605637707
 20
4.389087768670229
 10
6.769088884826643
 20
4.393207624927234
 10
6.770204448852386
 20
4.397480514705129
 10
6.770883403054726
 20
4.401815378557882
 10
6.771111352791505
 20
4.406119904050565
  0
LWPOLYLINE
  5
438
330
1F
100
AcDbEntity
  8
0
  6
Continuous
 62
     7
370
    15
100
AcDbPolyline
 90
       23
 70
   128
 43
0.0
 10
6.913171393081004
 20
4.00574755124102
 10
6.913057907583779
 20
4.005092079074308
 10
6.912337306923046
 20
4.003885154567717
 10
6.910968466096177
 20
4.002719202161746
 10
6.908980532827561
 20
4.001619065161993
 10
6.906415936569453
 20
4.000608206854418
 10
6.903329291143855
 20
3.999708159851978
 10
6.899786385049889
 20
3.998938107547713
 10
6.895862707678783
 20
3.998314456537881
 10
6.891641970505506
 20
3.997850521528761
 10
6.887214001172328
 20
3.99755615597692
 10
6.882673309566491
 20
3.997437669473848
 10
6.878116585383482
 20
3.99749756461839
 10
6.873640941900325
 20
3.997734562977858
 10
6.869341831124774
 20
3.998143630180873
 10
6.865310875006022
 20
3.998716045725832
 10
6.861633918968997
 20
3.999439591047012
 10
6.858389379071352
 20
4.000298858964035
 10
6.855646383041214
 20
4.001275529442698
 10
6.853463432446607
 20
4.002348794697264
 10
6.851887060975835
 20
4.003495785334715
 10
6.850950781803349
 20
4.004692030187627
 10
6.850672199327608
 20
4.005807471565234
  0
LWPOLYLINE
  5
439
330
1F
100
AcDbEntity
  8
0
  6
Continuous
 62
     7
370
    15
100
AcDbPolyline
 90
        3
 70
   128
 43
0.0
 10
6.911528332311671
 20
4.008434067009218
 10
6.910308973634117
 20
4.009571230628754
 10
6.90902959277297
 20
4.010367833463743
  0
LWPOLYLINE
  5
43A
330
1F
100
AcDbEntity
  8
0
  6
Continuous
 62
     7
370
    15
100
AcDbPolyline
 90
        7
 70
   128
 43
0.0
 10
6.853122288242607
 20
4.00925003318507
 10
6.853065881572074
 20
4.009202507857934
 10
6.852051920074593
 20
4.008050972376644
 10
6.851674550737266
 20
4.006872143520916
 10
6.851941888695168
 20
4.005691164842218
 10
6.852848162609422
 20
4.004533188227364
 10
6.853168150422929
 20
4.004253857804547
  0
ARC
  5
43B
330
1F
100
AcDbEntity
  8
0
  6
Continuous
 62
     7
370
    15
100
AcDbCircle
 10
6.909350797922281
 20
4.006739764415678
 30
0.0
 40
0.0027590428223301
100
AcDbArc
 50
305.5414594688047
 51
37.88588006659486
  0
LWPOLYLINE
  5
43C
330
1F
100
AcDbEntity
  8
0
  6
Continuous
 62
     7
370
    15
100
AcDbPolyline
 90
       23
 70
   128
 43
0.0
 10
6.850672199327608
 20
3.995691304204578
 10
6.850950781803349
 20
3.994575862826971
 10
6.851887060975835
 20
3.993379617974059
 10
6.853463432446607
 20
3.992232627336608
 10
6.855646383041214
 20
3.991159362082041
 10
6.858389379071352
 20
3.99018269160338
 10
6.861633918968997
 20
3.989323423686355
 10
6.865310875006022
 20
3.988599878365176
 10
6.869341831124774
 20
3.988027462820216
 10
6.873640941900325
 20
3.987618395617202
 10
6.878116585383482
 20
3.987381397257734
 10
6.882673309566491
 20
3.987321502113191
 10
6.887214001172328
 20
3.987439988616263
 10
6.891641970505506
 20
3.987734354168104
 10
6.895862707678783
 20
3.988198289177225
 10
6.899786385049889
 20
3.988821940187057
 10
6.903329291143855
 20
3.989591992491321
 10
6.906415936569453
 20
3.990492039493762
 10
6.908980532827561
 20
3.991502897801337
 10
6.910968466096177
 20
3.99260303480109
 10
6.912337306923046
 20
3.99376898720706
 10
6.913057907583779
 20
3.994975911713652
 10
6.913172180612083
 20
3.995691298474032
  0
LWPOLYLINE
  5
43D
330
1F
100
AcDbEntity
  8
0
  6
Continuous
 62
     7
370
    15
100
AcDbPolyline
 90
       16
 70
   128
 43
0.0
 10
6.85059018720211
 20
4.596015800799232
 10
6.850362237465331
 20
4.600198129263034
 10
6.849683241779872
 20
4.60416923985434
 10
6.848567719237247
 20
4.607844396882898
 10
6.847039398181304
 20
4.611145288415153
 10
6.845130842860153
 20
4.614001621891415
 10
6.842882789696274
 20
4.616352472382398
 10
6.840343110208543
 20
4.618147756907173
 10
6.837565898383634
 20
4.619349176878761
 10
6.834610433598045
 20
4.619931127208332
 10
6.831539645742711
 20
4.619881302479882
 10
6.828418995178804
 20
4.619200622963504
 10
6.825314979345462
 20
4.617903682339711
 10
6.82229376381687
 20
4.616018098337632
 10
6.819419771876238
 20
4.613584021823539
 10
6.817940608315852
 20
4.612048153604022
  0
LWPOLYLINE
  5
43E
330
1F
100
AcDbEntity
  8
0
  6
Continuous
 62
     7
370
    15
100
AcDbPolyline
 90
       21
 70
   128
 43
0.0
 10
6.808621633135016
 20
4.57682087348691
 10
6.809221603479516
 20
4.574521519344639
 10
6.810547072085442
 20
4.57102413014207
 10
6.812270073417035
 20
4.567937272824024
 10
6.814353936397445
 20
4.565326691881532
 10
6.816754232606635
 20
4.563248140535216
 10
6.819419771876238
 20
4.561745782260787
 10
6.82229376381687
 20
4.560851654154435
 10
6.825314979345462
 20
4.560584904212717
 10
6.828418995178804
 20
4.560951163882767
 10
6.831539645742711
 20
4.561942597916556
 10
6.834610433598045
 20
4.563538112675494
 10
6.837565898383634
 20
4.565703722885364
 10
6.840343110208543
 20
4.568393234339485
 10
6.842882789696274
 20
4.571549335270184
 10
6.845130842860153
 20
4.575104742336739
 10
6.847039398181304
 20
4.578983665418896
 10
6.848567719237247
 20
4.583103521675901
 10
6.849683241779872
 20
4.587376400340009
 10
6.850362237465331
 20
4.59171127530655
 10
6.85059018720211
 20
4.596015800799232
  0
LWPOLYLINE
  5
43F
330
1F
100
AcDbEntity
  8
0
  6
Continuous
 62
     7
370
    15
100
AcDbPolyline
 90
       23
 70
   128
 43
0.0
 10
6.842460698964385
 20
4.034163807390514
 10
6.842347221893419
 20
4.033508332966315
 10
6.84162661863999
 20
4.032301409154335
 10
6.840257779433556
 20
4.031135456314232
 10
6.838269887648057
 20
4.030035330428265
 10
6.835705245693701
 20
4.029024462135648
 10
6.832618600916278
 20
4.028124414959554
 10
6.829075693688008
 20
4.027354362959182
 10
6.825152054397109
 20
4.026730723974814
 10
6.820931281898362
 20
4.026266776202205
 10
6.816503353076043
 20
4.025972422024629
 10
6.811962621283434
 20
4.025853924060466
 10
6.8074058977486
 20
4.025913819031355
 10
6.802930294452214
 20
4.026150828851916
 10
6.798631181083967
 20
4.026559896749541
 10
6.794600183482097
 20
4.027132301180715
 10
6.790923223556029
 20
4.027855847543811
 10
6.787678683658386
 20
4.028715115460836
 10
6.78493573688945
 20
4.029691794969449
 10
6.782752781109455
 20
4.030765061613239
 10
6.781176370748259
 20
4.031912040442293
 10
6.780240096761161
 20
4.033108283905981
 10
6.779961506507336
 20
4.034223727367423
  0
LWPOLYLINE
  5
440
330
1F
100
AcDbEntity
  8
0
  6
Continuous
 62
     7
370
    15
100
AcDbPolyline
 90
        3
 70
   128
 43
0.0
 10
6.840817687456255
 20
4.036850332188662
 10
6.839598280813844
 20
4.037987486430942
 10
6.838318899952699
 20
4.038784089265932
  0
LWPOLYLINE
  5
441
330
1F
100
AcDbEntity
  8
0
  6
Continuous
 62
     7
370
    15
100
AcDbPolyline
 90
        7
 70
   128
 43
0.0
 10
6.78241160320042
 20
4.037666286903424
 10
6.782355238013005
 20
4.037618772690073
 10
6.781341235032406
 20
4.036467226094998
 10
6.780963863102384
 20
4.035288397933881
 10
6.781231201060286
 20
4.034107419255184
 10
6.782137472381846
 20
4.03294944333494
 10
6.782457462788048
 20
4.032670112217513
  0
ARC
  5
442
330
1F
100
AcDbEntity
  8
0
  6
Continuous
 62
     7
370
    15
100
AcDbCircle
 10
6.838640139846656
 20
4.035156046066938
 30
0.0
 40
0.0027590431410796
100
AcDbArc
 50
305.5405514751509
 51
37.88544150741609
  0
LWPOLYLINE
  5
443
330
1F
100
AcDbEntity
  8
0
  6
Continuous
 62
     7
370
    15
100
AcDbPolyline
 90
       23
 70
   128
 43
0.0
 10
6.779961506507336
 20
4.024107560006767
 10
6.780240096761161
 20
4.022992116545324
 10
6.781176370748259
 20
4.021795873081636
 10
6.782752781109455
 20
4.020648894252582
 10
6.78493573688945
 20
4.019575627608793
 10
6.787678683658386
 20
4.01859894810018
 10
6.790923223556029
 20
4.017739680183156
 10
6.794600183482097
 20
4.017016133820059
 10
6.798631181083967
 20
4.016443729388885
 10
6.802930294452214
 20
4.016034661491259
 10
6.8074058977486
 20
4.0157976516707
 10
6.811962621283434
 20
4.01573775669981
 10
6.816503353076043
 20
4.015856254663974
 10
6.820931281898362
 20
4.01615060884155
 10
6.825152054397109
 20
4.016614556614158
 10
6.829075693688008
 20
4.017238195598526
 10
6.832618600916278
 20
4.018008247598899
 10
6.835705245693701
 20
4.018908294774992
 10
6.838269887648057
 20
4.019919163067609
 10
6.840257779433556
 20
4.021019288953576
 10
6.84162661863999
 20
4.022185241793678
 10
6.842347221893419
 20
4.023392165605659
 10
6.842461528626757
 20
4.024107565563659
  0
LWPOLYLINE
  5
444
330
1F
100
AcDbEntity
  8
0
  6
Continuous
 62
     7
370
    15
100
AcDbPolyline
 90
       23
 70
   128
 43
0.0
 10
7.028005513621588
 20
4.027040794955895
 10
7.02789202747619
 20
4.026385322962835
 10
7.027171427463629
 20
4.025178398282591
 10
7.0258025856645
 20
4.024012446137099
 10
7.023814695175349
 20
4.022912319903827
 10
7.021250098593155
 20
4.021901461683079
 10
7.018163411036265
 20
4.021001403740505
 10
7.014620505104343
 20
4.020231351392826
 10
7.010696869702485
 20
4.019607711366542
 10
7.006476090722002
 20
4.019143765330461
 10
7.002048163196031
 20
4.01884941080558
 10
6.9975074294589
 20
4.018730913362374
 10
6.992950705275893
 20
4.018790808506917
 10
6.988475102951766
 20
4.019027818066997
 10
6.984175992581323
 20
4.019436885161479
 10
6.980144995060475
 20
4.020009289570946
 10
6.976468038213233
 20
4.020732835109192
 10
6.973223498315589
 20
4.021592103026216
 10
6.97048054571309
 20
4.022568784097704
 10
6.968297593822136
 20
4.023642049699577
 10
6.966721182164594
 20
4.024789028875936
 10
6.965784944475225
 20
4.025985284842635
 10
6.965506320516365
 20
4.027100715106455
  0
LWPOLYLINE
  5
445
330
1F
100
AcDbEntity
  8
0
  6
Continuous
 62
     7
370
    15
100
AcDbPolyline
 90
        3
 70
   128
 43
0.0
 10
7.026362494335374
 20
4.029727321837878
 10
7.025143093850614
 20
4.030864474430456
 10
7.023863712229888
 20
4.031661077468942
  0
LWPOLYLINE
  5
446
330
1F
100
AcDbEntity
  8
0
  6
Continuous
 62
     7
370
    15
100
AcDbPolyline
 90
        7
 70
   128
 43
0.0
 10
6.967956450914483
 20
4.030543287840076
 10
6.96790004424395
 20
4.030495762512941
 10
6.966886041263351
 20
4.029344215917865
 10
6.966508713409142
 20
4.028165398175922
 10
6.966776008587578
 20
4.026984408730745
 10
6.9676823252813
 20
4.025826442882371
 10
6.968002313094806
 20
4.025547112459554
  0
ARC
  5
447
330
1F
100
AcDbEntity
  8
0
  6
Continuous
 62
     7
370
    15
100
AcDbCircle
 10
7.024184868997624
 20
4.028033032490109
 30
0.0
 40
0.0027591064686913
100
AcDbArc
 50
305.5428363538183
 51
37.88450318158258
  0
LWPOLYLINE
  5
448
330
1F
100
AcDbEntity
  8
0
  6
Continuous
 62
     7
370
    15
100
AcDbPolyline
 90
       23
 70
   128
 43
0.0
 10
6.965506320516365
 20
4.016984547745799
 10
6.965784944475225
 20
4.015869117481979
 10
6.966721182164594
 20
4.01467286151528
 10
6.968297593822136
 20
4.013525882338922
 10
6.97048054571309
 20
4.012452616737048
 10
6.973223498315589
 20
4.01147593566556
 10
6.976468038213233
 20
4.010616667748536
 10
6.980144995060475
 20
4.00989312221029
 10
6.984175992581323
 20
4.009320717800822
 10
6.988475102951766
 20
4.008911650706342
 10
6.992950705275893
 20
4.008674641146261
 10
6.9975074294589
 20
4.008614746001718
 10
7.002048163196031
 20
4.008733243444924
 10
7.006476090722002
 20
4.009027597969805
 10
7.010696869702485
 20
4.009491544005885
 10
7.014620505104343
 20
4.010115184032171
 10
7.018163411036265
 20
4.010885236379849
 10
7.021250098593155
 20
4.011785294322423
 10
7.023814695175349
 20
4.01279615254317
 10
7.0258025856645
 20
4.013896278776443
 10
7.027171427463629
 20
4.015062230921935
 10
7.02789202747619
 20
4.016269155602179
 10
7.028006341987612
 20
4.016984553476345
  0
ARC
  5
449
330
1F
100
AcDbEntity
  8
0
  6
Continuous
 62
     7
370
    15
100
AcDbCircle
 10
6.523120868811965
 20
4.178214085128206
 30
0.0
 40
0.0410112488838635
100
AcDbArc
 50
347.43827785477
 51
16.50899411898997
  0
ARC
  5
44A
330
1F
100
AcDbEntity
  8
0
  6
Continuous
 62
     7
370
    15
100
AcDbCircle
 10
6.522955603987252
 20
4.17927696434246
 30
0.0
 40
0.0408815678655232
100
AcDbArc
 50
15.01478417980667
 51
42.63309074991398
  0
LWPOLYLINE
  5
44B
330
1F
100
AcDbEntity
  8
0
  6
Continuous
 62
     7
370
    15
100
AcDbPolyline
 90
       44
 70
   128
 43
0.0
 10
6.561081140984576
 20
4.189484571890416
 10
6.559677601149422
 20
4.193661403817938
 10
6.557882875505745
 20
4.197624088630172
 10
6.555735190747349
 20
4.201288200669245
 10
6.553280323495624
 20
4.204575628470987
 10
6.550570604704698
 20
4.207416282790856
 10
6.547663778875683
 20
4.209749645703285
 10
6.544621780304667
 20
4.21152600280036
 10
6.54150948858916
 20
4.212707454861896
 10
6.538393214494267
 20
4.213268860461685
 10
6.535339372492887
 20
4.213198219869325
 10
6.532413049598124
 20
4.212497058475842
 10
6.529676615678812
 20
4.211180290413148
 10
6.527188416741281
 20
4.209276031685234
 10
6.525001447469558
 20
4.206824825381834
 10
6.523162334888966
 20
4.203878953102814
 10
6.521710280546592
 20
4.200501164021903
 10
6.520676210107365
 20
4.196763461424266
 10
6.520082213331944
 20
4.192745500579996
 10
6.519940901088389
 20
4.188532952323806
 10
6.520255301644358
 20
4.18421558085208
 10
6.521018715476193
 20
4.179885360894379
 10
6.522214881201403
 20
4.175634652835007
 10
6.523818286702035
 20
4.171553999808063
 10
6.525794770629914
 20
4.167730412209746
 10
6.52810220687809
 20
4.164245347376215
 10
6.530691417209444
 20
4.161173108567307
 10
6.533507208334663
 20
4.158579182348212
 10
6.536489554181114
 20
4.156518819679768
 10
6.53957492335264
 20
4.155035973760131
 10
6.542697544364679
 20
4.154162198015745
 10
6.545790857553421
 20
4.153916172336773
 10
6.548788946243385
 20
4.154303121826671
 10
6.55162788494879
 20
4.155314766471705
 10
6.554247191282699
 20
4.15692958215425
 10
6.556591049709015
 20
4.159113122791914
 10
6.558609473069813
 20
4.161818896100395
 10
6.560259443371088
 20
4.164989188391863
 10
6.561505824411379
 20
4.168556459191526
 10
6.56232204625321
 20
4.172444655676594
 10
6.562690685986765
 20
4.176570894027949
 10
6.562603903302625
 20
4.180847292722809
 10
6.562063544199572
 20
4.185182640391509
 10
6.561081140984576
 20
4.189484571890416
  0
ARC
  5
44C
330
1F
100
AcDbEntity
  8
0
  6
Continuous
 62
     7
370
    15
100
AcDbCircle
 10
6.530724805155631
 20
4.181455060847106
 30
0.0
 40
0.0404998917762981
100
AcDbArc
 50
14.88287968941875
 51
42.79468441463985
  0
ARC
  5
44D
330
1F
100
AcDbEntity
  8
0
  6
Continuous
 62
     7
370
    15
100
AcDbCircle
 10
6.530185944384277
 20
4.180191203681604
 30
0.0
 40
0.0413594725576575
100
AcDbArc
 50
347.549081615223
 51
16.3834207562372
  0
ARC
  5
44E
330
1F
100
AcDbEntity
  8
0
  6
Continuous
 62
     7
370
    15
100
AcDbCircle
 10
6.448025658948973
 20
3.957471859533823
 30
0.0
 40
0.0410117125449405
100
AcDbArc
 50
347.4384371449328
 51
16.50883279713741
  0
ARC
  5
44F
330
1F
100
AcDbEntity
  8
0
  6
Continuous
 62
     7
370
    15
100
AcDbCircle
 10
6.447860405385546
 20
3.958534514740712
 30
0.0
 40
0.0408820815363816
100
AcDbArc
 50
15.01494666022384
 51
42.63290826900074
  0
LWPOLYLINE
  5
450
330
1F
100
AcDbEntity
  8
0
  6
Continuous
 62
     7
370
    15
100
AcDbPolyline
 90
       44
 70
   128
 43
0.0
 10
6.485986408481478
 20
3.968742381470839
 10
6.484582868646322
 20
3.97291920633319
 10
6.482788143002646
 20
3.976881898210596
 10
6.480640458244251
 20
3.980545996119324
 10
6.478185590992525
 20
3.983833416855895
 10
6.47547585146004
 20
3.986674083797829
 10
6.472569025631025
 20
3.98900745377543
 10
6.469527047801568
 20
3.990783798250439
 10
6.466414735344502
 20
3.991965262934041
 10
6.463298481991169
 20
3.992526648846593
 10
6.460244619248229
 20
3.992456013811125
 10
6.457318317095025
 20
3.991754839795578
 10
6.454581883175713
 20
3.990438092928399
 10
6.452093684238182
 20
3.988533827135313
 10
6.4499066942249
 20
3.986082633453979
 10
6.448067581644307
 20
3.983136747044614
 10
6.446615548043493
 20
3.979758952406811
 10
6.445581456862707
 20
3.976021262431239
 10
6.444987460087286
 20
3.972003315717312
 10
6.444846168585289
 20
3.967790751306472
 10
6.445160569141259
 20
3.963473362171816
 10
6.445923982973094
 20
3.959143163409631
 10
6.447120148698303
 20
3.954892444752501
 10
6.448723554198936
 20
3.950811798790729
 10
6.450700017385257
 20
3.946988209684133
 10
6.45300747437499
 20
3.943503146358881
 10
6.455596684706345
 20
3.940430907549973
 10
6.458412475831564
 20
3.937836970733119
 10
6.461394821678014
 20
3.935776618662434
 10
6.464480170107981
 20
3.934293767701931
 10
6.46760281186158
 20
3.933420004063582
 10
6.470696125050321
 20
3.933173971319438
 10
6.473694192998727
 20
3.933560908703299
 10
6.47653315244569
 20
3.934572561921784
 10
6.479152458779599
 20
3.936187377604329
 10
6.481496296464356
 20
3.938370934396644
 10
6.483514719825155
 20
3.941076697107368
 10
6.485164710867989
 20
3.944246990907114
 10
6.486411091908279
 20
3.947814247576433
 10
6.487227293008551
 20
3.951702446085809
 10
6.487595953483666
 20
3.955828703608372
 10
6.487509170799526
 20
3.960105088172888
 10
6.486968811696473
 20
3.96444044290676
 10
6.485986408481478
 20
3.968742381470839
  0
ARC
  5
451
330
1F
100
AcDbEntity
  8
0
  6
Continuous
 62
     7
370
    15
100
AcDbCircle
 10
6.455629509762164
 20
3.960712557709268
 30
0.0
 40
0.0405005124740875
100
AcDbArc
 50
14.88308339968264
 51
42.79446071411752
  0
ARC
  5
452
330
1F
100
AcDbEntity
  8
0
  6
Continuous
 62
     7
370
    15
100
AcDbCircle
 10
6.45509076361142
 20
3.959448980681295
 30
0.0
 40
0.0413599078300367
100
AcDbArc
 50
347.5492309029864
 51
16.38327011970839
  0
ARC
  5
453
330
1F
100
AcDbEntity
  8
0
  6
Continuous
 62
     7
370
    15
100
AcDbCircle
 10
4.530627503614312
 20
4.65314510683364
 30
0.0
 40
0.0136494943928348
100
AcDbArc
 50
272.2943872010336
 51
326.3269027259951
  0
LWPOLYLINE
  5
454
330
1F
100
AcDbEntity
  8
0
  6
Continuous
 62
     7
370
    15
100
AcDbPolyline
 90
        7
 70
   128
 43
0.0
 10
4.540191629527037
 20
4.644943133283313
 10
4.540595011372431
 20
4.645481084978065
 10
4.540997605038572
 20
4.646659335222314
 10
4.540755758457057
 20
4.647840708440412
 10
4.539874491085241
 20
4.649000054134773
 10
4.538372470326498
 20
4.650112677473031
 10
4.537110180510221
 20
4.650784250216168
  0
ARC
  5
455
330
1F
100
AcDbEntity
  8
0
  6
Continuous
 62
     7
370
    15
100
AcDbCircle
 10
4.530683002888774
 20
4.642863025016519
 30
0.0
 40
0.01348157946128
100
AcDbArc
 50
272.0869366719028
 51
327.0322597492233
  0
ARC
  5
456
330
1F
100
AcDbEntity
  8
0
  6
Continuous
 62
     7
370
    15
100
AcDbCircle
 10
1.879819420758557
 20
5.219838082681538
 30
0.0
 40
0.0429144571642949
100
AcDbArc
 50
137.8331356978983
 51
180.3817598328935
  0
ARC
  5
457
330
1F
100
AcDbEntity
  8
0
  6
Continuous
 62
     7
370
    15
100
AcDbCircle
 10
1.87286238569445
 20
5.21929503716506
 30
0.0
 40
0.0359573887404426
100
AcDbArc
 50
179.5903082105517
 51
194.1842333574367
  0
LWPOLYLINE
  5
458
330
1F
100
AcDbEntity
  8
0
  6
Continuous
 62
     7
370
    15
100
AcDbPolyline
 90
       36
 70
   128
 43
0.0
 10
1.838320158666656
 20
5.219552102771563
 10
1.838548149886553
 20
5.215369757160861
 10
1.839227145572012
 20
5.211398688960585
 10
1.840342626631518
 20
5.207723506687897
 10
1.841870947687462
 20
5.204422586894955
 10
1.843779503008613
 20
5.201566267549036
 10
1.846027556172493
 20
5.199215417058055
 10
1.848567235660223
 20
5.197420146663622
 10
1.851344447485132
 20
5.196218726692036
 10
1.85429995375384
 20
5.195636759215562
 10
1.857370700126054
 20
5.195686615221257
 10
1.86049139217308
 20
5.196367291721077
 10
1.863595408006422
 20
5.197664246475214
 10
1.866616540568777
 20
5.19954980824972
 10
1.869490573992528
 20
5.201983853486568
 10
1.87215611326213
 20
5.204914466620017
 10
1.874556409471321
 20
5.208279206252099
 10
1.87664027245173
 20
5.212006324649615
 10
1.878363315266443
 20
5.216016429410021
 10
1.879688742389251
 20
5.220224008745318
 10
1.88058842826573
 20
5.224539416081724
 10
1.88104308324573
 20
5.228870652547088
 10
1.88104308324573
 20
5.233125426191276
 10
1.88058842826573
 20
5.237213062599128
 10
1.879688742389251
 20
5.241046398356501
 10
1.878363315266443
 20
5.244543784542511
 10
1.87664027245173
 20
5.247630630746772
 10
1.874556409471321
 20
5.250241183428576
 10
1.87215611326213
 20
5.252319777165923
 10
1.869490573992528
 20
5.253822135440351
 10
1.866616540568777
 20
5.254716210041886
 10
1.863595408006422
 20
5.25498299634152
 10
1.86049139217308
 20
5.254616750801815
 10
1.857370700126054
 20
5.253625291523896
 10
1.85429995375384
 20
5.2520297737484
 10
1.851778277939587
 20
5.250223959261858
  0
LWPOLYLINE
  5
459
330
1F
100
AcDbEntity
  8
0
  6
Continuous
 62
     7
370
    15
100
AcDbPolyline
 90
        3
 70
   128
 43
0.0
 10
1.838735238751499
 20
5.225376826983939
 10
1.838548149886553
 20
5.223856611117344
 10
1.838320158666656
 20
5.219552102771563
  0
ARC
  5
45A
330
1F
100
AcDbEntity
  8
0
  6
Continuous
 62
     7
370
    15
100
AcDbCircle
 10
1.865312528403777
 20
5.22127401224847
 30
0.0
 40
0.0358324239100566
100
AcDbArc
 50
179.5725456002912
 51
194.7674119934085
  0
ARC
  5
45B
330
1F
100
AcDbEntity
  8
0
  6
Continuous
 62
     7
370
    15
100
AcDbCircle
 10
1.871784741703696
 20
5.221962877542719
 30
0.0
 40
0.0423057402154883
100
AcDbArc
 50
134.2009065758563
 51
180.5709127981342
  0
ARC
  5
45C
330
1F
100
AcDbEntity
  8
0
  6
Continuous
 62
     7
370
    15
100
AcDbCircle
 10
6.52312079090322
 20
3.792836620650325
 30
0.0
 40
0.0410113260845865
100
AcDbArc
 50
347.4382942736461
 51
16.50897499119398
  0
ARC
  5
45D
330
1F
100
AcDbEntity
  8
0
  6
Continuous
 62
     7
370
    15
100
AcDbCircle
 10
6.522955376943859
 20
3.793899395175392
 30
0.0
 40
0.0408818165617306
100
AcDbArc
 50
15.01485538336819
 51
42.63299954585062
  0
LWPOLYLINE
  5
45E
330
1F
100
AcDbEntity
  8
0
  6
Continuous
 62
     7
370
    15
100
AcDbPolyline
 90
       44
 70
   128
 43
0.0
 10
6.561081140984576
 20
3.804107123288595
 10
6.559677601149422
 20
3.808283948150945
 10
6.557882875505745
 20
3.812246640028352
 10
6.555735190747349
 20
3.81591073793708
 10
6.553280323495624
 20
3.819198158673651
 10
6.550570604704698
 20
3.822038820058692
 10
6.547663778875683
 20
3.824372190036292
 10
6.544621780304667
 20
3.826148540068194
 10
6.54150948858916
 20
3.827329999194904
 10
6.538393214494267
 20
3.827891390664348
 10
6.535339372492887
 20
3.827820750071989
 10
6.532413049598124
 20
3.827119581613334
 10
6.529676615678812
 20
3.825802834746155
 10
6.527188416741281
 20
3.823898568953069
 10
6.525001447469558
 20
3.821447369714842
 10
6.523162334888966
 20
3.818501483305477
 10
6.521710280546592
 20
3.815123694224567
 10
6.520676210107365
 20
3.811386005757274
 10
6.520082213331944
 20
3.807368051978174
 10
6.519940901088389
 20
3.803155496656813
 10
6.520255301644358
 20
3.798838103989572
 10
6.521018715476193
 20
3.794507905227387
 10
6.522214881201403
 20
3.790257190102843
 10
6.523818286702035
 20
3.78617654414107
 10
6.525794770629914
 20
3.782352949477582
 10
6.52810220687809
 20
3.778867891709222
 10
6.530691417209444
 20
3.775795652900314
 10
6.533507208334663
 20
3.773201712550875
 10
6.536489554181114
 20
3.771141364012775
 10
6.53957492335264
 20
3.769658503962795
 10
6.542697544364679
 20
3.768784749413924
 10
6.545790857553421
 20
3.76853871666978
 10
6.548788946243385
 20
3.768925644964163
 10
6.55162788494879
 20
3.76993730373954
 10
6.554247191282699
 20
3.771552119422085
 10
6.556591049709015
 20
3.773735674190092
 10
6.558609473069813
 20
3.77644143336823
 10
6.560259443371088
 20
3.779611732724869
 10
6.561505824411379
 20
3.783178989394189
 10
6.56232204625321
 20
3.787067185879258
 10
6.562690685986765
 20
3.791193445426127
 10
6.562603903302625
 20
3.795469829990644
 10
6.562063544199572
 20
3.799805191789688
 10
6.561081140984576
 20
3.804107123288595
  0
ARC
  5
45F
330
1F
100
AcDbEntity
  8
0
  6
Continuous
 62
     7
370
    15
100
AcDbCircle
 10
6.530724676636817
 20
3.796077534412974
 30
0.0
 40
0.0405000341598062
100
AcDbArc
 50
14.88292974723588
 51
42.79463435682098
  0
ARC
  5
460
330
1F
100
AcDbEntity
  8
0
  6
Continuous
 62
     7
370
    15
100
AcDbCircle
 10
6.530185868196842
 20
3.794813739277362
 30
0.0
 40
0.0413595481160145
100
AcDbArc
 50
347.5490970752797
 51
16.38340259864751
  0
ARC
  5
461
330
1F
100
AcDbEntity
  8
0
  6
Continuous
 62
     7
370
    15
100
AcDbCircle
 10
6.531889141676131
 20
3.90218920799074
 30
0.0
 40
0.0410111033875583
100
AcDbArc
 50
347.4382136063375
 51
16.50905565850743
  0
ARC
  5
462
330
1F
100
AcDbEntity
  8
0
  6
Continuous
 62
     7
370
    15
100
AcDbCircle
 10
6.531723211410771
 20
3.90325184448471
 30
0.0
 40
0.0408821268731576
100
AcDbArc
 50
15.01492752218994
 51
42.63283643856278
  0
LWPOLYLINE
  5
463
330
1F
100
AcDbEntity
  8
0
  6
Continuous
 62
     7
370
    15
100
AcDbPolyline
 90
       44
 70
   128
 43
0.0
 10
6.569849261833351
 20
3.913459702705814
 10
6.568445742739754
 20
3.917636525543857
 10
6.566650996354518
 20
3.921599222978156
 10
6.564503311596123
 20
3.925263320886884
 10
6.562048444344397
 20
3.928550738090869
 10
6.559338725553471
 20
3.931391403008497
 10
6.556431899724456
 20
3.933724772986097
 10
6.553389921895
 20
3.935501113928521
 10
6.550277609437934
 20
3.936682578612122
 10
6.547161335343042
 20
3.937243970081567
 10
6.544107493341661
 20
3.937173329489207
 10
6.541181170446898
 20
3.936472164563138
 10
6.538444736527586
 20
3.935155417695959
 10
6.535956537590053
 20
3.933251148370288
 10
6.533769568318331
 20
3.930799952664646
 10
6.53193045573774
 20
3.927854066255282
 10
6.530478401395367
 20
3.924476277174371
 10
6.529444351697697
 20
3.920738576085014
 10
6.528850334180718
 20
3.916720631395394
 10
6.528709021937162
 20
3.912508074307739
 10
6.529023422493131
 20
3.908190686939376
 10
6.529786836324968
 20
3.903860488177192
 10
6.530983002050176
 20
3.899609766870622
 10
6.532586407550808
 20
3.895529123558289
 10
6.534562891478688
 20
3.891705527128507
 10
6.536870327726862
 20
3.888220470684868
 10
6.539459538058218
 20
3.885148232262336
 10
6.542275329183437
 20
3.882554293623993
 10
6.545257675029887
 20
3.880493943209208
 10
6.548343044201414
 20
3.87901108558788
 10
6.551465665213454
 20
3.878137328168783
 10
6.554558978402194
 20
3.877891295645425
 10
6.557557067092158
 20
3.878278228134754
 10
6.560396005797563
 20
3.879289886330566
 10
6.563015332873031
 20
3.880904696152637
 10
6.56535917055779
 20
3.883088254490458
 10
6.567377593918586
 20
3.885794014551742
 10
6.569027584961422
 20
3.888964307468342
 10
6.57027396600171
 20
3.892531566787101
 10
6.571090167101982
 20
3.896419765296476
 10
6.571458806835538
 20
3.90054602660964
 10
6.5713720241514
 20
3.904822409407863
 10
6.570831685789904
 20
3.909157765650014
 10
6.569849261833351
 20
3.913459702705814
  0
ARC
  5
464
330
1F
100
AcDbEntity
  8
0
  6
Continuous
 62
     7
370
    15
100
AcDbCircle
 10
6.539492748808183
 20
3.905430092706609
 30
0.0
 40
0.0405000866296997
100
AcDbArc
 50
14.8829409409693
 51
42.79461316795167
  0
ARC
  5
465
330
1F
100
AcDbEntity
  8
0
  6
Continuous
 62
     7
370
    15
100
AcDbCircle
 10
6.538954005946603
 20
3.90416632080522
 30
0.0
 40
0.0413595313059444
100
AcDbArc
 50
347.5490939508545
 51
16.38340639746575
  0
LINE
  5
466
330
1F
100
AcDbEntity
  8
0
  6
Continuous
 62
     7
370
    15
100
AcDbLine
 10
4.486237233549708
 20
5.035199031068464
 30
0.0
 11
4.486244534578585
 21
5.035974199498968
 31
0.0
  0
ARC
  5
467
330
1F
100
AcDbEntity
  8
0
  6
Continuous
 62
     7
370
    15
100
AcDbCircle
 10
4.522202586097122
 20
5.034942993970396
 30
0.0
 40
0.0359662638990401
100
AcDbArc
 50
179.5921186290784
 51
194.1824229389168
  0
LWPOLYLINE
  5
468
330
1F
100
AcDbEntity
  8
0
  6
Continuous
 62
     7
370
    15
100
AcDbPolyline
 90
       33
 70
   128
 43
0.0
 10
4.487731579931508
 20
5.037742180849528
 10
4.487651393063229
 20
5.035199053296036
 10
4.487879301316889
 20
5.031016657197073
 10
4.488558297002348
 20
5.027045603127142
 10
4.489673819544973
 20
5.023370446098584
 10
4.491202140600916
 20
5.020069498044954
 10
4.493110695922067
 20
5.017213221090067
 10
4.495358749085947
 20
5.014862370599084
 10
4.497898470056796
 20
5.013067097188096
 10
4.500675640398585
 20
5.011865666102721
 10
4.503631105184175
 20
5.011283659251776
 10
4.506701893039508
 20
5.0113335405016
 10
4.509822543603415
 20
5.012014220017979
 10
4.512926559436758
 20
5.013311160641771
 10
4.515947774965349
 20
5.01519674464385
 10
4.518821766905982
 20
5.017630821157943
 10
4.521487306175584
 20
5.020561377770018
 10
4.523887602384775
 20
5.023926117402099
 10
4.525971465365184
 20
5.027653278190644
 10
4.527694466696779
 20
5.031663357706921
 10
4.529019935302704
 20
5.035870962286348
 10
4.529919579696066
 20
5.040186330248283
 10
4.530374276159184
 20
5.044517577827432
 10
4.530374276159184
 20
5.048772393862651
 10
4.529919579696066
 20
5.052860005026373
 10
4.529019935302704
 20
5.056693323636844
 10
4.527694466696779
 20
5.060190712839411
 10
4.525971465365184
 20
5.063277570157459
 10
4.523887602384775
 20
5.065888094578577
 10
4.521487306175584
 20
5.067966702446266
 10
4.518821766905982
 20
5.069469060720695
 10
4.515947774965349
 20
5.070363188827046
 10
4.515269111144839
 20
5.070479687104034
  0
LINE
  5
469
330
1F
100
AcDbEntity
  8
0
  6
Continuous
 62
     7
370
    15
100
AcDbLine
 10
4.479845597600042
 20
5.028367025436949
 30
0.0
 11
4.479995227208879
 21
5.027787299469259
 31
0.0
  0
ARC
  5
46A
330
1F
100
AcDbEntity
  8
0
  6
Continuous
 62
     7
370
    15
100
AcDbCircle
 10
4.452177783537726
 20
5.185162737418381
 30
0.0
 40
0.0407226288395344
100
AcDbArc
 50
137.3040979041128
 51
164.4818153103828
  0
LWPOLYLINE
  5
46B
330
1F
100
AcDbEntity
  8
0
  6
Continuous
 62
     7
370
    15
100
AcDbPolyline
 90
       17
 70
   128
 43
0.0
 10
4.454096196214528
 20
5.185031538219695
 10
4.454824847192966
 20
5.188670260094349
 10
4.455279543656085
 20
5.193001507673498
 10
4.455279543656085
 20
5.197256323708717
 10
4.454824847192966
 20
5.201343934872439
 10
4.453925202799604
 20
5.20517725348291
 10
4.45259973419368
 20
5.208674642685479
 10
4.450876691378966
 20
5.211761488889739
 10
4.448792828398556
 20
5.214372013310857
 10
4.446392573672485
 20
5.216450632292334
 10
4.443727034402883
 20
5.217952990566761
 10
4.440853000979131
 20
5.218847107559327
 10
4.437831826933658
 20
5.219113868614831
 10
4.434727811100316
 20
5.218747608944783
 10
4.431607160536409
 20
5.217756174910992
 10
4.428536372681076
 20
5.21616060363068
 10
4.426014696866824
 20
5.214354817404825
  0
ARC
  5
46C
330
1F
100
AcDbEntity
  8
0
  6
Continuous
 62
     7
370
    15
100
AcDbCircle
 10
4.443994663777364
 20
5.187474768334902
 30
0.0
 40
0.0399055677850138
100
AcDbArc
 50
133.4971432838669
 51
164.6371534663493
  0
ARC
  5
46D
330
1F
100
AcDbEntity
  8
0
  6
Continuous
 62
     7
370
    15
100
AcDbCircle
 10
4.470191153508954
 20
4.342839085671817
 30
0.0
 40
0.0410121858490809
100
AcDbArc
 50
347.4383424994649
 51
16.50835514075477
  0
ARC
  5
46E
330
1F
100
AcDbEntity
  8
0
  6
Continuous
 62
     7
370
    15
100
AcDbCircle
 10
4.470026861791231
 20
4.34390174619253
 30
0.0
 40
0.0408816332085915
100
AcDbArc
 50
15.01482697731194
 51
42.63311892023445
  0
LWPOLYLINE
  5
46F
330
1F
100
AcDbEntity
  8
0
  6
Continuous
 62
     7
370
    15
100
AcDbPolyline
 90
       44
 70
   128
 43
0.0
 10
4.508152350281815
 20
4.354109435012716
 10
4.506748893412897
 20
4.358286237647495
 10
4.50495416776922
 20
4.3622489295249
 10
4.502806503752384
 20
4.365913021876736
 10
4.500351532792861
 20
4.369200470397772
 10
4.497641855485055
 20
4.372041120669027
 10
4.494735050397599
 20
4.374374485089735
 10
4.491693010343463
 20
4.376150846235423
 10
4.488580780852636
 20
4.377332288691453
 10
4.485464568982421
 20
4.377893663490219
 10
4.482410581790125
 20
4.377823061796109
 10
4.479484362603159
 20
4.37712186555299
 10
4.476747970166965
 20
4.375805107572025
 10
4.474259646780078
 20
4.373900875120297
 10
4.472072656766796
 20
4.371449681438963
 10
4.470233627152441
 20
4.368503772802026
 10
4.468781552068508
 20
4.365125989278008
 10
4.467747460887721
 20
4.361388306367609
 10
4.467153422629182
 20
4.357370363702297
 10
4.467012214093423
 20
4.353157780596469
 10
4.46732665613251
 20
4.348840376815441
 10
4.46808994551499
 20
4.344510211394615
 10
4.469286152723317
 20
4.340259485156285
 10
4.470889558223951
 20
4.336178839194513
 10
4.472865979927152
 20
4.332355261201702
 10
4.475173436916887
 20
4.32887019787645
 10
4.477762647248241
 20
4.325797959067543
 10
4.480578521339698
 20
4.323203996490532
 10
4.483560825703029
 20
4.321143659066217
 10
4.486646174132996
 20
4.319660804573129
 10
4.489768857369714
 20
4.31878703335358
 10
4.492862170558455
 20
4.318541000609436
 10
4.49586023850686
 20
4.318927934460711
 10
4.498699177212264
 20
4.319939593236089
 10
4.501318421321495
 20
4.321554425589313
 10
4.503662383455608
 20
4.323737952572856
 10
4.505680786074847
 20
4.326443717307887
 10
4.507330652668326
 20
4.329614044448991
 10
4.508577137416413
 20
4.333181273333845
 10
4.509393359258243
 20
4.337069469818914
 10
4.509761895284002
 20
4.341195757150249
 10
4.509675112599864
 20
4.345472141714766
 10
4.509134836463047
 20
4.349807481286237
 10
4.508152350281815
 20
4.354109435012716
  0
ARC
  5
470
330
1F
100
AcDbEntity
  8
0
  6
Continuous
 62
     7
370
    15
100
AcDbCircle
 10
4.477797763232225
 20
4.346080659533041
 30
0.0
 40
0.0404981040174056
100
AcDbArc
 50
14.88242407282094
 51
42.79559431157905
  0
ARC
  5
471
330
1F
100
AcDbEntity
  8
0
  6
Continuous
 62
     7
370
    15
100
AcDbCircle
 10
4.477256469330769
 20
4.344816214305414
 30
0.0
 40
0.0413601771848218
100
AcDbArc
 50
347.5490578142563
 51
16.38287047845264
  0
ARC
  5
472
330
1F
100
AcDbEntity
  8
0
  6
Continuous
 62
     7
370
    15
100
AcDbCircle
 10
4.390712826808054
 20
4.508648563038928
 30
0.0
 40
0.0410117908820668
100
AcDbArc
 50
347.4386234377971
 51
16.50898947827765
  0
ARC
  5
473
330
1F
100
AcDbEntity
  8
0
  6
Continuous
 62
     7
370
    15
100
AcDbCircle
 10
4.390548215554487
 20
4.50971165021514
 30
0.0
 40
0.0408814246321257
100
AcDbArc
 50
15.01475512658313
 51
42.63319077096211
  0
LWPOLYLINE
  5
474
330
1F
100
AcDbEntity
  8
0
  6
Continuous
 62
     7
370
    15
100
AcDbPolyline
 90
       44
 70
   128
 43
0.0
 10
4.428673681803684
 20
4.519919198093345
 10
4.427270059002292
 20
4.524096045183268
 10
4.425475333358615
 20
4.528058737060675
 10
4.423327669341779
 20
4.53172282941251
 10
4.420872864314731
 20
4.535010233478401
 10
4.41816302107445
 20
4.537850928204801
 10
4.415256215986994
 20
4.540184292625508
 10
4.412214341865333
 20
4.541960609316053
 10
4.409101946442032
 20
4.543142096227226
 10
4.405985734571816
 20
4.543703471025993
 10
4.402931913311995
 20
4.543632824876739
 10
4.400005528192554
 20
4.542931673088764
 10
4.39726913575636
 20
4.541614915107799
 10
4.394780812369472
 20
4.539710682656071
 10
4.392593988288666
 20
4.537259444519593
 10
4.390754792741835
 20
4.5343135803378
 10
4.389302717657904
 20
4.530935796813782
 10
4.388268626477117
 20
4.527198106838211
 10
4.387674754151052
 20
4.523180126782926
 10
4.387533379682819
 20
4.518967584599658
 10
4.387847821721905
 20
4.514650184351215
 10
4.388611277036861
 20
4.510319974475245
 10
4.389807318312714
 20
4.506069289159473
 10
4.391410723813346
 20
4.5019886431977
 10
4.393387311449022
 20
4.498165020749747
 10
4.395694602506282
 20
4.494680001879638
 10
4.398283812837637
 20
4.49160776307073
 10
4.401099686929093
 20
4.489013804026305
 10
4.404081991292424
 20
4.486953463069405
 10
4.407167339722391
 20
4.485470612108904
 10
4.41029002295911
 20
4.484596837356768
 10
4.41338333614785
 20
4.484350804612624
 10
4.416381404096255
 20
4.484737741996485
 10
4.41922034280166
 20
4.485749400771863
 10
4.421839752843365
 20
4.487364188669943
 10
4.424183549045004
 20
4.489547756576044
 10
4.426201951664243
 20
4.49225352484366
 10
4.427851984190197
 20
4.49542380752962
 10
4.429098303005808
 20
4.498991080869619
 10
4.42991452484764
 20
4.502879273822102
 10
4.430283226805872
 20
4.507005520230879
 10
4.430196444121733
 20
4.511281904795396
 10
4.429656002052443
 20
4.515617281756839
 10
4.428673681803684
 20
4.519919198093345
  0
ARC
  5
475
330
1F
100
AcDbEntity
  8
0
  6
Continuous
 62
     7
370
    15
100
AcDbCircle
 10
4.398315797824552
 20
4.511888964009937
 30
0.0
 40
0.040501514215527
100
AcDbArc
 50
14.88333179734085
 51
42.79393974663196
  0
ARC
  5
476
330
1F
100
AcDbEntity
  8
0
  6
Continuous
 62
     7
370
    15
100
AcDbCircle
 10
4.397776713280749
 20
4.510625641348975
 30
0.0
 40
0.0413611667310959
100
AcDbArc
 50
347.5498371841928
 51
16.3830066665234
  0
ARC
  5
477
330
1F
100
AcDbEntity
  8
0
  6
Continuous
 62
     7
370
    15
100
AcDbCircle
 10
4.373034688619934
 20
4.392954461261099
 30
0.0
 40
0.041012199711856
100
AcDbArc
 50
347.4383475207097
 51
16.50835011951538
  0
ARC
  5
478
330
1F
100
AcDbEntity
  8
0
  6
Continuous
 62
     7
370
    15
100
AcDbCircle
 10
4.372870485414749
 20
4.394017163107134
 30
0.0
 40
0.0408815509636155
100
AcDbArc
 50
15.01479864553355
 51
42.63314725201626
  0
LWPOLYLINE
  5
479
330
1F
100
AcDbEntity
  8
0
  6
Continuous
 62
     7
370
    15
100
AcDbPolyline
 90
       44
 70
   128
 43
0.0
 10
4.410995899705429
 20
4.404224814627728
 10
4.409592442836513
 20
4.408401620795092
 10
4.407797717192836
 20
4.412364309139912
 10
4.405650053176
 20
4.416028401491748
 10
4.403195082216477
 20
4.419315846480198
 10
4.40048540490867
 20
4.422156500284039
 10
4.397578599821214
 20
4.424489864704745
 10
4.394536559767079
 20
4.426266225850434
 10
4.391424330276251
 20
4.427447664773878
 10
4.388307952473562
 20
4.428009084027788
 10
4.385254131213741
 20
4.427938437878535
 10
4.382327912026774
 20
4.427237245168001
 10
4.379591353658106
 20
4.42592053164218
 10
4.377103196203694
 20
4.424016251202722
 10
4.374916206190412
 20
4.421565061053974
 10
4.373077176576056
 20
4.418619152417037
 10
4.371625101492124
 20
4.41524136889302
 10
4.370591010311337
 20
4.411503682450034
 10
4.369996972052797
 20
4.407485743317307
 10
4.369855763517039
 20
4.403273156678896
 10
4.370170039623651
 20
4.398955804418183
 10
4.370933494938607
 20
4.394625594542212
 10
4.372129702146934
 20
4.39037486123871
 10
4.373733107647566
 20
4.386294215276937
 10
4.375709529350769
 20
4.382470637284128
 10
4.378016986340503
 20
4.378985573958876
 10
4.380606196671856
 20
4.375913335149967
 10
4.383422070763312
 20
4.373319372572957
 10
4.386404375126645
 20
4.371259035148643
 10
4.389489723556612
 20
4.369776180655555
 10
4.39261240679333
 20
4.368902409436006
 10
4.395705719982071
 20
4.368656376691862
 10
4.398703787930475
 20
4.369043317608308
 10
4.401542726635881
 20
4.370054976383686
 10
4.404161970745111
 20
4.37166980873691
 10
4.406505766946749
 20
4.373853373110424
 10
4.408524335498462
 20
4.376559093390312
 10
4.410174202091942
 20
4.379729420531416
 10
4.411420686840028
 20
4.383296656481443
 10
4.412236908681859
 20
4.38718484590134
 10
4.412605444707618
 20
4.391311133232674
 10
4.412518662023479
 20
4.395587517797191
 10
4.411978385886662
 20
4.399922857368663
 10
4.410995899705429
 20
4.404224814627728
  0
ARC
  5
47A
330
1F
100
AcDbEntity
  8
0
  6
Continuous
 62
     7
370
    15
100
AcDbCircle
 10
4.380641286181085
 20
4.396196026717153
 30
0.0
 40
0.0404981318894729
100
AcDbArc
 50
14.8824266196132
 51
42.7955817696236
  0
ARC
  5
47B
330
1F
100
AcDbEntity
  8
0
  6
Continuous
 62
     7
370
    15
100
AcDbCircle
 10
4.380100049487972
 20
4.394931594503691
 30
0.0
 40
0.0413601465381741
100
AcDbArc
 50
347.5490526245201
 51
16.38287701675456
  0
LWPOLYLINE
  5
47C
330
1F
100
AcDbEntity
  8
0
  6
Continuous
 62
     7
370
    15
100
AcDbPolyline
 90
        7
 70
   128
 43
0.0
 10
4.54843453261105
 20
4.668844004678701
 10
4.545452560112668
 20
4.669769071765397
 10
4.543005263530089
 20
4.670800575580063
 10
4.541144496761581
 20
4.671916577509248
 10
4.539910125084129
 20
4.673093260709679
 10
4.539328407311819
 20
4.674305563594055
 10
4.539281531387785
 20
4.674750715176188
  0
LWPOLYLINE
  5
47D
330
1F
100
AcDbEntity
  8
0
  6
Continuous
 62
     7
370
    15
100
AcDbPolyline
 90
       17
 70
   128
 43
0.0
 10
4.601765727697456
 20
4.674497231946416
 10
4.60136031317925
 20
4.673393977529706
 10
4.600287227866967
 20
4.672206002722758
 10
4.598579782704852
 20
4.671072574377215
 10
4.596274773219116
 20
4.670017776067215
 10
4.593420942074129
 20
4.669064179892005
 10
4.590079310937371
 20
4.668232046283359
 10
4.5863211063235
 20
4.667539123957427
 10
4.582226183235846
 20
4.667000227590868
 10
4.577882236987158
 20
4.666626759928062
 10
4.573381567516351
 20
4.666426734008672
 10
4.568820083793656
 20
4.6664044175265
 10
4.564295063732221
 20
4.666560266146769
 10
4.559902997065943
 20
4.666890967961269
 10
4.555737428227292
 20
4.667389487943498
 10
4.551887255539455
 20
4.668045145745166
 10
4.54843453261105
 20
4.668844004678701
  0
LWPOLYLINE
  5
47E
330
1F
100
AcDbEntity
  8
0
  6
Continuous
 62
     7
370
    15
100
AcDbPolyline
 90
        7
 70
   128
 43
0.0
 10
4.599970379807
 20
4.673863315924592
 10
4.600373761652393
 20
4.674401267619344
 10
4.600776562734127
 20
4.675579484522235
 10
4.600534716152613
 20
4.676760857740333
 10
4.599653241365204
 20
4.677920236776051
 10
4.59815122060646
 20
4.679032860114309
 10
4.596888930790183
 20
4.679704432857447
  0
LWPOLYLINE
  5
47F
330
1F
100
AcDbEntity
  8
0
  6
Continuous
 62
     7
370
    15
100
AcDbPolyline
 90
        9
 70
   128
 43
0.0
 10
4.543978789357701
 20
4.679610032359653
 10
4.542479672417261
 20
4.678760383424362
 10
4.541130351018133
 20
4.677633812284745
 10
4.540407590642537
 20
4.676466609143724
 10
4.540326947459953
 20
4.675283657768021
 10
4.540889956345771
 20
4.674110175337943
 10
4.542084919060538
 20
4.672971123416713
 10
4.543885991621364
 20
4.671890874536904
 10
4.544885444398108
 20
4.671429752444371
  0
LWPOLYLINE
  5
480
330
1F
100
AcDbEntity
  8
0
  6
Continuous
 62
     7
370
    15
100
AcDbPolyline
 90
       17
 70
   128
 43
0.0
 10
4.54843453261105
 20
4.658727837318045
 10
4.551887255539455
 20
4.657928978384511
 10
4.555737428227292
 20
4.657273320582842
 10
4.559902997065943
 20
4.656774800600613
 10
4.564295063732221
 20
4.656444098786113
 10
4.568820083793656
 20
4.656288250165844
 10
4.573381567516351
 20
4.656310566648016
 10
4.577882236987158
 20
4.656510592567406
 10
4.582226183235846
 20
4.656884060230212
 10
4.5863211063235
 20
4.65742295659677
 10
4.590079310937371
 20
4.658115878922703
 10
4.593420942074129
 20
4.658948012531348
 10
4.596274773219116
 20
4.659901608706559
 10
4.598579782704852
 20
4.66095640701656
 10
4.600287227866967
 20
4.662089835362102
 10
4.60136031317925
 20
4.66327781016905
 10
4.60177248944579
 20
4.664446980450184
  0
LWPOLYLINE
  5
481
330
1F
100
AcDbEntity
  8
0
  6
Continuous
 62
     7
370
    15
100
AcDbPolyline
 90
        7
 70
   128
 43
0.0
 10
4.539281572870904
 20
4.664647895472449
 10
4.539328407311819
 20
4.664189396233398
 10
4.539910125084129
 20
4.662977093349023
 10
4.541144496761581
 20
4.661800410148592
 10
4.543005263530089
 20
4.660684408219407
 10
4.545452560112668
 20
4.659652904404741
 10
4.54843453261105
 20
4.658727837318045
  0
LWPOLYLINE
  5
482
330
1F
100
AcDbEntity
  8
0
  6
Continuous
 62
     7
370
    15
100
AcDbPolyline
 90
        7
 70
   128
 43
0.0
 10
4.57940582896758
 20
4.620309034545083
 10
4.576423856469197
 20
4.62123410163178
 10
4.573976559886617
 20
4.622265605446445
 10
4.572115793118109
 20
4.623381607375631
 10
4.570881421440658
 20
4.624558290576061
 10
4.570299703668347
 20
4.625770593460437
 10
4.570252786261195
 20
4.626215733928785
  0
LWPOLYLINE
  5
483
330
1F
100
AcDbEntity
  8
0
  6
Continuous
 62
     7
370
    15
100
AcDbPolyline
 90
       17
 70
   128
 43
0.0
 10
4.632737024053985
 20
4.625962261812799
 10
4.632331609535778
 20
4.624859007396089
 10
4.631258358291021
 20
4.623671077044285
 10
4.629551079061381
 20
4.622537604243598
 10
4.627245903643171
 20
4.621482850388741
 10
4.624392238430658
 20
4.620529209758387
 10
4.621050607293899
 20
4.619697076149742
 10
4.617292236747553
 20
4.619004198278952
 10
4.613197479592375
 20
4.618465257457251
 10
4.608853533343688
 20
4.618091789794444
 10
4.604352822389761
 20
4.617891752761269
 10
4.599791380150184
 20
4.617869447392883
 10
4.59526636008875
 20
4.618025296013152
 10
4.590874293422472
 20
4.618355997827652
 10
4.58670872458382
 20
4.618854517809881
 10
4.582858551895983
 20
4.619510175611549
 10
4.57940582896758
 20
4.620309034545083
  0
LWPOLYLINE
  5
484
330
1F
100
AcDbEntity
  8
0
  6
Continuous
 62
     7
370
    15
100
AcDbPolyline
 90
        7
 70
   128
 43
0.0
 10
4.630941676163528
 20
4.625328345790975
 10
4.631345058008923
 20
4.625866297485727
 10
4.631747817607537
 20
4.627044503274832
 10
4.631505971026022
 20
4.62822587649293
 10
4.630624537721732
 20
4.629385266642434
 10
4.629122516962989
 20
4.630497889980692
 10
4.627860227146711
 20
4.63116946272383
  0
LWPOLYLINE
  5
485
330
1F
100
AcDbEntity
  8
0
  6
Continuous
 62
     7
370
    15
100
AcDbPolyline
 90
        9
 70
   128
 43
0.0
 10
4.574950044231111
 20
4.63107505111225
 10
4.57345096877379
 20
4.630225413290744
 10
4.572101605891543
 20
4.629098831037342
 10
4.571378886999066
 20
4.627931639010106
 10
4.571298243816483
 20
4.626748687634404
 10
4.571861252702299
 20
4.625575205204325
 10
4.573056215417068
 20
4.624436153283096
 10
4.574857287977891
 20
4.623355904403287
 10
4.575856699271518
 20
4.622894771196968
  0
LWPOLYLINE
  5
486
330
1F
100
AcDbEntity
  8
0
  6
Continuous
 62
     7
370
    15
100
AcDbPolyline
 90
       17
 70
   128
 43
0.0
 10
4.57940582896758
 20
4.610192867184427
 10
4.582858551895983
 20
4.609394008250893
 10
4.58670872458382
 20
4.608738350449224
 10
4.590874293422472
 20
4.608239830466996
 10
4.59526636008875
 20
4.607909128652496
 10
4.599791380150184
 20
4.607753280032226
 10
4.604352822389761
 20
4.607775585400612
 10
4.608853533343688
 20
4.607975622433789
 10
4.613197479592375
 20
4.608349090096595
 10
4.617292236747553
 20
4.608888030918296
 10
4.621050607293899
 20
4.609580908789085
 10
4.624392238430658
 20
4.610413042397731
 10
4.627245903643171
 20
4.611366683028085
 10
4.629551079061381
 20
4.612421436882942
 10
4.631258358291021
 20
4.613554909683629
 10
4.632331609535778
 20
4.614742840035433
 10
4.632743785802318
 20
4.615912010316566
  0
LWPOLYLINE
  5
487
330
1F
100
AcDbEntity
  8
0
  6
Continuous
 62
     7
370
    15
100
AcDbPolyline
 90
        7
 70
   128
 43
0.0
 10
4.570252869227433
 20
4.616112925338832
 10
4.570299703668347
 20
4.615654426099781
 10
4.570881421440658
 20
4.614442123215405
 10
4.572115793118109
 20
4.613265440014975
 10
4.573976559886617
 20
4.61214943808579
 10
4.576423856469197
 20
4.611117934271124
 10
4.57940582896758
 20
4.610192867184427
  0
ARC
  5
488
330
1F
100
AcDbEntity
  8
0
  6
Continuous
 62
     7
370
    15
100
AcDbCircle
 10
1.954914875982094
 20
5.456731251114095
 30
0.0
 40
0.0429152189510961
100
AcDbArc
 50
137.8333676096936
 51
180.3812718716655
  0
ARC
  5
489
330
1F
100
AcDbEntity
  8
0
  6
Continuous
 62
     7
370
    15
100
AcDbCircle
 10
1.947967830400051
 20
5.456190035243032
 30
0.0
 40
0.0359681316787078
100
AcDbArc
 50
179.5927710792657
 51
194.1823038818898
  0
LWPOLYLINE
  5
48A
330
1F
100
AcDbEntity
  8
0
  6
Continuous
 62
     7
370
    15
100
AcDbPolyline
 90
       36
 70
   128
 43
0.0
 10
1.913414932652874
 20
5.456445653836619
 10
1.913642882389653
 20
5.452263297112129
 10
1.914321836591994
 20
5.448292203667725
 10
1.915437400617737
 20
5.444617057752954
 10
1.91696572167368
 20
5.441316137960011
 10
1.918874235511712
 20
5.438459793369962
 10
1.921122330158711
 20
5.436108953992767
 10
1.923662009646441
 20
5.434313697728677
 10
1.926439179988231
 20
5.433112266643305
 10
1.929394686256939
 20
5.432530270906145
 10
1.932465474112272
 20
5.432580152155969
 10
1.935586124676179
 20
5.433260831672347
 10
1.938690140509521
 20
5.434557772296139
 10
1.941711314554994
 20
5.436443345184432
 10
1.944585306495628
 20
5.438877393437839
 10
1.94725084576523
 20
5.441808006571288
 10
1.94965114197442
 20
5.445172746203369
 10
1.95173500495483
 20
5.448899850470541
 10
1.953458047769543
 20
5.452909969361289
 10
1.954783516375469
 20
5.45711754568003
 10
1.95568316076883
 20
5.461432941902651
 10
1.95613781574883
 20
5.465764178368015
 10
1.95613781574883
 20
5.470018966142546
 10
1.95568316076883
 20
5.474106588420054
 10
1.954783516375469
 20
5.477939935291212
 10
1.953458047769543
 20
5.48143732449378
 10
1.95173500495483
 20
5.484524170698042
 10
1.94965114197442
 20
5.487134723379846
 10
1.94725084576523
 20
5.489213302986849
 10
1.944585306495628
 20
5.490715661261277
 10
1.941711314554994
 20
5.491609761106942
 10
1.938690140509521
 20
5.491876522162447
 10
1.935586124676179
 20
5.491510262492398
 10
1.932465474112272
 20
5.490518828458608
 10
1.929394686256939
 20
5.488923313699669
 10
1.926872968959568
 20
5.487117488099342
  0
LWPOLYLINE
  5
48B
330
1F
100
AcDbEntity
  8
0
  6
Continuous
 62
     7
370
    15
100
AcDbPolyline
 90
        3
 70
   128
 43
0.0
 10
1.913830012737716
 20
5.462270349788308
 10
1.913642882389653
 20
5.460750151068615
 10
1.913414932652874
 20
5.456445653836619
  0
ARC
  5
48C
330
1F
100
AcDbEntity
  8
0
  6
Continuous
 62
     7
370
    15
100
AcDbCircle
 10
1.940409332245954
 20
5.458168106818522
 30
0.0
 40
0.0358345324575718
100
AcDbArc
 50
179.5734753267567
 51
194.7674687185228
  0
ARC
  5
48D
330
1F
100
AcDbEntity
  8
0
  6
Continuous
 62
     7
370
    15
100
AcDbCircle
 10
1.946880442020323
 20
5.458855985959312
 30
0.0
 40
0.0423067452750856
100
AcDbArc
 50
134.2014895409951
 51
180.5703298329941
  0
ARC
  5
48E
330
1F
100
AcDbEntity
  8
0
  6
Continuous
 62
     7
370
    15
100
AcDbCircle
 10
1.954914787712914
 20
5.842108740474888
 30
0.0
 40
0.0429151309080973
100
AcDbArc
 50
137.8333218420544
 51
180.3813176393014
  0
ARC
  5
48F
330
1F
100
AcDbEntity
  8
0
  6
Continuous
 62
     7
370
    15
100
AcDbCircle
 10
1.947968035395532
 20
5.841567515671965
 30
0.0
 40
0.0359683364930279
100
AcDbArc
 50
179.5928128437273
 51
194.1822621174337
  0
LWPOLYLINE
  5
490
330
1F
100
AcDbEntity
  8
0
  6
Continuous
 62
     7
370
    15
100
AcDbPolyline
 90
       36
 70
   128
 43
0.0
 10
1.913414932652874
 20
5.841823109503612
 10
1.913642882389653
 20
5.837640724518435
 10
1.914321836591994
 20
5.833669659334718
 10
1.915437400617737
 20
5.829994513419946
 10
1.91696572167368
 20
5.826693565366316
 10
1.918874235511712
 20
5.823837277297641
 10
1.921122330158711
 20
5.821486437920446
 10
1.923662009646441
 20
5.819691153395671
 10
1.926439179988231
 20
5.818489722310298
 10
1.929394686256939
 20
5.817907726573138
 10
1.932465474112272
 20
5.817957607822962
 10
1.935586124676179
 20
5.818638287339339
 10
1.938690140509521
 20
5.819935227963132
 10
1.941711314554994
 20
5.821820800851425
 10
1.944585306495628
 20
5.824254877365518
 10
1.94725084576523
 20
5.827185433977593
 10
1.94965114197442
 20
5.830550173609675
 10
1.95173500495483
 20
5.834277334398221
 10
1.953458047769543
 20
5.838287425028283
 10
1.954783516375469
 20
5.84249502960771
 10
1.95568316076883
 20
5.846810397569644
 10
1.95613781574883
 20
5.851141634035007
 10
1.95613781574883
 20
5.855396450070227
 10
1.95568316076883
 20
5.859484072347734
 10
1.954783516375469
 20
5.863317390958206
 10
1.953458047769543
 20
5.866814780160773
 10
1.95173500495483
 20
5.869901626365034
 10
1.94965114197442
 20
5.872512150786151
 10
1.94725084576523
 20
5.874590758653842
 10
1.944585306495628
 20
5.87609311692827
 10
1.941711314554994
 20
5.876987245034622
 10
1.938690140509521
 20
5.877254006090126
 10
1.935586124676179
 20
5.876887746420077
 10
1.932465474112272
 20
5.875896312386288
 10
1.929394686256939
 20
5.874300741105974
 10
1.926872968959568
 20
5.872494943766335
  0
LWPOLYLINE
  5
491
330
1F
100
AcDbEntity
  8
0
  6
Continuous
 62
     7
370
    15
100
AcDbPolyline
 90
        3
 70
   128
 43
0.0
 10
1.913830012737716
 20
5.847647833715988
 10
1.913642882389653
 20
5.84612757847492
 10
1.913414932652874
 20
5.841823109503612
  0
ARC
  5
492
330
1F
100
AcDbEntity
  8
0
  6
Continuous
 62
     7
370
    15
100
AcDbCircle
 10
1.940409522497143
 20
5.843545586420222
 30
0.0
 40
0.035834722525324
100
AcDbArc
 50
179.5735158591133
 51
194.7674281861625
  0
ARC
  5
493
330
1F
100
AcDbEntity
  8
0
  6
Continuous
 62
     7
370
    15
100
AcDbCircle
 10
1.946880367121268
 20
5.844233472825385
 30
0.0
 40
0.0423066706903076
100
AcDbArc
 50
134.2014462805954
 51
180.5703730933953
  0
ARC
  5
494
330
1F
100
AcDbEntity
  8
0
  6
Continuous
 62
     7
370
    15
100
AcDbCircle
 10
1.954914717107743
 20
5.071353836687769
 30
0.0
 40
0.0429150604671293
100
AcDbArc
 50
137.8332852577526
 51
180.3813508917583
  0
ARC
  5
495
330
1F
100
AcDbEntity
  8
0
  6
Continuous
 62
     7
370
    15
100
AcDbCircle
 10
1.947968564954539
 20
5.070812656671447
 30
0.0
 40
0.0359688655467846
100
AcDbArc
 50
179.5929291040045
 51
194.1821539952701
  0
LWPOLYLINE
  5
496
330
1F
100
AcDbEntity
  8
0
  6
Continuous
 62
     7
370
    15
100
AcDbPolyline
 90
       36
 70
   128
 43
0.0
 10
1.913414932652874
 20
5.07106818127945
 10
1.913642882389653
 20
5.066885826210861
 10
1.914321836591994
 20
5.062914741818707
 10
1.915437400617737
 20
5.059239584423032
 10
1.91696572167368
 20
5.055938664630089
 10
1.918874235511712
 20
5.053082335936676
 10
1.921122330158711
 20
5.050731494793188
 10
1.923662009646441
 20
5.048936224398755
 10
1.926439179988231
 20
5.047734795079676
 10
1.929394686256939
 20
5.047152824070617
 10
1.932465474112272
 20
5.047202698255269
 10
1.935586124676179
 20
5.047883361875012
 10
1.938690140509521
 20
5.049180311330268
 10
1.941711314554994
 20
5.051065893050027
 10
1.944585306495628
 20
5.053499928939381
 10
1.94725084576523
 20
5.05643054207283
 10
1.94965114197442
 20
5.059795272873446
 10
1.95173500495483
 20
5.063522401868719
 10
1.953458047769543
 20
5.067532496914514
 10
1.954783516375469
 20
5.071740083831011
 10
1.95568316076883
 20
5.076055484469366
 10
1.95613781574883
 20
5.080386725902428
 10
1.95613781574883
 20
5.084641501644089
 10
1.95568316076883
 20
5.088729128778902
 10
1.954783516375469
 20
5.092562479624219
 10
1.953458047769543
 20
5.096059851163858
 10
1.95173500495483
 20
5.099146702666998
 10
1.94965114197442
 20
5.101757251816217
 10
1.94725084576523
 20
5.103835850852443
 10
1.944585306495628
 20
5.105338207360579
 10
1.941711314554994
 20
5.106232296608484
 10
1.938690140509521
 20
5.106499066495453
 10
1.935586124676179
 20
5.106132813890576
 10
1.932465474112272
 20
5.105141365726443
 10
1.929394686256939
 20
5.103545843902333
 10
1.926872968959568
 20
5.101740016535713
  0
LWPOLYLINE
  5
497
330
1F
100
AcDbEntity
  8
0
  6
Continuous
 62
     7
370
    15
100
AcDbPolyline
 90
        3
 70
   128
 43
0.0
 10
1.913830012737716
 20
5.076892901628061
 10
1.913642882389653
 20
5.075372676855545
 10
1.913414932652874
 20
5.07106818127945
  0
ARC
  5
498
330
1F
100
AcDbEntity
  8
0
  6
Continuous
 62
     7
370
    15
100
AcDbCircle
 10
1.940409009872353
 20
5.072790618696561
 30
0.0
 40
0.035834210208775
100
AcDbArc
 50
179.5734466036118
 51
194.7675362715067
  0
ARC
  5
499
330
1F
100
AcDbEntity
  8
0
  6
Continuous
 62
     7
370
    15
100
AcDbCircle
 10
1.94688037062059
 20
5.073478547607725
 30
0.0
 40
0.0423066742193848
100
AcDbArc
 50
134.2014482432175
 51
180.5703771177104
  0
LWPOLYLINE
  5
49A
330
1F
100
AcDbEntity
  8
0
  6
Continuous
 62
     7
370
    15
100
AcDbPolyline
 90
       21
 70
   128
 43
0.0
 10
2.054072614079752
 20
5.83393436607749
 10
2.054300605299649
 20
5.829629829471022
 10
2.054979600985107
 20
5.825294954504482
 10
2.056095330943325
 20
5.821022020271445
 10
2.057623569033031
 20
5.816902186242011
 10
2.059532124354182
 20
5.813023206638479
 10
2.061780177518062
 20
5.809467799571923
 10
2.064319939972029
 20
5.806311732935028
 10
2.067096985864464
 20
5.803622265936049
 10
2.070052575099409
 20
5.801456622384823
 10
2.073123321471624
 20
5.799861118739669
 10
2.076243847586175
 20
5.798869718047239
 10
2.07934778045328
 20
5.798503480604762
 10
2.082369078948108
 20
5.798770208318908
 10
2.085243029405623
 20
5.799664291017671
 10
2.087908568675225
 20
5.801166649292099
 10
2.090308947850653
 20
5.803245234932218
 10
2.092392727864825
 20
5.805855781580907
 10
2.094115770679538
 20
5.808942684306542
 10
2.095441239285463
 20
5.812440016987737
 10
2.095787042562222
 20
5.813673985650758
  0
LWPOLYLINE
  5
49B
330
1F
100
AcDbEntity
  8
0
  6
Continuous
 62
     7
370
    15
100
AcDbPolyline
 90
       15
 70
   128
 43
0.0
 10
2.084839813492703
 20
5.851885815673959
 10
2.082369078948108
 20
5.85393659598073
 10
2.07934778045328
 20
5.85582220221038
 10
2.076243847586175
 20
5.857119177127976
 10
2.073123321471624
 20
5.857799766781622
 10
2.070052575099409
 20
5.857849636917659
 10
2.067096985864464
 20
5.857267719929446
 10
2.064319939972029
 20
5.856066255502716
 10
2.061780177518062
 20
5.854270993205511
 10
2.059532124354182
 20
5.85192014271453
 10
2.057623569033031
 20
5.849063809238268
 10
2.056095330943325
 20
5.845762895478441
 10
2.054979600985107
 20
5.842087737497437
 10
2.054300605299649
 20
5.838116683427506
 10
2.054072614079752
 20
5.83393436607749
  0
ARC
  5
49C
330
1F
100
AcDbEntity
  8
0
  6
Continuous
 62
     7
370
    15
100
AcDbCircle
 10
1.963682908561699
 20
5.732756150459909
 30
0.0
 40
0.0429151309081081
100
AcDbArc
 50
137.8333218420627
 51
180.3813176392978
  0
ARC
  5
49D
330
1F
100
AcDbEntity
  8
0
  6
Continuous
 62
     7
370
    15
100
AcDbCircle
 10
1.9567361562444
 20
5.732214925657002
 30
0.0
 40
0.0359683364931219
100
AcDbArc
 50
179.5928128437482
 51
194.1822621174163
  0
LWPOLYLINE
  5
49E
330
1F
100
AcDbEntity
  8
0
  6
Continuous
 62
     7
370
    15
100
AcDbPolyline
 90
       36
 70
   128
 43
0.0
 10
1.922183053501647
 20
5.732470519488635
 10
1.922411003238427
 20
5.728288191024834
 10
1.923089998923885
 20
5.724317080433527
 10
1.92420552146651
 20
5.720641923404969
 10
1.925733842522453
 20
5.717341031872714
 10
1.927642356360485
 20
5.714484687282666
 10
1.929890451007485
 20
5.71213384790547
 10
1.932430130495214
 20
5.710338563380695
 10
1.935207300837005
 20
5.709137132295322
 10
1.938162807105713
 20
5.70855513655816
 10
1.941233594961046
 20
5.708605017807985
 10
1.944354245524952
 20
5.709285697324363
 10
1.947458261358295
 20
5.710582637948157
 10
1.950479435403767
 20
5.712468210836449
 10
1.9533534273444
 20
5.714902287350542
 10
1.956019008097122
 20
5.717832911597777
 10
1.958419262823193
 20
5.721197640116072
 10
1.960503125803603
 20
5.724924744383243
 10
1.962226168618316
 20
5.728934835013307
 10
1.963551637224241
 20
5.733142439592733
 10
1.964451281617603
 20
5.737457807554668
 10
1.964905936597603
 20
5.74178904402003
 10
1.964905936597603
 20
5.74604386005525
 10
1.964451281617603
 20
5.750131482332758
 10
1.963551637224241
 20
5.753964800943228
 10
1.962226168618316
 20
5.757462190145797
 10
1.960503125803603
 20
5.760549036350058
 10
1.958419262823193
 20
5.76315961729255
 10
1.956019008097122
 20
5.765238179752651
 10
1.9533534273444
 20
5.766740526913294
 10
1.950479435403767
 20
5.767634655019645
 10
1.947458261358295
 20
5.76790141607515
 10
1.944354245524952
 20
5.7675351564051
 10
1.941233594961046
 20
5.766543722371311
 10
1.938162807105713
 20
5.764948207612373
 10
1.935641089808341
 20
5.763142353751358
  0
LWPOLYLINE
  5
49F
330
1F
100
AcDbEntity
  8
0
  6
Continuous
 62
     7
370
    15
100
AcDbPolyline
 90
        3
 70
   128
 43
0.0
 10
1.92259813358649
 20
5.738295243701011
 10
1.922411003238427
 20
5.736775044981318
 10
1.922183053501647
 20
5.732470519488635
  0
ARC
  5
4A0
330
1F
100
AcDbEntity
  8
0
  6
Continuous
 62
     7
370
    15
100
AcDbCircle
 10
1.949177643345881
 20
5.734192996405242
 30
0.0
 40
0.0358347225252885
100
AcDbArc
 50
179.5735158591072
 51
194.7674281861701
  0
ARC
  5
4A1
330
1F
100
AcDbEntity
  8
0
  6
Continuous
 62
     7
370
    15
100
AcDbCircle
 10
1.955648487970041
 20
5.73488088281041
 30
0.0
 40
0.0423066706903066
100
AcDbArc
 50
134.2014462805956
 51
180.5703730933977
  0
ARC
  5
4A2
330
1F
100
AcDbEntity
  8
0
  6
Continuous
 62
     7
370
    15
100
AcDbCircle
 10
1.879819427840638
 20
5.677473803283882
 30
0.0
 40
0.042914464228208
100
AcDbArc
 50
137.8331393700757
 51
180.3817561607121
  0
ARC
  5
4A3
330
1F
100
AcDbEntity
  8
0
  6
Continuous
 62
     7
370
    15
100
AcDbCircle
 10
1.872861882304888
 20
5.676930699667375
 30
0.0
 40
0.035956885798576
100
AcDbArc
 50
179.5902055898823
 51
194.1843359781038
  0
LWPOLYLINE
  5
4A4
330
1F
100
AcDbEntity
  8
0
  6
Continuous
 62
     7
370
    15
100
AcDbPolyline
 90
       36
 70
   128
 43
0.0
 10
1.838320158666656
 20
5.677187826077237
 10
1.838548149886553
 20
5.673005508727222
 10
1.839227145572012
 20
5.669034398135917
 10
1.840342626631518
 20
5.665359229993573
 10
1.841870947687462
 20
5.662058338461317
 10
1.843779503008613
 20
5.659202004985054
 10
1.846027556172493
 20
5.656851154494073
 10
1.848567235660223
 20
5.655055869969296
 10
1.851344447485132
 20
5.65385444999771
 10
1.85429995375384
 20
5.653272510781924
 10
1.857370700126054
 20
5.653322324396587
 10
1.86049139217308
 20
5.654003015026753
 10
1.863595408006422
 20
5.655299955650545
 10
1.866616540568777
 20
5.657185573946426
 10
1.869490573992528
 20
5.65961960505293
 10
1.87215611326213
 20
5.662550218186381
 10
1.874556409471321
 20
5.665914957818461
 10
1.87664027245173
 20
5.669642062085633
 10
1.878363315266443
 20
5.673652152715694
 10
1.879688742389251
 20
5.677859746181336
 10
1.88058842826573
 20
5.682175125257056
 10
1.88104308324573
 20
5.686506418243794
 10
1.88104308324573
 20
5.690761177757639
 10
1.88058842826573
 20
5.694848800035146
 10
1.879688742389251
 20
5.698682107531832
 10
1.878363315266443
 20
5.702179507848185
 10
1.87664027245173
 20
5.705266354052447
 10
1.874556409471321
 20
5.707876934994939
 10
1.87215611326213
 20
5.709955542862628
 10
1.869490573992528
 20
5.711457844615682
 10
1.866616540568777
 20
5.712351961608248
 10
1.863595408006422
 20
5.712618733777538
 10
1.86049139217308
 20
5.712252474107489
 10
1.857370700126054
 20
5.711261028959914
 10
1.85429995375384
 20
5.709665525314762
 10
1.851778277939587
 20
5.707859682567534
  0
LWPOLYLINE
  5
4A5
330
1F
100
AcDbEntity
  8
0
  6
Continuous
 62
     7
370
    15
100
AcDbPolyline
 90
        3
 70
   128
 43
0.0
 10
1.838735238751499
 20
5.683012550289615
 10
1.838548149886553
 20
5.681492362683706
 10
1.838320158666656
 20
5.677187826077237
  0
ARC
  5
4A6
330
1F
100
AcDbEntity
  8
0
  6
Continuous
 62
     7
370
    15
100
AcDbCircle
 10
1.865311127609063
 20
5.678909586794826
 30
0.0
 40
0.0358310242644863
100
AcDbArc
 50
179.5722910216272
 51
194.7677092320602
  0
ARC
  5
4A7
330
1F
100
AcDbEntity
  8
0
  6
Continuous
 62
     7
370
    15
100
AcDbCircle
 10
1.871784733592913
 20
5.679598604226928
 30
0.0
 40
0.042305732138771
100
AcDbArc
 50
134.2009018909934
 51
180.5709174829969
  0
LWPOLYLINE
  5
4A8
330
1F
100
AcDbEntity
  8
0
  6
Continuous
 62
     7
370
    15
100
AcDbPolyline
 90
       21
 70
   128
 43
0.0
 10
2.151229064656136
 20
5.446613698623517
 10
2.151457055876033
 20
5.442309190277736
 10
2.152136051561492
 20
5.437974287050508
 10
2.153251781519709
 20
5.433701352817471
 10
2.154780019609416
 20
5.429581547048725
 10
2.156688574930566
 20
5.425702567445193
 10
2.158936628094447
 20
5.422147160378638
 10
2.161476390548414
 20
5.418991065481054
 10
2.164253436440848
 20
5.416301598482077
 10
2.167209025675793
 20
5.414135954930849
 10
2.170279772048008
 20
5.412540451285697
 10
2.173400298162559
 20
5.411549050593265
 10
2.176504231029665
 20
5.411182813150788
 10
2.179525529524493
 20
5.411449540864935
 10
2.182399479982007
 20
5.412343651824385
 10
2.185065019251609
 20
5.413846010098813
 10
2.187465398427037
 20
5.415924595738932
 10
2.189549178441209
 20
5.418535142387621
 10
2.191272221255923
 20
5.42162201685257
 10
2.192597689861848
 20
5.42511937779445
 10
2.192943493138607
 20
5.426353346457473
  0
LWPOLYLINE
  5
4A9
330
1F
100
AcDbEntity
  8
0
  6
Continuous
 62
     7
370
    15
100
AcDbPolyline
 90
       15
 70
   128
 43
0.0
 10
2.181996264069088
 20
5.464565148219987
 10
2.179525529524493
 20
5.466615956787444
 10
2.176504231029665
 20
5.468501563017094
 10
2.173400298162559
 20
5.469798481413316
 10
2.170279772048008
 20
5.470479127588336
 10
2.167209025675793
 20
5.470528997724374
 10
2.164253436440848
 20
5.469947052475473
 10
2.161476390548414
 20
5.468745588048742
 10
2.158936628094447
 20
5.466950325751538
 10
2.156688574930566
 20
5.464599475260556
 10
2.154780019609416
 20
5.46174317004498
 10
2.153251781519709
 20
5.458442228024467
 10
2.152136051561492
 20
5.454767098304151
 10
2.151457055876033
 20
5.45079604423422
 10
2.151229064656136
 20
5.446613698623517
  0
LWPOLYLINE
  5
4AA
330
1F
100
AcDbEntity
  8
0
  6
Continuous
 62
     7
370
    15
100
AcDbPolyline
 90
       21
 70
   128
 43
0.0
 10
2.071750396178005
 20
5.708767804425379
 10
2.071978387397903
 20
5.704463324340286
 10
2.072657383083362
 20
5.700128392852371
 10
2.07377278117663
 20
5.695855547529621
 10
2.075301019266337
 20
5.691735770021562
 10
2.077209574587487
 20
5.68785679041803
 10
2.079457627751368
 20
5.684301383351474
 10
2.081997390205335
 20
5.681145260193204
 10
2.084774767962719
 20
5.678455704283938
 10
2.087730025332715
 20
5.676290206164374
 10
2.090800771704929
 20
5.674694645997847
 10
2.093921629684429
 20
5.673703156395127
 10
2.097025562551535
 20
5.67333691895265
 10
2.100046861046362
 20
5.673603703188171
 10
2.102920811503877
 20
5.674497785886934
 10
2.105586350773479
 20
5.676000144161363
 10
2.107986729948907
 20
5.678078729801481
 10
2.11007050996308
 20
5.680689276450171
 10
2.111793552777792
 20
5.683776122654432
 10
2.113119021383717
 20
5.687273511857
 10
2.113464492795527
 20
5.68850756943031
  0
LWPOLYLINE
  5
4AB
330
1F
100
AcDbEntity
  8
0
  6
Continuous
 62
     7
370
    15
100
AcDbPolyline
 90
       15
 70
   128
 43
0.0
 10
2.102517595590958
 20
5.726719254021849
 10
2.100046861046362
 20
5.728770090849995
 10
2.097025562551535
 20
5.730655697079644
 10
2.093921629684429
 20
5.731952615475865
 10
2.090800771704929
 20
5.732633350561174
 10
2.087730025332715
 20
5.732683220697212
 10
2.084774767962719
 20
5.732101158277335
 10
2.081997390205335
 20
5.730899782760892
 10
2.079457627751368
 20
5.729104520463688
 10
2.077209574587487
 20
5.726753669972707
 10
2.075301019266337
 20
5.723897393017819
 10
2.07377278117663
 20
5.720596422736617
 10
2.072657383083362
 20
5.716921232366702
 10
2.071978387397903
 20
5.71295017829677
 10
2.071750396178005
 20
5.708767804425379
  0
LWPOLYLINE
  5
4AC
330
1F
100
AcDbEntity
  8
0
  6
Continuous
 62
     7
370
    15
100
AcDbPolyline
 90
       21
 70
   128
 43
0.0
 10
2.151229064656136
 20
5.831991154290509
 10
2.151457055876033
 20
5.82768661768404
 10
2.152136051561492
 20
5.823351742717501
 10
2.153251781519709
 20
5.819078808484464
 10
2.154780019609416
 20
5.814958974455031
 10
2.156688574930566
 20
5.811080051372872
 10
2.158936628094447
 20
5.807524644306317
 10
2.161476390548414
 20
5.804368521148046
 10
2.164253436440848
 20
5.801679054149068
 10
2.167209025675793
 20
5.799513410597842
 10
2.170279772048008
 20
5.797917906952689
 10
2.173400298162559
 20
5.796926506260258
 10
2.176504231029665
 20
5.79656026881778
 10
2.179525529524493
 20
5.796826996531928
 10
2.182399479982007
 20
5.797721135752064
 10
2.185065019251609
 20
5.799223437505118
 10
2.187465398427037
 20
5.801302023145237
 10
2.189549178441209
 20
5.803912626315301
 10
2.191272221255923
 20
5.806999472519561
 10
2.192597689861848
 20
5.81049686172213
 10
2.192943493138607
 20
5.811730773863778
  0
LWPOLYLINE
  5
4AD
330
1F
100
AcDbEntity
  8
0
  6
Continuous
 62
     7
370
    15
100
AcDbPolyline
 90
       15
 70
   128
 43
0.0
 10
2.181996264069088
 20
5.849942603886979
 10
2.179525529524493
 20
5.851993440715125
 10
2.176504231029665
 20
5.853879046944774
 10
2.173400298162559
 20
5.855175965340995
 10
2.170279772048008
 20
5.855856611516016
 10
2.167209025675793
 20
5.85590642513068
 10
2.164253436440848
 20
5.855324508142465
 10
2.161476390548414
 20
5.854123043715735
 10
2.158936628094447
 20
5.85232778141853
 10
2.156688574930566
 20
5.849976930927549
 10
2.154780019609416
 20
5.847120597451286
 10
2.153251781519709
 20
5.843819683691459
 10
2.152136051561492
 20
5.840144582231832
 10
2.151457055876033
 20
5.836173471640525
 10
2.151229064656136
 20
5.831991154290509
  0
LWPOLYLINE
  5
4AE
330
1F
100
AcDbEntity
  8
0
  6
Continuous
 62
     7
370
    15
100
AcDbPolyline
 90
       21
 70
   128
 43
0.0
 10
2.071750396178005
 20
5.251132081119703
 10
2.071978387397903
 20
5.246827572773923
 10
2.072657383083362
 20
5.242492683677039
 10
2.07377278117663
 20
5.238219824223946
 10
2.075301019266337
 20
5.2341000184552
 10
2.077209574587487
 20
5.230221052982011
 10
2.079457627751368
 20
5.226665645915456
 10
2.081997390205335
 20
5.223509536887529
 10
2.084774767962719
 20
5.220819980978264
 10
2.087730025332715
 20
5.218654454598012
 10
2.090800771704929
 20
5.217058936822516
 10
2.093921629684429
 20
5.216067433089453
 10
2.097025562551535
 20
5.215701209777319
 10
2.100046861046362
 20
5.215967937491466
 10
2.102920811503877
 20
5.216862034320572
 10
2.105586350773479
 20
5.218364392595001
 10
2.107986729948907
 20
5.220442978235119
 10
2.11007050996308
 20
5.223053539014152
 10
2.111793552777792
 20
5.226140399348757
 10
2.113119021383717
 20
5.229637774420981
 10
2.113464492795527
 20
5.230871817863948
  0
LWPOLYLINE
  5
4AF
330
1F
100
AcDbEntity
  8
0
  6
Continuous
 62
     7
370
    15
100
AcDbPolyline
 90
       15
 70
   128
 43
0.0
 10
2.102517595590958
 20
5.269083544846518
 10
2.100046861046362
 20
5.271134339283631
 10
2.097025562551535
 20
5.273019959643625
 10
2.093921629684429
 20
5.274316892170189
 10
2.090800771704929
 20
5.274997613125155
 10
2.087730025332715
 20
5.275047469130849
 10
2.084774767962719
 20
5.274465434971661
 10
2.081997390205335
 20
5.273264059455218
 10
2.079457627751368
 20
5.271468811288356
 10
2.077209574587487
 20
5.269117960797375
 10
2.075301019266337
 20
5.266261641451457
 10
2.07377278117663
 20
5.262960699430942
 10
2.072657383083362
 20
5.259285494930682
 10
2.071978387397903
 20
5.255314426730407
 10
2.071750396178005
 20
5.251132081119703
  0
LWPOLYLINE
  5
4B0
330
1F
100
AcDbEntity
  8
0
  6
Continuous
 62
     7
370
    15
100
AcDbPolyline
 90
       21
 70
   128
 43
0.0
 10
2.151229064656136
 20
5.061236226066348
 10
2.151457055876033
 20
5.056931719376466
 10
2.152136051561492
 20
5.052596825201491
 10
2.153251781519709
 20
5.048323879487549
 10
2.154780019609416
 20
5.044204073718803
 10
2.156688574930566
 20
5.040325110011907
 10
2.158936628094447
 20
5.036769701179059
 10
2.161476390548414
 20
5.033613592151132
 10
2.164253436440848
 20
5.030924126918447
 10
2.167209025675793
 20
5.028758508095321
 10
2.170279772048008
 20
5.027162997384997
 10
2.173400298162559
 20
5.02617158079593
 10
2.176504231029665
 20
5.025805352184916
 10
2.179525529524493
 20
5.026072088730527
 10
2.182399479982007
 20
5.026966187325927
 10
2.185065019251609
 20
5.028468545600356
 10
2.187465398427037
 20
5.03054712240901
 10
2.189549178441209
 20
5.0331576937858
 10
2.191272221255923
 20
5.036244544405793
 10
2.192597689861848
 20
5.039741915945432
 10
2.192943493138607
 20
5.040975876660136
  0
LWPOLYLINE
  5
4B1
330
1F
100
AcDbEntity
  8
0
  6
Continuous
 62
     7
370
    15
100
AcDbPolyline
 90
       15
 70
   128
 43
0.0
 10
2.181996264069088
 20
5.079187687254115
 10
2.179525529524493
 20
5.081238492288987
 10
2.176504231029665
 20
5.083124107350101
 10
2.173400298162559
 20
5.084421032811495
 10
2.170279772048008
 20
5.085101664856171
 10
2.167209025675793
 20
5.085151527927037
 10
2.164253436440848
 20
5.084569579145551
 10
2.161476390548414
 20
5.083368116485113
 10
2.158936628094447
 20
5.081572868318252
 10
2.156688574930566
 20
5.079222016060978
 10
2.154780019609416
 20
5.076365698481351
 10
2.153251781519709
 20
5.073064756460837
 10
2.152136051561492
 20
5.069389643520305
 10
2.151457055876033
 20
5.065418570021152
 10
2.151229064656136
 20
5.061236226066348
  0
LINE
  5
4B2
330
1F
100
AcDbEntity
  8
0
  6
Continuous
 62
     7
370
    15
100
AcDbLine
 10
2.009022901377669
 20
5.053246503212807
 30
0.0
 11
2.009022901377669
 21
5.621707168776405
 31
0.0
  0
LINE
  5
4B3
330
1F
100
AcDbEntity
  8
0
  6
Continuous
 62
     7
370
    15
100
AcDbLine
 10
2.018922432803495
 20
5.053246503212807
 30
0.0
 11
2.018922432803495
 21
5.621707168776405
 31
0.0
  0
LINE
  5
4B4
330
1F
100
AcDbEntity
  8
0
  6
Continuous
 62
     7
370
    15
100
AcDbLine
 10
2.208045298020344
 20
5.813668876352473
 30
0.0
 11
2.215399217872478
 21
5.815639072755399
 31
0.0
  0
LINE
  5
4B5
330
1F
100
AcDbEntity
  8
0
  6
Continuous
 62
     7
370
    15
100
AcDbLine
 10
2.206989428202286
 20
5.791539396584805
 30
0.0
 11
2.199635508350151
 21
5.789569200181878
 31
0.0
  0
LINE
  5
4B6
330
1F
100
AcDbEntity
  8
0
  6
Continuous
 62
     7
370
    15
100
AcDbLine
 10
1.814684239208241
 20
5.713957891913961
 30
0.0
 11
1.822038366475968
 21
5.711987639942105
 31
0.0
  0
LINE
  5
4B7
330
1F
100
AcDbEntity
  8
0
  6
Continuous
 62
     7
370
    15
100
AcDbLine
 10
1.881776629232165
 20
5.803893547721018
 30
0.0
 11
1.874422501964438
 21
5.805863799692875
 31
0.0
  0
LINE
  5
4B8
330
1F
100
AcDbEntity
  8
0
  6
Continuous
 62
     7
370
    15
100
AcDbLine
 10
2.147251082479852
 20
5.731642592656839
 30
0.0
 11
2.139897162627718
 21
5.729672396253913
 31
0.0
  0
LINE
  5
4B9
330
1F
100
AcDbEntity
  8
0
  6
Continuous
 62
     7
370
    15
100
AcDbLine
 10
1.882832291634631
 20
5.834469627056503
 30
0.0
 11
1.890186418902358
 21
5.832499375084647
 31
0.0
  0
LINE
  5
4BA
330
1F
100
AcDbEntity
  8
0
  6
Continuous
 62
     7
370
    15
100
AcDbLine
 10
2.170046885820114
 20
5.61353880650019
 30
0.0
 11
2.16269296596798
 21
5.611568610097263
 31
0.0
  0
LINE
  5
4BB
330
1F
100
AcDbEntity
  8
0
  6
Continuous
 62
     7
370
    15
100
AcDbLine
 10
2.208045298020344
 20
5.400408437483825
 30
0.0
 11
2.215399217872478
 21
5.402378633886752
 31
0.0
  0
LINE
  5
4BC
330
1F
100
AcDbEntity
  8
0
  6
Continuous
 62
     7
370
    15
100
AcDbLine
 10
1.890186418902358
 20
5.575935347282484
 30
0.0
 11
1.882832291634631
 21
5.577905599254341
 31
0.0
  0
LINE
  5
4BD
330
1F
100
AcDbEntity
  8
0
  6
Continuous
 62
     7
370
    15
100
AcDbLine
 10
2.208267440120518
 20
5.379675613851755
 30
0.0
 11
2.200913520268382
 21
5.377705417448829
 31
0.0
  0
LINE
  5
4BE
330
1F
100
AcDbEntity
  8
0
  6
Continuous
 62
     7
370
    15
100
AcDbLine
 10
1.806525256473183
 20
5.275381187978047
 30
0.0
 11
1.81387938374091
 21
5.27341093600619
 31
0.0
  0
LINE
  5
4BF
330
1F
100
AcDbEntity
  8
0
  6
Continuous
 62
     7
370
    15
100
AcDbLine
 10
1.88305484856599
 20
5.39271460759152
 30
0.0
 11
1.875700721298263
 21
5.394684859563376
 31
0.0
  0
LINE
  5
4C0
330
1F
100
AcDbEntity
  8
0
  6
Continuous
 62
     7
370
    15
100
AcDbLine
 10
2.145961330839052
 20
5.582247857221953
 30
0.0
 11
2.150488964336959
 21
5.583460860274843
 31
0.0
  0
LINE
  5
4C1
330
1F
100
AcDbEntity
  8
0
  6
Continuous
 62
     7
370
    15
100
AcDbLine
 10
2.131738262858896
 20
5.295467433383846
 30
0.0
 11
2.139092182711031
 21
5.297437629786773
 31
0.0
  0
LINE
  5
4C2
330
1F
100
AcDbEntity
  8
0
  6
Continuous
 62
     7
370
    15
100
AcDbLine
 10
2.115131408950757
 20
5.590507534024007
 30
0.0
 11
2.122485328802892
 21
5.592477730426934
 31
0.0
  0
LINE
  5
4C3
330
1F
100
AcDbEntity
  8
0
  6
Continuous
 62
     7
370
    15
100
AcDbLine
 10
1.80674785488766
 20
5.246886604365154
 30
0.0
 11
1.799393727619933
 21
5.248856856337011
 31
0.0
  0
LINE
  5
4C4
330
1F
100
AcDbEntity
  8
0
  6
Continuous
 62
     7
370
    15
100
AcDbLine
 10
1.882832291634631
 20
5.421209188187856
 30
0.0
 11
1.890186418902358
 21
5.419238936215999
 31
0.0
  0
LINE
  5
4C5
330
1F
100
AcDbEntity
  8
0
  6
Continuous
 62
     7
370
    15
100
AcDbLine
 10
1.799393727619933
 20
5.211792385615695
 30
0.0
 11
1.80674785488766
 21
5.209822133643839
 31
0.0
  0
LINE
  5
4C6
330
1F
100
AcDbEntity
  8
0
  6
Continuous
 62
     7
370
    15
100
AcDbLine
 10
1.81387938374091
 20
5.187119032795782
 30
0.0
 11
1.806525256473183
 21
5.189089284767638
 31
0.0
  0
LINE
  5
4C7
330
1F
100
AcDbEntity
  8
0
  6
Continuous
 62
     7
370
    15
100
AcDbLine
 10
1.875700721298263
 20
5.106851370401931
 30
0.0
 11
1.88305484856599
 21
5.104881118430072
 31
0.0
  0
LINE
  5
4C8
330
1F
100
AcDbEntity
  8
0
  6
Continuous
 62
     7
370
    15
100
AcDbLine
 10
2.139092182711031
 20
5.211145726576364
 30
0.0
 11
2.131738262858896
 21
5.209175530173436
 31
0.0
  0
LINE
  5
4C9
330
1F
100
AcDbEntity
  8
0
  6
Continuous
 62
     7
370
    15
100
AcDbLine
 10
2.200913520268382
 20
5.089871928287381
 30
0.0
 11
2.208267440120518
 21
5.091842124690308
 31
0.0
  0
LINE
  5
4CA
330
1F
100
AcDbEntity
  8
0
  6
Continuous
 62
     7
370
    15
100
AcDbLine
 10
1.952411802035001
 20
5.601116242850404
 30
0.0
 11
1.947884168537095
 21
5.602329245903295
 31
0.0
  0
LINE
  5
4CB
330
1F
100
AcDbEntity
  8
0
  6
Continuous
 62
     7
370
    15
100
AcDbLine
 10
1.983241682440179
 20
5.609375908538672
 30
0.0
 11
1.975887555172452
 21
5.61134616051053
 31
0.0
  0
LINE
  5
4CC
330
1F
100
AcDbEntity
  8
0
  6
Continuous
 62
     7
370
    15
100
AcDbLine
 10
2.215399217872478
 20
5.065317729899141
 30
0.0
 11
2.208045298020344
 21
5.063347533496214
 31
0.0
  0
LINE
  5
4CD
330
1F
100
AcDbEntity
  8
0
  6
Continuous
 62
     7
370
    15
100
AcDbLine
 10
2.131960404959069
 20
5.274734595621432
 30
0.0
 11
2.124606485106934
 21
5.272764399218505
 31
0.0
  0
LINE
  5
4CE
330
1F
100
AcDbEntity
  8
0
  6
Continuous
 62
     7
370
    15
100
AcDbLine
 10
2.124606485106934
 20
5.235699928497189
 30
0.0
 11
2.131960404959069
 21
5.237670124900116
 31
0.0
  0
LINE
  5
4CF
330
1F
100
AcDbEntity
  8
0
  6
Continuous
 62
     7
370
    15
100
AcDbLine
 10
1.890186418902358
 20
5.082178032228388
 30
0.0
 11
1.882832291634631
 21
5.084148284200245
 31
0.0
  0
LINE
  5
4D0
330
1F
100
AcDbEntity
  8
0
  6
Continuous
 62
     7
370
    15
100
AcDbLine
 10
4.334697119684586
 20
5.213079492222441
 30
0.0
 11
4.334697119684586
 21
4.644618861984701
 31
0.0
  0
LINE
  5
4D1
330
1F
100
AcDbEntity
  8
0
  6
Continuous
 62
     7
370
    15
100
AcDbLine
 10
4.334697119684586
 20
5.213079492222441
 30
0.0
 11
4.342051039536721
 21
5.215049688625368
 31
0.0
  0
LINE
  5
4D2
330
1F
100
AcDbEntity
  8
0
  6
Continuous
 62
     7
370
    15
100
AcDbLine
 10
4.523819984901435
 20
5.101642261032302
 30
0.0
 11
4.531173904753569
 21
5.103612457435229
 31
0.0
  0
LINE
  5
4D3
330
1F
100
AcDbEntity
  8
0
  6
Continuous
 62
     7
370
    15
100
AcDbLine
 10
4.524042292934082
 20
5.080909392945088
 30
0.0
 11
4.516688373081947
 21
5.078939196542161
 31
0.0
  0
LINE
  5
4D4
330
1F
100
AcDbEntity
  8
0
  6
Continuous
 62
     7
370
    15
100
AcDbLine
 10
4.447512949739986
 20
4.99670128519301
 30
0.0
 11
4.454866869592121
 21
4.998671481595937
 31
0.0
  0
LINE
  5
4D5
330
1F
100
AcDbEntity
  8
0
  6
Continuous
 62
     7
370
    15
100
AcDbLine
 10
4.516688373081947
 20
4.791105707380713
 30
0.0
 11
4.524042292934082
 21
4.79307590378364
 31
0.0
  0
LINE
  5
4D6
330
1F
100
AcDbEntity
  8
0
  6
Continuous
 62
     7
370
    15
100
AcDbLine
 10
4.454866869592121
 20
4.912379564255184
 30
0.0
 11
4.447512949739986
 21
4.910409367852257
 31
0.0
  0
LINE
  5
4D7
330
1F
100
AcDbEntity
  8
0
  6
Continuous
 62
     7
370
    15
100
AcDbLine
 10
4.531173904753569
 20
4.766551564045375
 30
0.0
 11
4.523819984901435
 21
4.764581367642448
 31
0.0
  0
LINE
  5
4D8
330
1F
100
AcDbEntity
  8
0
  6
Continuous
 62
     7
370
    15
100
AcDbLine
 10
4.447735257772634
 20
4.975968417105796
 30
0.0
 11
4.440381337920499
 21
4.973998220702869
 31
0.0
  0
LINE
  5
4D9
330
1F
100
AcDbEntity
  8
0
  6
Continuous
 62
     7
370
    15
100
AcDbLine
 10
4.440381337920499
 20
4.936933707590522
 30
0.0
 11
4.447735257772634
 21
4.938903903993449
 31
0.0
  0
LINE
  5
4DA
330
1F
100
AcDbEntity
  8
0
  6
Continuous
 62
     7
370
    15
100
AcDbLine
 10
4.334697036718349
 20
5.219672078905573
 30
0.0
 11
4.342050998053602
 21
5.21770187138886
 31
0.0
  0
LINE
  5
4DB
330
1F
100
AcDbEntity
  8
0
  6
Continuous
 62
     7
370
    15
100
AcDbLine
 10
4.342050998053602
 20
5.21770187138886
 30
0.0
 11
4.342050998053602
 21
5.215049718929702
 31
0.0
  0
LINE
  5
4DC
330
1F
100
AcDbEntity
  8
0
  6
Continuous
 62
     7
370
    15
100
AcDbLine
 10
4.455671849508808
 20
4.471832675546156
 30
0.0
 11
4.463025769360942
 21
4.473802871949084
 31
0.0
  0
LINE
  5
4DD
330
1F
100
AcDbEntity
  8
0
  6
Continuous
 62
     7
370
    15
100
AcDbLine
 10
4.515410195231241
 20
4.379926745539672
 30
0.0
 11
4.522764115083376
 21
4.381896941942599
 31
0.0
  0
LINE
  5
4DE
330
1F
100
AcDbEntity
  8
0
  6
Continuous
 62
     7
370
    15
100
AcDbLine
 10
4.466263651218049
 20
4.599108186206983
 30
0.0
 11
4.461736017720143
 21
4.597895183154093
 31
0.0
  0
LINE
  5
4DF
330
1F
100
AcDbEntity
  8
0
  6
Continuous
 62
     7
370
    15
100
AcDbLine
 10
4.531173904753569
 20
4.353291153437416
 30
0.0
 11
4.523819984901435
 21
4.351320957034489
 31
0.0
  0
LINE
  5
4E0
330
1F
100
AcDbEntity
  8
0
  6
Continuous
 62
     7
370
    15
100
AcDbLine
 10
4.438260015683982
 20
4.608125056359074
 30
0.0
 11
4.430906095831847
 21
4.606154859956146
 31
0.0
  0
LINE
  5
4E1
330
1F
100
AcDbEntity
  8
0
  6
Continuous
 62
     7
370
    15
100
AcDbLine
 10
4.620599353929627
 20
4.633711002019534
 30
0.0
 11
4.620599353929627
 21
4.633477823088727
 31
0.0
  0
LINE
  5
4E2
330
1F
100
AcDbEntity
  8
0
  6
Continuous
 62
     7
370
    15
100
AcDbLine
 10
4.624630890812039
 20
4.654620155581181
 30
0.0
 11
4.624630890812039
 21
4.664639968128532
 31
0.0
  0
LINE
  5
4E3
330
1F
100
AcDbEntity
  8
0
  6
Continuous
 62
     7
370
    15
100
AcDbLine
 10
6.846286852926544
 20
4.067572823432138
 30
0.0
 11
6.666282806843224
 21
4.019347750105736
 31
0.0
  0
LINE
  5
4E4
330
1F
100
AcDbEntity
  8
0
  6
Continuous
 62
     7
370
    15
100
AcDbLine
 10
6.666282806843224
 20
4.009327937558387
 30
0.0
 11
6.666282806843224
 21
4.019347750105736
 31
0.0
  0
LINE
  5
4E5
330
1F
100
AcDbEntity
  8
0
  6
Continuous
 62
     7
370
    15
100
AcDbLine
 10
6.657825664193134
 20
4.597280244697714
 30
0.0
 11
6.657825664193134
 21
4.028819614459974
 31
0.0
  0
LINE
  5
4E6
330
1F
100
AcDbEntity
  8
0
  6
Continuous
 62
     7
370
    15
100
AcDbLine
 10
6.633218355287715
 20
4.597280250254606
 30
0.0
 11
6.633218355287715
 21
4.028819620016867
 31
0.0
  0
LINE
  5
4E7
330
1F
100
AcDbEntity
  8
0
  6
Continuous
 62
     7
370
    15
100
AcDbLine
 10
6.633218355287715
 20
4.597280250254606
 30
0.0
 11
6.640572275139851
 21
4.599250446657533
 31
0.0
  0
LINE
  5
4E8
330
1F
100
AcDbEntity
  8
0
  6
Continuous
 62
     7
370
    15
100
AcDbLine
 10
6.657825664193134
 20
4.597280244697714
 30
0.0
 11
6.650471744340999
 21
4.59925044110064
 31
0.0
  0
LINE
  5
4E9
330
1F
100
AcDbEntity
  8
0
  6
Continuous
 62
     7
370
    15
100
AcDbLine
 10
6.747455791076427
 20
4.050491174611828
 30
0.0
 11
6.659544060898562
 21
4.026938650508475
 31
0.0
  0
LINE
  5
4EA
330
1F
100
AcDbEntity
  8
0
  6
Continuous
 62
     7
370
    15
100
AcDbLine
 10
6.846948570893101
 20
4.077146389905631
 30
0.0
 11
6.791443535942014
 21
4.062275977608001
 31
0.0
  0
LINE
  5
4EB
330
1F
100
AcDbEntity
  8
0
  6
Continuous
 62
     7
370
    15
100
AcDbLine
 10
6.637064898202673
 20
4.022123942331918
 30
0.0
 11
6.629710978350538
 21
4.020153745928991
 31
0.0
  0
LINE
  5
4EC
330
1F
100
AcDbEntity
  8
0
  6
Continuous
 62
     7
370
    15
100
AcDbLine
 10
6.814993097918256
 20
4.054662685705035
 30
0.0
 11
6.814993097918256
 21
4.044642873157684
 31
0.0
  0
LINE
  5
4ED
330
1F
100
AcDbEntity
  8
0
  6
Continuous
 62
     7
370
    15
100
AcDbLine
 10
6.611964749106573
 20
4.024251148080645
 30
0.0
 11
6.607437115608666
 21
4.023038145027756
 31
0.0
  0
LINE
  5
4EE
330
1F
100
AcDbEntity
  8
0
  6
Continuous
 62
     7
370
    15
100
AcDbLine
 10
6.583961175797183
 20
4.033268001562058
 30
0.0
 11
6.576607255945048
 21
4.031297805159131
 31
0.0
  0
LINE
  5
4EF
330
1F
100
AcDbEntity
  8
0
  6
Continuous
 62
     7
370
    15
100
AcDbLine
 10
6.493434453529745
 20
4.04495808571234
 30
0.0
 11
6.50078837338188
 21
4.046928282115267
 31
0.0
  0
LINE
  5
4F0
330
1F
100
AcDbEntity
  8
0
  6
Continuous
 62
     7
370
    15
100
AcDbLine
 10
6.469029457793803
 20
4.044428484160899
 30
0.0
 11
6.476383377645938
 21
4.046398680563826
 31
0.0
  0
TEXT
  5
4F8
330
1F
100
AcDbEntity
  8
0
100
AcDbText
 10
3.038691169618303
 20
3.385951128914896
 30
0.0
 40
0.1388888888888889
  1
USP  MPA1
100
AcDbText
  0
TEXT
  5
4FF
330
1F
100
AcDbEntity
  8
0
100
AcDbText
 10
2.534648150223439
 20
3.058965097469233
 30
0.0
 40
0.1388888888888889
  1
SIMPSON  A35
100
AcDbText
  0
ENDSEC
  0
SECTION
  2
OBJECTS
  0
DICTIONARY
  5
C
330
0
100
AcDbDictionary
281
     1
  3
ACAD_COLOR
350
4F5
  3
ACAD_GROUP
350
D
  3
ACAD_LAYOUT
350
1A
  3
ACAD_MATERIAL
350
4F4
  3
ACAD_MLINESTYLE
350
17
  3
ACAD_PLOTSETTINGS
350
19
  3
ACAD_PLOTSTYLENAME
350
E
  3
ACAD_SCALELIST
350
47
  0
DICTIONARY
  5
4F5
102
{ACAD_REACTORS
330
C
102
}
330
C
100
AcDbDictionary
281
     1
  0
DICTIONARY
  5
D
102
{ACAD_REACTORS
330
C
102
}
330
C
100
AcDbDictionary
281
     1
  0
DICTIONARY
  5
1A
102
{ACAD_REACTORS
330
C
102
}
330
C
100
AcDbDictionary
281
     1
  3
Layout1
350
1E
  3
Layout2
350
26
  3
Model
350
22
  0
DICTIONARY
  5
4F4
102
{ACAD_REACTORS
330
C
102
}
330
C
100
AcDbDictionary
281
     1
  0
DICTIONARY
  5
17
102
{ACAD_REACTORS
330
C
102
}
330
C
100
AcDbDictionary
281
     1
  3
Standard
350
18
  0
DICTIONARY
  5
19
102
{ACAD_REACTORS
330
C
102
}
330
C
100
AcDbDictionary
281
     1
  0
ACDBDICTIONARYWDFLT
  5
E
102
{ACAD_REACTORS
330
C
102
}
330
C
100
AcDbDictionary
281
     1
  3
Normal
350
F
100
AcDbDictionaryWithDefault
340
F
  0
DICTIONARY
  5
47
102
{ACAD_REACTORS
330
C
102
}
330
C
100
AcDbDictionary
281
     1
  3
A0
350
48
  3
A1
350
49
  3
A2
350
4A
  3
A3
350
4B
  3
A4
350
4C
  3
A5
350
4D
  3
A6
350
4E
  3
A7
350
4F
  3
A8
350
50
  3
A9
350
51
  3
B0
350
52
  3
B1
350
53
  3
B2
350
54
  3
B3
350
55
  3
B4
350
56
  3
B5
350
57
  3
B6
350
58
  3
B7
350
59
  3
B8
350
5A
  3
B9
350
5B
  3
C0
350
5C
  3
C1
350
5D
  3
C2
350
5E
  3
C3
350
5F
  3
C4
350
60
  3
C5
350
61
  3
C6
350
62
  3
C7
350
63
  3
C8
350
64
  3
C9
350
65
  3
D0
350
66
  3
D1
350
67
  3
D2
350
68
  0
LAYOUT
  5
1E
102
{ACAD_REACTORS
330
1A
102
}
330
1A
100
AcDbPlotSettings
  1

  2
none_device
  4

  6

 40
0.0
 41
0.0
 42
0.0
 43
0.0
 44
0.0
 45
0.0
 46
0.0
 47
0.0
 48
0.0
 49
0.0
140
0.0
141
0.0
142
1.0
143
1.0
 70
   688
 72
     0
 73
     0
 74
     5
  7

 75
    16
147
1.0
 76
     0
 77
     2
 78
   300
148
0.0
149
0.0
100
AcDbLayout
  1
Layout1
 70
     1
 71
     1
 10
0.0
 20
0.0
 11
12.0
 21
9.0
 12
0.0
 22
0.0
 32
0.0
 14
1.000000000000000E+20
 24
1.000000000000000E+20
 34
1.000000000000000E+20
 15
-1.000000000000000E+20
 25
-1.000000000000000E+20
 35
-1.000000000000000E+20
146
0.0
 13
0.0
 23
0.0
 33
0.0
 16
1.0
 26
0.0
 36
0.0
 17
0.0
 27
1.0
 37
0.0
 76
     0
330
1B
  0
LAYOUT
  5
26
102
{ACAD_REACTORS
330
1A
102
}
330
1A
100
AcDbPlotSettings
  1

  2
none_device
  4

  6

 40
0.0
 41
0.0
 42
0.0
 43
0.0
 44
0.0
 45
0.0
 46
0.0
 47
0.0
 48
0.0
 49
0.0
140
0.0
141
0.0
142
1.0
143
1.0
 70
   688
 72
     0
 73
     0
 74
     5
  7

 75
    16
147
1.0
 76
     0
 77
     2
 78
   300
148
0.0
149
0.0
100
AcDbLayout
  1
Layout2
 70
     1
 71
     2
 10
0.0
 20
0.0
 11
0.0
 21
0.0
 12
0.0
 22
0.0
 32
0.0
 14
0.0
 24
0.0
 34
0.0
 15
0.0
 25
0.0
 35
0.0
146
0.0
 13
0.0
 23
0.0
 33
0.0
 16
1.0
 26
0.0
 36
0.0
 17
0.0
 27
1.0
 37
0.0
 76
     0
330
23
  0
LAYOUT
  5
22
102
{ACAD_REACTORS
330
1A
102
}
330
1A
100
AcDbPlotSettings
  1

  2
none_device
  4
Letter_(8.50_x_11.00_Inches)
  6

 40
6.349999999999999
 41
6.349999999999999
 42
6.350005079999999
 43
6.350005079999999
 44
215.9
 45
279.4
 46
0.0
 47
0.0
 48
0.0
 49
0.0
140
0.0
141
0.0
142
1.0
143
1.0
 70
  1712
 72
     0
 73
     0
 74
     0
  7

 75
     0
147
1.0
 76
     0
 77
     2
 78
   300
148
0.0
149
0.0
100
AcDbLayout
  1
Model
 70
     1
 71
     0
 10
0.0
 20
0.0
 11
8.5
 21
11.0
 12
0.0
 22
0.0
 32
0.0
 14
0.0
 24
0.0
 34
0.0
 15
8.5
 25
11.0
 35
0.0
146
0.0
 13
0.0
 23
0.0
 33
0.0
 16
1.0
 26
0.0
 36
0.0
 17
0.0
 27
1.0
 37
0.0
 76
     0
330
1F
  0
MLINESTYLE
  5
18
102
{ACAD_REACTORS
330
17
102
}
330
17
100
AcDbMlineStyle
  2
STANDARD
 70
     0
  3

 62
   256
 51
90.0
 52
90.0
 71
     2
 49
0.5
 62
   256
  6
BYLAYER
 49
-0.5
 62
   256
  6
BYLAYER
  0
ACDBPLACEHOLDER
  5
F
102
{ACAD_REACTORS
330
E
102
}
330
E
  0
ACAD_PROXY_OBJECT
  5
48
102
{ACAD_REACTORS
330
47
102
}
330
47
100
AcDbProxyObject
 90
      499
 91
      503
 95
   393239
 70
     0
 93
       41
310
903313A31580
 94
        0
  0
ACAD_PROXY_OBJECT
  5
49
102
{ACAD_REACTORS
330
47
102
}
330
47
100
AcDbProxyObject
 90
      499
 91
      503
 95
   393239
 70
     0
 93
      105
310
903313A324000000000000004000
 94
        0
  0
ACAD_PROXY_OBJECT
  5
4A
102
{ACAD_REACTORS
330
47
102
}
330
47
100
AcDbProxyObject
 90
      499
 91
      503
 95
   393239
 70
     0
 93
      105
310
903313A344000000000000104000
 94
        0
  0
ACAD_PROXY_OBJECT
  5
4B
102
{ACAD_REACTORS
330
47
102
}
330
47
100
AcDbProxyObject
 90
      499
 91
      503
 95
   393239
 70
     0
 93
      105
310
903313A354000000000000144000
 94
        0
  0
ACAD_PROXY_OBJECT
  5
4C
102
{ACAD_REACTORS
330
47
102
}
330
47
100
AcDbProxyObject
 90
      499
 91
      503
 95
   393239
 70
     0
 93
      105
310
903313A384000000000000204000
 94
        0
  0
ACAD_PROXY_OBJECT
  5
4D
102
{ACAD_REACTORS
330
47
102
}
330
47
100
AcDbProxyObject
 90
      499
 91
      503
 95
   393239
 70
     0
 93
      113
310
904313A31304000000000000244000
 94
        0
  0
ACAD_PROXY_OBJECT
  5
4E
102
{ACAD_REACTORS
330
47
102
}
330
47
100
AcDbProxyObject
 90
      499
 91
      503
 95
   393239
 70
     0
 93
      113
310
904313A31364000000000000304000
 94
        0
  0
ACAD_PROXY_OBJECT
  5
4F
102
{ACAD_REACTORS
330
47
102
}
330
47
100
AcDbProxyObject
 90
      499
 91
      503
 95
   393239
 70
     0
 93
      113
310
904313A32304000000000000344000
 94
        0
  0
ACAD_PROXY_OBJECT
  5
50
102
{ACAD_REACTORS
330
47
102
}
330
47
100
AcDbProxyObject
 90
      499
 91
      503
 95
   393239
 70
     0
 93
      113
310
904313A333040000000000003E4000
 94
        0
  0
ACAD_PROXY_OBJECT
  5
51
102
{ACAD_REACTORS
330
47
102
}
330
47
100
AcDbProxyObject
 90
      499
 91
      503
 95
   393239
 70
     0
 93
      113
310
904313A34304000000000000444000
 94
        0
  0
ACAD_PROXY_OBJECT
  5
52
102
{ACAD_REACTORS
330
47
102
}
330
47
100
AcDbProxyObject
 90
      499
 91
      503
 95
   393239
 70
     0
 93
      113
310
904313A35304000000000000494000
 94
        0
  0
ACAD_PROXY_OBJECT
  5
53
102
{ACAD_REACTORS
330
47
102
}
330
47
100
AcDbProxyObject
 90
      499
 91
      503
 95
   393239
 70
     0
 93
      121
310
905313A3130304000000000000594000
 94
        0
  0
ACAD_PROXY_OBJECT
  5
54
102
{ACAD_REACTORS
330
47
102
}
330
47
100
AcDbProxyObject
 90
      499
 91
      503
 95
   393239
 70
     0
 93
      105
310
903323A310000000000000010140
 94
        0
  0
ACAD_PROXY_OBJECT
  5
55
102
{ACAD_REACTORS
330
47
102
}
330
47
100
AcDbProxyObject
 90
      499
 91
      503
 95
   393239
 70
     0
 93
      105
310
903343A310000000000000410159
 94
        0
  0
ACAD_PROXY_OBJECT
  5
56
102
{ACAD_REACTORS
330
47
102
}
330
47
100
AcDbProxyObject
 90
      499
 91
      503
 95
   393239
 70
     0
 93
      105
310
903383A310000000000000810140
 94
        0
  0
ACAD_PROXY_OBJECT
  5
57
102
{ACAD_REACTORS
330
47
102
}
330
47
100
AcDbProxyObject
 90
      499
 91
      503
 95
   393239
 70
     0
 93
      113
310
90431303A310000000000000910140
 94
        0
  0
ACAD_PROXY_OBJECT
  5
58
102
{ACAD_REACTORS
330
47
102
}
330
47
100
AcDbProxyObject
 90
      499
 91
      503
 95
   393239
 70
     0
 93
      121
310
9053130303A310000000000001650100
 94
        0
  0
ACAD_PROXY_OBJECT
  5
59
102
{ACAD_REACTORS
330
47
102
}
330
47
100
AcDbProxyObject
 90
      499
 91
      503
 95
   393239
 70
     0
 93
      257
310
90E312F31323822203D2031272D3022000000000000200FC000000000000284000
 94
        0
  0
ACAD_PROXY_OBJECT
  5
5A
102
{ACAD_REACTORS
330
47
102
}
330
47
100
AcDbProxyObject
 90
      499
 91
      503
 95
   393239
 70
     0
 93
      249
310
90D312F363422203D2031272D3022000000000000240FC000000000000284000
 94
        0
  0
ACAD_PROXY_OBJECT
  5
5B
102
{ACAD_REACTORS
330
47
102
}
330
47
100
AcDbProxyObject
 90
      499
 91
      503
 95
   393239
 70
     0
 93
      249
310
90D312F333222203D2031272D3022000000000000280FC000000000000284040
 94
        0
  0
ACAD_PROXY_OBJECT
  5
5C
102
{ACAD_REACTORS
330
47
102
}
330
47
100
AcDbProxyObject
 90
      499
 91
      503
 95
   393239
 70
     0
 93
      249
310
90D312F313622203D2031272D30220000000000002C0FC000000000000284000
 94
        0
  0
ACAD_PROXY_OBJECT
  5
5D
102
{ACAD_REACTORS
330
47
102
}
330
47
100
AcDbProxyObject
 90
      499
 91
      503
 95
   393239
 70
     0
 93
      249
310
90D332F333222203D2031272D30220000000000002E0FC000000000000284040
 94
        0
  0
ACAD_PROXY_OBJECT
  5
5E
102
{ACAD_REACTORS
330
47
102
}
330
47
100
AcDbProxyObject
 90
      499
 91
      503
 95
   393239
 70
     0
 93
      241
310
90C312F3822203D2031272D3022000000000000300FC000000000000284040
 94
        0
  0
ACAD_PROXY_OBJECT
  5
5F
102
{ACAD_REACTORS
330
47
102
}
330
47
100
AcDbProxyObject
 90
      499
 91
      503
 95
   393239
 70
     0
 93
      249
310
90D332F313622203D2031272D3022000000000000320FC000000000000284040
 94
        0
  0
ACAD_PROXY_OBJECT
  5
60
102
{ACAD_REACTORS
330
47
102
}
330
47
100
AcDbProxyObject
 90
      499
 91
      503
 95
   393239
 70
     0
 93
      241
310
90C312F3422203D2031272D3022000000000000340FC000000000000284040
 94
        0
  0
ACAD_PROXY_OBJECT
  5
61
102
{ACAD_REACTORS
330
47
102
}
330
47
100
AcDbProxyObject
 90
      499
 91
      503
 95
   393239
 70
     0
 93
      241
310
90C332F3822203D2031272D3022000000000000360FC000000000000284040
 94
        0
  0
ACAD_PROXY_OBJECT
  5
62
102
{ACAD_REACTORS
330
47
102
}
330
47
100
AcDbProxyObject
 90
      499
 91
      503
 95
   393239
 70
     0
 93
      241
310
90C312F3222203D2031272D3022000000000000380FC000000000000284040
 94
        0
  0
ACAD_PROXY_OBJECT
  5
63
102
{ACAD_REACTORS
330
47
102
}
330
47
100
AcDbProxyObject
 90
      499
 91
      503
 95
   393239
 70
     0
 93
      241
310
90C332F3422203D2031272D30220000000000003A0FC000000000000284000
 94
        0
  0
ACAD_PROXY_OBJECT
  5
64
102
{ACAD_REACTORS
330
47
102
}
330
47
100
AcDbProxyObject
 90
      499
 91
      503
 95
   393239
 70
     0
 93
      161
310
90A3122203D2031272D30224000000000000284000
 94
        0
  0
ACAD_PROXY_OBJECT
  5
65
102
{ACAD_REACTORS
330
47
102
}
330
47
100
AcDbProxyObject
 90
      499
 91
      503
 95
   393239
 70
     0
 93
      257
310
90E312D312F3222203D2031272D30220000000000003E0FC000000000000284000
 94
        0
  0
ACAD_PROXY_OBJECT
  5
66
102
{ACAD_REACTORS
330
47
102
}
330
47
100
AcDbProxyObject
 90
      499
 91
      503
 95
   393239
 70
     0
 93
      225
310
90A3322203D2031272D302200000000000002100000000000000284028
 94
        0
  0
ACAD_PROXY_OBJECT
  5
67
102
{ACAD_REACTORS
330
47
102
}
330
47
100
AcDbProxyObject
 90
      499
 91
      503
 95
   393239
 70
     0
 93
      225
310
90A3622203D2031272D302200000000000006100000000000000284000
 94
        0
  0
ACAD_PROXY_OBJECT
  5
68
102
{ACAD_REACTORS
330
47
102
}
330
47
100
AcDbProxyObject
 90
      499
 91
      503
 95
   393239
 70
     0
 93
      249
310
90D31272D3022203D2031272D30220000000000000A100000000000000284040
 94
        0
  0
ENDSEC
  0
EOF
