  0
SECTION
  2
HEADER
  9
$ACADVER
  1
AC1015
  9
$ACADMAINTVER
 70
    20
  9
$DWGCODEPAGE
  3
ANSI_1252
  9
$INSBASE
 10
0.0
 20
0.0
 30
0.0
  9
$EXTMIN
 10
0.7691117832406346
 20
1.167990305850256
 30
0.0
  9
$EXTMAX
 10
8.215830065258582
 20
10.50843494690811
 30
0.0
  9
$LIMMIN
 10
0.0
 20
0.0
  9
$LIMMAX
 10
8.5
 20
11.0
  9
$ORTHOMODE
 70
     0
  9
$REGENMODE
 70
     1
  9
$FILLMODE
 70
     1
  9
$QTEXTMODE
 70
     0
  9
$MIRRTEXT
 70
     1
  9
$LTSCALE
 40
1.0
  9
$ATTMODE
 70
     1
  9
$TEXTSIZE
 40
0.25
  9
$TRACEWID
 40
0.05
  9
$TEXTSTYLE
  7
Standard
  9
$CLAYER
  8
0
  9
$CELTYPE
  6
ByLayer
  9
$CECOLOR
 62
   256
  9
$CELTSCALE
 40
1.0
  9
$DISPSILH
 70
     0
  9
$DIMSCALE
 40
1.0
  9
$DIMASZ
 40
0.156
  9
$DIMEXO
 40
0.05
  9
$DIMDLI
 40
0.38
  9
$DIMRND
 40
0.0
  9
$DIMDLE
 40
0.0
  9
$DIMEXE
 40
0.125
  9
$DIMTP
 40
0.0
  9
$DIMTM
 40
0.0
  9
$DIMTXT
 40
0.125
  9
$DIMCEN
 40
0.09
  9
$DIMTSZ
 40
0.0
  9
$DIMTOL
 70
     0
  9
$DIMLIM
 70
     0
  9
$DIMTIH
 70
     1
  9
$DIMTOH
 70
     1
  9
$DIMSE1
 70
     0
  9
$DIMSE2
 70
     0
  9
$DIMTAD
 70
     0
  9
$DIMZIN
 70
     0
  9
$DIMBLK
  1

  9
$DIMASO
 70
     1
  9
$DIMSHO
 70
     1
  9
$DIMPOST
  1

  9
$DIMAPOST
  1

  9
$DIMALT
 70
     0
  9
$DIMALTD
 70
     2
  9
$DIMALTF
 40
25.4
  9
$DIMLFAC
 40
12.0
  9
$DIMTOFL
 70
     0
  9
$DIMTVP
 40
0.0
  9
$DIMTIX
 70
     0
  9
$DIMSOXD
 70
     0
  9
$DIMSAH
 70
     0
  9
$DIMBLK1
  1

  9
$DIMBLK2
  1

  9
$DIMSTYLE
  2
Standard
  9
$DIMCLRD
 70
     0
  9
$DIMCLRE
 70
     0
  9
$DIMCLRT
 70
     0
  9
$DIMTFAC
 40
1.0
  9
$DIMGAP
 40
0.06
  9
$DIMJUST
 70
     0
  9
$DIMSD1
 70
     0
  9
$DIMSD2
 70
     0
  9
$DIMTOLJ
 70
     1
  9
$DIMTZIN
 70
     0
  9
$DIMALTZ
 70
     0
  9
$DIMALTTZ
 70
     0
  9
$DIMUPT
 70
     0
  9
$DIMDEC
 70
     3
  9
$DIMTDEC
 70
     3
  9
$DIMALTU
 70
     2
  9
$DIMALTTD
 70
     2
  9
$DIMTXSTY
  7
Standard
  9
$DIMAUNIT
 70
     0
  9
$DIMADEC
 70
     0
  9
$DIMALTRND
 40
0.0
  9
$DIMAZIN
 70
     0
  9
$DIMDSEP
 70
    46
  9
$DIMATFIT
 70
     3
  9
$DIMFRAC
 70
     0
  9
$DIMLDRBLK
  1

  9
$DIMLUNIT
 70
     2
  9
$DIMLWD
 70
    -2
  9
$DIMLWE
 70
    -2
  9
$DIMTMOVE
 70
     0
  9
$LUNITS
 70
     2
  9
$LUPREC
 70
     3
  9
$SKETCHINC
 40
0.1
  9
$FILLETRAD
 40
0.5
  9
$AUNITS
 70
     0
  9
$AUPREC
 70
     0
  9
$MENU
  1
.
  9
$ELEVATION
 40
0.0
  9
$PELEVATION
 40
0.0
  9
$THICKNESS
 40
0.0
  9
$LIMCHECK
 70
     0
  9
$CHAMFERA
 40
0.5
  9
$CHAMFERB
 40
0.5
  9
$CHAMFERC
 40
1.0
  9
$CHAMFERD
 40
0.0
  9
$SKPOLY
 70
     0
  9
$TDCREATE
 40
2456569.328874271
  9
$TDUCREATE
 40
2456569.578874271
  9
$TDUPDATE
 40
2456702.808487986
  9
$TDUUPDATE
 40
2456703.058487986
  9
$TDINDWG
 40
0.0010697338
  9
$TDUSRTIMER
 40
0.0010697338
  9
$USRTIMER
 70
     1
  9
$ANGBASE
 50
0.0
  9
$ANGDIR
 70
     0
  9
$PDMODE
 70
     0
  9
$PDSIZE
 40
-1.0
  9
$PLINEWID
 40
0.0
  9
$SPLFRAME
 70
     0
  9
$SPLINETYPE
 70
     6
  9
$SPLINESEGS
 70
     8
  9
$HANDSEED
  5
438
  9
$SURFTAB1
 70
     6
  9
$SURFTAB2
 70
     6
  9
$SURFTYPE
 70
     6
  9
$SURFU
 70
     6
  9
$SURFV
 70
     6
  9
$UCSBASE
  2

  9
$UCSNAME
  2

  9
$UCSORG
 10
0.0
 20
0.0
 30
0.0
  9
$UCSXDIR
 10
1.0
 20
0.0
 30
0.0
  9
$UCSYDIR
 10
0.0
 20
1.0
 30
0.0
  9
$UCSORTHOREF
  2

  9
$UCSORTHOVIEW
 70
     0
  9
$UCSORGTOP
 10
0.0
 20
0.0
 30
0.0
  9
$UCSORGBOTTOM
 10
0.0
 20
0.0
 30
0.0
  9
$UCSORGLEFT
 10
0.0
 20
0.0
 30
0.0
  9
$UCSORGRIGHT
 10
0.0
 20
0.0
 30
0.0
  9
$UCSORGFRONT
 10
0.0
 20
0.0
 30
0.0
  9
$UCSORGBACK
 10
0.0
 20
0.0
 30
0.0
  9
$PUCSBASE
  2

  9
$PUCSNAME
  2

  9
$PUCSORG
 10
0.0
 20
0.0
 30
0.0
  9
$PUCSXDIR
 10
1.0
 20
0.0
 30
0.0
  9
$PUCSYDIR
 10
0.0
 20
1.0
 30
0.0
  9
$PUCSORTHOREF
  2

  9
$PUCSORTHOVIEW
 70
     0
  9
$PUCSORGTOP
 10
0.0
 20
0.0
 30
0.0
  9
$PUCSORGBOTTOM
 10
0.0
 20
0.0
 30
0.0
  9
$PUCSORGLEFT
 10
0.0
 20
0.0
 30
0.0
  9
$PUCSORGRIGHT
 10
0.0
 20
0.0
 30
0.0
  9
$PUCSORGFRONT
 10
0.0
 20
0.0
 30
0.0
  9
$PUCSORGBACK
 10
0.0
 20
0.0
 30
0.0
  9
$USERI1
 70
     0
  9
$USERI2
 70
     0
  9
$USERI3
 70
     0
  9
$USERI4
 70
     0
  9
$USERI5
 70
     0
  9
$USERR1
 40
0.0
  9
$USERR2
 40
0.0
  9
$USERR3
 40
0.0
  9
$USERR4
 40
0.0
  9
$USERR5
 40
0.0
  9
$WORLDVIEW
 70
     1
  9
$SHADEDGE
 70
     3
  9
$SHADEDIF
 70
    70
  9
$TILEMODE
 70
     1
  9
$MAXACTVP
 70
    64
  9
$PINSBASE
 10
0.0
 20
0.0
 30
0.0
  9
$PLIMCHECK
 70
     0
  9
$PEXTMIN
 10
1.000000000000000E+20
 20
1.000000000000000E+20
 30
1.000000000000000E+20
  9
$PEXTMAX
 10
-1.000000000000000E+20
 20
-1.000000000000000E+20
 30
-1.000000000000000E+20
  9
$PLIMMIN
 10
0.0
 20
0.0
  9
$PLIMMAX
 10
12.0
 20
9.0
  9
$UNITMODE
 70
     0
  9
$VISRETAIN
 70
     1
  9
$PLINEGEN
 70
     0
  9
$PSLTSCALE
 70
     1
  9
$TREEDEPTH
 70
  3020
  9
$CMLSTYLE
  2
Standard
  9
$CMLJUST
 70
     0
  9
$CMLSCALE
 40
1.0
  9
$PROXYGRAPHICS
 70
     1
  9
$MEASUREMENT
 70
     0
  9
$CELWEIGHT
370
    -1
  9
$ENDCAPS
280
     0
  9
$JOINSTYLE
280
     0
  9
$LWDISPLAY
290
     1
  9
$INSUNITS
 70
     1
  9
$HYPERLINKBASE
  1

  9
$STYLESHEET
  1

  9
$XEDIT
290
     1
  9
$CEPSNTYPE
380
     0
  9
$PSTYLEMODE
290
     1
  9
$FINGERPRINTGUID
  2
{42E8E2CF-98C9-45C5-AC08-24D3997547D2}
  9
$VERSIONGUID
  2
{1849680C-9794-4F4B-BCA4-50B7DA56B244}
  9
$EXTNAMES
290
     1
  9
$PSVPSCALE
 40
0.0
  9
$OLESTARTUP
290
     0
  0
ENDSEC
  0
SECTION
  2
CLASSES
  0
CLASS
  1
ACDBDICTIONARYWDFLT
  2
AcDbDictionaryWithDefault
  3
ObjectDBX Classes
 90
        0
280
     0
281
     0
  0
CLASS
  1
VISUALSTYLE
  2
AcDbVisualStyle
  3
ObjectDBX Classes
 90
    36863
280
     0
281
     0
  0
CLASS
  1
MATERIAL
  2
AcDbMaterial
  3
ObjectDBX Classes
 90
    32768
280
     0
281
     0
  0
CLASS
  1
ACDBPLACEHOLDER
  2
AcDbPlaceHolder
  3
ObjectDBX Classes
 90
        0
280
     0
281
     0
  0
CLASS
  1
LAYOUT
  2
AcDbLayout
  3
ObjectDBX Classes
 90
        0
280
     0
281
     0
  0
CLASS
  1
DICTIONARYVAR
  2
AcDbDictionaryVar
  3
ObjectDBX Classes
 90
        0
280
     0
281
     0
  0
ENDSEC
  0
SECTION
  2
TABLES
  0
TABLE
  2
VPORT
  5
8
330
0
100
AcDbSymbolTable
 70
     3
  0
VPORT
  5
42E
330
8
100
AcDbSymbolTableRecord
100
AcDbViewportTableRecord
  2
*Active
 70
     0
 10
0.0
 20
0.0
 11
1.0
 21
1.0
 12
5.127522850537737
 22
2.618740650746644
 13
0.0
 23
0.0
 14
0.5
 24
0.5
 15
0.5
 25
0.5
 16
0.0
 26
0.0
 36
1.0
 17
0.0
 27
0.0
 37
0.0
 40
4.243086453006483
 41
2.271270036991368
 42
50.0
 43
0.0
 44
0.0
 50
0.0
 51
0.0
 71
     0
 72
  2000
 73
     1
 74
     3
 75
     0
 76
     0
 77
     0
 78
     0
281
     0
 65
     1
110
0.0
120
0.0
130
0.0
111
1.0
121
0.0
131
0.0
112
0.0
122
1.0
132
0.0
 79
     0
146
0.0
  0
ENDTAB
  0
TABLE
  2
LTYPE
  5
5
330
0
100
AcDbSymbolTable
 70
     6
  0
LTYPE
  5
14
330
5
100
AcDbSymbolTableRecord
100
AcDbLinetypeTableRecord
  2
ByBlock
 70
     0
  3

 72
    65
 73
     0
 40
0.0
  0
LTYPE
  5
15
330
5
100
AcDbSymbolTableRecord
100
AcDbLinetypeTableRecord
  2
ByLayer
 70
     0
  3

 72
    65
 73
     0
 40
0.0
  0
LTYPE
  5
16
330
5
100
AcDbSymbolTableRecord
100
AcDbLinetypeTableRecord
  2
Continuous
 70
     0
  3
Solid line
 72
    65
 73
     0
 40
0.0
  0
LTYPE
  5
3F
330
5
100
AcDbSymbolTableRecord
100
AcDbLinetypeTableRecord
  2
HIDDEN
 70
     0
  3
Hidden __ __ __ __ __ __ __ __ __ __ __ __ __ __
 72
    65
 73
     2
 40
0.075
 49
0.05
 74
     0
 49
-0.025
 74
     0
  0
LTYPE
  5
40
330
5
100
AcDbSymbolTableRecord
100
AcDbLinetypeTableRecord
  2
PHANTOM
 70
     0
  3
Phantom ______  __  __  ______  __  __  ______
 72
    65
 73
     6
 40
0.5
 49
0.25
 74
     0
 49
-0.05
 74
     0
 49
0.05
 74
     0
 49
-0.05
 74
     0
 49
0.05
 74
     0
 49
-0.05
 74
     0
  0
LTYPE
  5
41
330
5
100
AcDbSymbolTableRecord
100
AcDbLinetypeTableRecord
  2
CENTER
 70
     0
  3
Center ____ _ ____ _ ____ _ ____ _ ____ _ ____
 72
    65
 73
     4
 40
0.4
 49
0.25
 74
     0
 49
-0.05
 74
     0
 49
0.05
 74
     0
 49
-0.05
 74
     0
  0
LTYPE
  5
42
330
5
100
AcDbSymbolTableRecord
100
AcDbLinetypeTableRecord
  2
CENTERX2
 70
     0
  3
Center (2x) ________  __  ________  __  _____
 72
    65
 73
     4
 40
0.8
 49
0.5
 74
     0
 49
-0.1
 74
     0
 49
0.1
 74
     0
 49
-0.1
 74
     0
  0
LTYPE
  5
43
330
5
100
AcDbSymbolTableRecord
100
AcDbLinetypeTableRecord
  2
DOT2
 70
     0
  3
Dot (.5x) ........................................
 72
    65
 73
     2
 40
0.025
 49
0.0
 74
     0
 49
-0.025
 74
     0
  0
ENDTAB
  0
TABLE
  2
LAYER
  5
2
330
0
100
AcDbSymbolTable
 70
     8
  0
LAYER
  5
10
330
2
100
AcDbSymbolTableRecord
100
AcDbLayerTableRecord
  2
0
 70
     0
 62
     7
  6
Continuous
370
    -3
390
F
  0
LAYER
  5
44
330
2
100
AcDbSymbolTableRecord
100
AcDbLayerTableRecord
  2
SLD-0
 70
     0
 62
   179
  6
Continuous
370
    -3
390
F
  0
LAYER
  5
45
330
2
100
AcDbSymbolTableRecord
100
AcDbLayerTableRecord
  2
SLD-DEFPOINTS
 70
     0
 62
   179
  6
Continuous
370
    -3
390
F
  0
LAYER
  5
46
330
2
100
AcDbSymbolTableRecord
100
AcDbLayerTableRecord
  2
OBJ
 70
     0
 62
   179
  6
Continuous
370
    -3
390
F
  0
LAYER
  5
47
330
2
100
AcDbSymbolTableRecord
100
AcDbLayerTableRecord
  2
FORMAT
 70
     0
 62
     7
  6
Continuous
370
    -3
390
F
  0
LAYER
  5
48
330
2
100
AcDbSymbolTableRecord
100
AcDbLayerTableRecord
  2
BLANK-SIZE-1
 70
     0
 62
     7
  6
Continuous
370
    -3
390
F
  0
LAYER
  5
49
330
2
100
AcDbSymbolTableRecord
100
AcDbLayerTableRecord
  2
TOLERANCES
 70
     0
 62
     7
  6
Continuous
370
    -3
390
F
  0
LAYER
  5
4A
330
2
100
AcDbSymbolTableRecord
100
AcDbLayerTableRecord
  2
QTY-BLANK-SIZE-1
 70
     0
 62
     7
  6
Continuous
370
    -3
390
F
  0
ENDTAB
  0
TABLE
  2
STYLE
  5
3
330
0
100
AcDbSymbolTable
 70
     2
  0
STYLE
  5
11
330
3
100
AcDbSymbolTableRecord
100
AcDbTextStyleTableRecord
  2
Standard
 70
     0
 40
0.0
 41
1.0
 50
0.0
 71
     0
 42
0.25
  3
txt
  4

  0
STYLE
  5
41C
330
3
100
AcDbSymbolTableRecord
100
AcDbTextStyleTableRecord
  2
SLDTEXTSTYLE0
 70
     0
 40
0.0
 41
0.7
 50
0.0
 71
     0
 42
0.2
  3
TXT
  4

  0
ENDTAB
  0
TABLE
  2
VIEW
  5
6
330
0
100
AcDbSymbolTable
 70
     0
  0
ENDTAB
  0
TABLE
  2
UCS
  5
7
330
0
100
AcDbSymbolTable
 70
     0
  0
ENDTAB
  0
TABLE
  2
APPID
  5
9
330
0
100
AcDbSymbolTable
 70
     1
  0
APPID
  5
12
330
9
100
AcDbSymbolTableRecord
100
AcDbRegAppTableRecord
  2
ACAD
 70
     0
  0
ENDTAB
  0
TABLE
  2
DIMSTYLE
  5
A
330
0
100
AcDbSymbolTable
 70
     1
100
AcDbDimStyleTable
 71
     0
  0
DIMSTYLE
105
27
330
A
100
AcDbSymbolTableRecord
100
AcDbDimStyleTableRecord
  2
Standard
 70
     0
340
11
  0
ENDTAB
  0
TABLE
  2
BLOCK_RECORD
  5
1
330
0
100
AcDbSymbolTable
 70
     1
  0
BLOCK_RECORD
  5
1F
330
1
100
AcDbSymbolTableRecord
100
AcDbBlockTableRecord
  2
*Model_Space
340
22
  0
BLOCK_RECORD
  5
1B
330
1
100
AcDbSymbolTableRecord
100
AcDbBlockTableRecord
  2
*Paper_Space
340
1E
  0
BLOCK_RECORD
  5
23
330
1
100
AcDbSymbolTableRecord
100
AcDbBlockTableRecord
  2
*Paper_Space0
340
26
  0
ENDTAB
  0
ENDSEC
  0
SECTION
  2
BLOCKS
  0
BLOCK
  5
20
330
1F
100
AcDbEntity
  8
0
100
AcDbBlockBegin
  2
*Model_Space
 70
     0
 10
0.0
 20
0.0
 30
0.0
  3
*Model_Space
  1

  0
ENDBLK
  5
21
330
1F
100
AcDbEntity
  8
0
100
AcDbBlockEnd
  0
BLOCK
  5
1C
330
1B
100
AcDbEntity
 67
     1
  8
0
100
AcDbBlockBegin
  2
*Paper_Space
 70
     0
 10
0.0
 20
0.0
 30
0.0
  3
*Paper_Space
  1

  0
ENDBLK
  5
1D
330
1B
100
AcDbEntity
 67
     1
  8
0
100
AcDbBlockEnd
  0
BLOCK
  5
24
330
23
100
AcDbEntity
  8
0
100
AcDbBlockBegin
  2
*Paper_Space0
 70
     0
 10
0.0
 20
0.0
 30
0.0
  3
*Paper_Space0
  1

  0
ENDBLK
  5
25
330
23
100
AcDbEntity
  8
0
100
AcDbBlockEnd
  0
ENDSEC
  0
SECTION
  2
ENTITIES
  0
LINE
  5
4B
330
1F
100
AcDbEntity
  8
0
  6
Continuous
 62
     7
370
    15
100
AcDbLine
 10
6.506267293646613
 20
7.543584317690387
 30
0.0
 11
6.513338363447179
 21
7.541689899942295
 31
0.0
  0
LINE
  5
4C
330
1F
100
AcDbEntity
  8
0
  6
Continuous
 62
     7
370
    15
100
AcDbLine
 10
6.506267293646613
 20
7.182292979496975
 30
0.0
 11
6.513338363447179
 21
7.180398561748885
 31
0.0
  0
LINE
  5
4D
330
1F
100
AcDbEntity
  8
0
  6
Continuous
 62
     7
370
    15
100
AcDbLine
 10
6.506267293646613
 20
6.821001605977705
 30
0.0
 11
6.513338363447179
 21
6.819107188229614
 31
0.0
  0
LINE
  5
4E
330
1F
100
AcDbEntity
  8
0
  6
Continuous
 62
     7
370
    15
100
AcDbLine
 10
7.148230856521461
 20
7.707607120789146
 30
0.0
 11
7.141159786720896
 21
7.709501538537236
 31
0.0
  0
LINE
  5
4F
330
1F
100
AcDbEntity
  8
0
  6
Continuous
 62
     7
370
    15
100
AcDbLine
 10
7.148230856521461
 20
7.346315782595734
 30
0.0
 11
7.141159786720896
 21
7.348210200343824
 31
0.0
  0
LINE
  5
50
330
1F
100
AcDbEntity
  8
0
  6
Continuous
 62
     7
370
    15
100
AcDbLine
 10
7.148230856521461
 20
6.985024409076463
 30
0.0
 11
7.141159786720896
 21
6.986918826824555
 31
0.0
  0
LINE
  5
51
330
1F
100
AcDbEntity
  8
0
  6
Continuous
 62
     7
370
    15
100
AcDbLine
 10
6.72838622809063
 20
9.868251100996834
 30
0.0
 11
6.721315158290065
 21
9.870145518744925
 31
0.0
  0
LINE
  5
52
330
1F
100
AcDbEntity
  8
0
  6
Continuous
 62
     7
370
    15
100
AcDbLine
 10
6.993551300239703
 20
9.939291754394538
 30
0.0
 11
6.986480230439135
 21
9.941186172142629
 31
0.0
  0
LINE
  5
53
330
1F
100
AcDbEntity
  8
0
  6
Continuous
 62
     7
370
    15
100
AcDbLine
 10
6.749335241880662
 20
8.978601381495046
 30
0.0
 11
6.756406311681229
 21
8.976706963746954
 31
0.0
  0
LINE
  5
54
330
1F
100
AcDbEntity
  8
0
  6
Continuous
 62
     7
370
    15
100
AcDbLine
 10
7.014500314029734
 20
9.04964203489275
 30
0.0
 11
7.021571383830299
 21
9.04774761714466
 31
0.0
  0
LINE
  5
55
330
1F
100
AcDbEntity
  8
0
  6
Continuous
 62
     7
370
    15
100
AcDbLine
 10
3.899959091749255
 20
6.835929750568401
 30
0.0
 11
3.892888023974231
 21
6.837824167773826
 31
0.0
  0
LINE
  5
56
330
1F
100
AcDbEntity
  8
0
  6
Continuous
 62
     7
370
    15
100
AcDbLine
 10
4.165124163898326
 20
6.906970403966104
 30
0.0
 11
4.158053096123303
 21
6.90886482117153
 31
0.0
  0
LINE
  5
57
330
1F
100
AcDbEntity
  8
0
  6
Continuous
 62
     7
370
    15
100
AcDbLine
 10
3.920908107564829
 20
5.946280154164454
 30
0.0
 11
3.927979175339853
 21
5.944385736959028
 31
0.0
  0
LINE
  5
58
330
1F
100
AcDbEntity
  8
0
  6
Continuous
 62
     7
370
    15
100
AcDbLine
 10
4.186073179713901
 20
6.017320807562157
 30
0.0
 11
4.193144247488924
 21
6.015426390356732
 31
0.0
  0
LINE
  5
59
330
1F
100
AcDbEntity
  8
0
  6
Continuous
 62
     7
370
    15
100
AcDbLine
 10
4.236200595145524
 20
6.049590939766225
 30
0.0
 11
4.245481371828115
 21
6.047104517123053
 31
0.0
  0
LINE
  5
5A
330
1F
100
AcDbEntity
  8
0
  6
Continuous
 62
     7
370
    15
100
AcDbLine
 10
4.265698895638778
 20
6.122568201984489
 30
0.0
 11
4.256418118956186
 21
6.125054624627661
 31
0.0
  0
SPLINE
  5
5B
330
1F
100
AcDbEntity
  8
0
  6
Continuous
 62
     7
370
    15
100
AcDbSpline
210
0.0
220
0.0
230
1.0
 70
     8
 71
     3
 72
    17
 73
    13
 74
     0
 42
0.0000000001
 43
0.0000000001
 40
0.0
 40
0.0
 40
0.0
 40
0.0
 40
0.0035602073484407
 40
0.1247164169642385
 40
0.2459649343268399
 40
0.3672171458007311
 40
0.488450897052573
 40
0.6096669788813927
 40
0.7308820256761833
 40
0.8521172056803653
 40
0.9670398669777087
 40
1.0
 40
1.0
 40
1.0
 40
1.0
 10
4.23374706839809
 20
6.117839574549848
 30
0.0
 10
4.23371317733918
 20
6.117811595031101
 30
0.0
 10
4.23252595114119
 20
6.116831453992921
 30
0.0
 10
4.230388533105849
 20
6.114386861820936
 30
0.0
 10
4.227423737818654
 20
6.110534462228994
 30
0.0
 10
4.224823908385156
 20
6.106199272455316
 30
0.0
 10
4.222602978355421
 20
6.101544014647483
 30
0.0
 10
4.220808868195614
 20
6.09662987199534
 30
0.0
 10
4.219469541650638
 20
6.091549926204482
 30
0.0
 10
4.218629745984588
 20
6.086484807671286
 30
0.0
 10
4.218343017416859
 20
6.082678530985688
 30
0.0
 10
4.21832569391174
 20
6.080618603175826
 30
0.0
 10
4.218321832847066
 20
6.080159486245138
 30
0.0
  0
SPLINE
  5
5C
330
1F
100
AcDbEntity
  8
0
  6
Continuous
 62
     7
370
    15
100
AcDbSpline
210
0.0
220
0.0
230
1.0
 70
     8
 71
     3
 72
    11
 73
     7
 74
     0
 42
0.0000000001
 43
0.0000000001
 40
0.0
 40
0.0
 40
0.0
 40
0.0
 40
0.1969879661167549
 40
0.570261839656217
 40
0.943980839368505
 40
1.0
 40
1.0
 40
1.0
 40
1.0
 10
4.218321832847066
 20
6.080159486245138
 30
0.0
 10
4.218335039879679
 20
6.079272387809631
 30
0.0
 10
4.218373273010681
 20
6.076704320349666
 30
0.0
 10
4.218858737482588
 20
6.072606798704293
 30
0.0
 10
4.21948542001394
 20
6.069208677249771
 30
0.0
 10
4.220068567775886
 20
6.067576367533711
 30
0.0
 10
4.220144584874581
 20
6.067363585359302
 30
0.0
  0
LINE
  5
5D
330
1F
100
AcDbEntity
  8
0
  6
Continuous
 62
     7
370
    15
100
AcDbLine
 10
4.36878313122006
 20
6.265756970887641
 30
0.0
 11
4.378063907902651
 21
6.263270548244469
 31
0.0
  0
LINE
  5
5E
330
1F
100
AcDbEntity
  8
0
  6
Continuous
 62
     7
370
    15
100
AcDbLine
 10
4.398281431713313
 20
6.338734197780047
 30
0.0
 11
4.389000655030723
 21
6.341220620423218
 31
0.0
  0
SPLINE
  5
5F
330
1F
100
AcDbEntity
  8
0
  6
Continuous
 62
     7
370
    15
100
AcDbSpline
210
0.0
220
0.0
230
1.0
 70
     8
 71
     3
 72
    17
 73
    13
 74
     0
 42
0.0000000001
 43
0.0000000001
 40
0.0
 40
0.0
 40
0.0
 40
0.0
 40
0.003563332890586
 40
0.1247170099620953
 40
0.2459654868579879
 40
0.3672176578639373
 40
0.4884506862233159
 40
0.6096674712690586
 40
0.7308829092781603
 40
0.8521172594274567
 40
0.9670407263803772
 40
1.0
 40
1.0
 40
1.0
 40
1.0
 10
4.366329604472626
 20
6.334005605671265
 30
0.0
 10
4.366295678708237
 20
6.333977617282628
 30
0.0
 10
4.365108273538653
 20
6.332998020862192
 30
0.0
 10
4.362971139332476
 20
6.330552562837103
 30
0.0
 10
4.36000624749077
 20
6.326700531050827
 30
0.0
 10
4.357406464442215
 20
6.322365252761387
 30
0.0
 10
4.35518548385537
 20
6.317710040167148
 30
0.0
 10
4.353391457185527
 20
6.312795857950312
 30
0.0
 10
4.352051903494952
 20
6.307715959438314
 30
0.0
 10
4.351212323089611
 20
6.302650810697759
 30
0.0
 10
4.350925552369875
 20
6.298844550947795
 30
0.0
 10
4.350908229700697
 20
6.296784622610609
 30
0.0
 10
4.350904368921602
 20
6.296325517366555
 30
0.0
  0
SPLINE
  5
60
330
1F
100
AcDbEntity
  8
0
  6
Continuous
 62
     7
370
    15
100
AcDbSpline
210
0.0
220
0.0
230
1.0
 70
     8
 71
     3
 72
    11
 73
     7
 74
     0
 42
0.0000000001
 43
0.0000000001
 40
0.0
 40
0.0
 40
0.0
 40
0.0
 40
0.1969879661167549
 40
0.570261839656217
 40
0.943980839368505
 40
1.0
 40
1.0
 40
1.0
 40
1.0
 10
4.350904368921602
 20
6.296325517366555
 30
0.0
 10
4.350917575954215
 20
6.295438418931047
 30
0.0
 10
4.350955809085217
 20
6.292870351471083
 30
0.0
 10
4.351441273557125
 20
6.28877282982571
 30
0.0
 10
4.352067956088477
 20
6.285374708371188
 30
0.0
 10
4.352651103850421
 20
6.283742398655128
 30
0.0
 10
4.352727120949117
 20
6.28352961648072
 30
0.0
  0
LINE
  5
61
330
1F
100
AcDbEntity
  8
0
  6
Continuous
 62
     7
370
    15
100
AcDbLine
 10
6.534297585973431
 20
8.939830807095553
 30
0.0
 11
6.543578364276456
 21
8.937344384018251
 31
0.0
  0
LINE
  5
62
330
1F
100
AcDbEntity
  8
0
  6
Continuous
 62
     7
370
    15
100
AcDbLine
 10
6.56379588808712
 20
9.012808104205547
 30
0.0
 11
6.554515109784094
 21
9.015294527282851
 31
0.0
  0
SPLINE
  5
63
330
1F
100
AcDbEntity
  8
0
  6
Continuous
 62
     7
370
    15
100
AcDbSpline
210
0.0
220
0.0
230
1.0
 70
     8
 71
     3
 72
    17
 73
    13
 74
     0
 42
0.0000000001
 43
0.0000000001
 40
0.0
 40
0.0
 40
0.0
 40
0.0
 40
0.0035598950965893
 40
0.1247150962852394
 40
0.2459610873224188
 40
0.3672175738912396
 40
0.4884512644505719
 40
0.6096649928855738
 40
0.7308818842985085
 40
0.8521185112161628
 40
0.967043940228358
 40
1.0
 40
1.0
 40
1.0
 40
1.0
 10
6.531844060441322
 20
9.008079476879439
 30
0.0
 10
6.531810169523811
 20
9.00805150925178
 30
0.0
 10
6.530622856716577
 20
9.007071709206668
 30
0.0
 10
6.528485754225364
 20
9.004626487990945
 30
0.0
 10
6.525520698581438
 20
9.000774583293729
 30
0.0
 10
6.522921080766533
 20
8.996439127114705
 30
0.0
 10
6.520700075143929
 20
8.991783953497199
 30
0.0
 10
6.518905965384003
 20
8.986869843803296
 30
0.0
 10
6.517566510704008
 20
8.981789951054732
 30
0.0
 10
6.516726695301298
 20
8.976724753224889
 30
0.0
 10
6.516440126854259
 20
8.972918518005696
 30
0.0
 10
6.516422789475697
 20
8.97085861674987
 30
0.0
 10
6.516418925762335
 20
8.970399558422361
 30
0.0
  0
SPLINE
  5
64
330
1F
100
AcDbEntity
  8
0
  6
Continuous
 62
     7
370
    15
100
AcDbSpline
210
0.0
220
0.0
230
1.0
 70
     8
 71
     3
 72
    11
 73
     7
 74
     0
 42
0.0000000001
 43
0.0000000001
 40
0.0
 40
0.0
 40
0.0
 40
0.0
 40
0.1969942108345676
 40
0.5702611067078997
 40
0.9439796202698842
 40
1.0
 40
1.0
 40
1.0
 40
1.0
 10
6.516418925762335
 20
8.970399558422361
 30
0.0
 10
6.516432133937511
 20
8.969512423817837
 30
0.0
 10
6.516470369114888
 20
8.966944336363734
 30
0.0
 10
6.516955778431371
 20
8.962846802090247
 30
0.0
 10
6.517582209679122
 20
8.959448444540484
 30
0.0
 10
6.518165627237021
 20
8.957816345053373
 30
0.0
 10
6.51824168103072
 20
8.957603586016542
 30
0.0
  0
LINE
  5
65
330
1F
100
AcDbEntity
  8
0
  6
Continuous
 62
     7
370
    15
100
AcDbLine
 10
7.10882187439382
 20
7.212026431951486
 30
0.0
 11
7.118102652696845
 21
7.209540008874183
 31
0.0
  0
LINE
  5
66
330
1F
100
AcDbEntity
  8
0
  6
Continuous
 62
     7
370
    15
100
AcDbLine
 10
7.138320176507509
 20
7.285003658409761
 30
0.0
 11
7.129039398204484
 21
7.287490081487064
 31
0.0
  0
SPLINE
  5
67
330
1F
100
AcDbEntity
  8
0
  6
Continuous
 62
     7
370
    15
100
AcDbSpline
210
0.0
220
0.0
230
1.0
 70
     8
 71
     3
 72
    17
 73
    13
 74
     0
 42
0.0000000001
 43
0.0000000001
 40
0.0
 40
0.0
 40
0.0
 40
0.0
 40
0.0035598777566525
 40
0.1247165496410422
 40
0.2459650986240179
 40
0.3672173404045228
 40
0.4884518053094446
 40
0.6096679180021965
 40
0.7308814124792202
 40
0.8521174488638965
 40
0.9670406300559552
 40
1.0
 40
1.0
 40
1.0
 40
1.0
 10
7.106368348861711
 20
7.280275031083653
 30
0.0
 10
7.106334457959898
 20
7.28024706342712
 30
0.0
 10
7.105147126082968
 20
7.279267246179807
 30
0.0
 10
7.103009868800836
 20
7.276822172389779
 30
0.0
 10
7.100045000299857
 20
7.272969959797066
 30
0.0
 10
7.097445187209386
 20
7.268634711952628
 30
0.0
 10
7.095224261909115
 20
7.263979446308532
 30
0.0
 10
7.093430155803093
 20
7.259065311884871
 30
0.0
 10
7.092090826613387
 20
7.253985391720739
 30
0.0
 10
7.091250939230321
 20
7.248920252133965
 30
0.0
 10
7.090964520092212
 20
7.24511402499959
 30
0.0
 10
7.090947012487758
 20
7.243054059087179
 30
0.0
 10
7.090943110474928
 20
7.242594943538674
 30
0.0
  0
SPLINE
  5
68
330
1F
100
AcDbEntity
  8
0
  6
Continuous
 62
     7
370
    15
100
AcDbSpline
210
0.0
220
0.0
230
1.0
 70
     8
 71
     3
 72
    11
 73
     7
 74
     0
 42
0.0000000001
 43
0.0000000001
 40
0.0
 40
0.0
 40
0.0
 40
0.0
 40
0.1969859146885997
 40
0.5702614375305197
 40
0.943978368961236
 40
0.9999999999999998
 40
0.9999999999999998
 40
0.9999999999999998
 40
0.9999999999999998
 10
7.090943110474928
 20
7.242594943538674
 30
0.0
 10
7.090956364365511
 20
7.241707870423915
 30
0.0
 10
7.090994733518496
 20
7.239139851332723
 30
0.0
 10
7.091479935845041
 20
7.235042237759291
 30
0.0
 10
7.092106731153901
 20
7.23164416656001
 30
0.0
 10
7.092689849232971
 20
7.230011835876744
 30
0.0
 10
7.092765865743312
 20
7.229799041784573
 30
0.0
  0
LINE
  5
69
330
1F
100
AcDbEntity
  8
0
  6
Continuous
 62
     7
370
    15
100
AcDbLine
 10
6.976239338319285
 20
7.357151739023481
 30
0.0
 11
6.98552011662231
 21
7.354665315946177
 31
0.0
  0
LINE
  5
6A
330
1F
100
AcDbEntity
  8
0
  6
Continuous
 62
     7
370
    15
100
AcDbLine
 10
7.005737640432974
 20
7.430129036133474
 30
0.0
 11
6.996456862129947
 21
7.432615459210777
 31
0.0
  0
SPLINE
  5
6B
330
1F
100
AcDbEntity
  8
0
  6
Continuous
 62
     7
370
    15
100
AcDbSpline
210
0.0
220
0.0
230
1.0
 70
     8
 71
     3
 72
    17
 73
    13
 74
     0
 42
0.0000000001
 43
0.0000000001
 40
0.0
 40
0.0
 40
0.0
 40
0.0
 40
0.0035605441560214
 40
0.1247165489721245
 40
0.2459636754952239
 40
0.3672172587613958
 40
0.4884499015273027
 40
0.6096662097320499
 40
0.7308827062204357
 40
0.8521172874288728
 40
0.9670406539829265
 40
1.0
 40
1.0
 40
1.0
 40
1.0
 10
6.973785812787176
 20
7.425400408807366
 30
0.0
 10
6.973751921987662
 20
7.425372417309353
 30
0.0
 10
6.972564815924044
 20
7.424391948347392
 30
0.0
 10
6.970427197238818
 20
7.421947907016663
 30
0.0
 10
6.967462634925727
 20
7.418095111377357
 30
0.0
 10
6.964862606917198
 20
7.413760207894821
 30
0.0
 10
6.96264184668674
 20
7.4091047922117
 30
0.0
 10
6.960847730262212
 20
7.404190682161604
 30
0.0
 10
6.959508271618502
 20
7.39911076281205
 30
0.0
 10
6.958668447039121
 20
7.394045616185588
 30
0.0
 10
6.958381874551627
 20
7.390239377925496
 30
0.0
 10
6.958364541263248
 20
7.388179454329585
 30
0.0
 10
6.958360678108189
 20
7.387720349046851
 30
0.0
  0
SPLINE
  5
6C
330
1F
100
AcDbEntity
  8
0
  6
Continuous
 62
     7
370
    15
100
AcDbSpline
210
0.0
220
0.0
230
1.0
 70
     8
 71
     3
 72
    11
 73
     7
 74
     0
 42
0.0000000001
 43
0.0000000001
 40
0.0
 40
0.0
 40
0.0
 40
0.0
 40
0.1969908220878662
 40
0.5702611873026356
 40
0.9439831744036329
 40
1.0
 40
1.0
 40
1.0
 40
1.0
 10
6.958360678108189
 20
7.387720349046851
 30
0.0
 10
6.958373889195135
 20
7.386833240188612
 30
0.0
 10
6.958412133464828
 20
7.38426518272581
 30
0.0
 10
6.958897453055623
 20
7.380167597197941
 30
0.0
 10
6.959524141506629
 20
7.376769478733357
 30
0.0
 10
6.960107312788264
 20
7.375137189783457
 30
0.0
 10
6.960183329668777
 20
7.374924419508286
 30
0.0
  0
LINE
  5
6D
330
1F
100
AcDbEntity
  8
0
  6
Continuous
 62
     7
370
    15
100
AcDbLine
 10
3.971035522996452
 20
5.97855028636852
 30
0.0
 11
3.980316299679044
 21
5.976063863725349
 31
0.0
  0
LINE
  5
6E
330
1F
100
AcDbEntity
  8
0
  6
Continuous
 62
     7
370
    15
100
AcDbLine
 10
4.000533823489706
 20
6.051527548586787
 30
0.0
 11
3.991253046807115
 21
6.054013971229957
 31
0.0
  0
SPLINE
  5
6F
330
1F
100
AcDbEntity
  8
0
  6
Continuous
 62
     7
370
    15
100
AcDbSpline
210
0.0
220
0.0
230
1.0
 70
     8
 71
     3
 72
    17
 73
    13
 74
     0
 42
0.0000000001
 43
0.0000000001
 40
0.0
 40
0.0
 40
0.0
 40
0.0
 40
0.0035602125159487
 40
0.1247165979854597
 40
0.2459626237504015
 40
0.3672173751397931
 40
0.4884492846667634
 40
0.6096655424361986
 40
0.7308819884462537
 40
0.8521173444187716
 40
0.9670398191373067
 40
1.0
 40
1.0
 40
1.0
 40
1.0
 10
3.968581996249019
 20
6.046798921152145
 30
0.0
 10
3.968548105193373
 20
6.046770941629088
 30
0.0
 10
3.967360879109713
 20
6.045790800439966
 30
0.0
 10
3.965223460783623
 20
6.043346265766611
 30
0.0
 10
3.962258771317479
 20
6.039493732743266
 30
0.0
 10
3.959658819718683
 20
6.035158716770057
 30
0.0
 10
3.957438021594001
 20
6.030503339765748
 30
0.0
 10
3.955643915990515
 20
6.025589227286181
 30
0.0
 10
3.954304454238608
 20
6.020509298406225
 30
0.0
 10
3.953464637408433
 20
6.015444151876727
 30
0.0
 10
3.953178056863998
 20
6.011637901597116
 30
0.0
 10
3.953160726915742
 20
6.009577977771659
 30
0.0
 10
3.953156864405791
 20
6.0091188606319
 30
0.0
  0
SPLINE
  5
70
330
1F
100
AcDbEntity
  8
0
  6
Continuous
 62
     7
370
    15
100
AcDbSpline
210
0.0
220
0.0
230
1.0
 70
     8
 71
     3
 72
    11
 73
     7
 74
     0
 42
0.0000000001
 43
0.0000000001
 40
0.0
 40
0.0
 40
0.0
 40
0.0
 40
0.1969882389654548
 40
0.570261244424434
 40
0.9439807617761758
 40
1.0
 40
1.0
 40
1.0
 40
1.0
 10
3.953156864405791
 20
6.0091188606319
 30
0.0
 10
3.953170075772155
 20
6.008231764152426
 30
0.0
 10
3.953208321356068
 20
6.005663708592532
 30
0.0
 10
3.953693624497299
 20
6.001566120554439
 30
0.0
 10
3.954320349049263
 20
5.998168024385837
 30
0.0
 10
3.954903495763403
 20
5.996535714197563
 30
0.0
 10
3.95497951272551
 20
5.996322931961599
 30
0.0
  0
LINE
  5
71
330
1F
100
AcDbEntity
  8
0
  6
Continuous
 62
     7
370
    15
100
AcDbLine
 10
4.236200595145524
 20
6.651743205414435
 30
0.0
 11
4.245481371828115
 21
6.649256782771264
 31
0.0
  0
LINE
  5
72
330
1F
100
AcDbEntity
  8
0
  6
Continuous
 62
     7
370
    15
100
AcDbLine
 10
4.265698895638778
 20
6.72472050295856
 30
0.0
 11
4.256418118956186
 21
6.727206925601731
 31
0.0
  0
SPLINE
  5
73
330
1F
100
AcDbEntity
  8
0
  6
Continuous
 62
     7
370
    15
100
AcDbSpline
210
0.0
220
0.0
230
1.0
 70
     8
 71
     3
 72
    17
 73
    13
 74
     0
 42
0.0000000001
 43
0.0000000001
 40
0.0
 40
0.0
 40
0.0
 40
0.0
 40
0.0035605386459196
 40
0.1247163470863551
 40
0.2459648945358012
 40
0.3672171360974539
 40
0.4884515998656555
 40
0.6096677117732713
 40
0.7308827886466013
 40
0.8521171733756306
 40
0.9670407072016299
 40
1.0
 40
1.0
 40
1.0
 40
1.0
 10
4.23374706839809
 20
6.719991875523919
 30
0.0
 10
4.2337131773879
 20
6.719963884087732
 30
0.0
 10
4.232526064029418
 20
6.718983417361163
 30
0.0
 10
4.230388475823332
 20
6.716539309573008
 30
0.0
 10
4.227423753317309
 20
6.712686721844788
 30
0.0
 10
4.224823895299963
 20
6.70835157932581
 30
0.0
 10
4.222602987705345
 20
6.703696283086759
 30
0.0
 10
4.220808866078051
 20
6.698782139375218
 30
0.0
 10
4.219469547178046
 20
6.693702202885162
 30
0.0
 10
4.218629739703443
 20
6.688637085075
 30
0.0
 10
4.218343018990069
 20
6.684830820513536
 30
0.0
 10
4.218325694117288
 20
6.682770892410973
 30
0.0
 10
4.218321832847066
 20
6.682311787219209
 30
0.0
  0
SPLINE
  5
74
330
1F
100
AcDbEntity
  8
0
  6
Continuous
 62
     7
370
    15
100
AcDbSpline
210
0.0
220
0.0
230
1.0
 70
     8
 71
     3
 72
    11
 73
     7
 74
     0
 42
0.0000000001
 43
0.0000000001
 40
0.0
 40
0.0
 40
0.0
 40
0.0
 40
0.1969905491046396
 40
0.5702617837344633
 40
0.9439832510980677
 40
1.0
 40
1.0
 40
1.0
 40
1.0
 10
4.218321832847065
 20
6.682311787219209
 30
0.0
 10
4.218335039032184
 20
6.681424676555649
 30
0.0
 10
4.218373269204726
 20
6.678856607622032
 30
0.0
 10
4.218858754183228
 20
6.674759087453498
 30
0.0
 10
4.219485393507558
 20
6.671360945534704
 30
0.0
 10
4.220068567623225
 20
6.669728656609338
 30
0.0
 10
4.220144584874581
 20
6.669515886333373
 30
0.0
  0
LINE
  5
75
330
1F
100
AcDbEntity
  8
0
  6
Continuous
 62
     7
370
    15
100
AcDbLine
 10
6.666880122047967
 20
7.454916690410213
 30
0.0
 11
6.676160900350994
 21
7.452430267332911
 31
0.0
  0
LINE
  5
76
330
1F
100
AcDbEntity
  8
0
  6
Continuous
 62
     7
370
    15
100
AcDbLine
 10
6.696378424161655
 20
7.527893916868488
 30
0.0
 11
6.68709764585863
 21
7.530380339945792
 31
0.0
  0
SPLINE
  5
77
330
1F
100
AcDbEntity
  8
0
  6
Continuous
 62
     7
370
    15
100
AcDbSpline
210
0.0
220
0.0
230
1.0
 70
     8
 71
     3
 72
    17
 73
    13
 74
     0
 42
0.0000000001
 43
0.0000000001
 40
0.0
 40
0.0
 40
0.0
 40
0.0
 40
0.0035598870391761
 40
0.1247168748444343
 40
0.245963072398749
 40
0.3672179942751165
 40
0.4884493927305979
 40
0.6096658214992125
 40
0.7308824385516529
 40
0.8521171403421318
 40
0.9670406212009828
 40
1.0
 40
1.0
 40
1.0
 40
1.0
 10
6.664426596515857
 20
7.52316528954238
 30
0.0
 10
6.664392705617216
 20
7.523137321881605
 30
0.0
 10
6.663205373851372
 20
7.522157504485685
 30
0.0
 10
6.661068116942521
 20
7.519712487723972
 30
0.0
 10
6.658103351273321
 20
7.515860143827389
 30
0.0
 10
6.655503436752534
 20
7.51152507822725
 30
0.0
 10
6.653282608642726
 20
7.506869741815523
 30
0.0
 10
6.6514885180216
 20
7.501955629083088
 30
0.0
 10
6.650149054262465
 20
7.496875715400443
 30
0.0
 10
6.649309231051163
 20
7.491810567258414
 30
0.0
 10
6.649022658264157
 20
7.488004329330122
 30
0.0
 10
6.649005324988986
 20
7.485944405719579
 30
0.0
 10
6.649001461836872
 20
7.485485300433584
 30
0.0
  0
SPLINE
  5
78
330
1F
100
AcDbEntity
  8
0
  6
Continuous
 62
     7
370
    15
100
AcDbSpline
210
0.0
220
0.0
230
1.0
 70
     8
 71
     3
 72
    11
 73
     7
 74
     0
 42
0.0000000001
 43
0.0000000001
 40
0.0
 40
0.0
 40
0.0
 40
0.0
 40
0.1969898749203785
 40
0.5702584453837462
 40
0.9439786355618622
 40
1.0
 40
1.0
 40
1.0
 40
1.0
 10
6.649001461836872
 20
7.485485300433584
 30
0.0
 10
6.6490146734655
 20
7.484598192013719
 30
0.0
 10
6.649052919303289
 20
7.482030135819949
 30
0.0
 10
6.649538218946805
 20
7.477932534149104
 30
0.0
 10
6.650164970934516
 20
7.47453444371983
 30
0.0
 10
6.65074809676736
 20
7.472902094285589
 30
0.0
 10
6.650824113397458
 20
7.4726893002433
 30
0.0
  0
LINE
  5
79
330
1F
100
AcDbEntity
  8
0
  6
Continuous
 62
     7
370
    15
100
AcDbLine
 10
6.534297585973431
 20
7.238750659288797
 30
0.0
 11
6.543578364276456
 21
7.236264236211494
 31
0.0
  0
LINE
  5
7A
330
1F
100
AcDbEntity
  8
0
  6
Continuous
 62
     7
370
    15
100
AcDbLine
 10
6.56379588808712
 20
7.311727956398789
 30
0.0
 11
6.554515109784094
 21
7.314214379476092
 31
0.0
  0
SPLINE
  5
7B
330
1F
100
AcDbEntity
  8
0
  6
Continuous
 62
     7
370
    15
100
AcDbSpline
210
0.0
220
0.0
230
1.0
 70
     8
 71
     3
 72
    17
 73
    13
 74
     0
 42
0.0000000001
 43
0.0000000001
 40
0.0
 40
0.0
 40
0.0
 40
0.0
 40
0.0035605462997633
 40
0.1247137006809454
 40
0.2459635677698033
 40
0.3672148600920463
 40
0.4884495935318526
 40
0.6096659747188386
 40
0.7308825441895764
 40
0.8521171983912541
 40
0.9670406341386755
 40
1.0
 40
1.0
 40
1.0
 40
1.0
 10
6.531844060441322
 20
7.306999329072682
 30
0.0
 10
6.531810169632524
 20
7.306971337591792
 30
0.0
 10
6.53062309106967
 20
7.305990892211958
 30
0.0
 10
6.528485536593627
 20
7.303546742275448
 30
0.0
 10
6.525520876975567
 20
7.29969414224073
 30
0.0
 10
6.522920977793829
 20
7.295359055822667
 30
0.0
 10
6.520700074335372
 20
7.290703764658898
 30
0.0
 10
6.518905985945878
 20
7.285789595748735
 30
0.0
 10
6.517566517111793
 20
7.280709684874558
 30
0.0
 10
6.516726695257744
 20
7.275644535981427
 30
0.0
 10
6.516440122173596
 20
7.271838298217573
 30
0.0
 10
6.516422788911531
 20
7.269778374599779
 30
0.0
 10
6.516418925762335
 20
7.269319269312168
 30
0.0
  0
SPLINE
  5
7C
330
1F
100
AcDbEntity
  8
0
  6
Continuous
 62
     7
370
    15
100
AcDbSpline
210
0.0
220
0.0
230
1.0
 70
     8
 71
     3
 72
    11
 73
     7
 74
     0
 42
0.0000000001
 43
0.0000000001
 40
0.0
 40
0.0
 40
0.0
 40
0.0
 40
0.1969900193895844
 40
0.570258863602118
 40
0.9439793278606105
 40
1.0
 40
1.0
 40
1.0
 40
1.0
 10
6.516418925762335
 20
7.269319269312168
 30
0.0
 10
6.516432134490479
 20
7.268432158443617
 30
0.0
 10
6.516470371931765
 20
7.265864095161243
 30
0.0
 10
6.516955778384643
 20
7.261766583662374
 30
0.0
 10
6.517582209680442
 20
7.258368226081144
 30
0.0
 10
6.518165627237173
 20
7.256736126594797
 30
0.0
 10
6.51824168103072
 20
7.256523367558067
 30
0.0
  0
LINE
  5
7D
330
1F
100
AcDbEntity
  8
0
  6
Continuous
 62
     7
370
    15
100
AcDbLine
 10
6.666880122047967
 20
7.093625352216802
 30
0.0
 11
6.676160900350994
 21
7.091138929139498
 31
0.0
  0
LINE
  5
7E
330
1F
100
AcDbEntity
  8
0
  6
Continuous
 62
     7
370
    15
100
AcDbLine
 10
6.696378424161655
 20
7.166602578675077
 30
0.0
 11
6.68709764585863
 21
7.16908900175238
 31
0.0
  0
SPLINE
  5
7F
330
1F
100
AcDbEntity
  8
0
  6
Continuous
 62
     7
370
    15
100
AcDbSpline
210
0.0
220
0.0
230
1.0
 70
     8
 71
     3
 72
    17
 73
    13
 74
     0
 42
0.0000000001
 43
0.0000000001
 40
0.0
 40
0.0
 40
0.0
 40
0.0
 40
0.0035598819400011
 40
0.1247166962002355
 40
0.2459627200817425
 40
0.3672174682728056
 40
0.4884500579652618
 40
0.6096663131037092
 40
0.7308811733154549
 40
0.8521173521692402
 40
0.9670406684119299
 40
1.0
 40
1.0
 40
1.0
 40
1.0
 10
6.664426596515859
 20
7.161873951348969
 30
0.0
 10
6.664392705617303
 20
7.161845983688127
 30
0.0
 10
6.663205373854518
 20
7.16086616628986
 30
0.0
 10
6.661068116316725
 20
7.158421150008774
 30
0.0
 10
6.658103353474353
 20
7.154568803952036
 30
0.0
 10
6.655503418818827
 20
7.150233730015714
 30
0.0
 10
6.653282623186513
 20
7.145578344771849
 30
0.0
 10
6.651488529984989
 20
7.140664242026031
 30
0.0
 10
6.6501490344327
 20
7.135584333152185
 30
0.0
 10
6.649309239328246
 20
7.130519181180511
 30
0.0
 10
6.649022657892538
 20
7.126712920518031
 30
0.0
 10
6.649005324921257
 20
7.12465299688047
 30
0.0
 10
6.649001461836872
 20
7.124193891588454
 30
0.0
  0
SPLINE
  5
80
330
1F
100
AcDbEntity
  8
0
  6
Continuous
 62
     7
370
    15
100
AcDbSpline
210
0.0
220
0.0
230
1.0
 70
     8
 71
     3
 72
    11
 73
     7
 74
     0
 42
0.0000000001
 43
0.0000000001
 40
0.0
 40
0.0
 40
0.0
 40
0.0
 40
0.1969856560965942
 40
0.5702612991432127
 40
0.943978350920773
 40
1.0
 40
1.0
 40
1.0
 40
1.0
 10
6.649001461836872
 20
7.124193891588454
 30
0.0
 10
6.649014674618483
 20
7.123306807186147
 30
0.0
 10
6.649052924804596
 20
7.120738752670233
 30
0.0
 10
6.64953820338476
 20
7.116641164190735
 30
0.0
 10
6.650164978246141
 20
7.11324308665109
 30
0.0
 10
6.650748096822315
 20
7.111610756121965
 30
0.0
 10
6.650824113397458
 20
7.111397962049889
 30
0.0
  0
LINE
  5
81
330
1F
100
AcDbEntity
  8
0
  6
Continuous
 62
     7
370
    15
100
AcDbLine
 10
6.976239338319285
 20
7.71844314786861
 30
0.0
 11
6.98552011662231
 21
7.715956724791308
 31
0.0
  0
LINE
  5
82
330
1F
100
AcDbEntity
  8
0
  6
Continuous
 62
     7
370
    15
100
AcDbLine
 10
7.005737640432974
 20
7.791420303675167
 30
0.0
 11
6.996456862129947
 21
7.793906726752471
 31
0.0
  0
SPLINE
  5
83
330
1F
100
AcDbEntity
  8
0
  6
Continuous
 62
     7
370
    15
100
AcDbSpline
210
0.0
220
0.0
230
1.0
 70
     8
 71
     3
 72
    17
 73
    13
 74
     0
 42
0.0000000001
 43
0.0000000001
 40
0.0
 40
0.0
 40
0.0
 40
0.0
 40
0.0035612081382772
 40
0.1247173027135755
 40
0.2459645190633783
 40
0.3672181921610369
 40
0.4884495598527236
 40
0.6096659578613421
 40
0.7308825441537388
 40
0.8521188659011777
 40
0.9670406295647858
 40
1.0
 40
1.0
 40
1.0
 40
1.0
 10
6.973785812787176
 20
7.786691817652496
 30
0.0
 10
6.973751922080551
 20
7.786663802328694
 30
0.0
 10
6.972565033431161
 20
7.785682675844796
 30
0.0
 10
6.970427101622873
 20
7.783239525385113
 30
0.0
 10
6.967462658382624
 20
7.779386376050099
 30
0.0
 10
6.964862618499233
 20
7.775051576151819
 30
0.0
 10
6.962641831897031
 20
7.770396184262314
 30
0.0
 10
6.960847733442352
 20
7.765482090543287
 30
0.0
 10
6.959508260873263
 20
7.760402148804004
 30
0.0
 10
6.958668459424401
 20
7.75533700165639
 30
0.0
 10
6.958381873468286
 20
7.751530763181825
 30
0.0
 10
6.958364541101862
 20
7.749470863160959
 30
0.0
 10
6.958360678108189
 20
7.749011757891981
 30
0.0
  0
SPLINE
  5
84
330
1F
100
AcDbEntity
  8
0
  6
Continuous
 62
     7
370
    15
100
AcDbSpline
210
0.0
220
0.0
230
1.0
 70
     8
 71
     3
 72
    11
 73
     7
 74
     0
 42
0.0000000001
 43
0.0000000001
 40
0.0
 40
0.0
 40
0.0
 40
0.0
 40
0.1969950135457389
 40
0.5702634304054285
 40
0.9439834667940205
 40
1.0
 40
1.0
 40
1.0
 40
1.0
 10
6.958360678108189
 20
7.749011757891981
 30
0.0
 10
6.958373888642268
 20
7.748124625297854
 30
0.0
 10
6.958412130648227
 20
7.745556543663473
 30
0.0
 10
6.958897453102421
 20
7.741458935360813
 30
0.0
 10
6.959524141505307
 20
7.738060816927631
 30
0.0
 10
6.960107312788112
 20
7.736428527976968
 30
0.0
 10
6.960183329668777
 20
7.736215757701697
 30
0.0
  0
LINE
  5
85
330
1F
100
AcDbEntity
  8
0
  6
Continuous
 62
     7
370
    15
100
AcDbLine
 10
6.534297585973431
 20
7.600042068133927
 30
0.0
 11
6.543578364276456
 21
7.597555645056623
 31
0.0
  0
LINE
  5
86
330
1F
100
AcDbEntity
  8
0
  6
Continuous
 62
     7
370
    15
100
AcDbLine
 10
6.56379588808712
 20
7.673019223940483
 30
0.0
 11
6.554515109784094
 21
7.675505647017786
 31
0.0
  0
SPLINE
  5
87
330
1F
100
AcDbEntity
  8
0
  6
Continuous
 62
     7
370
    15
100
AcDbSpline
210
0.0
220
0.0
230
1.0
 70
     8
 71
     3
 72
    17
 73
    13
 74
     0
 42
0.0000000001
 43
0.0000000001
 40
0.0
 40
0.0
 40
0.0
 40
0.0
 40
0.0035612102823396
 40
0.1247144544179071
 40
0.2459644113327985
 40
0.3672157934821308
 40
0.4884492518684599
 40
0.6096657228566718
 40
0.730882382128775
 40
0.8521187768678027
 40
0.967040609721254
 40
1.0
 40
1.0
 40
1.0
 40
1.0
 10
6.531844060441322
 20
7.668290737917811
 30
0.0
 10
6.531810169725411
 20
7.668262722611133
 30
0.0
 10
6.530623308571557
 20
7.667281619724557
 30
0.0
 10
6.528485440975249
 20
7.664838360650891
 30
0.0
 10
6.525520900432316
 20
7.660985406913876
 30
0.0
 10
6.522920989375035
 20
7.656650424079886
 30
0.0
 10
6.520700059545856
 20
7.651995156710102
 30
0.0
 10
6.518905989126014
 20
7.647081004130315
 30
0.0
 10
6.517566506366522
 20
7.642001070866569
 30
0.0
 10
6.516726707643018
 20
7.636935921452226
 30
0.0
 10
6.516440121090255
 20
7.633129683473901
 30
0.0
 10
6.516422788750144
 20
7.631069783431152
 30
0.0
 10
6.516418925762335
 20
7.630610678157298
 30
0.0
  0
SPLINE
  5
88
330
1F
100
AcDbEntity
  8
0
  6
Continuous
 62
     7
370
    15
100
AcDbSpline
210
0.0
220
0.0
230
1.0
 70
     8
 71
     3
 72
    11
 73
     7
 74
     0
 42
0.0000000001
 43
0.0000000001
 40
0.0
 40
0.0
 40
0.0
 40
0.0
 40
0.1969942108345676
 40
0.5702611067078997
 40
0.9439796202698842
 40
1.0
 40
1.0
 40
1.0
 40
1.0
 10
6.516418925762335
 20
7.630610678157298
 30
0.0
 10
6.516432133937511
 20
7.629723543552772
 30
0.0
 10
6.516470369114888
 20
7.62715545609867
 30
0.0
 10
6.516955778431371
 20
7.623057921825184
 30
0.0
 10
6.517582209679122
 20
7.619659564275419
 30
0.0
 10
6.518165627237021
 20
7.618027464788309
 30
0.0
 10
6.51824168103072
 20
7.617814705751478
 30
0.0
  0
LINE
  5
89
330
1F
100
AcDbEntity
  8
0
  6
Continuous
 62
     7
370
    15
100
AcDbLine
 10
7.10882187439382
 20
7.573317770144898
 30
0.0
 11
7.118102652696845
 21
7.570831347067595
 31
0.0
  0
LINE
  5
8A
330
1F
100
AcDbEntity
  8
0
  6
Continuous
 62
     7
370
    15
100
AcDbLine
 10
7.138320176507509
 20
7.646294996603172
 30
0.0
 11
7.129039398204484
 21
7.648781419680475
 31
0.0
  0
SPLINE
  5
8B
330
1F
100
AcDbEntity
  8
0
  6
Continuous
 62
     7
370
    15
100
AcDbSpline
210
0.0
220
0.0
230
1.0
 70
     8
 71
     3
 72
    17
 73
    13
 74
     0
 42
0.0000000001
 43
0.0000000001
 40
0.0
 40
0.0
 40
0.0
 40
0.0
 40
0.0035598828556777
 40
0.1247167282799954
 40
0.2459654509345002
 40
0.3672178663918236
 40
0.4884511400818813
 40
0.6096674263997015
 40
0.7308826777246866
 40
0.8521172370428974
 40
0.9670405828462836
 40
1.0
 40
1.0
 40
1.0
 40
1.0
 10
7.106368348861711
 20
7.641566369277064
 30
0.0
 10
7.106334457959811
 20
7.641538401620598
 30
0.0
 10
7.105147126079818
 20
7.640558584375625
 30
0.0
 10
7.103009869426655
 20
7.638113510104928
 30
0.0
 10
7.100044998098742
 20
7.634261299672609
 30
0.0
 10
7.097445205142467
 20
7.629926060163923
 30
0.0
 10
7.095224247365307
 20
7.625270843353002
 30
0.0
 10
7.093430143839933
 20
7.620356698941191
 30
0.0
 10
7.092090846442507
 20
7.615276773969726
 30
0.0
 10
7.091250930954074
 20
7.610211638211914
 30
0.0
 10
7.090964520463842
 20
7.60640543381169
 30
0.0
 10
7.09094701255549
 20
7.604345467926289
 30
0.0
 10
7.090943110474928
 20
7.603886352383804
 30
0.0
  0
SPLINE
  5
8C
330
1F
100
AcDbEntity
  8
0
  6
Continuous
 62
     7
370
    15
100
AcDbSpline
210
0.0
220
0.0
230
1.0
 70
     8
 71
     3
 72
    11
 73
     7
 74
     0
 42
0.0000000001
 43
0.0000000001
 40
0.0
 40
0.0
 40
0.0
 40
0.0
 40
0.1969901335028597
 40
0.5702585837676022
 40
0.9439786536016638
 40
1.0
 40
1.0
 40
1.0
 40
1.0
 10
7.090943110474928
 20
7.603886352383804
 30
0.0
 10
7.090956363212683
 20
7.602999255251528
 30
0.0
 10
7.090994728014659
 20
7.600431234481552
 30
0.0
 10
7.091479951407625
 20
7.59633360771785
 30
0.0
 10
7.092106723842254
 20
7.592935523628741
 30
0.0
 10
7.092689849178015
 20
7.591303174040366
 30
0.0
 10
7.092765865743312
 20
7.591090379977985
 30
0.0
  0
LINE
  5
8D
330
1F
100
AcDbEntity
  8
0
  6
Continuous
 62
     7
370
    15
100
AcDbLine
 10
3.838452986921917
 20
6.123675664092234
 30
0.0
 11
3.847733763604509
 21
6.121189241449062
 31
0.0
  0
LINE
  5
8E
330
1F
100
AcDbEntity
  8
0
  6
Continuous
 62
     7
370
    15
100
AcDbLine
 10
3.867951391122968
 20
6.196652918769105
 30
0.0
 11
3.858670614440376
 21
6.199139341412276
 31
0.0
  0
SPLINE
  5
8F
330
1F
100
AcDbEntity
  8
0
  6
Continuous
 62
     7
370
    15
100
AcDbSpline
210
0.0
220
0.0
230
1.0
 70
     8
 71
     3
 72
    17
 73
    13
 74
     0
 42
0.0000000001
 43
0.0000000001
 40
0.0
 40
0.0
 40
0.0
 40
0.0
 40
0.0035602109193625
 40
0.1247169733000274
 40
0.2459656122760449
 40
0.3672155814946187
 40
0.4884507896765222
 40
0.6096677367600255
 40
0.7308821135214955
 40
0.8521174151257163
 40
0.9670406823217357
 40
1.0
 40
1.0
 40
1.0
 40
1.0
 10
3.835999460174483
 20
6.191924298875858
 30
0.0
 10
3.835965569112209
 20
6.191896319362682
 30
0.0
 10
3.834778338691173
 20
6.190916175130565
 30
0.0
 10
3.832640941808283
 20
6.188471536833318
 30
0.0
 10
3.829676118962374
 20
6.184619206773927
 30
0.0
 10
3.827076429414453
 20
6.180283900014385
 30
0.0
 10
3.824855334920055
 20
6.175628776281485
 30
0.0
 10
3.823061279437349
 20
6.170714571721812
 30
0.0
 10
3.821721937075258
 20
6.165634644278585
 30
0.0
 10
3.820882092354723
 20
6.160569518332783
 30
0.0
 10
3.820595522566319
 20
6.156763267838739
 30
0.0
 10
3.82057819108384
 20
6.154703343749901
 30
0.0
 10
3.820574328331256
 20
6.154244238355612
 30
0.0
  0
SPLINE
  5
90
330
1F
100
AcDbEntity
  8
0
  6
Continuous
 62
     7
370
    15
100
AcDbSpline
210
0.0
220
0.0
230
1.0
 70
     8
 71
     3
 72
    11
 73
     7
 74
     0
 42
0.0000000001
 43
0.0000000001
 40
0.0
 40
0.0
 40
0.0
 40
0.0
 40
0.1969877079734139
 40
0.5702617015087923
 40
0.9439808213600908
 40
1.0
 40
1.0
 40
1.0
 40
1.0
 10
3.820574328331256
 20
6.154244238355612
 30
0.0
 10
3.8205874942548
 20
6.153357128633004
 30
0.0
 10
3.820625608419587
 20
6.150789025754687
 30
0.0
 10
3.82111114914443
 20
6.14669152919494
 30
0.0
 10
3.821737811228461
 20
6.143293401401597
 30
0.0
 10
3.822320959487481
 20
6.141661091839633
 30
0.0
 10
3.822396976650975
 20
6.141448309685312
 30
0.0
  0
LINE
  5
91
330
1F
100
AcDbEntity
  8
0
  6
Continuous
 62
     7
370
    15
100
AcDbLine
 10
4.103618059070988
 20
6.194716317489937
 30
0.0
 11
4.11289883575358
 21
6.192229894846765
 31
0.0
  0
LINE
  5
92
330
1F
100
AcDbEntity
  8
0
  6
Continuous
 62
     7
370
    15
100
AcDbLine
 10
4.133116359564243
 20
6.267693544382344
 30
0.0
 11
4.123835582881651
 21
6.270179967025514
 31
0.0
  0
SPLINE
  5
93
330
1F
100
AcDbEntity
  8
0
  6
Continuous
 62
     7
370
    15
100
AcDbSpline
210
0.0
220
0.0
230
1.0
 70
     8
 71
     3
 72
    17
 73
    13
 74
     0
 42
0.0000000001
 43
0.0000000001
 40
0.0
 40
0.0
 40
0.0
 40
0.0
 40
0.0035602094126921
 40
0.1247169205201825
 40
0.2459655081841436
 40
0.3672177899615364
 40
0.4884509290748703
 40
0.6096678248597291
 40
0.7308821503236425
 40
0.8521174006214513
 40
0.9670406191822923
 40
1.0
 40
1.0
 40
1.0
 40
1.0
 10
4.101164532323554
 20
6.262964952273562
 30
0.0
 10
4.101130641262358
 20
6.262936972759328
 30
0.0
 10
4.099943410879074
 20
6.261956828490165
 30
0.0
 10
4.097806006247066
 20
6.259512197798106
 30
0.0
 10
4.094841198957651
 20
6.255659808515487
 30
0.0
 10
4.092241382631709
 20
6.2513246184257
 30
0.0
 10
4.090020426736217
 20
6.246669379649654
 30
0.0
 10
4.088226340618424
 20
6.241755230502643
 30
0.0
 10
4.086887023478747
 20
6.236675298905312
 30
0.0
 10
4.086047119493621
 20
6.231610161628275
 30
0.0
 10
4.085760704145505
 20
6.227803946058621
 30
0.0
 10
4.085743198376336
 20
6.225743979633355
 30
0.0
 10
4.08573929677253
 20
6.225284863968852
 30
0.0
  0
SPLINE
  5
94
330
1F
100
AcDbEntity
  8
0
  6
Continuous
 62
     7
370
    15
100
AcDbSpline
210
0.0
220
0.0
230
1.0
 70
     8
 71
     3
 72
    11
 73
     7
 74
     0
 42
0.0000000001
 43
0.0000000001
 40
0.0
 40
0.0
 40
0.0
 40
0.0
 40
0.1969879661167549
 40
0.570261839656217
 40
0.943980839368505
 40
1.0
 40
1.0
 40
1.0
 40
1.0
 10
4.08573929677253
 20
6.225284863968852
 30
0.0
 10
4.085752503805143
 20
6.224397765533344
 30
0.0
 10
4.085790736936146
 20
6.22182969807338
 30
0.0
 10
4.086276201408053
 20
6.217732176428007
 30
0.0
 10
4.086902883939405
 20
6.214334054973485
 30
0.0
 10
4.08748603170135
 20
6.212701745257423
 30
0.0
 10
4.087562048800046
 20
6.212488963083015
 30
0.0
  0
LINE
  5
95
330
1F
100
AcDbEntity
  8
0
  6
Continuous
 62
     7
370
    15
100
AcDbLine
 10
7.197210162638313
 20
9.90023055950542
 30
0.0
 11
7.20649094094134
 21
9.897744136428118
 31
0.0
  0
LINE
  5
96
330
1F
100
AcDbEntity
  8
0
  6
Continuous
 62
     7
370
    15
100
AcDbLine
 10
7.226708568459798
 20
9.973207601793005
 30
0.0
 11
7.217427790156772
 21
9.975694024870307
 31
0.0
  0
SPLINE
  5
97
330
1F
100
AcDbEntity
  8
0
  6
Continuous
 62
     7
370
    15
100
AcDbSpline
210
0.0
220
0.0
230
1.0
 70
     8
 71
     3
 72
    17
 73
    13
 74
     0
 42
0.0000000001
 43
0.0000000001
 40
0.0
 40
0.0
 40
0.0
 40
0.0
 40
0.0035630043638237
 40
0.124714151322771
 40
0.2459637357184542
 40
0.3672147453441997
 40
0.4884478312620096
 40
0.6096669045347971
 40
0.7308831913899934
 40
0.8521192136514804
 40
0.9670373173726261
 40
0.9999999999999998
 40
0.9999999999999998
 40
0.9999999999999998
 40
0.9999999999999998
 10
7.194756740814001
 20
9.968478974466897
 30
0.0
 10
7.194722815224023
 20
9.968450997906954
 30
0.0
 10
7.193535333893629
 20
9.967471747652366
 30
0.0
 10
7.191398248077464
 20
9.965026082026945
 30
0.0
 10
7.188433410558564
 20
9.961174100253332
 30
0.0
 10
7.18583358760352
 20
9.956838859579274
 30
0.0
 10
7.183612598323859
 20
9.952183631553786
 30
0.0
 10
7.181818595506253
 20
9.947269383722836
 30
0.0
 10
7.180479077086483
 20
9.942189423990086
 30
0.0
 10
7.179639297069384
 20
9.937124319234571
 30
0.0
 10
7.179352691967457
 20
9.933318079319752
 30
0.0
 10
7.179335364684969
 20
9.931258180453616
 30
0.0
 10
7.179331502427218
 20
9.930799028225354
 30
0.0
  0
SPLINE
  5
98
330
1F
100
AcDbEntity
  8
0
  6
Continuous
 62
     7
370
    15
100
AcDbSpline
210
0.0
220
0.0
230
1.0
 70
     8
 71
     3
 72
    11
 73
     7
 74
     0
 42
0.0000000001
 43
0.0000000001
 40
0.0
 40
0.0
 40
0.0
 40
0.0
 40
0.1969947406872255
 40
0.5702640256351219
 40
0.9439835443827252
 40
1.0
 40
1.0
 40
1.0
 40
1.0
 10
7.179331502427218
 20
9.930799028225354
 30
0.0
 10
7.179344708627227
 20
9.929911893675042
 30
0.0
 10
7.179382938179728
 20
9.927343800140285
 30
0.0
 10
7.179868421965886
 20
9.923246258231111
 30
0.0
 10
7.180495068347785
 20
9.919848114511715
 30
0.0
 10
7.181078240678359
 20
9.918215826033256
 30
0.0
 10
7.181154257695602
 20
9.918003055819538
 30
0.0
  0
LINE
  5
99
330
1F
100
AcDbEntity
  8
0
  6
Continuous
 62
     7
370
    15
100
AcDbLine
 10
7.064627730271573
 20
9.684064556168468
 30
0.0
 11
7.073908508574599
 21
9.681578133091166
 31
0.0
  0
LINE
  5
9A
330
1F
100
AcDbEntity
  8
0
  6
Continuous
 62
     7
370
    15
100
AcDbLine
 10
7.094126032385263
 20
9.757041570671587
 30
0.0
 11
7.084845254082237
 21
9.759527993748891
 31
0.0
  0
SPLINE
  5
9B
330
1F
100
AcDbEntity
  8
0
  6
Continuous
 62
     7
370
    15
100
AcDbSpline
210
0.0
220
0.0
230
1.0
 70
     8
 71
     3
 72
    17
 73
    13
 74
     0
 42
0.0000000001
 43
0.0000000001
 40
0.0
 40
0.0
 40
0.0
 40
0.0
 40
0.0035625184794298
 40
0.1247163982476334
 40
0.2459657918866466
 40
0.3672166107534798
 40
0.488449505940576
 40
0.6096683885046951
 40
0.7308832613829864
 40
0.85211909290914
 40
0.9670373692313736
 40
1.0
 40
1.0
 40
1.0
 40
1.0
 10
7.062174204739465
 20
9.752313225952354
 30
0.0
 10
7.062140314224835
 20
9.752285162963277
 30
0.0
 10
7.060953877454359
 20
9.751302735800612
 30
0.0
 10
7.058815265977449
 20
9.748861461498901
 30
0.0
 10
7.055851000967146
 20
9.745007699169125
 30
0.0
 10
7.05325101562706
 20
9.740672928181695
 30
0.0
 10
7.051030079390073
 20
9.736017571447804
 30
0.0
 10
7.04923603280264
 20
9.731103385363041
 30
0.0
 10
7.047896662779054
 20
9.726023391376051
 30
0.0
 10
7.047056900401135
 20
9.72095831925481
 30
0.0
 10
7.04677014804518
 20
9.717152051918994
 30
0.0
 10
7.046752827172466
 20
9.715092149113113
 30
0.0
 10
7.04674896635268
 20
9.714632997103937
 30
0.0
  0
SPLINE
  5
9C
330
1F
100
AcDbEntity
  8
0
  6
Continuous
 62
     7
370
    15
100
AcDbSpline
210
0.0
220
0.0
230
1.0
 70
     8
 71
     3
 72
    11
 73
     7
 74
     0
 42
0.0000000001
 43
0.0000000001
 40
0.0
 40
0.0
 40
0.0
 40
0.0
 40
0.1969947406872255
 40
0.5702640256351219
 40
0.9439835443827252
 40
1.0
 40
1.0
 40
1.0
 40
1.0
 10
7.04674896635268
 20
9.714632997103937
 30
0.0
 10
7.046762172552692
 20
9.713745862553626
 30
0.0
 10
7.046800402105192
 20
9.711177769018867
 30
0.0
 10
7.04728588589135
 20
9.707080227109694
 30
0.0
 10
7.04791253227325
 20
9.703682083390303
 30
0.0
 10
7.048495704603824
 20
9.702049794911838
 30
0.0
 10
7.048571721621066
 20
9.70183702469812
 30
0.0
  0
LINE
  5
9D
330
1F
100
AcDbEntity
  8
0
  6
Continuous
 62
     7
370
    15
100
AcDbLine
 10
4.36878313122006
 20
6.867909236535851
 30
0.0
 11
4.378063907902651
 21
6.865422813892681
 31
0.0
  0
LINE
  5
9E
330
1F
100
AcDbEntity
  8
0
  6
Continuous
 62
     7
370
    15
100
AcDbLine
 10
4.398281431713313
 20
6.940886463428259
 30
0.0
 11
4.389000655030723
 21
6.94337288607143
 31
0.0
  0
SPLINE
  5
9F
330
1F
100
AcDbEntity
  8
0
  6
Continuous
 62
     7
370
    15
100
AcDbSpline
210
0.0
220
0.0
230
1.0
 70
     8
 71
     3
 72
    17
 73
    13
 74
     0
 42
0.0000000001
 43
0.0000000001
 40
0.0
 40
0.0
 40
0.0
 40
0.0
 40
0.0035630068837952
 40
0.1247168181191789
 40
0.245965429283926
 40
0.3672177345628209
 40
0.4884508971739464
 40
0.6096670727798186
 40
0.7308834366261829
 40
0.8521170956641942
 40
0.967040689881742
 40
1.0
 40
1.0
 40
1.0
 40
1.0
 10
4.366329604472626
 20
6.936157835993618
 30
0.0
 10
4.366295678661852
 20
6.936129859518051
 30
0.0
 10
4.365108165050524
 20
6.935150591969983
 30
0.0
 10
4.362971187262606
 20
6.93270468814418
 30
0.0
 10
4.360006234952517
 20
6.92885283418555
 30
0.0
 10
4.357406466646929
 20
6.924517508858164
 30
0.0
 10
4.355185492113159
 20
6.919862316059053
 30
0.0
 10
4.353391443113882
 20
6.914948139913384
 30
0.0
 10
4.35205191484929
 20
6.909868246502931
 30
0.0
 10
4.351212318574694
 20
6.904803100447675
 30
0.0
 10
4.350925552577106
 20
6.900996851896248
 30
0.0
 10
4.350908229738466
 20
6.898936923580012
 30
0.0
 10
4.350904368921602
 20
6.898477818340626
 30
0.0
  0
SPLINE
  5
A0
330
1F
100
AcDbEntity
  8
0
  6
Continuous
 62
     7
370
    15
100
AcDbSpline
210
0.0
220
0.0
230
1.0
 70
     8
 71
     3
 72
    11
 73
     7
 74
     0
 42
0.0000000001
 43
0.0000000001
 40
0.0
 40
0.0
 40
0.0
 40
0.0
 40
0.1969905491046396
 40
0.5702617837344633
 40
0.9439832510980677
 40
1.0
 40
1.0
 40
1.0
 40
1.0
 10
4.350904368921602
 20
6.898477818340626
 30
0.0
 10
4.350917575106719
 20
6.897590707677065
 30
0.0
 10
4.350955805279262
 20
6.895022638743449
 30
0.0
 10
4.351441290257763
 20
6.890925118574914
 30
0.0
 10
4.352067929582095
 20
6.887526976656121
 30
0.0
 10
4.35265110369776
 20
6.885894687730755
 30
0.0
 10
4.352727120949117
 20
6.885681917454789
 30
0.0
  0
LINE
  5
A1
330
1F
100
AcDbEntity
  8
0
  6
Continuous
 62
     7
370
    15
100
AcDbLine
 10
6.534297585973431
 20
9.541983249373062
 30
0.0
 11
6.543578364276456
 21
9.539496826295758
 31
0.0
  0
LINE
  5
A2
330
1F
100
AcDbEntity
  8
0
  6
Continuous
 62
     7
370
    15
100
AcDbLine
 10
6.56379588808712
 20
9.614960263876181
 30
0.0
 11
6.554515109784094
 21
9.617446686953483
 31
0.0
  0
SPLINE
  5
A3
330
1F
100
AcDbEntity
  8
0
  6
Continuous
 62
     7
370
    15
100
AcDbSpline
210
0.0
220
0.0
230
1.0
 70
     8
 71
     3
 72
    17
 73
    13
 74
     0
 42
0.0000000001
 43
0.0000000001
 40
0.0
 40
0.0
 40
0.0
 40
0.0
 40
0.0035625257952017
 40
0.1247137309406051
 40
0.2459633735700219
 40
0.3672144414301854
 40
0.488447585573805
 40
0.609666717065672
 40
0.7308830621386099
 40
0.8521191426273169
 40
0.9670373015413137
 40
1.0
 40
1.0
 40
1.0
 40
1.0
 10
6.531844060441322
 20
9.610231919156944
 30
0.0
 10
6.531810169920672
 20
9.610203856180678
 30
0.0
 10
6.530623760750096
 20
9.609221452494903
 30
0.0
 10
6.528485213206448
 20
9.606780127036337
 30
0.0
 10
6.525520956714048
 20
9.602926426880513
 30
0.0
 10
6.522920978034093
 20
9.598591646761898
 30
0.0
 10
6.52070003047423
 20
9.593936295350369
 30
0.0
 10
6.518906016478807
 20
9.589022080577734
 30
0.0
 10
6.517566501057403
 20
9.583942111977348
 30
0.0
 10
6.516726720238422
 20
9.578877009593389
 30
0.0
 10
6.516440115312044
 20
9.57507076915939
 30
0.0
 10
6.516422788021813
 20
9.573010870316153
 30
0.0
 10
6.516418925762335
 20
9.572551718092995
 30
0.0
  0
SPLINE
  5
A4
330
1F
100
AcDbEntity
  8
0
  6
Continuous
 62
     7
370
    15
100
AcDbSpline
210
0.0
220
0.0
230
1.0
 70
     8
 71
     3
 72
    11
 73
     7
 74
     0
 42
0.0000000001
 43
0.0000000001
 40
0.0
 40
0.0
 40
0.0
 40
0.0
 40
0.1969942108345676
 40
0.5702611067078997
 40
0.9439796202698842
 40
1.0
 40
1.0
 40
1.0
 40
1.0
 10
6.516418925762335
 20
9.572551718092995
 30
0.0
 10
6.516432133937511
 20
9.57166458348847
 30
0.0
 10
6.516470369114888
 20
9.569096496034369
 30
0.0
 10
6.516955778431371
 20
9.564998961760881
 30
0.0
 10
6.517582209679122
 20
9.561600604211118
 30
0.0
 10
6.518165627237021
 20
9.559968504724007
 30
0.0
 10
6.51824168103072
 20
9.559755745687176
 30
0.0
  0
LINE
  5
A5
330
1F
100
AcDbEntity
  8
0
  6
Continuous
 62
     7
370
    15
100
AcDbLine
 10
6.932045194197038
 20
9.227037491614675
 30
0.0
 11
6.941325972500064
 21
9.224551068537371
 31
0.0
  0
LINE
  5
A6
330
1F
100
AcDbEntity
  8
0
  6
Continuous
 62
     7
370
    15
100
AcDbLine
 10
6.961543496310727
 20
9.300014788724666
 30
0.0
 11
6.9522627180077
 21
9.30250121180197
 31
0.0
  0
SPLINE
  5
A7
330
1F
100
AcDbEntity
  8
0
  6
Continuous
 62
     7
370
    15
100
AcDbSpline
210
0.0
220
0.0
230
1.0
 70
     8
 71
     3
 72
    17
 73
    13
 74
     0
 42
0.0000000001
 43
0.0000000001
 40
0.0
 40
0.0
 40
0.0
 40
0.0
 40
0.0035598901863802
 40
0.1247178476070635
 40
0.2459678694846081
 40
0.3672193165973573
 40
0.4884528399375002
 40
0.6096664011808466
 40
0.7308819021188043
 40
0.8521183618132189
 40
0.9670439856850755
 40
1.0
 40
1.0
 40
1.0
 40
1.0
 10
6.92959166866493
 20
9.295286161398559
 30
0.0
 10
6.929557777760322
 20
9.29525819374866
 30
0.0
 10
6.928370437574298
 20
9.294278369957655
 30
0.0
 10
6.926233185187022
 20
9.291833225895997
 30
0.0
 10
6.923268352398939
 20
9.287980957357859
 30
0.0
 10
6.920668502215479
 20
9.283645780689374
 30
0.0
 10
6.918447601464413
 20
9.278990592104392
 30
0.0
 10
6.91665344202241
 20
9.274076530389333
 30
0.0
 10
6.915314137324212
 20
9.268996607079735
 30
0.0
 10
6.914474339133175
 20
9.263931440897319
 30
0.0
 10
6.914187623529647
 20
9.260125178472641
 30
0.0
 10
6.914170292555111
 20
9.258065273267648
 30
0.0
 10
6.914166430278145
 20
9.257606215157016
 30
0.0
  0
SPLINE
  5
A8
330
1F
100
AcDbEntity
  8
0
  6
Continuous
 62
     7
370
    15
100
AcDbSpline
210
0.0
220
0.0
230
1.0
 70
     8
 71
     3
 72
    11
 73
     7
 74
     0
 42
0.0000000001
 43
0.0000000001
 40
0.0
 40
0.0
 40
0.0
 40
0.0
 40
0.1969947406872255
 40
0.5702640256351219
 40
0.9439835443827252
 40
1.0
 40
1.0
 40
1.0
 40
1.0
 10
6.914166430278145
 20
9.257606215157016
 30
0.0
 10
6.914179636478157
 20
9.256719080606705
 30
0.0
 10
6.914217866030655
 20
9.254150987071946
 30
0.0
 10
6.914703349816815
 20
9.250053445162771
 30
0.0
 10
6.915329996198714
 20
9.24665530144338
 30
0.0
 10
6.915913168529288
 20
9.245023012964916
 30
0.0
 10
6.915989185546531
 20
9.244810242751198
 30
0.0
  0
LINE
  5
A9
330
1F
100
AcDbEntity
  8
0
  6
Continuous
 62
     7
370
    15
100
AcDbLine
 10
7.197210162638313
 20
9.298078117227912
 30
0.0
 11
7.20649094094134
 21
9.295591694150608
 31
0.0
  0
LINE
  5
AA
330
1F
100
AcDbEntity
  8
0
  6
Continuous
 62
     7
370
    15
100
AcDbLine
 10
7.226708568459798
 20
9.37105544212237
 30
0.0
 11
7.217427790156772
 21
9.373541865199674
 31
0.0
  0
SPLINE
  5
AB
330
1F
100
AcDbEntity
  8
0
  6
Continuous
 62
     7
370
    15
100
AcDbSpline
210
0.0
220
0.0
230
1.0
 70
     8
 71
     3
 72
    17
 73
    13
 74
     0
 42
0.0000000001
 43
0.0000000001
 40
0.0
 40
0.0
 40
0.0
 40
0.0
 40
0.0035630133943157
 40
0.1247179174011784
 40
0.2459678091058858
 40
0.3672191260442676
 40
0.4884525192292858
 40
0.6096659503389389
 40
0.7308825444187663
 40
0.8521188739549039
 40
0.9670440210663301
 40
1.0
 40
1.0
 40
1.0
 40
1.0
 10
7.194756740814001
 20
9.366326814796263
 30
0.0
 10
7.194722815206223
 20
9.366298838272113
 30
0.0
 10
7.193535300403349
 20
9.365319562181444
 30
0.0
 10
7.191398318089436
 20
9.362873590995841
 30
0.0
 10
7.18843340133487
 20
9.35902167989413
 30
0.0
 10
7.185833582599664
 20
9.354686414956388
 30
0.0
 10
7.183612663884954
 20
9.350031252895128
 30
0.0
 10
7.181818538812269
 20
9.345117156812667
 30
0.0
 10
7.18047908823993
 20
9.340037260412829
 30
0.0
 10
7.179639271738636
 20
9.33497206355951
 30
0.0
 10
7.179352703532109
 20
9.331165828126527
 30
0.0
 10
7.179335366142943
 20
9.329105926880128
 30
0.0
 10
7.179331502427218
 20
9.32864686855472
 30
0.0
  0
SPLINE
  5
AC
330
1F
100
AcDbEntity
  8
0
  6
Continuous
 62
     7
370
    15
100
AcDbSpline
210
0.0
220
0.0
230
1.0
 70
     8
 71
     3
 72
    11
 73
     7
 74
     0
 42
0.0000000001
 43
0.0000000001
 40
0.0
 40
0.0
 40
0.0
 40
0.0
 40
0.1969947406872255
 40
0.5702640256351219
 40
0.9439835443827252
 40
1.0
 40
1.0
 40
1.0
 40
1.0
 10
7.179331502427218
 20
9.32864686855472
 30
0.0
 10
7.179344708627227
 20
9.327759734004407
 30
0.0
 10
7.179382938179728
 20
9.325191640469649
 30
0.0
 10
7.179868421965886
 20
9.321094098560477
 30
0.0
 10
7.180495068347785
 20
9.317695954841084
 30
0.0
 10
7.181078240678359
 20
9.316063666362619
 30
0.0
 10
7.181154257695602
 20
9.315850896148901
 30
0.0
  0
LINE
  5
AD
330
1F
100
AcDbEntity
  8
0
  6
Continuous
 62
     7
370
    15
100
AcDbLine
 10
6.932045194197038
 20
9.829189933892182
 30
0.0
 11
6.941325972500064
 21
9.826703510814878
 31
0.0
  0
LINE
  5
AE
330
1F
100
AcDbEntity
  8
0
  6
Continuous
 62
     7
370
    15
100
AcDbLine
 10
6.961543496310727
 20
9.902166948395302
 30
0.0
 11
6.9522627180077
 21
9.904653371472605
 31
0.0
  0
SPLINE
  5
AF
330
1F
100
AcDbEntity
  8
0
  6
Continuous
 62
     7
370
    15
100
AcDbSpline
210
0.0
220
0.0
230
1.0
 70
     8
 71
     3
 72
    17
 73
    13
 74
     0
 42
0.0000000001
 43
0.0000000001
 40
0.0
 40
0.0
 40
0.0
 40
0.0
 40
0.0035598811634241
 40
0.1247140815950634
 40
0.2459637961503132
 40
0.3672149359371551
 40
0.4884481519968207
 40
0.6096673553964213
 40
0.7308825490995814
 40
0.8521187015060762
 40
0.9670372819876927
 40
1.0
 40
1.0
 40
1.0
 40
1.0
 10
6.92959166866493
 20
9.897438321069193
 30
0.0
 10
6.929557777778092
 20
9.897410353383554
 30
0.0
 10
6.928370471058493
 20
9.896430555444053
 30
0.0
 10
6.926233115176975
 20
9.893985716928668
 30
0.0
 10
6.923268361622455
 20
9.890133377716285
 30
0.0
 10
6.920668507219414
 20
9.885798225312434
 30
0.0
 10
6.918447535903467
 20
9.881142970762692
 30
0.0
 10
6.916653498714577
 20
9.876228757300207
 30
0.0
 10
6.915314126169924
 20
9.871148770657026
 30
0.0
 10
6.914474364466244
 20
9.866083696571743
 30
0.0
 10
6.914187611962684
 20
9.862277429665899
 30
0.0
 10
6.914170291096479
 20
9.860217526841053
 30
0.0
 10
6.914166430278145
 20
9.859758374827649
 30
0.0
  0
SPLINE
  5
B0
330
1F
100
AcDbEntity
  8
0
  6
Continuous
 62
     7
370
    15
100
AcDbSpline
210
0.0
220
0.0
230
1.0
 70
     8
 71
     3
 72
    11
 73
     7
 74
     0
 42
0.0000000001
 43
0.0000000001
 40
0.0
 40
0.0
 40
0.0
 40
0.0
 40
0.1969947406872255
 40
0.5702640256351219
 40
0.9439835443827252
 40
1.0
 40
1.0
 40
1.0
 40
1.0
 10
6.914166430278145
 20
9.859758374827649
 30
0.0
 10
6.914179636478157
 20
9.858871240277338
 30
0.0
 10
6.914217866030655
 20
9.856303146742581
 30
0.0
 10
6.914703349816815
 20
9.852205604833409
 30
0.0
 10
6.915329996198714
 20
9.848807461114013
 30
0.0
 10
6.915913168529288
 20
9.84717517263555
 30
0.0
 10
6.915989185546531
 20
9.846962402421832
 30
0.0
  0
LINE
  5
B1
330
1F
100
AcDbEntity
  8
0
  6
Continuous
 62
     7
370
    15
100
AcDbLine
 10
6.799462658122503
 20
9.613023902770764
 30
0.0
 11
6.808743436425529
 21
9.61053747969346
 31
0.0
  0
LINE
  5
B2
330
1F
100
AcDbEntity
  8
0
  6
Continuous
 62
     7
370
    15
100
AcDbLine
 10
6.82896096023619
 20
9.686000917273885
 30
0.0
 11
6.819680181933165
 21
9.688487340351189
 31
0.0
  0
SPLINE
  5
B3
330
1F
100
AcDbEntity
  8
0
  6
Continuous
 62
     7
370
    15
100
AcDbSpline
210
0.0
220
0.0
230
1.0
 70
     8
 71
     3
 72
    17
 73
    13
 74
     0
 42
0.0000000001
 43
0.0000000001
 40
0.0
 40
0.0
 40
0.0
 40
0.0
 40
0.0035625194638148
 40
0.124716432708914
 40
0.245965859851215
 40
0.3672167122217298
 40
0.4884496409075549
 40
0.6096685569665312
 40
0.7308834633385714
 40
0.8521193283642654
 40
0.9670372830435766
 40
0.9999999999999998
 40
0.9999999999999998
 40
0.9999999999999998
 40
0.9999999999999998
 10
6.797009132590395
 20
9.681272572554648
 30
0.0
 10
6.796975242075768
 20
9.681244509565575
 30
0.0
 10
6.79578880530547
 20
9.680262082402935
 30
0.0
 10
6.79365019379218
 20
9.67782080809467
 30
0.0
 10
6.790685928945391
 20
9.673967045794393
 30
0.0
 10
6.78808594300499
 20
9.66963227469864
 30
0.0
 10
6.78586500900531
 20
9.664976918368463
 30
0.0
 10
6.784070954070136
 20
9.660062730777378
 30
0.0
 10
6.782731615200641
 20
9.654982742412043
 30
0.0
 10
6.781891739385908
 20
9.649917654680427
 30
0.0
 10
6.781605297329795
 20
9.646111447273552
 30
0.0
 10
6.781587795397875
 20
9.644051506181124
 30
0.0
 10
6.78158389420361
 20
9.643592343706234
 30
0.0
  0
SPLINE
  5
B4
330
1F
100
AcDbEntity
  8
0
  6
Continuous
 62
     7
370
    15
100
AcDbSpline
210
0.0
220
0.0
230
1.0
 70
     8
 71
     3
 72
    11
 73
     7
 74
     0
 42
0.0000000001
 43
0.0000000001
 40
0.0
 40
0.0
 40
0.0
 40
0.0
 40
0.1969952721196074
 40
0.5702635687839556
 40
0.943983484831781
 40
1.0
 40
1.0
 40
1.0
 40
1.0
 10
6.78158389420361
 20
9.643592343706234
 30
0.0
 10
6.781597145846925
 20
9.642705222399722
 30
0.0
 10
6.781635506815323
 20
9.640137176188497
 30
0.0
 10
6.7821207530213
 20
9.636039542793831
 30
0.0
 10
6.782747461870339
 20
9.632641430700553
 30
0.0
 10
6.783330632656118
 20
9.631009141595775
 30
0.0
 10
6.783406649471993
 20
9.630796371300416
 30
0.0
  0
LINE
  5
B5
330
1F
100
AcDbEntity
  8
0
  6
Continuous
 62
     7
370
    15
100
AcDbLine
 10
6.666880122047967
 20
9.758149280494478
 30
0.0
 11
6.676160900350994
 21
9.755662857417174
 31
0.0
  0
LINE
  5
B6
330
1F
100
AcDbEntity
  8
0
  6
Continuous
 62
     7
370
    15
100
AcDbLine
 10
6.696378424161655
 20
9.831126294997597
 30
0.0
 11
6.68709764585863
 21
9.833612718074901
 31
0.0
  0
SPLINE
  5
B7
330
1F
100
AcDbEntity
  8
0
  6
Continuous
 62
     7
370
    15
100
AcDbSpline
210
0.0
220
0.0
230
1.0
 70
     8
 71
     3
 72
    17
 73
    13
 74
     0
 42
0.0000000001
 43
0.0000000001
 40
0.0
 40
0.0
 40
0.0
 40
0.0
 40
0.0035598863303847
 40
0.1247142626103039
 40
0.2459614855869862
 40
0.3672151653118774
 40
0.4884465396295774
 40
0.609665918971806
 40
0.7308825118894081
 40
0.8521188402631313
 40
0.9670372341442234
 40
1.0
 40
1.0
 40
1.0
 40
1.0
 10
6.664426596515859
 20
9.826397667671491
 30
0.0
 10
6.664392705632285
 20
9.826369699981542
 30
0.0
 10
6.663205399027006
 20
9.825389901891107
 30
0.0
 10
6.661068042854264
 20
9.822945120875608
 30
0.0
 10
6.658103395121472
 20
9.819092648230483
 30
0.0
 10
6.655503418554106
 20
9.814757669627397
 30
0.0
 10
6.653282579143121
 20
9.810102295879699
 30
0.0
 10
6.651488546510285
 20
9.805188112590849
 30
0.0
 10
6.65014903875822
 20
9.800108142858794
 30
0.0
 10
6.649309255888153
 20
9.795043040777489
 30
0.0
 10
6.649022651410799
 20
9.791236800277237
 30
0.0
 10
6.649005324100764
 20
9.789176901436919
 30
0.0
 10
6.649001461836872
 20
9.788717749214413
 30
0.0
  0
SPLINE
  5
B8
330
1F
100
AcDbEntity
  8
0
  6
Continuous
 62
     7
370
    15
100
AcDbSpline
210
0.0
220
0.0
230
1.0
 70
     8
 71
     3
 72
    11
 73
     7
 74
     0
 42
0.0000000001
 43
0.0000000001
 40
0.0
 40
0.0
 40
0.0
 40
0.0
 40
0.1969950135457389
 40
0.5702634304054285
 40
0.9439834667940205
 40
1.0
 40
1.0
 40
1.0
 40
1.0
 10
6.649001461836872
 20
9.788717749214413
 30
0.0
 10
6.649014672370952
 20
9.787830616620285
 30
0.0
 10
6.649052914376911
 20
9.785262534985905
 30
0.0
 10
6.649538236831104
 20
9.781164926683244
 30
0.0
 10
6.65016492523399
 20
9.777766808250063
 30
0.0
 10
6.650748096516794
 20
9.7761345192994
 30
0.0
 10
6.650824113397458
 20
9.775921749024128
 30
0.0
  0
LINE
  5
B9
330
1F
100
AcDbEntity
  8
0
  6
Continuous
 62
     7
370
    15
100
AcDbLine
 10
6.799462658122503
 20
9.010871460493259
 30
0.0
 11
6.808743436425529
 21
9.008385037415955
 31
0.0
  0
LINE
  5
BA
330
1F
100
AcDbEntity
  8
0
  6
Continuous
 62
     7
370
    15
100
AcDbLine
 10
6.82896096023619
 20
9.08384875760325
 30
0.0
 11
6.819680181933165
 21
9.086335180680553
 31
0.0
  0
SPLINE
  5
BB
330
1F
100
AcDbEntity
  8
0
  6
Continuous
 62
     7
370
    15
100
AcDbSpline
210
0.0
220
0.0
230
1.0
 70
     8
 71
     3
 72
    17
 73
    13
 74
     0
 42
0.0000000001
 43
0.0000000001
 40
0.0
 40
0.0
 40
0.0
 40
0.0
 40
0.003559888770089
 40
0.1247177979884563
 40
0.2459635735522068
 40
0.3672198446289463
 40
0.4884533197367097
 40
0.6096668327556183
 40
0.7308822854683665
 40
0.8521186969292333
 40
0.9670439217006446
 40
1.0
 40
1.0
 40
1.0
 40
1.0
 10
6.797009132590395
 20
9.079120130277143
 30
0.0
 10
6.796975241678909
 20
9.079092162636671
 30
0.0
 10
6.795787901251943
 20
9.078112339175914
 30
0.0
 10
6.793650734810142
 20
9.075667169046635
 30
0.0
 10
6.790685670814683
 20
9.071815202203746
 30
0.0
 10
6.788086045736743
 20
9.067479755052481
 30
0.0
 10
6.785865053675154
 20
9.062824576515142
 30
0.0
 10
6.784070902976815
 20
9.057910494002346
 30
0.0
 10
6.782731624850345
 20
9.052830581490002
 30
0.0
 10
6.781891714436217
 20
9.047765398309557
 30
0.0
 10
6.78160530890313
 20
9.043959196126355
 30
0.0
 10
6.781587796850888
 20
9.041899252614623
 30
0.0
 10
6.78158389420361
 20
9.041440184035598
 30
0.0
  0
SPLINE
  5
BC
330
1F
100
AcDbEntity
  8
0
  6
Continuous
 62
     7
370
    15
100
AcDbSpline
210
0.0
220
0.0
230
1.0
 70
     8
 71
     3
 72
    11
 73
     7
 74
     0
 42
0.0000000001
 43
0.0000000001
 40
0.0
 40
0.0
 40
0.0
 40
0.0
 40
0.1969952721196074
 40
0.5702635687839556
 40
0.943983484831781
 40
1.0
 40
1.0
 40
1.0
 40
1.0
 10
6.78158389420361
 20
9.041440184035598
 30
0.0
 10
6.781597145846925
 20
9.040553062729088
 30
0.0
 10
6.781635506815323
 20
9.037985016517863
 30
0.0
 10
6.7821207530213
 20
9.033887383123195
 30
0.0
 10
6.782747461870339
 20
9.030489271029921
 30
0.0
 10
6.783330632656118
 20
9.028856981925141
 30
0.0
 10
6.783406649471993
 20
9.028644211629782
 30
0.0
  0
LINE
  5
BD
330
1F
100
AcDbEntity
  8
0
  6
Continuous
 62
     7
370
    15
100
AcDbLine
 10
7.064627730271573
 20
9.081912113890961
 30
0.0
 11
7.073908508574599
 21
9.079425690813657
 31
0.0
  0
LINE
  5
BE
330
1F
100
AcDbEntity
  8
0
  6
Continuous
 62
     7
370
    15
100
AcDbLine
 10
7.094126032385263
 20
9.154889411000954
 30
0.0
 11
7.084845254082237
 21
9.157375834078258
 31
0.0
  0
SPLINE
  5
BF
330
1F
100
AcDbEntity
  8
0
  6
Continuous
 62
     7
370
    15
100
AcDbSpline
210
0.0
220
0.0
230
1.0
 70
     8
 71
     3
 72
    17
 73
    13
 74
     0
 42
0.0000000001
 43
0.0000000001
 40
0.0
 40
0.0
 40
0.0
 40
0.0
 40
0.0035598877865569
 40
0.1247177635312125
 40
0.2459635055969753
 40
0.3672197431728275
 40
0.4884531847860015
 40
0.6096666643158361
 40
0.7308820835389743
 40
0.8521184615044406
 40
0.9670440079016627
 40
1.0
 40
1.0
 40
1.0
 40
1.0
 10
7.062174204739465
 20
9.150160783674845
 30
0.0
 10
7.062140313827975
 20
9.150132816034373
 30
0.0
 10
7.060952973400827
 20
9.149152992573576
 30
0.0
 10
7.058815806995418
 20
9.146707822450876
 30
0.0
 10
7.055850742836429
 20
9.142855855578469
 30
0.0
 10
7.053251118358878
 20
9.138520408535555
 30
0.0
 10
7.051030124059796
 20
9.133865229594441
 30
0.0
 10
7.049235981709549
 20
9.128951148588114
 30
0.0
 10
7.047896672426515
 20
9.123871230453373
 30
0.0
 10
7.047056875461691
 20
9.118806062886944
 30
0.0
 10
7.046770159589706
 20
9.114999800765266
 30
0.0
 10
7.046752828627008
 20
9.112939895546913
 30
0.0
 10
7.04674896635268
 20
9.112480837433304
 30
0.0
  0
SPLINE
  5
C0
330
1F
100
AcDbEntity
  8
0
  6
Continuous
 62
     7
370
    15
100
AcDbSpline
210
0.0
220
0.0
230
1.0
 70
     8
 71
     3
 72
    11
 73
     7
 74
     0
 42
0.0000000001
 43
0.0000000001
 40
0.0
 40
0.0
 40
0.0
 40
0.0
 40
0.1969947406872255
 40
0.5702640256351219
 40
0.9439835443827252
 40
1.0
 40
1.0
 40
1.0
 40
1.0
 10
7.04674896635268
 20
9.112480837433304
 30
0.0
 10
7.046762172552692
 20
9.111593702882991
 30
0.0
 10
7.046800402105192
 20
9.109025609348233
 30
0.0
 10
7.04728588589135
 20
9.104928067439059
 30
0.0
 10
7.04791253227325
 20
9.101529923719665
 30
0.0
 10
7.048495704603824
 20
9.099897635241203
 30
0.0
 10
7.048571721621066
 20
9.099684865027484
 30
0.0
  0
LINE
  5
C1
330
1F
100
AcDbEntity
  8
0
  6
Continuous
 62
     7
370
    15
100
AcDbLine
 10
6.666880122047967
 20
9.155996838216971
 30
0.0
 11
6.676160900350994
 21
9.153510415139667
 31
0.0
  0
LINE
  5
C2
330
1F
100
AcDbEntity
  8
0
  6
Continuous
 62
     7
370
    15
100
AcDbLine
 10
6.696378424161655
 20
9.228974135326962
 30
0.0
 11
6.68709764585863
 21
9.231460558404267
 31
0.0
  0
SPLINE
  5
C3
330
1F
100
AcDbEntity
  8
0
  6
Continuous
 62
     7
370
    15
100
AcDbSpline
210
0.0
220
0.0
230
1.0
 70
     8
 71
     3
 72
    17
 73
    13
 74
     0
 42
0.0000000001
 43
0.0000000001
 40
0.0
 40
0.0
 40
0.0
 40
0.0
 40
0.0035598953532931
 40
0.1247180286256395
 40
0.24596555891623
 40
0.3672195459713947
 40
0.4884512275628329
 40
0.6096649647385472
 40
0.7308818648924224
 40
0.8521185005524403
 40
0.9670439378518992
 40
1.0
 40
1.0
 40
1.0
 40
1.0
 10
6.664426596515857
 20
9.224245508000855
 30
0.0
 10
6.664392705614514
 20
9.22421754034665
 30
0.0
 10
6.663205365542817
 20
9.22323771640474
 30
0.0
 10
6.661068112862589
 20
9.220792629845918
 30
0.0
 10
6.658103385897728
 20
9.216940227872461
 30
0.0
 10
6.655503413549882
 20
9.212605225004567
 30
0.0
 10
6.653282644701881
 20
9.207949917223011
 30
0.0
 10
6.651488489816419
 20
9.203035885680527
 30
0.0
 10
6.65014904991168
 20
9.197955979281537
 30
0.0
 10
6.649309230557363
 20
9.192890785102466
 30
0.0
 10
6.649022662975443
 20
9.189084549084018
 30
0.0
 10
6.649005325558734
 20
9.187024647863433
 30
0.0
 10
6.649001461836872
 20
9.186565589543777
 30
0.0
  0
SPLINE
  5
C4
330
1F
100
AcDbEntity
  8
0
  6
Continuous
 62
     7
370
    15
100
AcDbSpline
210
0.0
220
0.0
230
1.0
 70
     8
 71
     3
 72
    11
 73
     7
 74
     0
 42
0.0000000001
 43
0.0000000001
 40
0.0
 40
0.0
 40
0.0
 40
0.0
 40
0.1969950135457389
 40
0.5702634304054285
 40
0.9439834667940205
 40
1.0
 40
1.0
 40
1.0
 40
1.0
 10
6.649001461836872
 20
9.186565589543777
 30
0.0
 10
6.649014672370952
 20
9.18567845694965
 30
0.0
 10
6.649052914376911
 20
9.183110375315271
 30
0.0
 10
6.649538236831104
 20
9.179012767012608
 30
0.0
 10
6.65016492523399
 20
9.175614648579431
 30
0.0
 10
6.650748096516794
 20
9.173982359628764
 30
0.0
 10
6.650824113397458
 20
9.173769589353495
 30
0.0
  0
LINE
  5
C5
330
1F
100
AcDbEntity
  8
0
  6
Continuous
 62
     7
370
    15
100
AcDbLine
 10
6.976239338319285
 20
6.995860400830069
 30
0.0
 11
6.98552011662231
 21
6.993373977752766
 31
0.0
  0
LINE
  5
C6
330
1F
100
AcDbEntity
  8
0
  6
Continuous
 62
     7
370
    15
100
AcDbLine
 10
7.005737640432974
 20
7.068837627288345
 30
0.0
 11
6.996456862129947
 21
7.071324050365647
 31
0.0
  0
SPLINE
  5
C7
330
1F
100
AcDbEntity
  8
0
  6
Continuous
 62
     7
370
    15
100
AcDbSpline
210
0.0
220
0.0
230
1.0
 70
     8
 71
     3
 72
    17
 73
    13
 74
     0
 42
0.0000000001
 43
0.0000000001
 40
0.0
 40
0.0
 40
0.0
 40
0.0
 40
0.0035598844895925
 40
0.1247167855224699
 40
0.2459628962405121
 40
0.3672177312743587
 40
0.4884497253478982
 40
0.6096660673015605
 40
0.7308818059328319
 40
0.8521172462555259
 40
0.9670406448064207
 40
1.0
 40
1.0
 40
1.0
 40
1.0
 10
6.973785812787176
 20
7.064108999962237
 30
0.0
 10
6.973751921888577
 20
7.064081032301428
 30
0.0
 10
6.972564590124265
 20
7.063101214904335
 30
0.0
 10
6.970427332900938
 20
7.060656198382938
 30
0.0
 10
6.967462568645164
 20
7.056803853406264
 30
0.0
 10
6.964862644056988
 20
7.052468783638089
 30
0.0
 10
6.962641832185958
 20
7.047813422810198
 30
0.0
 10
6.960847740274588
 20
7.042899315071154
 30
0.0
 10
6.959508260618915
 20
7.037819403792858
 30
0.0
 10
6.958668451461023
 20
7.032754253736023
 30
0.0
 10
6.958381874349665
 20
7.028948004440638
 30
0.0
 10
6.958364541226439
 20
7.026888080816586
 30
0.0
 10
6.958360678108189
 20
7.026428975527581
 30
0.0
  0
SPLINE
  5
C8
330
1F
100
AcDbEntity
  8
0
  6
Continuous
 62
     7
370
    15
100
AcDbSpline
210
0.0
220
0.0
230
1.0
 70
     8
 71
     3
 72
    11
 73
     7
 74
     0
 42
0.0000000001
 43
0.0000000001
 40
0.0
 40
0.0
 40
0.0
 40
0.0
 40
0.1969882390945512
 40
0.570261243228487
 40
0.9439807626712346
 40
1.0
 40
1.0
 40
1.0
 40
1.0
 10
6.958360678108189
 20
7.026428975527581
 30
0.0
 10
6.958373890042492
 20
7.02554187889733
 30
0.0
 10
6.958412137270432
 20
7.022973822908016
 30
0.0
 10
6.958897436355547
 20
7.018876235903902
 30
0.0
 10
6.959524168012999
 20
7.015478137903256
 30
0.0
 10
6.960107312940936
 20
7.013845828162634
 30
0.0
 10
6.960183329668777
 20
7.013633045989016
 30
0.0
  0
LINE
  5
C9
330
1F
100
AcDbEntity
  8
0
  6
Continuous
 62
     7
370
    15
100
AcDbLine
 10
4.103618059070988
 20
6.796868583138148
 30
0.0
 11
4.11289883575358
 21
6.794382160494977
 31
0.0
  0
LINE
  5
CA
330
1F
100
AcDbEntity
  8
0
  6
Continuous
 62
     7
370
    15
100
AcDbLine
 10
4.133116359564243
 20
6.869845810030555
 30
0.0
 11
4.123835582881651
 21
6.872332232673726
 31
0.0
  0
SPLINE
  5
CB
330
1F
100
AcDbEntity
  8
0
  6
Continuous
 62
     7
370
    15
100
AcDbSpline
210
0.0
220
0.0
230
1.0
 70
     8
 71
     3
 72
    17
 73
    13
 74
     0
 42
0.0000000001
 43
0.0000000001
 40
0.0
 40
0.0
 40
0.0
 40
0.0
 40
0.0035598831133223
 40
0.1247167284216626
 40
0.245965450388242
 40
0.3672178664723449
 40
0.4884511398711852
 40
0.6096674262492488
 40
0.7308826775915366
 40
0.8521172368173141
 40
0.9670405826743937
 40
1.0
 40
1.0
 40
1.0
 40
1.0
 10
4.101164532323554
 20
6.865117182595914
 30
0.0
 10
4.101130641215965
 20
6.865089214994607
 30
0.0
 10
4.099943302214471
 20
6.864109399751849
 30
0.0
 10
4.097806054255826
 20
6.861664323035275
 30
0.0
 10
4.094841186398451
 20
6.857812111668568
 30
0.0
 10
4.092241384842042
 20
6.853476874517554
 30
0.0
 10
4.090020434992432
 20
6.848821655542956
 30
0.0
 10
4.088226326547515
 20
6.843907512465055
 30
0.0
 10
4.086887034833222
 20
6.838827585970189
 30
0.0
 10
4.086047114979342
 20
6.833762451378404
 30
0.0
 10
4.085760704352763
 20
6.829956247007077
 30
0.0
 10
4.08574319841411
 20
6.827896280602756
 30
0.0
 10
4.08573929677253
 20
6.827437164942923
 30
0.0
  0
SPLINE
  5
CC
330
1F
100
AcDbEntity
  8
0
  6
Continuous
 62
     7
370
    15
100
AcDbSpline
210
0.0
220
0.0
230
1.0
 70
     8
 71
     3
 72
    11
 73
     7
 74
     0
 42
0.0000000001
 43
0.0000000001
 40
0.0
 40
0.0
 40
0.0
 40
0.0
 40
0.1969905491046396
 40
0.5702617837344633
 40
0.9439832510980677
 40
1.0
 40
1.0
 40
1.0
 40
1.0
 10
4.08573929677253
 20
6.827437164942923
 30
0.0
 10
4.085752502957648
 20
6.826550054279361
 30
0.0
 10
4.085790733130191
 20
6.823981985345746
 30
0.0
 10
4.086276218108691
 20
6.81988446517721
 30
0.0
 10
4.086902857433024
 20
6.816486323258417
 30
0.0
 10
4.08748603154869
 20
6.814854034333052
 30
0.0
 10
4.087562048800046
 20
6.814641264057086
 30
0.0
  0
LINE
  5
CD
330
1F
100
AcDbEntity
  8
0
  6
Continuous
 62
     7
370
    15
100
AcDbLine
 10
3.705870450847382
 20
5.907509632970818
 30
0.0
 11
3.715151227529973
 21
5.905023210327646
 31
0.0
  0
LINE
  5
CE
330
1F
100
AcDbEntity
  8
0
  6
Continuous
 62
     7
370
    15
100
AcDbLine
 10
3.735368855048432
 20
5.980486922973548
 30
0.0
 11
3.726088078365841
 21
5.982973345616719
 31
0.0
  0
SPLINE
  5
CF
330
1F
100
AcDbEntity
  8
0
  6
Continuous
 62
     7
370
    15
100
AcDbSpline
210
0.0
220
0.0
230
1.0
 70
     8
 71
     3
 72
    17
 73
    13
 74
     0
 42
0.0000000001
 43
0.0000000001
 40
0.0
 40
0.0
 40
0.0
 40
0.0
 40
0.003560209838824
 40
0.1247165042040125
 40
0.2459651063805742
 40
0.3672150387992885
 40
0.4884508926058424
 40
0.6096670592259337
 40
0.7308821908112718
 40
0.8521174556200849
 40
0.9670398439219264
 40
1.0
 40
1.0
 40
1.0
 40
1.0
 10
3.703416924099947
 20
5.975758267754441
 30
0.0
 10
3.703383033039965
 20
5.975730288236753
 30
0.0
 10
3.702195806804397
 20
5.974750147235648
 30
0.0
 10
3.700058396481761
 20
5.972305547451969
 30
0.0
 10
3.697093585801591
 20
5.96845320711271
 30
0.0
 10
3.694493882546151
 20
5.964117900561066
 30
0.0
 10
3.692272816154768
 20
5.959462758199443
 30
0.0
 10
3.690478728281998
 20
5.954548558628823
 30
0.0
 10
3.689139407669502
 20
5.949468622614009
 30
0.0
 10
3.688299557826292
 20
5.944403499799974
 30
0.0
 10
3.688012985138649
 20
5.940597248124112
 30
0.0
 10
3.687995654843899
 20
5.938537324360232
 30
0.0
 10
3.68799179225672
 20
5.938078207234196
 30
0.0
  0
SPLINE
  5
D0
330
1F
100
AcDbEntity
  8
0
  6
Continuous
 62
     7
370
    15
100
AcDbSpline
210
0.0
220
0.0
230
1.0
 70
     8
 71
     3
 72
    11
 73
     7
 74
     0
 42
0.0000000001
 43
0.0000000001
 40
0.0
 40
0.0
 40
0.0
 40
0.0
 40
0.1969877079734139
 40
0.5702617015087923
 40
0.9439808213600908
 40
1.0
 40
1.0
 40
1.0
 40
1.0
 10
3.68799179225672
 20
5.938078207234196
 30
0.0
 10
3.688004958180264
 20
5.937191097511588
 30
0.0
 10
3.688043072345052
 20
5.93462299463327
 30
0.0
 10
3.688528613069894
 20
5.930525498073524
 30
0.0
 10
3.689155275153925
 20
5.927127370280181
 30
0.0
 10
3.689738423412946
 20
5.925495060718216
 30
0.0
 10
3.689814440576439
 20
5.925282278563895
 30
0.0
  0
LINE
  5
D1
330
1F
100
AcDbEntity
  8
0
  6
Continuous
 62
     7
370
    15
100
AcDbLine
 10
3.705870450847382
 20
6.509661898619028
 30
0.0
 11
3.715151227529973
 21
6.507175475975857
 31
0.0
  0
LINE
  5
D2
330
1F
100
AcDbEntity
  8
0
  6
Continuous
 62
     7
370
    15
100
AcDbLine
 10
3.735368855048432
 20
6.582639223947619
 30
0.0
 11
3.726088078365841
 21
6.585125646590789
 31
0.0
  0
SPLINE
  5
D3
330
1F
100
AcDbEntity
  8
0
  6
Continuous
 62
     7
370
    15
100
AcDbSpline
210
0.0
220
0.0
230
1.0
 70
     8
 71
     3
 72
    17
 73
    13
 74
     0
 42
0.0000000001
 43
0.0000000001
 40
0.0
 40
0.0
 40
0.0
 40
0.0
 40
0.0035605411365664
 40
0.1247164343271946
 40
0.2459650665917057
 40
0.3672150290986995
 40
0.4884515954123378
 40
0.6096677921123294
 40
0.7308829537773111
 40
0.8521174233114983
 40
0.967040684146141
 40
1.0
 40
1.0
 40
1.0
 40
1.0
 10
3.703416924099947
 20
6.577910568728512
 30
0.0
 10
3.703383033088685
 20
6.577882577293383
 30
0.0
 10
3.702195919692639
 20
6.576902110603894
 30
0.0
 10
3.700058339199165
 20
6.57445799520419
 30
0.0
 10
3.697093601299934
 20
6.570605466729338
 30
0.0
 10
3.694493869461231
 20
6.566270207431814
 30
0.0
 10
3.692272825504618
 20
6.561615026638351
 30
0.0
 10
3.69047872616446
 20
6.55670082600876
 30
0.0
 10
3.689139413196799
 20
6.551620899294656
 30
0.0
 10
3.688299551545702
 20
6.546555777203672
 30
0.0
 10
3.688012986711565
 20
6.542749537651967
 30
0.0
 10
3.687995655049361
 20
6.54068961359537
 30
0.0
 10
3.68799179225672
 20
6.540230508208267
 30
0.0
  0
SPLINE
  5
D4
330
1F
100
AcDbEntity
  8
0
  6
Continuous
 62
     7
370
    15
100
AcDbSpline
210
0.0
220
0.0
230
1.0
 70
     8
 71
     3
 72
    11
 73
     7
 74
     0
 42
0.0000000001
 43
0.0000000001
 40
0.0
 40
0.0
 40
0.0
 40
0.0
 40
0.1969902909655841
 40
0.5702616455888698
 40
0.9439832330906698
 40
1.0
 40
1.0
 40
1.0
 40
1.0
 10
3.68799179225672
 20
6.540230508208267
 30
0.0
 10
3.688004957332692
 20
6.539343386257586
 30
0.0
 10
3.688043068540362
 20
6.536775281906081
 30
0.0
 10
3.688528629770282
 20
6.532677786822639
 30
0.0
 10
3.689155248647575
 20
6.529279638565123
 30
0.0
 10
3.689738423260292
 20
6.527647349793845
 30
0.0
 10
3.689814440576439
 20
6.527434579537966
 30
0.0
  0
LINE
  5
D5
330
1F
100
AcDbEntity
  8
0
  6
Continuous
 62
     7
370
    15
100
AcDbLine
 10
3.971035522996452
 20
6.580702552016732
 30
0.0
 11
3.980316299679044
 21
6.578216129373561
 31
0.0
  0
LINE
  5
D6
330
1F
100
AcDbEntity
  8
0
  6
Continuous
 62
     7
370
    15
100
AcDbLine
 10
4.000533823489706
 20
6.653679849560856
 30
0.0
 11
3.991253046807115
 21
6.656166272204028
 31
0.0
  0
SPLINE
  5
D7
330
1F
100
AcDbEntity
  8
0
  6
Continuous
 62
     7
370
    15
100
AcDbSpline
210
0.0
220
0.0
230
1.0
 70
     8
 71
     3
 72
    17
 73
    13
 74
     0
 42
0.0000000001
 43
0.0000000001
 40
0.0
 40
0.0
 40
0.0
 40
0.0
 40
0.00356054381386
 40
0.1247165281057796
 40
0.2459625839552998
 40
0.367217365431435
 40
0.4884499874850084
 40
0.6096662753316357
 40
0.7308827514189297
 40
0.8521173121134925
 40
0.9670406593628955
 40
1.0
 40
1.0
 40
1.0
 40
1.0
 10
3.968581996249019
 20
6.648951222126216
 30
0.0
 10
3.968548105242093
 20
6.648923230685718
 30
0.0
 10
3.967360991997964
 20
6.647942763808187
 30
0.0
 10
3.965223403502512
 20
6.645498713514839
 30
0.0
 10
3.962258786816296
 20
6.641645992358592
 30
0.0
 10
3.959658806633197
 20
6.637311023640339
 30
0.0
 10
3.957438030943933
 20
6.632655608205404
 30
0.0
 10
3.955643913872978
 20
6.627741494666016
 30
0.0
 10
3.954304459766157
 20
6.622661575086862
 30
0.0
 10
3.953464631127888
 20
6.61759642928041
 30
0.0
 10
3.953178058436925
 20
6.613790191124969
 30
0.0
 10
3.953160727121209
 20
6.611730267006797
 30
0.0
 10
3.953156864405791
 20
6.61127116160597
 30
0.0
  0
SPLINE
  5
D8
330
1F
100
AcDbEntity
  8
0
  6
Continuous
 62
     7
370
    15
100
AcDbSpline
210
0.0
220
0.0
230
1.0
 70
     8
 71
     3
 72
    11
 73
     7
 74
     0
 42
0.0000000001
 43
0.0000000001
 40
0.0
 40
0.0
 40
0.0
 40
0.0
 40
0.1969908219587717
 40
0.5702611884985569
 40
0.9439831735085512
 40
0.9999999999999998
 40
0.9999999999999998
 40
0.9999999999999998
 40
0.9999999999999998
 10
3.953156864405791
 20
6.61127116160597
 30
0.0
 10
3.953170074924792
 20
6.610384052898509
 30
0.0
 10
3.953208317550469
 20
6.607815995865124
 30
0.0
 10
3.953693641197381
 20
6.603718409303278
 30
0.0
 10
3.954320322542836
 20
6.600320292670752
 30
0.0
 10
3.954903495610732
 20
6.598688003273187
 30
0.0
 10
3.95497951272551
 20
6.59847523293567
 30
0.0
  0
LINE
  5
D9
330
1F
100
AcDbEntity
  8
0
  6
Continuous
 62
     7
370
    15
100
AcDbLine
 10
7.10882187439382
 20
6.850735023106357
 30
0.0
 11
7.118102652696845
 21
6.848248600029053
 31
0.0
  0
LINE
  5
DA
330
1F
100
AcDbEntity
  8
0
  6
Continuous
 62
     7
370
    15
100
AcDbLine
 10
7.138320176507509
 20
6.923712284890489
 30
0.0
 11
7.129039398204484
 21
6.926198707967794
 31
0.0
  0
SPLINE
  5
DB
330
1F
100
AcDbEntity
  8
0
  6
Continuous
 62
     7
370
    15
100
AcDbSpline
210
0.0
220
0.0
230
1.0
 70
     8
 71
     3
 72
    17
 73
    13
 74
     0
 42
0.0000000001
 43
0.0000000001
 40
0.0
 40
0.0
 40
0.0
 40
0.0
 40
0.0035602082451746
 40
0.1247164572603905
 40
0.2459650146242864
 40
0.3672172647859666
 40
0.4884510556376061
 40
0.6096679203823319
 40
0.7308822148497091
 40
0.8521174342553692
 40
0.9670397793769458
 40
1.0
 40
1.0
 40
1.0
 40
1.0
 10
7.106368348861711
 20
6.918983657564382
 30
0.0
 10
7.106334458008483
 20
6.918955677990482
 30
0.0
 10
7.105147238931071
 20
6.917975534950486
 30
0.0
 10
7.10300981225874
 20
6.915530945176956
 30
0.0
 10
7.100045013246253
 20
6.911678546731552
 30
0.0
 10
7.097445193347
 20
6.90734335382162
 30
0.0
 10
7.095224247367519
 20
6.902688091560302
 30
0.0
 10
7.093430156659985
 20
6.897773936600468
 30
0.0
 10
7.092090835200178
 20
6.892694005196734
 30
0.0
 10
7.091250938242653
 20
6.887628879282862
 30
0.0
 10
7.090964518829571
 20
6.883822662900417
 30
0.0
 10
7.090947012339672
 20
6.881762697302255
 30
0.0
 10
7.090943110474928
 20
6.881303570019403
 30
0.0
  0
SPLINE
  5
DC
330
1F
100
AcDbEntity
  8
0
  6
Continuous
 62
     7
370
    15
100
AcDbSpline
210
0.0
220
0.0
230
1.0
 70
     8
 71
     3
 72
    11
 73
     7
 74
     0
 42
0.0000000001
 43
0.0000000001
 40
0.0
 40
0.0
 40
0.0
 40
0.0
 40
0.1969884976822637
 40
0.5702613816139596
 40
0.9439807807106793
 40
0.9999999999999998
 40
0.9999999999999998
 40
0.9999999999999998
 40
0.9999999999999998
 10
7.090943110474928
 20
6.881303570019403
 30
0.0
 10
7.090956363518281
 20
6.880416484676721
 30
0.0
 10
7.090994729711749
 20
6.877848464111663
 30
0.0
 10
7.091479952544764
 20
6.873750852014151
 30
0.0
 10
7.092106704649403
 20
6.870352760353767
 30
0.0
 10
7.09268984908027
 20
6.868720450459013
 30
0.0
 10
7.092765865743312
 20
6.868507668265303
 30
0.0
  0
LINE
  5
DD
330
1F
100
AcDbEntity
  8
0
  6
Continuous
 62
     7
370
    15
100
AcDbLine
 10
6.666880122047967
 20
6.732333943371672
 30
0.0
 11
6.676160900350994
 21
6.729847520294369
 31
0.0
  0
LINE
  5
DE
330
1F
100
AcDbEntity
  8
0
  6
Continuous
 62
     7
370
    15
100
AcDbLine
 10
6.696378424161655
 20
6.805311205155806
 30
0.0
 11
6.68709764585863
 21
6.807797628233109
 31
0.0
  0
SPLINE
  5
DF
330
1F
100
AcDbEntity
  8
0
  6
Continuous
 62
     7
370
    15
100
AcDbSpline
210
0.0
220
0.0
230
1.0
 70
     8
 71
     3
 72
    17
 73
    13
 74
     0
 42
0.0000000001
 43
0.0000000001
 40
0.0
 40
0.0
 40
0.0
 40
0.0
 40
0.0035602124289737
 40
0.1247166038216507
 40
0.2459626360860182
 40
0.367217392660545
 40
0.4884493082895442
 40
0.609666315482964
 40
0.7308819756802136
 40
0.8521173375561373
 40
0.967039817729367
 40
1.0
 40
1.0
 40
1.0
 40
1.0
 10
6.664426596515857
 20
6.800582577829698
 30
0.0
 10
6.664392705665889
 20
6.800554598251489
 30
0.0
 10
6.663205486702638
 20
6.799574455060521
 30
0.0
 10
6.661068059776017
 20
6.797129922792155
 30
0.0
 10
6.658103366420991
 20
6.793277390885871
 30
0.0
 10
6.655503424956821
 20
6.788942371884697
 30
0.0
 10
6.653282608645209
 20
6.784286990023043
 30
0.0
 10
6.651488530841947
 20
6.779372866741923
 30
0.0
 10
6.650149043020198
 20
6.77429294662789
 30
0.0
 10
6.649309238338595
 20
6.769227808329083
 30
0.0
 10
6.649022656633782
 20
6.765421558419665
 30
0.0
 10
6.649005324773061
 20
6.763361635095517
 30
0.0
 10
6.649001461836872
 20
6.762902518069185
 30
0.0
  0
SPLINE
  5
E0
330
1F
100
AcDbEntity
  8
0
  6
Continuous
 62
     7
370
    15
100
AcDbSpline
210
0.0
220
0.0
230
1.0
 70
     8
 71
     3
 72
    11
 73
     7
 74
     0
 42
0.0000000001
 43
0.0000000001
 40
0.0
 40
0.0
 40
0.0
 40
0.0
 40
0.1969882390945512
 40
0.570261243228487
 40
0.9439807626712346
 40
1.0
 40
1.0
 40
1.0
 40
1.0
 10
6.649001461836872
 20
6.762902518069185
 30
0.0
 10
6.649014673771176
 20
6.762015421438933
 30
0.0
 10
6.649052920999116
 20
6.759447365449618
 30
0.0
 10
6.649538220084231
 20
6.755349778445505
 30
0.0
 10
6.65016495174168
 20
6.751951680444859
 30
0.0
 10
6.65074809666962
 20
6.750319370704237
 30
0.0
 10
6.650824113397458
 20
6.750106588530619
 30
0.0
  0
LINE
  5
E1
330
1F
100
AcDbEntity
  8
0
  6
Continuous
 62
     7
370
    15
100
AcDbLine
 10
6.534297585973431
 20
6.877459321095386
 30
0.0
 11
6.543578364276456
 21
6.874972898018082
 31
0.0
  0
LINE
  5
E2
330
1F
100
AcDbEntity
  8
0
  6
Continuous
 62
     7
370
    15
100
AcDbLine
 10
6.56379588808712
 20
6.95043654755366
 30
0.0
 11
6.554515109784094
 21
6.952922970630964
 31
0.0
  0
SPLINE
  5
E3
330
1F
100
AcDbEntity
  8
0
  6
Continuous
 62
     7
370
    15
100
AcDbSpline
210
0.0
220
0.0
230
1.0
 70
     8
 71
     3
 72
    17
 73
    13
 74
     0
 42
0.0000000001
 43
0.0000000001
 40
0.0
 40
0.0
 40
0.0
 40
0.0
 40
0.0035598866326566
 40
0.1247139372415984
 40
0.245962788539062
 40
0.3672153326432622
 40
0.4884494173926721
 40
0.6096658323190369
 40
0.7308816439226477
 40
0.8521171572295413
 40
0.9670406249647625
 40
1.0
 40
1.0
 40
1.0
 40
1.0
 10
6.531844060441322
 20
6.945707920227552
 30
0.0
 10
6.53181016953344
 20
6.945679952583867
 30
0.0
 10
6.530622865274917
 20
6.944700158753543
 30
0.0
 10
6.52848567225833
 20
6.942255033634405
 30
0.0
 10
6.525520810695057
 20
6.93840288426935
 30
0.0
 10
6.522921014934214
 20
6.934067631565512
 30
0.0
 10
6.520700059834585
 20
6.929412395257777
 30
0.0
 10
6.518905995958203
 20
6.924498228658285
 30
0.0
 10
6.517566506112194
 20
6.919418325855387
 30
0.0
 10
6.516726699679647
 20
6.914353173531858
 30
0.0
 10
6.516440121971634
 20
6.910546924732716
 30
0.0
 10
6.516422788874721
 20
6.908487001086779
 30
0.0
 10
6.516418925762335
 20
6.908027895792897
 30
0.0
  0
SPLINE
  5
E4
330
1F
100
AcDbEntity
  8
0
  6
Continuous
 62
     7
370
    15
100
AcDbSpline
210
0.0
220
0.0
230
1.0
 70
     8
 71
     3
 72
    11
 73
     7
 74
     0
 42
0.0000000001
 43
0.0000000001
 40
0.0
 40
0.0
 40
0.0
 40
0.0
 40
0.1969874364411302
 40
0.5702589196271397
 40
0.9439769163025779
 40
1.0
 40
1.0
 40
1.0
 40
1.0
 10
6.516418925762335
 20
6.908027895792897
 30
0.0
 10
6.51643213533796
 20
6.907140797152511
 30
0.0
 10
6.516470375737758
 20
6.904572735344058
 30
0.0
 10
6.516955761682658
 20
6.900475222364348
 30
0.0
 10
6.517582236193215
 20
6.89707688526288
 30
0.0
 10
6.51816562738976
 20
6.895444764973962
 30
0.0
 10
6.51824168103072
 20
6.895231994038797
 30
0.0
  0
LINE
  5
E5
330
1F
100
AcDbEntity
  8
0
  6
Continuous
 62
     7
370
    15
100
AcDbLine
 10
3.838452986921917
 20
6.725827929740444
 30
0.0
 11
3.847733763604509
 21
6.723341507097274
 31
0.0
  0
LINE
  5
E6
330
1F
100
AcDbEntity
  8
0
  6
Continuous
 62
     7
370
    15
100
AcDbLine
 10
3.867951391122968
 20
6.798805184417316
 30
0.0
 11
3.858670614440376
 21
6.801291607060488
 31
0.0
  0
SPLINE
  5
E7
330
1F
100
AcDbEntity
  8
0
  6
Continuous
 62
     7
370
    15
100
AcDbSpline
210
0.0
220
0.0
230
1.0
 70
     8
 71
     3
 72
    17
 73
    13
 74
     0
 42
0.0000000001
 43
0.0000000001
 40
0.0
 40
0.0
 40
0.0
 40
0.0
 40
0.0035598846198564
 40
0.1247167812014848
 40
0.2459655544802342
 40
0.3672156580030133
 40
0.4884510004727719
 40
0.6096673381492788
 40
0.730882640789572
 40
0.852117251321526
 40
0.9670406458138916
 40
1.0
 40
1.0
 40
1.0
 40
1.0
 10
3.835999460174483
 20
6.794076529198211
 30
0.0
 10
3.835965569065816
 20
6.794048561597961
 30
0.0
 10
3.834778230026579
 20
6.793068746392244
 30
0.0
 10
3.832640989817078
 20
6.790623662070392
 30
0.0
 10
3.829676106403452
 20
6.786771509926178
 30
0.0
 10
3.827076431624859
 20
6.782436156106109
 30
0.0
 10
3.824855343176563
 20
6.777781052174605
 30
0.0
 10
3.823061265366473
 20
6.772866853684187
 30
0.0
 10
3.821721948429681
 20
6.767786931343441
 30
0.0
 10
3.8208820878401
 20
6.762721808082833
 30
0.0
 10
3.820595522773568
 20
6.758915568787193
 30
0.0
 10
3.820578191121612
 20
6.756855644719302
 30
0.0
 10
3.820574328331256
 20
6.756396539329683
 30
0.0
  0
SPLINE
  5
E8
330
1F
100
AcDbEntity
  8
0
  6
Continuous
 62
     7
370
    15
100
AcDbSpline
210
0.0
220
0.0
230
1.0
 70
     8
 71
     3
 72
    11
 73
     7
 74
     0
 42
0.0000000001
 43
0.0000000001
 40
0.0
 40
0.0
 40
0.0
 40
0.0
 40
0.1969902909655841
 40
0.5702616455888698
 40
0.9439832330906698
 40
1.0
 40
1.0
 40
1.0
 40
1.0
 10
3.820574328331256
 20
6.756396539329683
 30
0.0
 10
3.820587493407228
 20
6.755509417379003
 30
0.0
 10
3.820625604614898
 20
6.752941313027498
 30
0.0
 10
3.821111165844818
 20
6.748843817944055
 30
0.0
 10
3.821737784722113
 20
6.74544566968654
 30
0.0
 10
3.822320959334827
 20
6.743813380915263
 30
0.0
 10
3.822396976650975
 20
6.743600610659382
 30
0.0
  0
LINE
  5
E9
330
1F
100
AcDbEntity
  8
0
  6
Continuous
 62
     7
370
    15
100
AcDbLine
 10
3.995286482028346
 20
10.20159223565705
 30
0.0
 11
3.995286482028346
 21
10.16231779332021
 31
0.0
  0
LINE
  5
EA
330
1F
100
AcDbEntity
  8
0
  6
Continuous
 62
     7
370
    15
100
AcDbLine
 10
3.995286482028346
 20
10.20159223565705
 30
0.0
 11
4.082134709494328
 21
10.1783246356839
 31
0.0
  0
LINE
  5
EB
330
1F
100
AcDbEntity
  8
0
  6
Continuous
 62
     7
370
    15
100
AcDbLine
 10
3.995286482028346
 20
10.20159223565705
 30
0.0
 11
4.260451554177418
 21
10.27263288905475
 31
0.0
  0
LINE
  5
EC
330
1F
100
AcDbEntity
  8
0
  6
Continuous
 62
     7
370
    15
100
AcDbLine
 10
4.260451554177418
 20
10.27263288905475
 30
0.0
 11
4.366340533086805
 21
10.24426406133407
 31
0.0
  0
LINE
  5
ED
330
1F
100
AcDbEntity
  8
0
  6
Continuous
 62
     7
370
    15
100
AcDbLine
 10
0.7691117832406346
 20
8.294323140957279
 30
0.0
 11
0.8575000714851267
 21
8.225968871127649
 31
0.0
  0
LINE
  5
EE
330
1F
100
AcDbEntity
  8
0
  6
Continuous
 62
     7
370
    15
100
AcDbLine
 10
0.9016943193151698
 20
8.341689997037564
 30
0.0
 11
0.7691117832406346
 21
8.294323140957279
 31
0.0
  0
LINE
  5
EF
330
1F
100
AcDbEntity
  8
0
  6
Continuous
 62
     7
370
    15
100
AcDbLine
 10
0.9016943193151698
 20
9.372784705298723
 30
0.0
 11
0.9016943193151698
 21
8.341689997037564
 31
0.0
  0
LINE
  5
F0
330
1F
100
AcDbEntity
  8
0
  6
Continuous
 62
     7
370
    15
100
AcDbLine
 10
0.9016943193151698
 20
9.372784705298723
 30
0.0
 11
3.045111709299364
 21
8.798539497759191
 31
0.0
  0
LINE
  5
F1
330
1F
100
AcDbEntity
  8
0
  6
Continuous
 62
     7
370
    15
100
AcDbLine
 10
2.514781565001223
 20
6.712657234429163
 30
0.0
 11
0.8575000714851267
 21
7.156661262595881
 31
0.0
  0
LINE
  5
F2
330
1F
100
AcDbEntity
  8
0
  6
Continuous
 62
     7
370
    15
100
AcDbLine
 10
0.8575000714851267
 20
8.225968871127649
 30
0.0
 11
0.8575000714851267
 21
7.156661262595881
 31
0.0
  0
LINE
  5
F3
330
1F
100
AcDbEntity
  8
0
  6
Continuous
 62
     7
370
    15
100
AcDbLine
 10
0.9016943193151698
 20
9.372784705298723
 30
0.0
 11
1.16685939146424
 21
9.443825358696425
 31
0.0
  0
LINE
  5
F4
330
1F
100
AcDbEntity
  8
0
  6
Continuous
 62
     7
370
    15
100
AcDbLine
 10
1.16685939146424
 20
9.443825358696425
 30
0.0
 11
1.450583181218433
 21
9.367812619743842
 31
0.0
  0
LINE
  5
F5
330
1F
100
AcDbEntity
  8
0
  6
Continuous
 62
     7
370
    15
100
AcDbLine
 10
7.862276704865018
 20
9.651027263860882
 30
0.0
 11
7.862276704865018
 21
8.619932555599723
 31
0.0
  0
LINE
  5
F6
330
1F
100
AcDbEntity
  8
0
  6
Continuous
 62
     7
370
    15
100
AcDbLine
 10
7.862276704865018
 20
8.619932555599723
 30
0.0
 11
7.994859240939553
 21
8.572565699519438
 31
0.0
  0
LINE
  5
F7
330
1F
100
AcDbEntity
  8
0
  6
Continuous
 62
     7
370
    15
100
AcDbLine
 10
7.994859240939553
 20
8.572565699519438
 30
0.0
 11
7.906470745279468
 21
8.504211374120879
 31
0.0
  0
LINE
  5
F8
330
1F
100
AcDbEntity
  8
0
  6
Continuous
 62
     7
370
    15
100
AcDbLine
 10
7.906470745279468
 20
8.504211374120879
 30
0.0
 11
7.906470745279468
 21
7.434903765589111
 31
0.0
  0
LINE
  5
F9
330
1F
100
AcDbEntity
  8
0
  6
Continuous
 62
     7
370
    15
100
AcDbLine
 10
2.779946708449399
 20
6.061451318463276
 30
0.0
 11
3.045111780598471
 21
6.132491971860979
 31
0.0
  0
LINE
  5
FA
330
1F
100
AcDbEntity
  8
0
  6
Continuous
 62
     7
370
    15
100
AcDbLine
 10
5.785150479210287
 20
6.866578621760877
 30
0.0
 11
6.580645591949704
 21
7.079700554169523
 31
0.0
  0
LINE
  5
FB
330
1F
100
AcDbEntity
  8
0
  6
Continuous
 62
     7
370
    15
100
AcDbLine
 10
7.162240885353287
 20
7.23551636098586
 30
0.0
 11
7.906470745279468
 21
7.434903765589111
 31
0.0
  0
LINE
  5
FC
330
1F
100
AcDbEntity
  8
0
  6
Continuous
 62
     7
370
    15
100
AcDbLine
 10
2.779946708449399
 20
6.061451318463276
 30
0.0
 11
2.779946708449399
 21
7.130758926995043
 31
0.0
  0
LINE
  5
FD
330
1F
100
AcDbEntity
  8
0
  6
Continuous
 62
     7
370
    15
100
AcDbLine
 10
2.779946708449399
 20
7.130758926995043
 30
0.0
 11
2.691558212789313
 21
7.151752742703228
 31
0.0
  0
LINE
  5
FE
330
1F
100
AcDbEntity
  8
0
  6
Continuous
 62
     7
370
    15
100
AcDbLine
 10
2.691558212789313
 20
7.151752742703228
 30
0.0
 11
2.824140748863849
 21
7.270160252181215
 31
0.0
  0
LINE
  5
FF
330
1F
100
AcDbEntity
  8
0
  6
Continuous
 62
     7
370
    15
100
AcDbLine
 10
2.824140748863849
 20
7.270160252181215
 30
0.0
 11
2.824140748863849
 21
8.301254960442374
 31
0.0
  0
LINE
  5
100
330
1F
100
AcDbEntity
  8
0
  6
Continuous
 62
     7
370
    15
100
AcDbLine
 10
7.862276704865018
 20
9.651027263860882
 30
0.0
 11
7.250629277305575
 21
9.487160158172018
 31
0.0
  0
LINE
  5
101
330
1F
100
AcDbEntity
  8
0
  6
Continuous
 62
     7
370
    15
100
AcDbLine
 10
6.492257303705212
 20
9.2839839250187
 30
0.0
 11
5.785150479210287
 21
9.094542191886313
 31
0.0
  0
LINE
  5
102
330
1F
100
AcDbEntity
  8
0
  6
Continuous
 62
     7
370
    15
100
AcDbLine
 10
3.045111780598471
 20
8.360455541986414
 30
0.0
 11
2.824140748863849
 21
8.301254960442374
 31
0.0
  0
LINE
  5
103
330
1F
100
AcDbEntity
  8
0
  6
Continuous
 62
     7
370
    15
100
AcDbLine
 10
2.558975709123465
 20
8.372295605157432
 30
0.0
 11
2.824140748863849
 21
8.301254960442374
 31
0.0
  0
LINE
  5
104
330
1F
100
AcDbEntity
  8
0
  6
Continuous
 62
     7
370
    15
100
AcDbLine
 10
3.045111605591565
 20
8.502536784530247
 30
0.0
 11
2.558975709123465
 21
8.372295605157432
 31
0.0
  0
LINE
  5
105
330
1F
100
AcDbEntity
  8
0
  6
Continuous
 62
     7
370
    15
100
AcDbLine
 10
2.558975709123465
 20
7.341200896896273
 30
0.0
 11
2.824140748863849
 21
7.270160252181215
 31
0.0
  0
LINE
  5
106
330
1F
100
AcDbEntity
  8
0
  6
Continuous
 62
     7
370
    15
100
AcDbLine
 10
2.558975709123465
 20
7.341200896896273
 30
0.0
 11
2.558975709123465
 21
8.372295605157432
 31
0.0
  0
LINE
  5
107
330
1F
100
AcDbEntity
  8
0
  6
Continuous
 62
     7
370
    15
100
AcDbLine
 10
2.426393173048929
 20
7.222793387418287
 30
0.0
 11
2.691558212789313
 21
7.151752742703228
 31
0.0
  0
LINE
  5
108
330
1F
100
AcDbEntity
  8
0
  6
Continuous
 62
     7
370
    15
100
AcDbLine
 10
2.426393173048929
 20
7.222793387418287
 30
0.0
 11
2.558975709123465
 21
7.341200896896273
 31
0.0
  0
LINE
  5
109
330
1F
100
AcDbEntity
  8
0
  6
Continuous
 62
     7
370
    15
100
AcDbLine
 10
2.514781668709015
 20
6.132491963178335
 30
0.0
 11
2.779946708449399
 21
6.061451318463276
 31
0.0
  0
LINE
  5
10A
330
1F
100
AcDbEntity
  8
0
  6
Continuous
 62
     7
370
    15
100
AcDbLine
 10
2.514781668709015
 20
6.132491963178335
 30
0.0
 11
2.514781668709015
 21
7.199113252080013
 31
0.0
  0
LINE
  5
10B
330
1F
100
AcDbEntity
  8
0
  6
Continuous
 62
     7
370
    15
100
AcDbLine
 10
2.647364172374864
 20
6.025930991764425
 30
0.0
 11
3.045111780598471
 21
6.132491971860979
 31
0.0
  0
LINE
  5
10C
330
1F
100
AcDbEntity
  8
0
  6
Continuous
 62
     7
370
    15
100
AcDbLine
 10
7.162240885353287
 20
7.23551636098586
 30
0.0
 11
8.039053281354002
 21
7.470424092287963
 31
0.0
  0
LINE
  5
10D
330
1F
100
AcDbEntity
  8
0
  6
Continuous
 62
     7
370
    15
100
AcDbLine
 10
2.647364172374864
 20
6.025930991764425
 30
0.0
 11
2.374472175838217
 21
6.099041773602496
 31
0.0
  0
LINE
  5
10E
330
1F
100
AcDbEntity
  8
0
  6
Continuous
 62
     7
370
    15
100
AcDbLine
 10
2.374472175838217
 20
6.099041773602496
 30
0.0
 11
2.205422426510748
 21
6.073291416364876
 31
0.0
  0
LINE
  5
10F
330
1F
100
AcDbEntity
  8
0
  6
Continuous
 62
     7
370
    15
100
AcDbLine
 10
2.205422426510748
 20
6.073291416364876
 30
0.0
 11
2.243556431469555
 21
6.110435293536997
 31
0.0
  0
LINE
  5
110
330
1F
100
AcDbEntity
  8
0
  6
Continuous
 62
     7
370
    15
100
AcDbLine
 10
2.243556431469555
 20
6.110435293536997
 30
0.0
 11
1.984451472556976
 21
6.179852375623083
 31
0.0
  0
LINE
  5
111
330
1F
100
AcDbEntity
  8
0
  6
Continuous
 62
     7
370
    15
100
AcDbLine
 10
2.514781616855119
 20
6.32193368241849
 30
0.0
 11
1.984451472556976
 21
6.179852375623083
 31
0.0
  0
LINE
  5
112
330
1F
100
AcDbEntity
  8
0
  6
Continuous
 62
     7
370
    15
100
AcDbLine
 10
7.906470751761205
 20
7.505944417250286
 30
0.0
 11
8.039053281354002
 21
7.470424092287963
 31
0.0
  0
LINE
  5
113
330
1F
100
AcDbEntity
  8
0
  6
Continuous
 62
     7
370
    15
100
AcDbLine
 10
2.647364172374864
 20
5.604424377549989
 30
0.0
 11
2.647364172374864
 21
6.025930991764425
 31
0.0
  0
LINE
  5
114
330
1F
100
AcDbEntity
  8
0
  6
Continuous
 62
     7
370
    15
100
AcDbLine
 10
2.374472175838217
 20
5.677535159388061
 30
0.0
 11
2.374472175838217
 21
6.099041773602496
 31
0.0
  0
LINE
  5
115
330
1F
100
AcDbEntity
  8
0
  6
Continuous
 62
     7
370
    15
100
AcDbLine
 10
2.647364172374864
 20
5.604424377549989
 30
0.0
 11
2.374472175838217
 21
5.677535159388061
 31
0.0
  0
LINE
  5
116
330
1F
100
AcDbEntity
  8
0
  6
Continuous
 62
     7
370
    15
100
AcDbLine
 10
8.039053281354002
 20
7.048917478073528
 30
0.0
 11
8.039053281354002
 21
7.470424092287963
 31
0.0
  0
LINE
  5
117
330
1F
100
AcDbEntity
  8
0
  6
Continuous
 62
     7
370
    15
100
AcDbLine
 10
2.647364172374864
 20
5.604424377549989
 30
0.0
 11
3.045111780598471
 21
5.710985357646544
 31
0.0
  0
LINE
  5
118
330
1F
100
AcDbEntity
  8
0
  6
Continuous
 62
     7
370
    15
100
AcDbLine
 10
5.785150479210287
 20
6.445072007546443
 30
0.0
 11
8.039053281354002
 21
7.048917478073528
 31
0.0
  0
LINE
  5
119
330
1F
100
AcDbEntity
  8
0
  6
Continuous
 62
     7
370
    15
100
AcDbLine
 10
2.205422426510748
 20
5.651784802150441
 30
0.0
 11
2.205422426510748
 21
6.073291416364876
 31
0.0
  0
LINE
  5
11A
330
1F
100
AcDbEntity
  8
0
  6
Continuous
 62
     7
370
    15
100
AcDbLine
 10
2.374472175838217
 20
5.677535159388061
 30
0.0
 11
2.205422426510748
 21
5.651784802150441
 31
0.0
  0
LINE
  5
11B
330
1F
100
AcDbEntity
  8
0
  6
Continuous
 62
     7
370
    15
100
AcDbLine
 10
1.984451472556976
 20
5.758345761408648
 30
0.0
 11
1.984451472556976
 21
6.179852375623083
 31
0.0
  0
LINE
  5
11C
330
1F
100
AcDbEntity
  8
0
  6
Continuous
 62
     7
370
    15
100
AcDbLine
 10
2.205422348729901
 20
5.699145221541304
 30
0.0
 11
1.984451472556976
 21
5.758345761408648
 31
0.0
  0
LINE
  5
11D
330
1F
100
AcDbEntity
  8
0
  6
Continuous
 62
     7
370
    15
100
AcDbLine
 10
2.470587388470285
 20
5.557063923428543
 30
0.0
 11
3.045111780598471
 21
5.710985357646544
 31
0.0
  0
LINE
  5
11E
330
1F
100
AcDbEntity
  8
0
  6
Continuous
 62
     7
370
    15
100
AcDbLine
 10
5.785150479210287
 20
6.445072007546443
 30
0.0
 11
8.215830065258582
 21
7.096277932194974
 31
0.0
  0
LINE
  5
11F
330
1F
100
AcDbEntity
  8
0
  6
Continuous
 62
     7
370
    15
100
AcDbLine
 10
2.470587388470285
 20
5.557063923428543
 30
0.0
 11
2.197695391933639
 21
5.630174705266616
 31
0.0
  0
LINE
  5
120
330
1F
100
AcDbEntity
  8
0
  6
Continuous
 62
     7
370
    15
100
AcDbLine
 10
2.197695391933639
 20
5.630174705266616
 30
0.0
 11
2.02864564260617
 21
5.604424348028995
 31
0.0
  0
LINE
  5
121
330
1F
100
AcDbEntity
  8
0
  6
Continuous
 62
     7
370
    15
100
AcDbLine
 10
2.02864564260617
 20
5.604424348028995
 30
0.0
 11
2.06677985498057
 21
5.641568280770046
 31
0.0
  0
LINE
  5
122
330
1F
100
AcDbEntity
  8
0
  6
Continuous
 62
     7
370
    15
100
AcDbLine
 10
2.06677985498057
 20
5.641568280770046
 30
0.0
 11
1.80767489606799
 21
5.710985362856132
 31
0.0
  0
LINE
  5
123
330
1F
100
AcDbEntity
  8
0
  6
Continuous
 62
     7
370
    15
100
AcDbLine
 10
1.984451472556976
 20
5.758345761408648
 30
0.0
 11
1.80767489606799
 21
5.710985362856132
 31
0.0
  0
LINE
  5
124
330
1F
100
AcDbEntity
  8
0
  6
Continuous
 62
     7
370
    15
100
AcDbLine
 10
8.039053365616588
 20
7.143638363741541
 30
0.0
 11
8.215830065258582
 21
7.096277932194974
 31
0.0
  0
LINE
  5
125
330
1F
100
AcDbEntity
  8
0
  6
Continuous
 62
     7
370
    15
100
AcDbLine
 10
2.470587388470285
 20
5.135557326877037
 30
0.0
 11
2.470587388470285
 21
5.557063923428543
 31
0.0
  0
LINE
  5
126
330
1F
100
AcDbEntity
  8
0
  6
Continuous
 62
     7
370
    15
100
AcDbLine
 10
2.197695391933639
 20
5.20866810871511
 30
0.0
 11
2.197695391933639
 21
5.630174705266616
 31
0.0
  0
LINE
  5
127
330
1F
100
AcDbEntity
  8
0
  6
Continuous
 62
     7
370
    15
100
AcDbLine
 10
2.470587388470285
 20
5.135557326877037
 30
0.0
 11
2.197695391933639
 21
5.20866810871511
 31
0.0
  0
LINE
  5
128
330
1F
100
AcDbEntity
  8
0
  6
Continuous
 62
     7
370
    15
100
AcDbLine
 10
8.215830065258582
 20
6.674771335643468
 30
0.0
 11
8.215830065258582
 21
7.096277932194974
 31
0.0
  0
LINE
  5
129
330
1F
100
AcDbEntity
  8
0
  6
Continuous
 62
     7
370
    15
100
AcDbLine
 10
2.470587388470285
 20
5.135557326877037
 30
0.0
 11
3.045111780598471
 21
5.289478761095039
 31
0.0
  0
LINE
  5
12A
330
1F
100
AcDbEntity
  8
0
  6
Continuous
 62
     7
370
    15
100
AcDbLine
 10
5.785150479210287
 20
6.023565410994937
 30
0.0
 11
8.215830065258582
 21
6.674771335643468
 31
0.0
  0
LINE
  5
12B
330
1F
100
AcDbEntity
  8
0
  6
Continuous
 62
     7
370
    15
100
AcDbLine
 10
2.02864564260617
 20
5.18291775147749
 30
0.0
 11
2.02864564260617
 21
5.604424348028995
 31
0.0
  0
LINE
  5
12C
330
1F
100
AcDbEntity
  8
0
  6
Continuous
 62
     7
370
    15
100
AcDbLine
 10
2.197695391933639
 20
5.20866810871511
 30
0.0
 11
2.02864564260617
 21
5.18291775147749
 31
0.0
  0
LINE
  5
12D
330
1F
100
AcDbEntity
  8
0
  6
Continuous
 62
     7
370
    15
100
AcDbLine
 10
1.80767489606799
 20
5.289478766304626
 30
0.0
 11
1.80767489606799
 21
5.710985362856132
 31
0.0
  0
LINE
  5
12E
330
1F
100
AcDbEntity
  8
0
  6
Continuous
 62
     7
370
    15
100
AcDbLine
 10
2.028645772240916
 20
5.230278226437283
 30
0.0
 11
1.80767489606799
 21
5.289478766304626
 31
0.0
  0
LINE
  5
12F
330
1F
100
AcDbEntity
  8
0
  6
Continuous
 62
     7
370
    15
100
AcDbLine
 10
7.07385255821837
 20
7.840307210621505
 30
0.0
 11
7.066781488417805
 21
7.842201628369595
 31
0.0
  0
LINE
  5
130
330
1F
100
AcDbEntity
  8
0
  6
Continuous
 62
     7
370
    15
100
AcDbLine
 10
7.07385255821837
 20
7.840307210621505
 30
0.0
 11
6.499328373505778
 21
7.686385831972433
 31
0.0
  0
LINE
  5
131
330
1F
100
AcDbEntity
  8
0
  6
Continuous
 62
     7
370
    15
100
AcDbLine
 10
6.499328373505778
 20
7.686385831972433
 30
0.0
 11
6.492257303705212
 21
7.688280249720524
 31
0.0
  0
LINE
  5
132
330
1F
100
AcDbEntity
  8
0
  6
Continuous
 62
     7
370
    15
100
AcDbLine
 10
7.066781488417805
 20
7.842201628369595
 30
0.0
 11
6.492257303705212
 21
7.688280249720524
 31
0.0
  0
LINE
  5
133
330
1F
100
AcDbEntity
  8
0
  6
Continuous
 62
     7
370
    15
100
AcDbLine
 10
6.499328373505778
 20
7.686385831972433
 30
0.0
 11
6.499328373505778
 21
7.565955385907963
 31
0.0
  0
LINE
  5
134
330
1F
100
AcDbEntity
  8
0
  6
Continuous
 62
     7
370
    15
100
AcDbLine
 10
6.499328373505778
 20
7.565955385907963
 30
0.0
 11
6.492257303705212
 21
7.567849803656053
 31
0.0
  0
LINE
  5
135
330
1F
100
AcDbEntity
  8
0
  6
Continuous
 62
     7
370
    15
100
AcDbLine
 10
6.492257303705212
 20
7.688280249720524
 30
0.0
 11
6.492257303705212
 21
7.567849803656053
 31
0.0
  0
LINE
  5
136
330
1F
100
AcDbEntity
  8
0
  6
Continuous
 62
     7
370
    15
100
AcDbLine
 10
7.07385255821837
 20
7.719876764557033
 30
0.0
 11
7.07385255821837
 21
7.840307210621505
 31
0.0
  0
LWPOLYLINE
  5
137
330
1F
100
AcDbEntity
  8
0
  6
Continuous
 62
     7
370
    15
100
AcDbPolyline
 90
       10
 70
   128
 43
0.0
 10
7.095949682133392
 20
7.695689163763424
 10
7.092112597369479
 20
7.695118636223686
 10
7.08839197646107
 20
7.695480120045261
 10
7.08490117202978
 20
7.696762864348236
 10
7.081745966028069
 20
7.698927736895862
 10
7.07902228816773
 20
7.701908944343043
 10
7.076813000978193
 20
7.705616067638356
 10
7.075185203403816
 20
7.709936377651858
 10
7.074188260355747
 20
7.714738546373349
 10
7.07385255821837
 20
7.719876764557033
  0
LINE
  5
138
330
1F
100
AcDbEntity
  8
0
  6
Continuous
 62
     7
370
    15
100
AcDbLine
 10
7.140143826255639
 20
7.707529263401553
 30
0.0
 11
7.095949682133392
 21
7.695689163763424
 31
0.0
  0
LWPOLYLINE
  5
139
330
1F
100
AcDbEntity
  8
0
  6
Continuous
 62
     7
370
    15
100
AcDbPolyline
 90
       10
 70
   128
 43
0.0
 10
7.16224095017066
 20
7.683341733259662
 10
7.161905248033282
 20
7.688479951443347
 10
7.160908304985214
 20
7.693282120164838
 10
7.159280507410836
 20
7.697602430178341
 10
7.1570712202213
 20
7.701309553473652
 10
7.154347542360962
 20
7.704290760920833
 10
7.15119233635925
 20
7.706455633468459
 10
7.147701531927959
 20
7.707738377771434
 10
7.143980911019552
 20
7.70809986159301
 10
7.140143826255639
 20
7.707529263401553
  0
LINE
  5
13A
330
1F
100
AcDbEntity
  8
0
  6
Continuous
 62
     7
370
    15
100
AcDbLine
 10
7.16224095017066
 20
7.562911287195192
 30
0.0
 11
7.16224095017066
 21
7.683341733259662
 31
0.0
  0
ARC
  5
13B
330
1F
100
AcDbEntity
  8
0
  6
Continuous
 62
     7
370
    15
100
AcDbCircle
 10
7.125232120208244
 20
7.560819871851703
 30
0.0
 40
0.0370678771084345
100
AcDbArc
 50
293.7208581596108
 51
3.234416144668672
  0
LINE
  5
13C
330
1F
100
AcDbEntity
  8
0
  6
Continuous
 62
     7
370
    15
100
AcDbLine
 10
7.095949682133392
 20
7.515043529992578
 30
0.0
 11
7.140143826255639
 21
7.526883629630707
 31
0.0
  0
ARC
  5
13D
330
1F
100
AcDbEntity
  8
0
  6
Continuous
 62
     7
370
    15
100
AcDbCircle
 10
7.110435388456749
 20
7.481368564887606
 30
0.0
 40
0.036658409164987
100
AcDbArc
 50
113.2755608003495
 51
183.679813656515
  0
LINE
  5
13E
330
1F
100
AcDbEntity
  8
0
  6
Continuous
 62
     7
370
    15
100
AcDbLine
 10
7.07385255821837
 20
7.358585355711904
 30
0.0
 11
7.07385255821837
 21
7.479015801776375
 31
0.0
  0
LWPOLYLINE
  5
13F
330
1F
100
AcDbEntity
  8
0
  6
Continuous
 62
     7
370
    15
100
AcDbPolyline
 90
       10
 70
   128
 43
0.0
 10
7.095949682133392
 20
7.334397825570012
 10
7.092112597369479
 20
7.333827227378556
 10
7.08839197646107
 20
7.334188711200131
 10
7.08490117202978
 20
7.335471455503106
 10
7.081745966028069
 20
7.337636328050733
 10
7.07902228816773
 20
7.340617606149631
 10
7.076813000978193
 20
7.344324729444943
 10
7.075185203403816
 20
7.348644968806729
 10
7.074188260355747
 20
7.353447208179939
 10
7.07385255821837
 20
7.358585355711904
  0
LINE
  5
140
330
1F
100
AcDbEntity
  8
0
  6
Continuous
 62
     7
370
    15
100
AcDbLine
 10
7.140143826255639
 20
7.346237925208141
 30
0.0
 11
7.095949682133392
 21
7.334397825570012
 31
0.0
  0
LWPOLYLINE
  5
141
330
1F
100
AcDbEntity
  8
0
  6
Continuous
 62
     7
370
    15
100
AcDbPolyline
 90
       10
 70
   128
 43
0.0
 10
7.16224095017066
 20
7.322050395066251
 10
7.161905248033282
 20
7.327188542598216
 10
7.160908304985214
 20
7.331990781971426
 10
7.159280507410836
 20
7.336311021333211
 10
7.1570712202213
 20
7.340018144628523
 10
7.154347542360962
 20
7.342999422727421
 10
7.15119233635925
 20
7.345164295275049
 10
7.147701531927959
 20
7.346447039578023
 10
7.143980911019552
 20
7.346808523399599
 10
7.140143826255639
 20
7.346237925208141
  0
LINE
  5
142
330
1F
100
AcDbEntity
  8
0
  6
Continuous
 62
     7
370
    15
100
AcDbLine
 10
7.16224095017066
 20
7.20161994900178
 30
0.0
 11
7.16224095017066
 21
7.322050395066251
 31
0.0
  0
ARC
  5
143
330
1F
100
AcDbEntity
  8
0
  6
Continuous
 62
     7
370
    15
100
AcDbCircle
 10
7.125231941952741
 20
7.199528576438605
 30
0.0
 40
0.0370680526663047
100
AcDbArc
 50
293.7210398776747
 51
3.234334579195787
  0
LINE
  5
144
330
1F
100
AcDbEntity
  8
0
  6
Continuous
 62
     7
370
    15
100
AcDbLine
 10
7.095949682133392
 20
7.153752121147448
 30
0.0
 11
7.140143826255639
 21
7.165592220785576
 31
0.0
  0
ARC
  5
145
330
1F
100
AcDbEntity
  8
0
  6
Continuous
 62
     7
370
    15
100
AcDbCircle
 10
7.110435210071787
 20
7.120077270066512
 30
0.0
 40
0.0366582339315102
100
AcDbArc
 50
113.2753751035591
 51
183.6798992007226
  0
LINE
  5
146
330
1F
100
AcDbEntity
  8
0
  6
Continuous
 62
     7
370
    15
100
AcDbLine
 10
7.07385255821837
 20
6.997294017518493
 30
0.0
 11
7.07385255821837
 21
7.117724463582963
 31
0.0
  0
LWPOLYLINE
  5
147
330
1F
100
AcDbEntity
  8
0
  6
Continuous
 62
     7
370
    15
100
AcDbPolyline
 90
       10
 70
   128
 43
0.0
 10
7.095949682133392
 20
6.973106452050743
 10
7.092112597369479
 20
6.972535853859286
 10
7.08839197646107
 20
6.972897373006721
 10
7.08490117202978
 20
6.974180081983835
 10
7.081745966028069
 20
6.976344954531462
 10
7.07902228816773
 20
6.97932623263036
 10
7.076813000978193
 20
6.983033320599814
 10
7.075185203403816
 20
6.987353630613317
 10
7.074188260355747
 20
6.992155799334809
 10
7.07385255821837
 20
6.997294017518493
  0
LINE
  5
148
330
1F
100
AcDbEntity
  8
0
  6
Continuous
 62
     7
370
    15
100
AcDbLine
 10
7.140143826255639
 20
6.984946551688872
 30
0.0
 11
7.095949682133392
 21
6.973106452050743
 31
0.0
  0
LWPOLYLINE
  5
149
330
1F
100
AcDbEntity
  8
0
  6
Continuous
 62
     7
370
    15
100
AcDbPolyline
 90
       10
 70
   128
 43
0.0
 10
7.16224095017066
 20
6.96075902154698
 10
7.161905248033282
 20
6.965897204404805
 10
7.160908304985214
 20
6.970699373126297
 10
7.159280507410836
 20
6.9750196831398
 10
7.1570712202213
 20
6.978726771109253
 10
7.154347542360962
 20
6.981708049208152
 10
7.15119233635925
 20
6.983872921755779
 10
7.147701531927959
 20
6.985155630732894
 10
7.143980911019552
 20
6.985517149880328
 10
7.140143826255639
 20
6.984946551688872
  0
LINE
  5
14A
330
1F
100
AcDbEntity
  8
0
  6
Continuous
 62
     7
370
    15
100
AcDbLine
 10
7.16224095017066
 20
6.840328557819581
 30
0.0
 11
7.16224095017066
 21
6.96075902154698
 31
0.0
  0
LINE
  5
14B
330
1F
100
AcDbEntity
  8
0
  6
Continuous
 62
     7
370
    15
100
AcDbLine
 10
6.58771666175027
 20
6.686407151386045
 30
0.0
 11
7.16224095017066
 21
6.840328557819581
 31
0.0
  0
LINE
  5
14C
330
1F
100
AcDbEntity
  8
0
  6
Continuous
 62
     7
370
    15
100
AcDbLine
 10
6.58771666175027
 20
6.806837615113444
 30
0.0
 11
6.58771666175027
 21
6.686407151386045
 31
0.0
  0
LWPOLYLINE
  5
14D
330
1F
100
AcDbEntity
  8
0
  6
Continuous
 62
     7
370
    15
100
AcDbPolyline
 90
       10
 70
   128
 43
0.0
 10
6.565619537835249
 20
6.831025145255336
 10
6.56945672630696
 20
6.831595771231257
 10
6.57317724350757
 20
6.831234224299358
 10
6.576668151646657
 20
6.829951543106707
 10
6.579823357648369
 20
6.82778667055908
 10
6.582546931800911
 20
6.824805364675717
 10
6.584756218990447
 20
6.821098276706265
 10
6.586384016564825
 20
6.816777966692761
 10
6.587380959612893
 20
6.811975797971269
 10
6.58771666175027
 20
6.806837615113444
  0
LINE
  5
14E
330
1F
100
AcDbEntity
  8
0
  6
Continuous
 62
     7
370
    15
100
AcDbLine
 10
6.521425393713004
 20
6.819185045617206
 30
0.0
 11
6.565619537835249
 21
6.831025145255336
 31
0.0
  0
LWPOLYLINE
  5
14F
330
1F
100
AcDbEntity
  8
0
  6
Continuous
 62
     7
370
    15
100
AcDbPolyline
 90
       10
 70
   128
 43
0.0
 10
6.499328373505778
 20
6.843372638869421
 10
6.499664075643154
 20
6.838234420685737
 10
6.500660914983426
 20
6.833432224179781
 10
6.5022888162656
 20
6.829111941950743
 10
6.504498103455138
 20
6.82540485398129
 10
6.50722167760768
 20
6.822423548097926
 10
6.51037688360939
 20
6.820258675550299
 10
6.513867791748478
 20
6.818975994357649
 10
6.51758830894909
 20
6.81861444742575
 10
6.521425393713004
 20
6.819185045617206
  0
LINE
  5
150
330
1F
100
AcDbEntity
  8
0
  6
Continuous
 62
     7
370
    15
100
AcDbLine
 10
6.499328373505778
 20
6.963803084933892
 30
0.0
 11
6.499328373505778
 21
6.843372638869421
 31
0.0
  0
ARC
  5
151
330
1F
100
AcDbEntity
  8
0
  6
Continuous
 62
     7
370
    15
100
AcDbCircle
 10
6.536336986979104
 20
6.965894649810654
 30
0.0
 40
0.0370676694014032
100
AcDbArc
 50
113.720808818258
 51
183.2346657913772
  0
LINE
  5
152
330
1F
100
AcDbEntity
  8
0
  6
Continuous
 62
     7
370
    15
100
AcDbLine
 10
6.565619537835249
 20
7.011670814352042
 30
0.0
 11
6.521425393713004
 21
6.999830714713912
 31
0.0
  0
ARC
  5
153
330
1F
100
AcDbEntity
  8
0
  6
Continuous
 62
     7
370
    15
100
AcDbCircle
 10
6.551133934811772
 20
7.045345716099415
 30
0.0
 40
0.0366583101444833
100
AcDbArc
 50
293.2754516163329
 51
3.679922840535641
  0
LINE
  5
154
330
1F
100
AcDbEntity
  8
0
  6
Continuous
 62
     7
370
    15
100
AcDbLine
 10
6.58771666175027
 20
7.168128988632715
 30
0.0
 11
6.58771666175027
 21
7.047698542568244
 31
0.0
  0
LWPOLYLINE
  5
155
330
1F
100
AcDbEntity
  8
0
  6
Continuous
 62
     7
370
    15
100
AcDbPolyline
 90
       10
 70
   128
 43
0.0
 10
6.565619537835249
 20
7.192316518774607
 10
6.56945672630696
 20
7.192887144750527
 10
6.57317724350757
 20
7.192525633144487
 10
6.576668151646657
 20
7.191242916625978
 10
6.579823357648369
 20
7.18907804407835
 10
6.582546931800911
 20
7.186096738194987
 10
6.584756218990447
 20
7.182389614899675
 10
6.586384016564825
 20
7.17806937553789
 10
6.587380959612893
 20
7.17326713616468
 10
6.58771666175027
 20
7.168128988632715
  0
LINE
  5
156
330
1F
100
AcDbEntity
  8
0
  6
Continuous
 62
     7
370
    15
100
AcDbLine
 10
6.521425393713004
 20
7.180476419136477
 30
0.0
 11
6.565619537835249
 21
7.192316518774607
 31
0.0
  0
LWPOLYLINE
  5
157
330
1F
100
AcDbEntity
  8
0
  6
Continuous
 62
     7
370
    15
100
AcDbPolyline
 90
       10
 70
   128
 43
0.0
 10
6.499328373505778
 20
7.204663977062833
 10
6.499664075643154
 20
7.199525829530867
 10
6.500660914983426
 20
7.194723562373193
 10
6.5022888162656
 20
7.190403350795873
 10
6.504498103455138
 20
7.18669622750056
 10
6.50722167760768
 20
7.183714921617197
 10
6.51037688360939
 20
7.18155004906957
 10
6.513867791748478
 20
7.18026733255106
 10
6.51758830894909
 20
7.17990582094502
 10
6.521425393713004
 20
7.180476419136477
  0
LINE
  5
158
330
1F
100
AcDbEntity
  8
0
  6
Continuous
 62
     7
370
    15
100
AcDbLine
 10
6.499328373505778
 20
7.325094423127303
 30
0.0
 11
6.499328373505778
 21
7.204663977062833
 31
0.0
  0
ARC
  5
159
330
1F
100
AcDbEntity
  8
0
  6
Continuous
 62
     7
370
    15
100
AcDbCircle
 10
6.536337195117924
 20
7.32718592689542
 30
0.0
 40
0.0370678737606003
100
AcDbArc
 50
113.7210214290712
 51
183.2345533330463
  0
LINE
  5
15A
330
1F
100
AcDbEntity
  8
0
  6
Continuous
 62
     7
370
    15
100
AcDbLine
 10
6.565619537835249
 20
7.372962223197171
 30
0.0
 11
6.521425393713004
 21
7.361122123559042
 31
0.0
  0
ARC
  5
15B
330
1F
100
AcDbEntity
  8
0
  6
Continuous
 62
     7
370
    15
100
AcDbCircle
 10
6.551134113196887
 20
7.406637010920293
 30
0.0
 40
0.0366581349109723
100
AcDbArc
 50
293.275265918433
 51
3.680008385849486
  0
LINE
  5
15C
330
1F
100
AcDbEntity
  8
0
  6
Continuous
 62
     7
370
    15
100
AcDbLine
 10
6.58771666175027
 20
7.529420326826126
 30
0.0
 11
6.58771666175027
 21
7.408989880761656
 31
0.0
  0
LWPOLYLINE
  5
15D
330
1F
100
AcDbEntity
  8
0
  6
Continuous
 62
     7
370
    15
100
AcDbPolyline
 90
       10
 70
   128
 43
0.0
 10
6.565619537835249
 20
7.553607856968017
 10
6.56945672630696
 20
7.55417848294394
 10
6.57317724350757
 20
7.553816971337898
 10
6.576668151646657
 20
7.55253425481939
 10
6.579823357648369
 20
7.550369382271762
 10
6.582546931800911
 20
7.547388147040117
 10
6.584756218990447
 20
7.543681023744805
 10
6.586384016564825
 20
7.539360713731301
 10
6.587380959612893
 20
7.534558545009811
 10
6.58771666175027
 20
7.529420326826126
  0
LINE
  5
15E
330
1F
100
AcDbEntity
  8
0
  6
Continuous
 62
     7
370
    15
100
AcDbLine
 10
6.521425393713004
 20
7.541767757329888
 30
0.0
 11
6.565619537835249
 21
7.553607856968017
 31
0.0
  0
LWPOLYLINE
  5
15F
330
1F
100
AcDbEntity
  8
0
  6
Continuous
 62
     7
370
    15
100
AcDbPolyline
 90
       10
 70
   128
 43
0.0
 10
6.499328373505778
 20
7.565955385907963
 10
6.499664075643154
 20
7.560817167724278
 10
6.500660914983426
 20
7.556014971218321
 10
6.5022888162656
 20
7.551694688989284
 10
6.504498103455138
 20
7.547987565693971
 10
6.50722167760768
 20
7.545006330462327
 10
6.51037688360939
 20
7.5428414579147
 10
6.513867791748478
 20
7.54155874139619
 10
6.51758830894909
 20
7.541197229790149
 10
6.521425393713004
 20
7.541767757329888
  0
ARC
  5
160
330
1F
100
AcDbEntity
  8
0
  6
Continuous
 62
     7
370
    15
100
AcDbCircle
 10
6.514680436474772
 20
7.564618920532232
 30
0.0
 40
0.0226547012551728
100
AcDbArc
 50
171.8008502711211
 51
248.2002302826634
  0
LINE
  5
161
330
1F
100
AcDbEntity
  8
0
  6
Continuous
 62
     7
370
    15
100
AcDbLine
 10
6.521425393713004
 20
7.361122123559042
 30
0.0
 11
6.514354323912436
 21
7.363016541307133
 31
0.0
  0
LINE
  5
162
330
1F
100
AcDbEntity
  8
0
  6
Continuous
 62
     7
370
    15
100
AcDbLine
 10
6.499328373505778
 20
7.325094423127303
 30
0.0
 11
6.492257303705212
 21
7.326988840875394
 31
0.0
  0
ARC
  5
163
330
1F
100
AcDbEntity
  8
0
  6
Continuous
 62
     7
370
    15
100
AcDbCircle
 10
6.529266125317352
 20
7.329080344643514
 30
0.0
 40
0.0370678737605956
100
AcDbArc
 50
113.7210214290684
 51
183.2345533330523
  0
LINE
  5
164
330
1F
100
AcDbEntity
  8
0
  6
Continuous
 62
     7
370
    15
100
AcDbLine
 10
6.499328373505778
 20
7.204663977062833
 30
0.0
 11
6.492257303705212
 21
7.206558394810924
 31
0.0
  0
LINE
  5
165
330
1F
100
AcDbEntity
  8
0
  6
Continuous
 62
     7
370
    15
100
AcDbLine
 10
6.492257303705212
 20
7.326988840875394
 30
0.0
 11
6.492257303705212
 21
7.206558394810924
 31
0.0
  0
LINE
  5
166
330
1F
100
AcDbEntity
  8
0
  6
Continuous
 62
     7
370
    15
100
AcDbLine
 10
6.58771666175027
 20
7.529420326826126
 30
0.0
 11
6.580645591949704
 21
7.531314744574217
 31
0.0
  0
ARC
  5
167
330
1F
100
AcDbEntity
  8
0
  6
Continuous
 62
     7
370
    15
100
AcDbCircle
 10
6.555337984408017
 20
7.533478608968976
 30
0.0
 40
0.0253999470196888
100
AcDbArc
 50
355.1129521596073
 51
54.60275553327321
  0
LINE
  5
168
330
1F
100
AcDbEntity
  8
0
  6
Continuous
 62
     7
370
    15
100
AcDbLine
 10
6.565619537835249
 20
7.372962223197171
 30
0.0
 11
6.558548468034682
 21
7.374856640945262
 31
0.0
  0
LINE
  5
169
330
1F
100
AcDbEntity
  8
0
  6
Continuous
 62
     7
370
    15
100
AcDbLine
 10
6.558548468034682
 20
7.374856640945262
 30
0.0
 11
6.514354323912436
 21
7.363016541307133
 31
0.0
  0
ARC
  5
16A
330
1F
100
AcDbEntity
  8
0
  6
Continuous
 62
     7
370
    15
100
AcDbCircle
 10
6.514680191805143
 20
7.203327431668248
 30
0.0
 40
0.0226544704985877
100
AcDbArc
 50
171.8005617134126
 51
248.2006633153585
  0
LINE
  5
16B
330
1F
100
AcDbEntity
  8
0
  6
Continuous
 62
     7
370
    15
100
AcDbLine
 10
6.58771666175027
 20
7.408989880761656
 30
0.0
 11
6.580645591949704
 21
7.410884298509746
 31
0.0
  0
LINE
  5
16C
330
1F
100
AcDbEntity
  8
0
  6
Continuous
 62
     7
370
    15
100
AcDbLine
 10
6.580645591949704
 20
7.531314744574217
 30
0.0
 11
6.580645591949704
 21
7.410884298509746
 31
0.0
  0
ARC
  5
16D
330
1F
100
AcDbEntity
  8
0
  6
Continuous
 62
     7
370
    15
100
AcDbCircle
 10
6.544063043396323
 20
7.408531428668383
 30
0.0
 40
0.0366581349109705
100
AcDbArc
 50
293.2752659184285
 51
3.680008385849664
  0
LINE
  5
16E
330
1F
100
AcDbEntity
  8
0
  6
Continuous
 62
     7
370
    15
100
AcDbLine
 10
6.521425393713004
 20
6.999830714713912
 30
0.0
 11
6.514354323912436
 21
7.001725132462003
 31
0.0
  0
LINE
  5
16F
330
1F
100
AcDbEntity
  8
0
  6
Continuous
 62
     7
370
    15
100
AcDbLine
 10
6.499328373505778
 20
6.963803084933892
 30
0.0
 11
6.492257303705212
 21
6.965697502681983
 31
0.0
  0
ARC
  5
170
330
1F
100
AcDbEntity
  8
0
  6
Continuous
 62
     7
370
    15
100
AcDbCircle
 10
6.529265917178538
 20
6.967789067558745
 30
0.0
 40
0.0370676694014046
100
AcDbArc
 50
113.72080881826
 51
183.2346657913758
  0
LINE
  5
171
330
1F
100
AcDbEntity
  8
0
  6
Continuous
 62
     7
370
    15
100
AcDbLine
 10
6.499328373505778
 20
6.843372638869421
 30
0.0
 11
6.492257303705212
 21
6.845267056617513
 31
0.0
  0
LINE
  5
172
330
1F
100
AcDbEntity
  8
0
  6
Continuous
 62
     7
370
    15
100
AcDbLine
 10
6.492257303705212
 20
6.965697502681983
 30
0.0
 11
6.492257303705212
 21
6.845267056617513
 31
0.0
  0
LINE
  5
173
330
1F
100
AcDbEntity
  8
0
  6
Continuous
 62
     7
370
    15
100
AcDbLine
 10
6.58771666175027
 20
7.168128988632715
 30
0.0
 11
6.580645591949704
 21
7.170023406380805
 31
0.0
  0
ARC
  5
174
330
1F
100
AcDbEntity
  8
0
  6
Continuous
 62
     7
370
    15
100
AcDbCircle
 10
6.555338225983851
 20
7.172187318729086
 30
0.0
 40
0.0253997104074173
100
AcDbArc
 50
355.1127979567608
 51
54.60304476921805
  0
LINE
  5
175
330
1F
100
AcDbEntity
  8
0
  6
Continuous
 62
     7
370
    15
100
AcDbLine
 10
6.565619537835249
 20
7.011670814352042
 30
0.0
 11
6.558548468034682
 21
7.013565232100132
 31
0.0
  0
LINE
  5
176
330
1F
100
AcDbEntity
  8
0
  6
Continuous
 62
     7
370
    15
100
AcDbLine
 10
6.558548468034682
 20
7.013565232100132
 30
0.0
 11
6.514354323912436
 21
7.001725132462003
 31
0.0
  0
ARC
  5
177
330
1F
100
AcDbEntity
  8
0
  6
Continuous
 62
     7
370
    15
100
AcDbCircle
 10
6.514680219596303
 20
6.842036078898273
 30
0.0
 40
0.022654500084556
100
AcDbArc
 50
171.8005352487736
 51
248.2006175424198
  0
LINE
  5
178
330
1F
100
AcDbEntity
  8
0
  6
Continuous
 62
     7
370
    15
100
AcDbLine
 10
6.58771666175027
 20
7.047698542568244
 30
0.0
 11
6.580645591949704
 21
7.049592960316335
 31
0.0
  0
LINE
  5
179
330
1F
100
AcDbEntity
  8
0
  6
Continuous
 62
     7
370
    15
100
AcDbLine
 10
6.580645591949704
 20
7.170023406380805
 30
0.0
 11
6.580645591949704
 21
7.049592960316335
 31
0.0
  0
ARC
  5
17A
330
1F
100
AcDbEntity
  8
0
  6
Continuous
 62
     7
370
    15
100
AcDbCircle
 10
6.544062865011205
 20
7.047240133847509
 30
0.0
 40
0.0366583101444849
100
AcDbArc
 50
293.2754516163308
 51
3.679922840531306
  0
LINE
  5
17B
330
1F
100
AcDbEntity
  8
0
  6
Continuous
 62
     7
370
    15
100
AcDbLine
 10
6.58771666175027
 20
6.806837615113444
 30
0.0
 11
6.580645591949704
 21
6.808732032861535
 31
0.0
  0
ARC
  5
17C
330
1F
100
AcDbEntity
  8
0
  6
Continuous
 62
     7
370
    15
100
AcDbCircle
 10
6.555338105196876
 20
6.810895921233426
 30
0.0
 40
0.0253998287126238
100
AcDbArc
 50
355.1128750575277
 51
54.60290015182033
  0
LINE
  5
17D
330
1F
100
AcDbEntity
  8
0
  6
Continuous
 62
     7
370
    15
100
AcDbLine
 10
6.58771666175027
 20
6.686407151386045
 30
0.0
 11
6.580645591949704
 21
6.688301569134135
 31
0.0
  0
LINE
  5
17E
330
1F
100
AcDbEntity
  8
0
  6
Continuous
 62
     7
370
    15
100
AcDbLine
 10
6.580645591949704
 20
6.808732032861535
 30
0.0
 11
6.580645591949704
 21
6.688301569134135
 31
0.0
  0
LINE
  5
17F
330
1F
100
AcDbEntity
  8
0
  6
Continuous
 62
     7
370
    15
100
AcDbLine
 10
7.095949682133392
 20
7.695689163763424
 30
0.0
 11
7.088878612332825
 21
7.697583581511515
 31
0.0
  0
LWPOLYLINE
  5
180
330
1F
100
AcDbEntity
  8
0
  6
Continuous
 62
     7
370
    15
100
AcDbPolyline
 90
        3
 70
   128
 43
0.0
 10
7.088878612332825
 20
7.697583581511515
 10
7.085041527568911
 20
7.697013053971777
 10
7.084447489310372
 20
7.697007995954517
  0
LINE
  5
181
330
1F
100
AcDbEntity
  8
0
  6
Continuous
 62
     7
370
    15
100
AcDbLine
 10
7.140143826255639
 20
7.707529263401553
 30
0.0
 11
7.133072756455071
 21
7.709423681149644
 31
0.0
  0
LINE
  5
182
330
1F
100
AcDbEntity
  8
0
  6
Continuous
 62
     7
370
    15
100
AcDbLine
 10
7.133072756455071
 20
7.709423681149644
 30
0.0
 11
7.088878612332825
 21
7.697583581511515
 31
0.0
  0
ARC
  5
183
330
1F
100
AcDbEntity
  8
0
  6
Continuous
 62
     7
370
    15
100
AcDbCircle
 10
7.137258682640838
 20
7.694670404116545
 30
0.0
 40
0.0153356174068105
100
AcDbArc
 50
75.26303481515217
 51
105.8401543038821
  0
LINE
  5
184
330
1F
100
AcDbEntity
  8
0
  6
Continuous
 62
     7
370
    15
100
AcDbLine
 10
7.095949682133392
 20
7.334397825570012
 30
0.0
 11
7.088878612332825
 21
7.336292243318104
 31
0.0
  0
LWPOLYLINE
  5
185
330
1F
100
AcDbEntity
  8
0
  6
Continuous
 62
     7
370
    15
100
AcDbPolyline
 90
        3
 70
   128
 43
0.0
 10
7.088878612332825
 20
7.336292243318104
 10
7.085041527568911
 20
7.335721645126646
 10
7.084447489310372
 20
7.335716657761105
  0
LINE
  5
186
330
1F
100
AcDbEntity
  8
0
  6
Continuous
 62
     7
370
    15
100
AcDbLine
 10
7.140143826255639
 20
7.346237925208141
 30
0.0
 11
7.133072756455071
 21
7.348132342956233
 31
0.0
  0
LINE
  5
187
330
1F
100
AcDbEntity
  8
0
  6
Continuous
 62
     7
370
    15
100
AcDbLine
 10
7.133072756455071
 20
7.348132342956233
 30
0.0
 11
7.088878612332825
 21
7.336292243318104
 31
0.0
  0
ARC
  5
188
330
1F
100
AcDbEntity
  8
0
  6
Continuous
 62
     7
370
    15
100
AcDbCircle
 10
7.137258682640836
 20
7.33337906592317
 30
0.0
 40
0.0153356174067749
100
AcDbArc
 50
75.2630348151103
 51
105.8401543039129
  0
LINE
  5
189
330
1F
100
AcDbEntity
  8
0
  6
Continuous
 62
     7
370
    15
100
AcDbLine
 10
7.095949682133392
 20
6.973106452050743
 30
0.0
 11
7.088878612332825
 21
6.975000869798833
 31
0.0
  0
LWPOLYLINE
  5
18A
330
1F
100
AcDbEntity
  8
0
  6
Continuous
 62
     7
370
    15
100
AcDbPolyline
 90
        3
 70
   128
 43
0.0
 10
7.088878612332825
 20
6.975000869798833
 10
7.085041527568911
 20
6.974430271607377
 10
7.084447489310372
 20
6.974425284241834
  0
LINE
  5
18B
330
1F
100
AcDbEntity
  8
0
  6
Continuous
 62
     7
370
    15
100
AcDbLine
 10
7.140143826255639
 20
6.984946551688872
 30
0.0
 11
7.133072756455071
 21
6.986840969436962
 31
0.0
  0
LINE
  5
18C
330
1F
100
AcDbEntity
  8
0
  6
Continuous
 62
     7
370
    15
100
AcDbLine
 10
7.133072756455071
 20
6.986840969436962
 30
0.0
 11
7.088878612332825
 21
6.975000869798833
 31
0.0
  0
ARC
  5
18D
330
1F
100
AcDbEntity
  8
0
  6
Continuous
 62
     7
370
    15
100
AcDbCircle
 10
7.137258701027031
 20
6.972085782634019
 30
0.0
 40
0.0153374596837049
100
AcDbArc
 50
75.26491607285048
 51
105.8382730461922
  0
LINE
  5
18E
330
1F
100
AcDbEntity
  8
0
  6
Continuous
 62
     7
370
    15
100
AcDbLine
 10
6.58771666175027
 20
9.712222258890765
 30
0.0
 11
6.499328373505778
 21
9.688542059614507
 31
0.0
  0
ARC
  5
18F
330
1F
100
AcDbEntity
  8
0
  6
Continuous
 62
     7
370
    15
100
AcDbCircle
 10
6.573230847911766
 20
9.745897299166406
 30
0.0
 40
0.0366585207029671
100
AcDbArc
 50
293.2756687399837
 51
3.679906021198116
  0
LINE
  5
190
330
1F
100
AcDbEntity
  8
0
  6
Continuous
 62
     7
370
    15
100
AcDbLine
 10
6.609813785665292
 20
9.808465174813344
 30
0.0
 11
6.609813785665292
 21
9.748250128410406
 31
0.0
  0
ARC
  5
191
330
1F
100
AcDbEntity
  8
0
  6
Continuous
 62
     7
370
    15
100
AcDbCircle
 10
6.646822631960429
 20
9.81055679654275
 30
0.0
 40
0.0370679050602552
100
AcDbArc
 50
113.7210418438536
 51
183.2347332223817
  0
LINE
  5
192
330
1F
100
AcDbEntity
  8
0
  6
Continuous
 62
     7
370
    15
100
AcDbLine
 10
6.720299197824807
 20
9.868173243609241
 30
0.0
 11
6.631910805872516
 21
9.844493016548518
 31
0.0
  0
LWPOLYLINE
  5
193
330
1F
100
AcDbEntity
  8
0
  6
Continuous
 62
     7
370
    15
100
AcDbPolyline
 90
       10
 70
   128
 43
0.0
 10
6.742396321739827
 20
9.843985501512197
 10
6.742060619602451
 20
9.849123790347599
 10
6.741063676554382
 20
9.853926100372525
 10
6.739435878980005
 20
9.858246269082593
 10
6.737226591790468
 20
9.861953392377905
 10
6.734502913930129
 20
9.864934599825085
 10
6.731347707928418
 20
9.867099613676149
 10
6.72785679978933
 20
9.86838225954294
 10
6.72413628258872
 20
9.868743700497262
 10
6.720299197824807
 20
9.868173243609241
  0
LINE
  5
194
330
1F
100
AcDbEntity
  8
0
  6
Continuous
 62
     7
370
    15
100
AcDbLine
 10
6.742396321739827
 20
9.783770455109255
 30
0.0
 11
6.742396321739827
 21
9.843985501512197
 31
0.0
  0
LWPOLYLINE
  5
195
330
1F
100
AcDbEntity
  8
0
  6
Continuous
 62
     7
370
    15
100
AcDbPolyline
 90
       10
 70
   128
 43
0.0
 10
6.764493341947052
 20
9.759582685227744
 10
6.760656257183139
 20
9.759012228339726
 10
6.756935739982528
 20
9.759373669294047
 10
6.753444831843441
 20
9.760656315160838
 10
6.750289625841729
 20
9.762821329011902
 10
6.747566051689187
 20
9.765802564243546
 10
6.745356764499651
 20
9.76950968753886
 10
6.743728863217476
 20
9.773829828464462
 10
6.742732023877205
 20
9.778632166273855
 10
6.742396321739827
 20
9.783770455109255
  0
LINE
  5
196
330
1F
100
AcDbEntity
  8
0
  6
Continuous
 62
     7
370
    15
100
AcDbLine
 10
6.852881733899343
 20
9.783262912288469
 30
0.0
 11
6.764493341947052
 21
9.759582685227744
 31
0.0
  0
ARC
  5
197
330
1F
100
AcDbEntity
  8
0
  6
Continuous
 62
     7
370
    15
100
AcDbCircle
 10
6.838396105996195
 20
9.816937731404051
 30
0.0
 40
0.0366582440689079
100
AcDbArc
 50
293.2755383721312
 51
3.680236694107867
  0
LINE
  5
198
330
1F
100
AcDbEntity
  8
0
  6
Continuous
 62
     7
370
    15
100
AcDbLine
 10
6.874978754106567
 20
9.879505800426583
 30
0.0
 11
6.874978754106567
 21
9.819290754023644
 31
0.0
  0
ARC
  5
199
330
1F
100
AcDbEntity
  8
0
  6
Continuous
 62
     7
370
    15
100
AcDbCircle
 10
6.911987863201832
 20
9.881597244218905
 30
0.0
 40
0.0370681574017608
100
AcDbArc
 50
113.7211390566233
 51
183.2344357045622
  0
LINE
  5
19A
330
1F
100
AcDbEntity
  8
0
  6
Continuous
 62
     7
370
    15
100
AcDbLine
 10
6.985464269973878
 20
9.939213897006947
 30
0.0
 11
6.897075878021588
 21
9.915533669946224
 31
0.0
  0
LWPOLYLINE
  5
19B
330
1F
100
AcDbEntity
  8
0
  6
Continuous
 62
     7
370
    15
100
AcDbPolyline
 90
       10
 70
   128
 43
0.0
 10
7.007561290181103
 20
9.915026127125434
 10
7.007225588043727
 20
9.920164415960838
 10
7.006228748703454
 20
9.924966753770231
 10
7.004600847421279
 20
9.929286894695833
 10
7.002391560231743
 20
9.932994017991145
 10
6.999667986079201
 20
9.935975253222789
 10
6.996512780077491
 20
9.938140267073853
 10
6.993021871938403
 20
9.939422912940644
 10
6.989301354737792
 20
9.939784353894964
 10
6.985464269973878
 20
9.939213897006947
  0
LINE
  5
19C
330
1F
100
AcDbEntity
  8
0
  6
Continuous
 62
     7
370
    15
100
AcDbLine
 10
7.007561290181103
 20
9.854811080722495
 30
0.0
 11
7.007561290181103
 21
9.915026127125434
 31
0.0
  0
LWPOLYLINE
  5
19D
330
1F
100
AcDbEntity
  8
0
  6
Continuous
 62
     7
370
    15
100
AcDbPolyline
 90
       10
 70
   128
 43
0.0
 10
7.029658414096124
 20
9.83062333862545
 10
7.02582132933221
 20
9.830052881737429
 10
7.022100708423802
 20
9.830414294907287
 10
7.018609903992511
 20
9.831696968558542
 10
7.0154546979908
 20
9.833861982409606
 10
7.012731020130461
 20
9.836843189856786
 10
7.010521732940924
 20
9.8405503131521
 10
7.008893935366547
 20
9.844870481862166
 10
7.007896992318478
 20
9.849672791887092
 10
7.007561290181103
 20
9.854811080722495
  0
LINE
  5
19E
330
1F
100
AcDbEntity
  8
0
  6
Continuous
 62
     7
370
    15
100
AcDbLine
 10
7.118046806048413
 20
9.854303565686173
 30
0.0
 11
7.029658414096124
 21
9.83062333862545
 31
0.0
  0
ARC
  5
19F
330
1F
100
AcDbEntity
  8
0
  6
Continuous
 62
     7
370
    15
100
AcDbCircle
 10
7.10356094142266
 20
9.887978529991251
 30
0.0
 40
0.0366584709842627
100
AcDbArc
 50
293.2757885786082
 51
3.679986487630989
  0
LINE
  5
1A0
330
1F
100
AcDbEntity
  8
0
  6
Continuous
 62
     7
370
    15
100
AcDbLine
 10
7.140143826255639
 20
9.950546453824285
 30
0.0
 11
7.140143826255639
 21
9.890331407421347
 31
0.0
  0
ARC
  5
1A1
330
1F
100
AcDbEntity
  8
0
  6
Continuous
 62
     7
370
    15
100
AcDbCircle
 10
7.177152859150788
 20
9.952637944352742
 30
0.0
 40
0.0370680839599904
100
AcDbArc
 50
113.7210602866709
 51
183.2345144745133
  0
LINE
  5
1A2
330
1F
100
AcDbEntity
  8
0
  6
Continuous
 62
     7
370
    15
100
AcDbLine
 10
7.250629238415151
 20
10.01025452262018
 30
0.0
 11
7.16224095017066
 21
9.986574323343926
 31
0.0
  0
LINE
  5
1A3
330
1F
100
AcDbEntity
  8
0
  6
Continuous
 62
     7
370
    15
100
AcDbLine
 10
7.250629238415151
 20
9.227456375920112
 30
0.0
 11
7.250629238415151
 21
10.01025452262018
 31
0.0
  0
LINE
  5
1A4
330
1F
100
AcDbEntity
  8
0
  6
Continuous
 62
     7
370
    15
100
AcDbLine
 10
7.16224095017066
 20
9.203776176643854
 30
0.0
 11
7.250629238415151
 21
9.227456375920112
 31
0.0
  0
ARC
  5
1A5
330
1F
100
AcDbEntity
  8
0
  6
Continuous
 62
     7
370
    15
100
AcDbCircle
 10
7.176726456552234
 20
9.170101343398448
 30
0.0
 40
0.036658209029311
100
AcDbArc
 50
113.275355168274
 51
183.6798189831365
  0
LINE
  5
1A6
330
1F
100
AcDbEntity
  8
0
  6
Continuous
 62
     7
370
    15
100
AcDbLine
 10
7.140143826255639
 20
9.107533260721274
 30
0.0
 11
7.140143826255639
 21
9.167748589731088
 31
0.0
  0
ARC
  5
1A7
330
1F
100
AcDbEntity
  8
0
  6
Continuous
 62
     7
370
    15
100
AcDbCircle
 10
7.103134765490541
 20
9.105442036735055
 30
0.0
 40
0.0370680967474098
100
AcDbArc
 50
293.7212737482537
 51
3.234100708605252
  0
LINE
  5
1A8
330
1F
100
AcDbEntity
  8
0
  6
Continuous
 62
     7
370
    15
100
AcDbLine
 10
7.029658414096124
 20
9.047825474532249
 30
0.0
 11
7.118046806048413
 21
9.071505701592974
 31
0.0
  0
LWPOLYLINE
  5
1A9
330
1F
100
AcDbEntity
  8
0
  6
Continuous
 62
     7
370
    15
100
AcDbPolyline
 90
       10
 70
   128
 43
0.0
 10
7.007561290181103
 20
9.072012934022424
 10
7.007896992318478
 20
9.066874927793893
 10
7.008893935366547
 20
9.062072617768967
 10
7.010521732940924
 20
9.057752449058899
 10
7.012731020130461
 20
9.054045325763587
 10
7.0154546979908
 20
9.051064118316407
 10
7.018609903992511
 20
9.048899104465343
 10
7.022100708423802
 20
9.047616430814088
 10
7.02582132933221
 20
9.04725501764423
 10
7.029658414096124
 20
9.047825474532249
  0
LINE
  5
1AA
330
1F
100
AcDbEntity
  8
0
  6
Continuous
 62
     7
370
    15
100
AcDbLine
 10
7.007561290181103
 20
9.132228263032237
 30
0.0
 11
7.007561290181103
 21
9.072012934022424
 31
0.0
  0
LWPOLYLINE
  5
1AB
330
1F
100
AcDbEntity
  8
0
  6
Continuous
 62
     7
370
    15
100
AcDbPolyline
 90
       10
 70
   128
 43
0.0
 10
6.985464269973878
 20
9.156415750306873
 10
6.989301354737792
 20
9.156986489801766
 10
6.993021871938403
 20
9.156624766240572
 10
6.996512780077491
 20
9.155342120373781
 10
6.999667986079201
 20
9.15317738912959
 10
7.002391560231743
 20
9.150196153897946
 10
7.004600847421279
 20
9.146489030602632
 10
7.006228748703454
 20
9.142168607070157
 10
7.007225588043727
 20
9.137366551867637
 10
7.007561290181103
 20
9.132228263032237
  0
LINE
  5
1AC
330
1F
100
AcDbEntity
  8
0
  6
Continuous
 62
     7
370
    15
100
AcDbLine
 10
6.897075878021588
 20
9.13273552324615
 30
0.0
 11
6.985464269973878
 21
9.156415750306873
 31
0.0
  0
ARC
  5
1AD
330
1F
100
AcDbEntity
  8
0
  6
Continuous
 62
     7
370
    15
100
AcDbCircle
 10
6.911561460603461
 20
9.099060643264126
 30
0.0
 40
0.0366582820729508
100
AcDbArc
 50
113.2754357094287
 51
183.6797384419737
  0
LINE
  5
1AE
330
1F
100
AcDbEntity
  8
0
  6
Continuous
 62
     7
370
    15
100
AcDbLine
 10
6.874978754106567
 20
9.036492607323571
 30
0.0
 11
6.874978754106567
 21
9.096707936333384
 31
0.0
  0
ARC
  5
1AF
330
1F
100
AcDbEntity
  8
0
  6
Continuous
 62
     7
370
    15
100
AcDbCircle
 10
6.837969930069538
 20
9.034401238143363
 30
0.0
 40
0.0370678685879253
100
AcDbArc
 50
293.7210290363342
 51
3.234345420534503
  0
LINE
  5
1B0
330
1F
100
AcDbEntity
  8
0
  6
Continuous
 62
     7
370
    15
100
AcDbLine
 10
6.764493341947052
 20
8.976784821134547
 30
0.0
 11
6.852881733899343
 21
9.00046504819527
 31
0.0
  0
LWPOLYLINE
  5
1B1
330
1F
100
AcDbEntity
  8
0
  6
Continuous
 62
     7
370
    15
100
AcDbPolyline
 90
       10
 70
   128
 43
0.0
 10
6.742396321739827
 20
9.000972308409185
 10
6.742732023877205
 20
8.995834302180655
 10
6.743728863217476
 20
8.991031964371263
 10
6.745356764499651
 20
8.986711823445659
 10
6.747566051689187
 20
8.983004700150349
 10
6.750289625841729
 20
8.980023464918703
 10
6.753444831843441
 20
8.977858451067639
 10
6.756935739982528
 20
8.976575805200848
 10
6.760656257183139
 20
8.976214364246528
 10
6.764493341947052
 20
8.976784821134547
  0
LINE
  5
1B2
330
1F
100
AcDbEntity
  8
0
  6
Continuous
 62
     7
370
    15
100
AcDbLine
 10
6.742396321739827
 20
9.061187637418997
 30
0.0
 11
6.742396321739827
 21
9.000972308409185
 31
0.0
  0
LWPOLYLINE
  5
1B3
330
1F
100
AcDbEntity
  8
0
  6
Continuous
 62
     7
370
    15
100
AcDbPolyline
 90
       10
 70
   128
 43
0.0
 10
6.720299197824807
 20
9.085375096909171
 10
6.72413628258872
 20
9.085945836404063
 10
6.72785679978933
 20
9.085584112842868
 10
6.731347707928418
 20
9.084301466976077
 10
6.734502913930129
 20
9.082136735731888
 10
6.737226591790468
 20
9.079155528284706
 10
6.739435878980005
 20
9.075448404989394
 10
6.741063676554382
 20
9.071127953672455
 10
6.742060619602451
 20
9.0663259262544
 10
6.742396321739827
 20
9.061187637418997
  0
LINE
  5
1B4
330
1F
100
AcDbEntity
  8
0
  6
Continuous
 62
     7
370
    15
100
AcDbLine
 10
6.631910805872516
 20
9.061694869848448
 30
0.0
 11
6.720299197824807
 21
9.085375096909171
 31
0.0
  0
ARC
  5
1B5
330
1F
100
AcDbEntity
  8
0
  6
Continuous
 62
     7
370
    15
100
AcDbCircle
 10
6.646396126316171
 20
9.028020257765462
 30
0.0
 40
0.0366579323925264
100
AcDbArc
 50
113.2752247947256
 51
183.6801496621456
  0
LINE
  5
1B6
330
1F
100
AcDbEntity
  8
0
  6
Continuous
 62
     7
370
    15
100
AcDbLine
 10
6.609813785665292
 20
8.965451981710332
 30
0.0
 11
6.609813785665292
 21
9.025667310720145
 31
0.0
  0
ARC
  5
1B7
330
1F
100
AcDbEntity
  8
0
  6
Continuous
 62
     7
370
    15
100
AcDbCircle
 10
6.572804775022834
 20
8.963360743735387
 30
0.0
 40
0.0370680474937848
100
AcDbArc
 50
293.7210474842139
 51
3.234126667191408
  0
LINE
  5
1B8
330
1F
100
AcDbEntity
  8
0
  6
Continuous
 62
     7
370
    15
100
AcDbLine
 10
6.499328373505778
 20
8.905744195521307
 30
0.0
 11
6.58771666175027
 21
8.929424394797566
 31
0.0
  0
LINE
  5
1B9
330
1F
100
AcDbEntity
  8
0
  6
Continuous
 62
     7
370
    15
100
AcDbLine
 10
6.499328373505778
 20
9.688542059614507
 30
0.0
 11
6.499328373505778
 21
8.905744195521307
 31
0.0
  0
LINE
  5
1BA
330
1F
100
AcDbEntity
  8
0
  6
Continuous
 62
     7
370
    15
100
AcDbLine
 10
6.58771666175027
 20
9.712222258890765
 30
0.0
 11
6.580645591949704
 21
9.714116676638855
 31
0.0
  0
LINE
  5
1BB
330
1F
100
AcDbEntity
  8
0
  6
Continuous
 62
     7
370
    15
100
AcDbLine
 10
6.499328373505778
 20
9.688542059614507
 30
0.0
 11
6.492257303705212
 21
9.690436477362597
 31
0.0
  0
LINE
  5
1BC
330
1F
100
AcDbEntity
  8
0
  6
Continuous
 62
     7
370
    15
100
AcDbLine
 10
6.580645591949704
 20
9.714116676638855
 30
0.0
 11
6.492257303705212
 21
9.690436477362597
 31
0.0
  0
LINE
  5
1BD
330
1F
100
AcDbEntity
  8
0
  6
Continuous
 62
     7
370
    15
100
AcDbLine
 10
6.499328373505778
 20
8.905744195521307
 30
0.0
 11
6.492257303705212
 21
8.9076386132694
 31
0.0
  0
LINE
  5
1BE
330
1F
100
AcDbEntity
  8
0
  6
Continuous
 62
     7
370
    15
100
AcDbLine
 10
6.492257303705212
 20
9.690436477362597
 30
0.0
 11
6.492257303705212
 21
8.9076386132694
 31
0.0
  0
LINE
  5
1BF
330
1F
100
AcDbEntity
  8
0
  6
Continuous
 62
     7
370
    15
100
AcDbLine
 10
6.631910805872516
 20
9.844493016548518
 30
0.0
 11
6.624839736071951
 21
9.846387434296611
 31
0.0
  0
LINE
  5
1C0
330
1F
100
AcDbEntity
  8
0
  6
Continuous
 62
     7
370
    15
100
AcDbLine
 10
6.609813785665292
 20
9.808465174813344
 30
0.0
 11
6.602742715864725
 21
9.810359592561436
 31
0.0
  0
ARC
  5
1C1
330
1F
100
AcDbEntity
  8
0
  6
Continuous
 62
     7
370
    15
100
AcDbCircle
 10
6.639751562159868
 20
9.81245121429084
 30
0.0
 40
0.0370679050602594
100
AcDbArc
 50
113.7210418438588
 51
183.2347332223785
  0
LINE
  5
1C2
330
1F
100
AcDbEntity
  8
0
  6
Continuous
 62
     7
370
    15
100
AcDbLine
 10
6.609813785665292
 20
9.748250128410406
 30
0.0
 11
6.602742715864725
 21
9.750144546158495
 31
0.0
  0
ARC
  5
1C3
330
1F
100
AcDbEntity
  8
0
  6
Continuous
 62
     7
370
    15
100
AcDbCircle
 10
6.5661597781112
 20
9.747791716914496
 30
0.0
 40
0.0366585207029671
100
AcDbArc
 50
293.2756687399837
 51
3.679906021195434
  0
LINE
  5
1C4
330
1F
100
AcDbEntity
  8
0
  6
Continuous
 62
     7
370
    15
100
AcDbLine
 10
6.602742715864725
 20
9.810359592561436
 30
0.0
 11
6.602742715864725
 21
9.750144546158495
 31
0.0
  0
LINE
  5
1C5
330
1F
100
AcDbEntity
  8
0
  6
Continuous
 62
     7
370
    15
100
AcDbLine
 10
6.720299197824807
 20
9.868173243609241
 30
0.0
 11
6.71322812802424
 21
9.870067661357333
 31
0.0
  0
LINE
  5
1C6
330
1F
100
AcDbEntity
  8
0
  6
Continuous
 62
     7
370
    15
100
AcDbLine
 10
6.71322812802424
 20
9.870067661357333
 30
0.0
 11
6.624839736071951
 21
9.846387434296611
 31
0.0
  0
ARC
  5
1C7
330
1F
100
AcDbEntity
  8
0
  6
Continuous
 62
     7
370
    15
100
AcDbCircle
 10
6.717414137649567
 20
9.855305717474633
 30
0.0
 40
0.0153439780949832
100
AcDbArc
 50
75.27156864507855
 51
105.8316204739432
  0
LINE
  5
1C8
330
1F
100
AcDbEntity
  8
0
  6
Continuous
 62
     7
370
    15
100
AcDbLine
 10
6.764493341947052
 20
9.759582685227744
 30
0.0
 11
6.757422272146486
 21
9.761477102975836
 31
0.0
  0
LWPOLYLINE
  5
1C9
330
1F
100
AcDbEntity
  8
0
  6
Continuous
 62
     7
370
    15
100
AcDbPolyline
 90
        3
 70
   128
 43
0.0
 10
6.757422272146486
 20
9.761477102975836
 10
6.753585187382572
 20
9.760906646087818
 10
6.752991252831829
 20
9.760901545203303
  0
LINE
  5
1CA
330
1F
100
AcDbEntity
  8
0
  6
Continuous
 62
     7
370
    15
100
AcDbLine
 10
6.852881733899343
 20
9.783262912288469
 30
0.0
 11
6.845810664098775
 21
9.785157330036559
 31
0.0
  0
LINE
  5
1CB
330
1F
100
AcDbEntity
  8
0
  6
Continuous
 62
     7
370
    15
100
AcDbLine
 10
6.845810664098775
 20
9.785157330036559
 30
0.0
 11
6.757422272146486
 21
9.761477102975836
 31
0.0
  0
LINE
  5
1CC
330
1F
100
AcDbEntity
  8
0
  6
Continuous
 62
     7
370
    15
100
AcDbLine
 10
6.897075878021588
 20
9.915533669946224
 30
0.0
 11
6.890004808221021
 21
9.917428087694313
 31
0.0
  0
LINE
  5
1CD
330
1F
100
AcDbEntity
  8
0
  6
Continuous
 62
     7
370
    15
100
AcDbLine
 10
6.874978754106567
 20
9.879505800426583
 30
0.0
 11
6.867907684306
 21
9.881400218174674
 31
0.0
  0
ARC
  5
1CE
330
1F
100
AcDbEntity
  8
0
  6
Continuous
 62
     7
370
    15
100
AcDbCircle
 10
6.904916793401255
 20
9.883491661966999
 30
0.0
 40
0.037068157401751
100
AcDbArc
 50
113.7211390566128
 51
183.2344357045686
  0
LINE
  5
1CF
330
1F
100
AcDbEntity
  8
0
  6
Continuous
 62
     7
370
    15
100
AcDbLine
 10
6.874978754106567
 20
9.819290754023644
 30
0.0
 11
6.867907684306
 21
9.821185171771734
 31
0.0
  0
ARC
  5
1D0
330
1F
100
AcDbEntity
  8
0
  6
Continuous
 62
     7
370
    15
100
AcDbCircle
 10
6.831325036195631
 20
9.818832149152141
 30
0.0
 40
0.0366582440689062
100
AcDbArc
 50
293.2755383721248
 51
3.680236694108135
  0
LINE
  5
1D1
330
1F
100
AcDbEntity
  8
0
  6
Continuous
 62
     7
370
    15
100
AcDbLine
 10
6.867907684306
 20
9.881400218174674
 30
0.0
 11
6.867907684306
 21
9.821185171771734
 31
0.0
  0
LINE
  5
1D2
330
1F
100
AcDbEntity
  8
0
  6
Continuous
 62
     7
370
    15
100
AcDbLine
 10
6.985464269973878
 20
9.939213897006947
 30
0.0
 11
6.97839320017331
 21
9.941108314755036
 31
0.0
  0
LINE
  5
1D3
330
1F
100
AcDbEntity
  8
0
  6
Continuous
 62
     7
370
    15
100
AcDbLine
 10
6.97839320017331
 20
9.941108314755036
 30
0.0
 11
6.890004808221021
 21
9.917428087694313
 31
0.0
  0
LINE
  5
1D4
330
1F
100
AcDbEntity
  8
0
  6
Continuous
 62
     7
370
    15
100
AcDbLine
 10
6.742396321739827
 20
9.061187637418997
 30
0.0
 11
6.735325251939261
 21
9.063082055167088
 31
0.0
  0
ARC
  5
1D5
330
1F
100
AcDbEntity
  8
0
  6
Continuous
 62
     7
370
    15
100
AcDbCircle
 10
6.710017769463906
 20
9.065245949595011
 30
0.0
 40
0.0253998249666338
100
AcDbArc
 50
355.1128606242468
 51
54.60319297054525
  0
LINE
  5
1D6
330
1F
100
AcDbEntity
  8
0
  6
Continuous
 62
     7
370
    15
100
AcDbLine
 10
6.742396321739827
 20
9.000972308409185
 30
0.0
 11
6.735325251939261
 21
9.002866726157277
 31
0.0
  0
LINE
  5
1D7
330
1F
100
AcDbEntity
  8
0
  6
Continuous
 62
     7
370
    15
100
AcDbLine
 10
6.735325251939261
 20
9.063082055167088
 30
0.0
 11
6.735325251939261
 21
9.002866726157277
 31
0.0
  0
ARC
  5
1D8
330
1F
100
AcDbEntity
  8
0
  6
Continuous
 62
     7
370
    15
100
AcDbCircle
 10
6.982579209798643
 20
9.926346370872234
 30
0.0
 40
0.015343978095082
100
AcDbArc
 50
75.27156864519561
 51
105.8316204738592
  0
ARC
  5
1D9
330
1F
100
AcDbEntity
  8
0
  6
Continuous
 62
     7
370
    15
100
AcDbCircle
 10
6.757748194790652
 20
8.999635855870693
 30
0.0
 40
0.0226545114475121
100
AcDbArc
 50
171.8008139049873
 51
248.2005555994031
  0
LINE
  5
1DA
330
1F
100
AcDbEntity
  8
0
  6
Continuous
 62
     7
370
    15
100
AcDbLine
 10
7.029658414096124
 20
9.83062333862545
 30
0.0
 11
7.022587344295557
 21
9.83251775637354
 31
0.0
  0
LWPOLYLINE
  5
1DB
330
1F
100
AcDbEntity
  8
0
  6
Continuous
 62
     7
370
    15
100
AcDbPolyline
 90
        3
 70
   128
 43
0.0
 10
7.022587344295557
 20
9.83251775637354
 10
7.018750259531644
 20
9.83194729948552
 10
7.018156221273105
 20
9.831942170816541
  0
LINE
  5
1DC
330
1F
100
AcDbEntity
  8
0
  6
Continuous
 62
     7
370
    15
100
AcDbLine
 10
7.118046806048413
 20
9.854303565686173
 30
0.0
 11
7.110975736247848
 21
9.856197983434263
 31
0.0
  0
LINE
  5
1DD
330
1F
100
AcDbEntity
  8
0
  6
Continuous
 62
     7
370
    15
100
AcDbLine
 10
7.110975736247848
 20
9.856197983434263
 30
0.0
 11
7.022587344295557
 21
9.83251775637354
 31
0.0
  0
LINE
  5
1DE
330
1F
100
AcDbEntity
  8
0
  6
Continuous
 62
     7
370
    15
100
AcDbLine
 10
7.16224095017066
 20
9.986574323343926
 30
0.0
 11
7.155169880370094
 21
9.988468741092017
 31
0.0
  0
LINE
  5
1DF
330
1F
100
AcDbEntity
  8
0
  6
Continuous
 62
     7
370
    15
100
AcDbLine
 10
7.140143826255639
 20
9.950546453824285
 30
0.0
 11
7.133072756455071
 21
9.952440871572378
 31
0.0
  0
ARC
  5
1E0
330
1F
100
AcDbEntity
  8
0
  6
Continuous
 62
     7
370
    15
100
AcDbCircle
 10
7.170081789350217
 20
9.954532362100835
 30
0.0
 40
0.0370680839599872
100
AcDbArc
 50
113.7210602866657
 51
183.2345144745135
  0
LINE
  5
1E1
330
1F
100
AcDbEntity
  8
0
  6
Continuous
 62
     7
370
    15
100
AcDbLine
 10
7.140143826255639
 20
9.890331407421347
 30
0.0
 11
7.133072756455071
 21
9.89222582516944
 31
0.0
  0
ARC
  5
1E2
330
1F
100
AcDbEntity
  8
0
  6
Continuous
 62
     7
370
    15
100
AcDbCircle
 10
7.096489871622094
 20
9.889872947739341
 30
0.0
 40
0.0366584709842615
100
AcDbArc
 50
293.2757885786095
 51
3.679986487633938
  0
LINE
  5
1E3
330
1F
100
AcDbEntity
  8
0
  6
Continuous
 62
     7
370
    15
100
AcDbLine
 10
7.133072756455071
 20
9.952440871572378
 30
0.0
 11
7.133072756455071
 21
9.89222582516944
 31
0.0
  0
LINE
  5
1E4
330
1F
100
AcDbEntity
  8
0
  6
Continuous
 62
     7
370
    15
100
AcDbLine
 10
7.250629238415151
 20
10.01025452262018
 30
0.0
 11
7.243558168614586
 21
10.01214894036827
 31
0.0
  0
LINE
  5
1E5
330
1F
100
AcDbEntity
  8
0
  6
Continuous
 62
     7
370
    15
100
AcDbLine
 10
7.243558168614586
 20
10.01214894036827
 30
0.0
 11
7.155169880370094
 21
9.988468741092017
 31
0.0
  0
LINE
  5
1E6
330
1F
100
AcDbEntity
  8
0
  6
Continuous
 62
     7
370
    15
100
AcDbLine
 10
7.007561290181103
 20
9.132228263032237
 30
0.0
 11
7.000490220380536
 21
9.134122680780327
 31
0.0
  0
ARC
  5
1E7
330
1F
100
AcDbEntity
  8
0
  6
Continuous
 62
     7
370
    15
100
AcDbCircle
 10
6.975182597136898
 20
9.136286601867039
 30
0.0
 40
0.025399967494299
100
AcDbArc
 50
355.1128277595315
 51
54.60274490093977
  0
LINE
  5
1E8
330
1F
100
AcDbEntity
  8
0
  6
Continuous
 62
     7
370
    15
100
AcDbLine
 10
7.007561290181103
 20
9.072012934022424
 30
0.0
 11
7.000490220380536
 21
9.073907351770513
 31
0.0
  0
LINE
  5
1E9
330
1F
100
AcDbEntity
  8
0
  6
Continuous
 62
     7
370
    15
100
AcDbLine
 10
7.000490220380536
 20
9.134122680780327
 30
0.0
 11
7.000490220380536
 21
9.073907351770513
 31
0.0
  0
ARC
  5
1EA
330
1F
100
AcDbEntity
  8
0
  6
Continuous
 62
     7
370
    15
100
AcDbCircle
 10
7.022913291530304
 20
9.070676615600746
 30
0.0
 40
0.022654619307909
100
AcDbArc
 50
171.8011959081386
 51
248.2005977224688
  0
LINE
  5
1EB
330
1F
100
AcDbEntity
  8
0
  6
Continuous
 62
     7
370
    15
100
AcDbLine
 10
3.759289629116691
 20
6.679901148201951
 30
0.0
 11
3.670901133456606
 21
6.656220893356763
 31
0.0
  0
ARC
  5
1EC
330
1F
100
AcDbEntity
  8
0
  6
Continuous
 62
     7
370
    15
100
AcDbCircle
 10
3.744803774395809
 20
6.713576092590368
 30
0.0
 40
0.0366584487745658
100
AcDbArc
 50
293.2757866584586
 51
3.679687951176984
  0
LINE
  5
1ED
330
1F
100
AcDbEntity
  8
0
  6
Continuous
 62
     7
370
    15
100
AcDbLine
 10
3.781386649323917
 20
6.776144036340066
 30
0.0
 11
3.781386649323917
 21
6.715928777981972
 31
0.0
  0
ARC
  5
1EE
330
1F
100
AcDbEntity
  8
0
  6
Continuous
 62
     7
370
    15
100
AcDbCircle
 10
3.818395403294502
 20
6.778235515044887
 30
0.0
 40
0.0370678048126407
100
AcDbArc
 50
113.7209540559612
 51
183.2345205536743
  0
LINE
  5
1EF
330
1F
100
AcDbEntity
  8
0
  6
Continuous
 62
     7
370
    15
100
AcDbLine
 10
3.891872165191228
 20
6.835851920965273
 30
0.0
 11
3.803483669531141
 21
6.812171666120085
 31
0.0
  0
LWPOLYLINE
  5
1F0
330
1F
100
AcDbEntity
  8
0
  6
Continuous
 62
     7
370
    15
100
AcDbPolyline
 90
       10
 70
   128
 43
0.0
 10
3.913969185398452
 20
6.811664363038917
 10
3.913633379553279
 20
6.816802553438137
 10
3.912636540213007
 20
6.821604749944093
 10
3.911008742638629
 20
6.825925059957596
 10
3.908799351741296
 20
6.829632084816725
 10
3.906075777588754
 20
6.832613390700088
 10
3.902920571587043
 20
6.834778263247715
 10
3.899429767155752
 20
6.836061007550689
 10
3.895709146247344
 20
6.836422491372265
 10
3.891872165191228
 20
6.835851920965273
  0
LINE
  5
1F1
330
1F
100
AcDbEntity
  8
0
  6
Continuous
 62
     7
370
    15
100
AcDbLine
 10
3.913969185398452
 20
6.751449104680824
 30
0.0
 11
3.913969185398452
 21
6.811664363038917
 31
0.0
  0
LWPOLYLINE
  5
1F2
330
1F
100
AcDbEntity
  8
0
  6
Continuous
 62
     7
370
    15
100
AcDbPolyline
 90
       10
 70
   128
 43
0.0
 10
3.936066205605677
 20
6.727261546754466
 10
3.932229120841764
 20
6.72669094856301
 10
3.928508603641152
 20
6.727052530820769
 10
3.925017695502065
 20
6.72833517668756
 10
3.921862489500353
 20
6.730500049235187
 10
3.919138915347812
 20
6.73348135511855
 10
3.916929628158275
 20
6.737188478413863
 10
3.915301726876101
 20
6.741508760642901
 10
3.914304783828032
 20
6.746310929364392
 10
3.913969185398452
 20
6.751449104680824
  0
LINE
  5
1F3
330
1F
100
AcDbEntity
  8
0
  6
Continuous
 62
     7
370
    15
100
AcDbLine
 10
4.024454597557967
 20
6.75094177381519
 30
0.0
 11
3.936066205605677
 21
6.727261546754466
 31
0.0
  0
ARC
  5
1F4
330
1F
100
AcDbEntity
  8
0
  6
Continuous
 62
     7
370
    15
100
AcDbCircle
 10
4.009968820726712
 20
6.784616777551522
 30
0.0
 40
0.0366584725138268
100
AcDbArc
 50
293.2756381736453
 51
3.679636130637667
  0
LINE
  5
1F5
330
1F
100
AcDbEntity
  8
0
  6
Continuous
 62
     7
370
    15
100
AcDbLine
 10
4.046551721472988
 20
6.84718468973777
 30
0.0
 11
4.046551721472988
 21
6.786969431379675
 31
0.0
  0
ARC
  5
1F6
330
1F
100
AcDbEntity
  8
0
  6
Continuous
 62
     7
370
    15
100
AcDbCircle
 10
4.083560364828901
 20
6.849276236286484
 30
0.0
 40
0.037067698202217
100
AcDbArc
 50
113.7208397091878
 51
183.2346349004484
  0
LINE
  5
1F7
330
1F
100
AcDbEntity
  8
0
  6
Continuous
 62
     7
370
    15
100
AcDbLine
 10
4.157037133632502
 20
6.906892546578513
 30
0.0
 11
4.068648741680213
 21
6.883212319517789
 31
0.0
  0
LWPOLYLINE
  5
1F8
330
1F
100
AcDbEntity
  8
0
  6
Continuous
 62
     7
370
    15
100
AcDbPolyline
 90
       10
 70
   128
 43
0.0
 10
4.179134153839727
 20
6.882704988652156
 10
4.178798451702351
 20
6.887843206835841
 10
4.177801612362078
 20
6.892645403341796
 10
4.176173711079904
 20
6.896965685570834
 10
4.173964423890367
 20
6.900672738214429
 10
4.171240849737825
 20
6.903654044097791
 10
4.168085643736115
 20
6.905818916645419
 10
4.164594735597027
 20
6.907101633163929
 10
4.160874218396416
 20
6.907463144769969
 10
4.157037133632502
 20
6.906892546578513
  0
LINE
  5
1F9
330
1F
100
AcDbEntity
  8
0
  6
Continuous
 62
     7
370
    15
100
AcDbLine
 10
4.179134153839727
 20
6.822489730294061
 30
0.0
 11
4.179134153839727
 21
6.882704988652156
 31
0.0
  0
LWPOLYLINE
  5
1FA
330
1F
100
AcDbEntity
  8
0
  6
Continuous
 62
     7
370
    15
100
AcDbPolyline
 90
       10
 70
   128
 43
0.0
 10
4.201231277754748
 20
6.79830220015217
 10
4.197394192990834
 20
6.797731601960713
 10
4.193673675790224
 20
6.798093184218472
 10
4.190182767651136
 20
6.799375830085264
 10
4.187027561649425
 20
6.801540702632891
 10
4.184303883789087
 20
6.804521980731789
 10
4.18209459659955
 20
6.808229104027101
 10
4.180466799025173
 20
6.812549414040605
 10
4.179469855977103
 20
6.817351582762095
 10
4.179134153839727
 20
6.822489730294061
  0
LINE
  5
1FB
330
1F
100
AcDbEntity
  8
0
  6
Continuous
 62
     7
370
    15
100
AcDbLine
 10
4.289619669707038
 20
6.821982427212893
 30
0.0
 11
4.201231277754748
 21
6.79830220015217
 31
0.0
  0
ARC
  5
1FC
330
1F
100
AcDbEntity
  8
0
  6
Continuous
 62
     7
370
    15
100
AcDbCircle
 10
4.27513415501681
 20
6.855657163048476
 30
0.0
 40
0.036658122830242
100
AcDbArc
 50
293.2754272589923
 51
3.680047350644455
  0
LINE
  5
1FD
330
1F
100
AcDbEntity
  8
0
  6
Continuous
 62
     7
370
    15
100
AcDbLine
 10
4.311716689914263
 20
6.918225315351008
 30
0.0
 11
4.311716689914263
 21
6.858010056992913
 31
0.0
  0
ARC
  5
1FE
330
1F
100
AcDbEntity
  8
0
  6
Continuous
 62
     7
370
    15
100
AcDbCircle
 10
4.348725519876672
 20
6.920316730694501
 30
0.0
 40
0.0370678771084279
100
AcDbArc
 50
113.7208581596028
 51
183.2344161446755
  0
LINE
  5
1FF
330
1F
100
AcDbEntity
  8
0
  6
Continuous
 62
     7
370
    15
100
AcDbLine
 10
4.422202102073777
 20
6.97793317219175
 30
0.0
 11
4.333813813829284
 21
6.954252972915492
 31
0.0
  0
LINE
  5
200
330
1F
100
AcDbEntity
  8
0
  6
Continuous
 62
     7
370
    15
100
AcDbLine
 10
4.422202102073777
 20
6.195135237446833
 30
0.0
 11
4.422202102073777
 21
6.97793317219175
 31
0.0
  0
LINE
  5
201
330
1F
100
AcDbEntity
  8
0
  6
Continuous
 62
     7
370
    15
100
AcDbLine
 10
4.333813813829284
 20
6.171455038170575
 30
0.0
 11
4.422202102073777
 21
6.195135237446833
 31
0.0
  0
ARC
  5
202
330
1F
100
AcDbEntity
  8
0
  6
Continuous
 62
     7
370
    15
100
AcDbCircle
 10
4.348299466545762
 20
6.13778010825161
 30
0.0
 40
0.036658355659654
100
AcDbArc
 50
113.2755055647981
 51
183.6798188158108
  0
LINE
  5
203
330
1F
100
AcDbEntity
  8
0
  6
Continuous
 62
     7
370
    15
100
AcDbLine
 10
4.311716689914263
 20
6.075212122247996
 30
0.0
 11
4.311716689914263
 21
6.135427345280231
 31
0.0
  0
ARC
  5
204
330
1F
100
AcDbEntity
  8
0
  6
Continuous
 62
     7
370
    15
100
AcDbCircle
 10
4.274707985315916
 20
6.073120596623893
 30
0.0
 40
0.0370677581664175
100
AcDbArc
 50
293.720902380407
 51
3.234597267376169
  0
LINE
  5
205
330
1F
100
AcDbEntity
  8
0
  6
Continuous
 62
     7
370
    15
100
AcDbLine
 10
4.201231277754748
 20
6.015504247744324
 30
0.0
 11
4.289619669707038
 21
6.039184474805047
 31
0.0
  0
LWPOLYLINE
  5
206
330
1F
100
AcDbEntity
  8
0
  6
Continuous
 62
     7
370
    15
100
AcDbPolyline
 90
       10
 70
   128
 43
0.0
 10
4.179134153839727
 20
6.039691795549145
 10
4.179469855977103
 20
6.034553612691319
 10
4.180466799025173
 20
6.029751408643969
 10
4.18209459659955
 20
6.025431116293396
 10
4.184303883789087
 20
6.021724010661013
 10
4.187027561649425
 20
6.018742750225045
 10
4.190182767651136
 20
6.016577877677416
 10
4.193673675790224
 20
6.015295196484767
 10
4.197394192990834
 20
6.014933649552867
 10
4.201231277754748
 20
6.015504247744324
  0
LINE
  5
207
330
1F
100
AcDbEntity
  8
0
  6
Continuous
 62
     7
370
    15
100
AcDbLine
 10
4.179134153839727
 20
6.099907018581379
 30
0.0
 11
4.179134153839727
 21
6.039691795549145
 31
0.0
  0
LWPOLYLINE
  5
208
330
1F
100
AcDbEntity
  8
0
  6
Continuous
 62
     7
370
    15
100
AcDbPolyline
 90
       10
 70
   128
 43
0.0
 10
4.157037133632502
 20
6.124094611833595
 10
4.160874218396416
 20
6.124665210025051
 10
4.164594735597027
 20
6.124303663093153
 10
4.168085643736115
 20
6.123020946574643
 10
4.171240849737825
 20
6.120856074027016
 10
4.173964423890367
 20
6.117874803469511
 10
4.176173711079904
 20
6.1141676801742
 10
4.177801612362078
 20
6.109847433271021
 10
4.178798451702351
 20
6.105045201439205
 10
4.179134153839727
 20
6.099907018581379
  0
LINE
  5
209
330
1F
100
AcDbEntity
  8
0
  6
Continuous
 62
     7
370
    15
100
AcDbLine
 10
4.068648741680213
 20
6.100414384772872
 30
0.0
 11
4.157037133632502
 21
6.124094611833595
 31
0.0
  0
ARC
  5
20A
330
1F
100
AcDbEntity
  8
0
  6
Continuous
 62
     7
370
    15
100
AcDbCircle
 10
4.083134208456548
 20
6.066739676017466
 30
0.0
 40
0.036658079020724
100
AcDbArc
 50
113.2753751904174
 51
183.6801494954936
  0
LINE
  5
20B
330
1F
100
AcDbEntity
  8
0
  6
Continuous
 62
     7
370
    15
100
AcDbLine
 10
4.046551721472988
 20
6.004171496634758
 30
0.0
 11
4.046551721472988
 21
6.064386719666993
 31
0.0
  0
ARC
  5
20C
330
1F
100
AcDbEntity
  8
0
  6
Continuous
 62
     7
370
    15
100
AcDbCircle
 10
4.009542627956988
 20
6.002080226300975
 30
0.0
 40
0.0370681320609091
100
AcDbArc
 50
293.7211299649677
 51
3.23416937748507
  0
LINE
  5
20D
330
1F
100
AcDbEntity
  8
0
  6
Continuous
 62
     7
370
    15
100
AcDbLine
 10
3.936066205605677
 20
5.94446359434662
 30
0.0
 11
4.024454597557967
 21
5.968143821407344
 31
0.0
  0
LWPOLYLINE
  5
20E
330
1F
100
AcDbEntity
  8
0
  6
Continuous
 62
     7
370
    15
100
AcDbPolyline
 90
       10
 70
   128
 43
0.0
 10
3.913969185398452
 20
5.968651169935906
 10
3.914304783828032
 20
5.963512959293616
 10
3.915301726876101
 20
5.958710755246266
 10
3.916929628158275
 20
5.954390490680157
 10
3.919138915347812
 20
5.950683385047774
 10
3.921862489500353
 20
5.947702096827341
 10
3.925017695502065
 20
5.945537224279714
 10
3.928508603641152
 20
5.944254543087064
 10
3.932229120841764
 20
5.943892996155164
 10
3.936066205605677
 20
5.94446359434662
  0
LINE
  5
20F
330
1F
100
AcDbEntity
  8
0
  6
Continuous
 62
     7
370
    15
100
AcDbLine
 10
3.913969185398452
 20
6.028866392968142
 30
0.0
 11
3.913969185398452
 21
5.968651169935906
 31
0.0
  0
LWPOLYLINE
  5
210
330
1F
100
AcDbEntity
  8
0
  6
Continuous
 62
     7
370
    15
100
AcDbPolyline
 90
       10
 70
   128
 43
0.0
 10
3.891872165191228
 20
6.053053986220356
 10
3.895709146247344
 20
6.053624556627348
 10
3.899429767155752
 20
6.053263037479914
 10
3.902920571587043
 20
6.051980293176939
 10
3.906075777588754
 20
6.049815420629312
 10
3.908799351741296
 20
6.046834150071808
 10
3.911008742638629
 20
6.043127054560961
 10
3.912636540213007
 20
6.038806779873317
 10
3.913633379553279
 20
6.034004548041501
 10
3.913969185398452
 20
6.028866392968142
  0
LINE
  5
211
330
1F
100
AcDbEntity
  8
0
  6
Continuous
 62
     7
370
    15
100
AcDbLine
 10
3.803483669531141
 20
6.029373731375168
 30
0.0
 11
3.891872165191228
 21
6.053053986220356
 31
0.0
  0
ARC
  5
212
330
1F
100
AcDbEntity
  8
0
  6
Continuous
 62
     7
370
    15
100
AcDbCircle
 10
3.817969476336685
 20
5.995698814068024
 30
0.0
 40
0.0366584049632624
100
AcDbArc
 50
113.2757345893759
 51
183.6797900965404
  0
LINE
  5
213
330
1F
100
AcDbEntity
  8
0
  6
Continuous
 62
     7
370
    15
100
AcDbLine
 10
3.781386649323917
 20
5.933130843237054
 30
0.0
 11
3.781386649323917
 21
5.993346066269289
 31
0.0
  0
ARC
  5
214
330
1F
100
AcDbEntity
  8
0
  6
Continuous
 62
     7
370
    15
100
AcDbCircle
 10
3.744377581884515
 20
5.9310395401561
 30
0.0
 40
0.0370681078733541
100
AcDbArc
 50
293.7212774600041
 51
3.234222187779919
  0
LINE
  5
215
330
1F
100
AcDbEntity
  8
0
  6
Continuous
 62
     7
370
    15
100
AcDbLine
 10
3.670901133456606
 20
5.873422940948916
 30
0.0
 11
3.759289629116691
 21
5.897103195794104
 31
0.0
  0
LINE
  5
216
330
1F
100
AcDbEntity
  8
0
  6
Continuous
 62
     7
370
    15
100
AcDbLine
 10
3.670901133456606
 20
6.656220893356763
 30
0.0
 11
3.670901133456606
 21
5.873422940948916
 31
0.0
  0
LINE
  5
217
330
1F
100
AcDbEntity
  8
0
  6
Continuous
 62
     7
370
    15
100
AcDbLine
 10
3.759289629116691
 20
6.679901148201951
 30
0.0
 11
3.752218561341669
 21
6.681795565407376
 31
0.0
  0
LINE
  5
218
330
1F
100
AcDbEntity
  8
0
  6
Continuous
 62
     7
370
    15
100
AcDbLine
 10
3.670901133456606
 20
6.656220893356763
 30
0.0
 11
3.663830065681583
 21
6.658115310562188
 31
0.0
  0
LINE
  5
219
330
1F
100
AcDbEntity
  8
0
  6
Continuous
 62
     7
370
    15
100
AcDbLine
 10
3.752218561341669
 20
6.681795565407376
 30
0.0
 11
3.663830065681583
 21
6.658115310562188
 31
0.0
  0
LINE
  5
21A
330
1F
100
AcDbEntity
  8
0
  6
Continuous
 62
     7
370
    15
100
AcDbLine
 10
3.670901133456606
 20
5.873422940948916
 30
0.0
 11
3.663830065681583
 21
5.875317358154342
 31
0.0
  0
LINE
  5
21B
330
1F
100
AcDbEntity
  8
0
  6
Continuous
 62
     7
370
    15
100
AcDbLine
 10
3.663830065681583
 20
6.658115310562188
 30
0.0
 11
3.663830065681583
 21
5.875317358154342
 31
0.0
  0
LINE
  5
21C
330
1F
100
AcDbEntity
  8
0
  6
Continuous
 62
     7
370
    15
100
AcDbLine
 10
3.803483669531141
 20
6.812171666120085
 30
0.0
 11
3.796412601756118
 21
6.814066083325511
 31
0.0
  0
LINE
  5
21D
330
1F
100
AcDbEntity
  8
0
  6
Continuous
 62
     7
370
    15
100
AcDbLine
 10
3.781386649323917
 20
6.776144036340066
 30
0.0
 11
3.774315581548893
 21
6.778038453545491
 31
0.0
  0
ARC
  5
21E
330
1F
100
AcDbEntity
  8
0
  6
Continuous
 62
     7
370
    15
100
AcDbCircle
 10
3.811324335519481
 20
6.780129932250311
 30
0.0
 40
0.0370678048126437
100
AcDbArc
 50
113.7209540559645
 51
183.2345205536727
  0
LINE
  5
21F
330
1F
100
AcDbEntity
  8
0
  6
Continuous
 62
     7
370
    15
100
AcDbLine
 10
3.781386649323917
 20
6.715928777981972
 30
0.0
 11
3.774315581548893
 21
6.717823195187397
 31
0.0
  0
ARC
  5
220
330
1F
100
AcDbEntity
  8
0
  6
Continuous
 62
     7
370
    15
100
AcDbCircle
 10
3.737732706620784
 20
6.715470509795792
 30
0.0
 40
0.0366584487745667
100
AcDbArc
 50
293.2757866584618
 51
3.67968795117685
  0
LINE
  5
221
330
1F
100
AcDbEntity
  8
0
  6
Continuous
 62
     7
370
    15
100
AcDbLine
 10
3.774315581548893
 20
6.778038453545491
 30
0.0
 11
3.774315581548893
 21
6.717823195187397
 31
0.0
  0
LINE
  5
222
330
1F
100
AcDbEntity
  8
0
  6
Continuous
 62
     7
370
    15
100
AcDbLine
 10
3.891872165191228
 20
6.835851920965273
 30
0.0
 11
3.884801097416204
 21
6.837746338170698
 31
0.0
  0
LINE
  5
223
330
1F
100
AcDbEntity
  8
0
  6
Continuous
 62
     7
370
    15
100
AcDbLine
 10
3.884801097416204
 20
6.837746338170698
 30
0.0
 11
3.796412601756118
 21
6.814066083325511
 31
0.0
  0
ARC
  5
224
330
1F
100
AcDbEntity
  8
0
  6
Continuous
 62
     7
370
    15
100
AcDbCircle
 10
3.888986922730078
 20
6.822993049565031
 30
0.0
 40
0.0153356010068201
100
AcDbArc
 50
75.26302965406673
 51
105.8397799428023
  0
LINE
  5
225
330
1F
100
AcDbEntity
  8
0
  6
Continuous
 62
     7
370
    15
100
AcDbLine
 10
3.936066205605677
 20
6.727261546754466
 30
0.0
 11
3.928995137830654
 21
6.729155963959893
 31
0.0
  0
LWPOLYLINE
  5
226
330
1F
100
AcDbEntity
  8
0
  6
Continuous
 62
     7
370
    15
100
AcDbPolyline
 90
        3
 70
   128
 43
0.0
 10
3.928995137830654
 20
6.729155963959893
 10
3.92515805306674
 20
6.728585365768435
 10
3.924564118515997
 20
6.728580406187359
  0
LINE
  5
227
330
1F
100
AcDbEntity
  8
0
  6
Continuous
 62
     7
370
    15
100
AcDbLine
 10
4.024454597557967
 20
6.75094177381519
 30
0.0
 11
4.017383529782943
 21
6.752836191020615
 31
0.0
  0
LINE
  5
228
330
1F
100
AcDbEntity
  8
0
  6
Continuous
 62
     7
370
    15
100
AcDbLine
 10
4.017383529782943
 20
6.752836191020615
 30
0.0
 11
3.928995137830654
 21
6.729155963959893
 31
0.0
  0
LINE
  5
229
330
1F
100
AcDbEntity
  8
0
  6
Continuous
 62
     7
370
    15
100
AcDbLine
 10
4.068648741680213
 20
6.883212319517789
 30
0.0
 11
4.06157767390519
 21
6.885106736723214
 31
0.0
  0
LINE
  5
22A
330
1F
100
AcDbEntity
  8
0
  6
Continuous
 62
     7
370
    15
100
AcDbLine
 10
4.046551721472988
 20
6.84718468973777
 30
0.0
 11
4.039480653697965
 21
6.849079106943195
 31
0.0
  0
ARC
  5
22B
330
1F
100
AcDbEntity
  8
0
  6
Continuous
 62
     7
370
    15
100
AcDbCircle
 10
4.076489297053877
 20
6.851170653491909
 30
0.0
 40
0.0370676982022162
100
AcDbArc
 50
113.7208397091878
 51
183.2346349004485
  0
LINE
  5
22C
330
1F
100
AcDbEntity
  8
0
  6
Continuous
 62
     7
370
    15
100
AcDbLine
 10
4.046551721472988
 20
6.786969431379675
 30
0.0
 11
4.039480653697965
 21
6.7888638485851
 31
0.0
  0
ARC
  5
22D
330
1F
100
AcDbEntity
  8
0
  6
Continuous
 62
     7
370
    15
100
AcDbCircle
 10
4.002897752951685
 20
6.78651119475695
 30
0.0
 40
0.0366584725138302
100
AcDbArc
 50
293.2756381736476
 51
3.67963613063454
  0
LINE
  5
22E
330
1F
100
AcDbEntity
  8
0
  6
Continuous
 62
     7
370
    15
100
AcDbLine
 10
4.039480653697965
 20
6.849079106943195
 30
0.0
 11
4.039480653697965
 21
6.7888638485851
 31
0.0
  0
LINE
  5
22F
330
1F
100
AcDbEntity
  8
0
  6
Continuous
 62
     7
370
    15
100
AcDbLine
 10
4.157037133632502
 20
6.906892546578513
 30
0.0
 11
4.149966065857478
 21
6.908786963783938
 31
0.0
  0
LINE
  5
230
330
1F
100
AcDbEntity
  8
0
  6
Continuous
 62
     7
370
    15
100
AcDbLine
 10
4.149966065857478
 20
6.908786963783938
 30
0.0
 11
4.06157767390519
 21
6.885106736723214
 31
0.0
  0
LINE
  5
231
330
1F
100
AcDbEntity
  8
0
  6
Continuous
 62
     7
370
    15
100
AcDbLine
 10
3.913969185398452
 20
6.028866392968142
 30
0.0
 11
3.906898117623429
 21
6.030760810173567
 31
0.0
  0
ARC
  5
232
330
1F
100
AcDbEntity
  8
0
  6
Continuous
 62
     7
370
    15
100
AcDbCircle
 10
3.881590276888488
 20
6.032924442671087
 30
0.0
 40
0.0254001596107089
100
AcDbArc
 50
355.113518166894
 51
54.60273797845909
  0
LINE
  5
233
330
1F
100
AcDbEntity
  8
0
  6
Continuous
 62
     7
370
    15
100
AcDbLine
 10
3.913969185398452
 20
5.968651169935906
 30
0.0
 11
3.906898117623429
 21
5.970545587141332
 31
0.0
  0
LINE
  5
234
330
1F
100
AcDbEntity
  8
0
  6
Continuous
 62
     7
370
    15
100
AcDbLine
 10
3.906898117623429
 20
6.030760810173567
 30
0.0
 11
3.906898117623429
 21
5.970545587141332
 31
0.0
  0
ARC
  5
235
330
1F
100
AcDbEntity
  8
0
  6
Continuous
 62
     7
370
    15
100
AcDbCircle
 10
4.154152018858414
 20
6.89403090146496
 30
0.0
 40
0.0153383042637575
100
AcDbArc
 50
75.2657783666759
 51
105.8374107523576
  0
ARC
  5
236
330
1F
100
AcDbEntity
  8
0
  6
Continuous
 62
     7
370
    15
100
AcDbCircle
 10
3.929321003048512
 20
5.967314607143205
 30
0.0
 40
0.0226544702550005
100
AcDbArc
 50
171.8005185549804
 51
248.2006703549812
  0
LINE
  5
237
330
1F
100
AcDbEntity
  8
0
  6
Continuous
 62
     7
370
    15
100
AcDbLine
 10
4.201231277754748
 20
6.79830220015217
 30
0.0
 11
4.194160209979725
 21
6.800196617357595
 31
0.0
  0
LWPOLYLINE
  5
238
330
1F
100
AcDbEntity
  8
0
  6
Continuous
 62
     7
370
    15
100
AcDbPolyline
 90
        3
 70
   128
 43
0.0
 10
4.194160209979725
 20
6.800196617357595
 10
4.190323125215812
 20
6.799626019166139
 10
4.189729190665069
 20
6.799621059585062
  0
LINE
  5
239
330
1F
100
AcDbEntity
  8
0
  6
Continuous
 62
     7
370
    15
100
AcDbLine
 10
4.289619669707038
 20
6.821982427212893
 30
0.0
 11
4.282548601932015
 21
6.823876844418319
 31
0.0
  0
LINE
  5
23A
330
1F
100
AcDbEntity
  8
0
  6
Continuous
 62
     7
370
    15
100
AcDbLine
 10
4.282548601932015
 20
6.823876844418319
 30
0.0
 11
4.194160209979725
 21
6.800196617357595
 31
0.0
  0
LINE
  5
23B
330
1F
100
AcDbEntity
  8
0
  6
Continuous
 62
     7
370
    15
100
AcDbLine
 10
4.333813813829284
 20
6.954252972915492
 30
0.0
 11
4.326742746054261
 21
6.956147390120918
 31
0.0
  0
LINE
  5
23C
330
1F
100
AcDbEntity
  8
0
  6
Continuous
 62
     7
370
    15
100
AcDbLine
 10
4.311716689914263
 20
6.918225315351008
 30
0.0
 11
4.304645622139239
 21
6.920119732556432
 31
0.0
  0
ARC
  5
23D
330
1F
100
AcDbEntity
  8
0
  6
Continuous
 62
     7
370
    15
100
AcDbCircle
 10
4.34165445210165
 20
6.922211147899924
 30
0.0
 40
0.0370678771084308
100
AcDbArc
 50
113.7208581596036
 51
183.2344161446726
  0
LINE
  5
23E
330
1F
100
AcDbEntity
  8
0
  6
Continuous
 62
     7
370
    15
100
AcDbLine
 10
4.311716689914263
 20
6.858010056992913
 30
0.0
 11
4.304645622139239
 21
6.859904474198339
 31
0.0
  0
ARC
  5
23F
330
1F
100
AcDbEntity
  8
0
  6
Continuous
 62
     7
370
    15
100
AcDbCircle
 10
4.268063087241787
 20
6.857551580253901
 30
0.0
 40
0.0366581228302412
100
AcDbArc
 50
293.2754272589928
 51
3.680047350645929
  0
LINE
  5
240
330
1F
100
AcDbEntity
  8
0
  6
Continuous
 62
     7
370
    15
100
AcDbLine
 10
4.304645622139239
 20
6.920119732556432
 30
0.0
 11
4.304645622139239
 21
6.859904474198339
 31
0.0
  0
LINE
  5
241
330
1F
100
AcDbEntity
  8
0
  6
Continuous
 62
     7
370
    15
100
AcDbLine
 10
4.422202102073777
 20
6.97793317219175
 30
0.0
 11
4.415131034298753
 21
6.979827589397176
 31
0.0
  0
LINE
  5
242
330
1F
100
AcDbEntity
  8
0
  6
Continuous
 62
     7
370
    15
100
AcDbLine
 10
4.415131034298753
 20
6.979827589397176
 30
0.0
 11
4.326742746054261
 21
6.956147390120918
 31
0.0
  0
LINE
  5
243
330
1F
100
AcDbEntity
  8
0
  6
Continuous
 62
     7
370
    15
100
AcDbLine
 10
4.179134153839727
 20
6.099907018581379
 30
0.0
 11
4.172063086064704
 21
6.101801435786805
 31
0.0
  0
ARC
  5
244
330
1F
100
AcDbEntity
  8
0
  6
Continuous
 62
     7
370
    15
100
AcDbCircle
 10
4.146755599311878
 20
6.103965324158697
 30
0.0
 40
0.0253998287126221
100
AcDbArc
 50
355.1128750575253
 51
54.60290015182243
  0
LINE
  5
245
330
1F
100
AcDbEntity
  8
0
  6
Continuous
 62
     7
370
    15
100
AcDbLine
 10
4.179134153839727
 20
6.039691795549145
 30
0.0
 11
4.172063086064704
 21
6.04158621275457
 31
0.0
  0
LINE
  5
246
330
1F
100
AcDbEntity
  8
0
  6
Continuous
 62
     7
370
    15
100
AcDbLine
 10
4.172063086064704
 20
6.101801435786805
 30
0.0
 11
4.172063086064704
 21
6.04158621275457
 31
0.0
  0
ARC
  5
247
330
1F
100
AcDbEntity
  8
0
  6
Continuous
 62
     7
370
    15
100
AcDbCircle
 10
4.194486099789222
 20
6.038355366873108
 30
0.0
 40
0.0226545781156854
100
AcDbArc
 50
171.8009005602335
 51
248.200712474952
  0
ARC
  5
248
330
1F
100
AcDbEntity
  8
0
  6
Continuous
 62
     7
370
    15
100
AcDbCircle
 10
4.260924391483199
 20
6.09966328497935
 30
0.0
 40
0.0233972458409948
100
AcDbArc
 50
78.22536660355996
 51
134.4052366688819
  0
ARC
  5
249
330
1F
100
AcDbEntity
  8
0
  6
Continuous
 62
     7
370
    15
100
AcDbCircle
 10
4.253500402882304
 20
6.070035164416023
 30
0.0
 40
0.0242923742010256
100
AcDbArc
 50
195.5996176883057
 51
250.7248591386754
  0
ARC
  5
24A
330
1F
100
AcDbEntity
  8
0
  6
Continuous
 62
     7
370
    15
100
AcDbCircle
 10
4.281748284602505
 20
6.077792342907968
 30
0.0
 40
0.0519980799821156
100
AcDbArc
 50
138.5381148279667
 51
178.2226032656343
  0
ARC
  5
24B
330
1F
100
AcDbEntity
  8
0
  6
Continuous
 62
     7
370
    15
100
AcDbCircle
 10
4.243529872861588
 20
6.071989519948293
 30
0.0
 40
0.0235672379801239
100
AcDbArc
 50
192.1197931708747
 51
251.8808355102269
  0
ARC
  5
24C
330
1F
100
AcDbEntity
  8
0
  6
Continuous
 62
     7
370
    15
100
AcDbCircle
 10
4.252019263158625
 20
6.100631242653805
 30
0.0
 40
0.0248163558841462
100
AcDbArc
 50
79.79001147395267
 51
135.8844787074272
  0
ARC
  5
24D
330
1F
100
AcDbEntity
  8
0
  6
Continuous
 62
     7
370
    15
100
AcDbCircle
 10
4.393506837533174
 20
6.315829492934408
 30
0.0
 40
0.0233970565168114
100
AcDbArc
 50
78.22504476627807
 51
134.405382182304
  0
ARC
  5
24E
330
1F
100
AcDbEntity
  8
0
  6
Continuous
 62
     7
370
    15
100
AcDbCircle
 10
4.386082709542301
 20
6.286200980387206
 30
0.0
 40
0.0242920953807753
100
AcDbArc
 50
195.59927443294
 51
250.7252023940454
  0
ARC
  5
24F
330
1F
100
AcDbEntity
  8
0
  6
Continuous
 62
     7
370
    15
100
AcDbCircle
 10
4.414331573890682
 20
6.293958132448728
 30
0.0
 40
0.0519988403267969
100
AcDbArc
 50
138.538592642718
 51
178.2223629458948
  0
ARC
  5
250
330
1F
100
AcDbEntity
  8
0
  6
Continuous
 62
     7
370
    15
100
AcDbCircle
 10
4.376112380571388
 20
6.288155535546366
 30
0.0
 40
0.0235672144052929
100
AcDbArc
 50
192.119854719427
 51
251.8808893131341
  0
ARC
  5
251
330
1F
100
AcDbEntity
  8
0
  6
Continuous
 62
     7
370
    15
100
AcDbCircle
 10
4.384601799233162
 20
6.31679723844936
 30
0.0
 40
0.0248163558841488
100
AcDbArc
 50
79.79001147395376
 51
135.8844787074242
  0
ARC
  5
252
330
1F
100
AcDbEntity
  8
0
  6
Continuous
 62
     7
370
    15
100
AcDbCircle
 10
6.559020671886148
 20
8.989905905936472
 30
0.0
 40
0.0233947296484061
100
AcDbArc
 50
78.22230069921168
 51
134.4088315438471
  0
ARC
  5
253
330
1F
100
AcDbEntity
  8
0
  6
Continuous
 62
     7
370
    15
100
AcDbCircle
 10
6.551599792869908
 20
8.960277307934363
 30
0.0
 40
0.0242953146927975
100
AcDbArc
 50
195.6034289015354
 51
250.7212942788324
  0
ARC
  5
254
330
1F
100
AcDbEntity
  8
0
  6
Continuous
 62
     7
370
    15
100
AcDbCircle
 10
6.579846275329358
 20
8.968031881235312
 30
0.0
 40
0.0519990931724789
100
AcDbArc
 50
138.5385139021713
 51
178.2221196874326
  0
ARC
  5
255
330
1F
100
AcDbEntity
  8
0
  6
Continuous
 62
     7
370
    15
100
AcDbCircle
 10
6.54162844818992
 20
8.962230659137757
 30
0.0
 40
0.0235689395677826
100
AcDbArc
 50
192.1219103315987
 51
251.8781361752906
  0
ARC
  5
256
330
1F
100
AcDbEntity
  8
0
  6
Continuous
 62
     7
370
    15
100
AcDbCircle
 10
6.55011553893652
 20
8.99087353817501
 30
0.0
 40
0.0248141276825939
100
AcDbArc
 50
79.78740720642971
 51
135.8874132153479
  0
ARC
  5
257
330
1F
100
AcDbEntity
  8
0
  6
Continuous
 62
     7
370
    15
100
AcDbCircle
 10
7.133545502110003
 20
7.262099227615983
 30
0.0
 40
0.0233968046021074
100
AcDbArc
 50
78.22471550420937
 51
134.4057114443794
  0
ARC
  5
258
330
1F
100
AcDbEntity
  8
0
  6
Continuous
 62
     7
370
    15
100
AcDbCircle
 10
7.126122710945594
 20
7.232471619493857
 30
0.0
 40
0.0242936226184088
100
AcDbArc
 50
195.6011545040727
 51
250.7233223229036
  0
ARC
  5
259
330
1F
100
AcDbEntity
  8
0
  6
Continuous
 62
     7
370
    15
100
AcDbCircle
 10
7.154369456914376
 20
7.240227803454836
 30
0.0
 40
0.0519979732619007
100
AcDbArc
 50
138.5380686124084
 51
178.2225649771975
  0
ARC
  5
25A
330
1F
100
AcDbEntity
  8
0
  6
Continuous
 62
     7
370
    15
100
AcDbCircle
 10
7.116150711266741
 20
7.234424480395637
 30
0.0
 40
0.0235665955117921
100
AcDbArc
 50
192.1188251026773
 51
251.8814521063102
  0
ARC
  5
25B
330
1F
100
AcDbEntity
  8
0
  6
Continuous
 62
     7
370
    15
100
AcDbCircle
 10
7.12464092971005
 20
7.263065495893905
 30
0.0
 40
0.0248174717989984
100
AcDbArc
 50
79.79138403281339
 51
135.8831061485687
  0
ARC
  5
25C
330
1F
100
AcDbEntity
  8
0
  6
Continuous
 62
     7
370
    15
100
AcDbCircle
 10
7.00096320051857
 20
7.407223995055519
 30
0.0
 40
0.0233973541939908
100
AcDbArc
 50
78.22558260865972
 51
134.4051969874823
  0
ARC
  5
25D
330
1F
100
AcDbEntity
  8
0
  6
Continuous
 62
     7
370
    15
100
AcDbCircle
 10
6.993541001452212
 20
7.377597701752685
 30
0.0
 40
0.0242946272297628
100
AcDbArc
 50
195.6023910615779
 51
250.7220857653963
  0
ARC
  5
25E
330
1F
100
AcDbEntity
  8
0
  6
Continuous
 62
     7
370
    15
100
AcDbCircle
 10
7.021787051150023
 20
7.385353133005675
 30
0.0
 40
0.0519981028121641
100
AcDbArc
 50
138.5381239056509
 51
178.222594187954
  0
ARC
  5
25F
330
1F
100
AcDbEntity
  8
0
  6
Continuous
 62
     7
370
    15
100
AcDbCircle
 10
6.983569117350839
 20
7.379550615760792
 30
0.0
 40
0.023567675739128
100
AcDbArc
 50
192.1201451026836
 51
251.8799014042067
  0
ARC
  5
260
330
1F
100
AcDbEntity
  8
0
  6
Continuous
 62
     7
370
    15
100
AcDbCircle
 10
6.992057995477203
 20
7.408192281703068
 30
0.0
 40
0.0248161565799715
100
AcDbArc
 50
79.78990313028551
 51
135.8849172915
  0
ARC
  5
261
330
1F
100
AcDbEntity
  8
0
  6
Continuous
 62
     7
370
    15
100
AcDbCircle
 10
3.995759239114718
 20
6.028622905638921
 30
0.0
 40
0.023396993920654
100
AcDbArc
 50
78.22503734002127
 51
134.4055659324302
  0
ARC
  5
262
330
1F
100
AcDbEntity
  8
0
  6
Continuous
 62
     7
370
    15
100
AcDbCircle
 10
3.988337105913903
 20
5.998996175823619
 30
0.0
 40
0.0242945317063245
100
AcDbArc
 50
195.6022734885484
 51
250.7222033384315
  0
ARC
  5
263
330
1F
100
AcDbEntity
  8
0
  6
Continuous
 62
     7
370
    15
100
AcDbCircle
 10
4.016583212453421
 20
6.006751689510271
 30
0.0
 40
0.0519980799821019
100
AcDbArc
 50
138.5381148279638
 51
178.2226032656407
  0
ARC
  5
264
330
1F
100
AcDbEntity
  8
0
  6
Continuous
 62
     7
370
    15
100
AcDbCircle
 10
3.978365269869777
 20
6.000949144167498
 30
0.0
 40
0.0235676477384969
100
AcDbArc
 50
192.1202004696358
 51
251.879961388175
  0
ARC
  5
265
330
1F
100
AcDbEntity
  8
0
  6
Continuous
 62
     7
370
    15
100
AcDbCircle
 10
3.986854578312692
 20
6.029589385636758
 30
0.0
 40
0.0248174717990353
100
AcDbArc
 50
79.79138403285498
 51
135.8831061485188
  0
ARC
  5
266
330
1F
100
AcDbEntity
  8
0
  6
Continuous
 62
     7
370
    15
100
AcDbCircle
 10
4.260924481511792
 20
6.701815373782364
 30
0.0
 40
0.0233974351764081
100
AcDbArc
 50
78.2256884510755
 51
134.4050911450663
  0
ARC
  5
267
330
1F
100
AcDbEntity
  8
0
  6
Continuous
 62
     7
370
    15
100
AcDbCircle
 10
4.253500481477325
 20
6.672187503772454
 30
0.0
 40
0.0242924697221275
100
AcDbArc
 50
195.5997352821895
 51
250.7247415447889
  0
ARC
  5
268
330
1F
100
AcDbEntity
  8
0
  6
Continuous
 62
     7
370
    15
100
AcDbCircle
 10
4.281748154796571
 20
6.679944660001464
 30
0.0
 40
0.0519979486430057
100
AcDbArc
 50
138.5380626047555
 51
178.2226554888468
  0
ARC
  5
269
330
1F
100
AcDbEntity
  8
0
  6
Continuous
 62
     7
370
    15
100
AcDbCircle
 10
4.243529905021786
 20
6.674141804537335
 30
0.0
 40
0.0235672659833654
100
AcDbArc
 50
192.1197378083781
 51
251.8807755215201
  0
ARC
  5
26A
330
1F
100
AcDbEntity
  8
0
  6
Continuous
 62
     7
370
    15
100
AcDbCircle
 10
4.252019263158621
 20
6.702783543627888
 30
0.0
 40
0.0248163558841346
100
AcDbArc
 50
79.7900114739395
 51
135.8844787074436
  0
ARC
  5
26B
330
1F
100
AcDbEntity
  8
0
  6
Continuous
 62
     7
370
    15
100
AcDbCircle
 10
6.691603749764145
 20
7.504989486074719
 30
0.0
 40
0.0233968046020989
100
AcDbArc
 50
78.22471550419641
 51
134.4057114443884
  0
ARC
  5
26C
330
1F
100
AcDbEntity
  8
0
  6
Continuous
 62
     7
370
    15
100
AcDbCircle
 10
6.68418178518086
 20
7.475362653139388
 30
0.0
 40
0.0242946272297216
100
AcDbArc
 50
195.6023910615333
 51
250.7220857654512
  0
ARC
  5
26D
330
1F
100
AcDbEntity
  8
0
  6
Continuous
 62
     7
370
    15
100
AcDbCircle
 10
6.712427942122071
 20
7.483118041889223
 30
0.0
 40
0.051998211322251
100
AcDbArc
 50
138.5381670513076
 51
178.2225510422982
  0
ARC
  5
26E
330
1F
100
AcDbEntity
  8
0
  6
Continuous
 62
     7
370
    15
100
AcDbCircle
 10
6.674209836763885
 20
7.477315529271592
 30
0.0
 40
0.0235676197388456
100
AcDbArc
 50
192.1202558380393
 51
251.8800213709403
  0
ARC
  5
26F
330
1F
100
AcDbEntity
  8
0
  6
Continuous
 62
     7
370
    15
100
AcDbCircle
 10
6.682699155447102
 20
7.50595582246424
 30
0.0
 40
0.024817408650118
100
AcDbArc
 50
79.79130636438352
 51
135.8831838170036
  0
ARC
  5
270
330
1F
100
AcDbEntity
  8
0
  6
Continuous
 62
     7
370
    15
100
AcDbCircle
 10
6.559021501262865
 20
7.288822733947541
 30
0.0
 40
0.0233975209175841
100
AcDbArc
 50
78.2258005121807
 51
134.4049790839583
  0
ARC
  5
271
330
1F
100
AcDbEntity
  8
0
  6
Continuous
 62
     7
370
    15
100
AcDbCircle
 10
6.551599249106338
 20
7.259196622017984
 30
0.0
 40
0.024294627229739
100
AcDbArc
 50
195.6023910615525
 51
250.722085765426
  0
ARC
  5
272
330
1F
100
AcDbEntity
  8
0
  6
Continuous
 62
     7
370
    15
100
AcDbCircle
 10
6.579846006450424
 20
7.266951772813373
 30
0.0
 40
0.0519988188174325
100
AcDbArc
 50
138.538408599304
 51
178.2223094943017
  0
ARC
  5
273
330
1F
100
AcDbEntity
  8
0
  6
Continuous
 62
     7
370
    15
100
AcDbCircle
 10
6.541627365004981
 20
7.261149536026105
 30
0.0
 40
0.0235676757391241
100
AcDbArc
 50
192.1201451026817
 51
251.8799014042129
  0
ARC
  5
274
330
1F
100
AcDbEntity
  8
0
  6
Continuous
 62
     7
370
    15
100
AcDbCircle
 10
6.550116243131348
 20
7.289791201968394
 30
0.0
 40
0.0248161565799629
100
AcDbArc
 50
79.78990313027749
 51
135.8849172915104
  0
ARC
  5
275
330
1F
100
AcDbEntity
  8
0
  6
Continuous
 62
     7
370
    15
100
AcDbCircle
 10
6.69160374976415
 20
7.143698147881293
 30
0.0
 40
0.023396804602113
100
AcDbArc
 50
78.22471550421673
 51
134.4057114443719
  0
ARC
  5
276
330
1F
100
AcDbEntity
  8
0
  6
Continuous
 62
     7
370
    15
100
AcDbCircle
 10
6.684181168928483
 20
7.114070737010309
 30
0.0
 40
0.0242938782469754
100
AcDbArc
 50
195.6014691635598
 51
250.723007663419
  0
ARC
  5
277
330
1F
100
AcDbEntity
  8
0
  6
Continuous
 62
     7
370
    15
100
AcDbCircle
 10
6.712427704568528
 20
7.12182672372015
 30
0.0
 40
0.0519979732619069
100
AcDbArc
 50
138.5380686124101
 51
178.2225649771948
  0
ARC
  5
278
330
1F
100
AcDbEntity
  8
0
  6
Continuous
 62
     7
370
    15
100
AcDbCircle
 10
6.674209246357324
 20
7.116023659471141
 30
0.0
 40
0.0235669308778592
100
AcDbArc
 50
192.1192935890642
 51
251.8809836199216
  0
ARC
  5
279
330
1F
100
AcDbEntity
  8
0
  6
Continuous
 62
     7
370
    15
100
AcDbCircle
 10
6.682699155447099
 20
7.144664484270836
 30
0.0
 40
0.0248174086501105
100
AcDbArc
 50
79.79130636437216
 51
135.8831838170097
  0
ARC
  5
27A
330
1F
100
AcDbEntity
  8
0
  6
Continuous
 62
     7
370
    15
100
AcDbCircle
 10
7.000962911603449
 20
7.768516058841065
 30
0.0
 40
0.023396633664183
100
AcDbArc
 50
78.22449207724481
 51
134.4059348713409
  0
ARC
  5
27B
330
1F
100
AcDbEntity
  8
0
  6
Continuous
 62
     7
370
    15
100
AcDbCircle
 10
6.993541230817595
 20
7.73888935385631
 30
0.0
 40
0.0242949325738279
100
AcDbArc
 50
195.602958603679
 51
250.7217645766884
  0
ARC
  5
27C
330
1F
100
AcDbEntity
  8
0
  6
Continuous
 62
     7
370
    15
100
AcDbCircle
 10
7.021786521669182
 20
7.746644677573449
 30
0.0
 40
0.0519975693765534
100
AcDbArc
 50
138.5379080177749
 51
178.2227255718242
  0
ARC
  5
27D
330
1F
100
AcDbEntity
  8
0
  6
Continuous
 62
     7
370
    15
100
AcDbCircle
 10
6.983569019539864
 20
7.740841936536452
 30
0.0
 40
0.0235675616172305
100
AcDbArc
 50
192.1199856942095
 51
251.8800608126805
  0
ARC
  5
27E
330
1F
100
AcDbEntity
  8
0
  6
Continuous
 62
     7
370
    15
100
AcDbCircle
 10
6.992057794005496
 20
7.769483833895993
 30
0.0
 40
0.0248159121501218
100
AcDbArc
 50
79.78932883587231
 51
135.8848311044909
  0
ARC
  5
27F
330
1F
100
AcDbEntity
  8
0
  6
Continuous
 62
     7
370
    15
100
AcDbCircle
 10
6.559021212346181
 20
7.650114797736359
 30
0.0
 40
0.0233968003831984
100
AcDbArc
 50
78.22470998986465
 51
134.4057169587203
  0
ARC
  5
280
330
1F
100
AcDbEntity
  8
0
  6
Continuous
 62
     7
370
    15
100
AcDbCircle
 10
6.551599478471726
 20
7.620488274121611
 30
0.0
 40
0.0242949325738083
100
AcDbArc
 50
195.6029586036528
 51
250.7217645767102
  0
ARC
  5
281
330
1F
100
AcDbEntity
  8
0
  6
Continuous
 62
     7
370
    15
100
AcDbCircle
 10
6.57984547697616
 20
7.628243317377939
 30
0.0
 40
0.0519982853879029
100
AcDbArc
 50
138.5381927194713
 51
178.2224408701327
  0
ARC
  5
282
330
1F
100
AcDbEntity
  8
0
  6
Continuous
 62
     7
370
    15
100
AcDbCircle
 10
6.541627267193994
 20
7.622440856801753
 30
0.0
 40
0.0235675616172108
100
AcDbArc
 50
192.1199856941844
 51
251.8800608127054
  0
ARC
  5
283
330
1F
100
AcDbEntity
  8
0
  6
Continuous
 62
     7
370
    15
100
AcDbCircle
 10
6.550116041659627
 20
7.65108275416136
 30
0.0
 40
0.024815912150073
100
AcDbArc
 50
79.78932883581454
 51
135.8848311045507
  0
ARC
  5
284
330
1F
100
AcDbEntity
  8
0
  6
Continuous
 62
     7
370
    15
100
AcDbCircle
 10
7.133545502110001
 20
7.623390565809395
 30
0.0
 40
0.0233968046021063
100
AcDbArc
 50
78.22471550420465
 51
134.4057114443778
  0
ARC
  5
285
330
1F
100
AcDbEntity
  8
0
  6
Continuous
 62
     7
370
    15
100
AcDbCircle
 10
7.126123327191071
 20
7.593763535616464
 30
0.0
 40
0.0242943715906216
100
AcDbArc
 50
195.6020764111187
 51
250.7224004158571
  0
ARC
  5
286
330
1F
100
AcDbEntity
  8
0
  6
Continuous
 62
     7
370
    15
100
AcDbCircle
 10
7.154369694467914
 20
7.601519121623912
 30
0.0
 40
0.0519982113222395
100
AcDbArc
 50
138.5381670513043
 51
178.2225510423017
  0
ARC
  5
287
330
1F
100
AcDbEntity
  8
0
  6
Continuous
 62
     7
370
    15
100
AcDbCircle
 10
7.116151301663478
 20
7.595716350187244
 30
0.0
 40
0.0235672843580803
100
AcDbArc
 50
192.1197873630327
 51
251.8804898459546
  0
ARC
  5
288
330
1F
100
AcDbEntity
  8
0
  6
Continuous
 62
     7
370
    15
100
AcDbCircle
 10
7.124640929710055
 20
7.6243568340873
 30
0.0
 40
0.0248174717990138
100
AcDbArc
 50
79.79138403283039
 51
135.8831061485479
  0
ARC
  5
289
330
1F
100
AcDbEntity
  8
0
  6
Continuous
 62
     7
370
    15
100
AcDbCircle
 10
3.863176796942831
 20
6.17374821392346
 30
0.0
 40
0.023397056516817
100
AcDbArc
 50
78.22504476628757
 51
134.405382182298
  0
ARC
  5
28A
330
1F
100
AcDbEntity
  8
0
  6
Continuous
 62
     7
370
    15
100
AcDbCircle
 10
3.855752518742804
 20
6.144119470941068
 30
0.0
 40
0.0242918887393298
100
AcDbArc
 50
195.5988462104692
 51
250.7251481452021
  0
ARC
  5
28B
330
1F
100
AcDbEntity
  8
0
  6
Continuous
 62
     7
370
    15
100
AcDbCircle
 10
3.884000434497841
 20
6.151877288917609
 30
0.0
 40
0.0519977285457903
100
AcDbArc
 50
138.5381505813055
 51
178.2228050073075
  0
ARC
  5
28C
330
1F
100
AcDbEntity
  8
0
  6
Continuous
 62
     7
370
    15
100
AcDbCircle
 10
3.845782433844833
 20
6.146074261830539
 30
0.0
 40
0.0235673072886632
100
AcDbArc
 50
192.1198193940005
 51
251.8804578149854
  0
ARC
  5
28D
330
1F
100
AcDbEntity
  8
0
  6
Continuous
 62
     7
370
    15
100
AcDbCircle
 10
3.854271384390399
 20
6.174717122500118
 30
0.0
 40
0.0248152775851087
100
AcDbArc
 50
79.7886850480739
 51
135.8858051333099
  0
ARC
  5
28E
330
1F
100
AcDbEntity
  8
0
  6
Continuous
 62
     7
370
    15
100
AcDbCircle
 10
4.128341687929856
 20
6.244789104148739
 30
0.0
 40
0.0233968132793991
100
AcDbArc
 50
78.22472684589226
 51
134.4057001026968
  0
ARC
  5
28F
330
1F
100
AcDbEntity
  8
0
  6
Continuous
 62
     7
370
    15
100
AcDbCircle
 10
4.120919202114301
 20
6.215161794420942
 30
0.0
 40
0.0242939970906467
100
AcDbArc
 50
195.6016154485951
 51
250.7228613783825
  0
ARC
  5
290
330
1F
100
AcDbEntity
  8
0
  6
Continuous
 62
     7
370
    15
100
AcDbCircle
 10
4.149165705936155
 20
6.222917700449872
 30
0.0
 40
0.0519980380367649
100
AcDbArc
 50
138.5380962589525
 51
178.2225795826916
  0
ARC
  5
291
330
1F
100
AcDbEntity
  8
0
  6
Continuous
 62
     7
370
    15
100
AcDbCircle
 10
4.110947490137843
 20
6.217114900951312
 30
0.0
 40
0.0235672887884873
100
AcDbArc
 50
192.1197935517233
 51
251.8804836572626
  0
ARC
  5
292
330
1F
100
AcDbEntity
  8
0
  6
Continuous
 62
     7
370
    15
100
AcDbCircle
 10
4.119437114387221
 20
6.245755381432341
 30
0.0
 40
0.0248174717990114
100
AcDbArc
 50
79.7913840328293
 51
135.8831061485494
  0
ARC
  5
293
330
1F
100
AcDbEntity
  8
0
  6
Continuous
 62
     7
370
    15
100
AcDbCircle
 10
7.22193355978874
 20
9.950303931437103
 30
0.0
 40
0.0233961283886999
100
AcDbArc
 50
78.22353407453788
 51
134.4061875770385
  0
ARC
  5
294
330
1F
100
AcDbEntity
  8
0
  6
Continuous
 62
     7
370
    15
100
AcDbCircle
 10
7.21451032430636
 20
9.920674983227149
 30
0.0
 40
0.0242926788246131
100
AcDbArc
 50
195.6000106073429
 51
250.7242301011785
  0
ARC
  5
295
330
1F
100
AcDbEntity
  8
0
  6
Continuous
 62
     7
370
    15
100
AcDbCircle
 10
7.242757704075177
 20
9.928431805987841
 30
0.0
 40
0.0519979316929454
100
AcDbArc
 50
138.5380520836977
 51
178.2225815058978
  0
ARC
  5
296
330
1F
100
AcDbEntity
  8
0
  6
Continuous
 62
     7
370
    15
100
AcDbCircle
 10
7.204538578858065
 20
9.922628289280927
 30
0.0
 40
0.0235661618297641
100
AcDbArc
 50
192.1187861452677
 51
251.8821831761838
  0
ARC
  5
297
330
1F
100
AcDbEntity
  8
0
  6
Continuous
 62
     7
370
    15
100
AcDbCircle
 10
7.213028859885153
 20
9.951270362125677
 30
0.0
 40
0.0248166454098448
100
AcDbArc
 50
79.78995715716584
 51
135.8835422993099
  0
ARC
  5
298
330
1F
100
AcDbEntity
  8
0
  6
Continuous
 62
     7
370
    15
100
AcDbCircle
 10
7.089351023714203
 20
9.734137900315687
 30
0.0
 40
0.0233961283886986
100
AcDbArc
 50
78.22353407453274
 51
134.4061875770354
  0
ARC
  5
299
330
1F
100
AcDbEntity
  8
0
  6
Continuous
 62
     7
370
    15
100
AcDbCircle
 10
7.081927532996278
 20
9.704508802309929
 30
0.0
 40
0.0242923927083319
100
AcDbArc
 50
195.5998322042053
 51
250.7248909761659
  0
ARC
  5
29A
330
1F
100
AcDbEntity
  8
0
  6
Continuous
 62
     7
370
    15
100
AcDbCircle
 10
7.110174115315704
 20
9.712266260958765
 30
0.0
 40
0.0519967616430507
100
AcDbArc
 50
138.5375868353326
 51
178.2230467542668
  0
ARC
  5
29B
330
1F
100
AcDbEntity
  8
0
  6
Continuous
 62
     7
370
    15
100
AcDbCircle
 10
7.071955926086343
 20
9.706462232297024
 30
0.0
 40
0.0235660423036895
100
AcDbArc
 50
192.1187842322885
 51
251.8826519144353
  0
ARC
  5
29C
330
1F
100
AcDbEntity
  8
0
  6
Continuous
 62
     7
370
    15
100
AcDbCircle
 10
7.080446323810627
 20
9.735104331004231
 30
0.0
 40
0.0248166454098729
100
AcDbArc
 50
79.78995715719839
 51
135.883542299277
  0
ARC
  5
29D
330
1F
100
AcDbEntity
  8
0
  6
Continuous
 62
     7
370
    15
100
AcDbCircle
 10
4.393506837533178
 20
6.917981758582608
 30
0.0
 40
0.023397056516822
100
AcDbArc
 50
78.22504476629237
 51
134.4053821822904
  0
ARC
  5
29E
330
1F
100
AcDbEntity
  8
0
  6
Continuous
 62
     7
370
    15
100
AcDbCircle
 10
4.386083017551882
 20
6.888353534893894
 30
0.0
 40
0.0242924697221551
100
AcDbArc
 50
195.5997352822279
 51
250.7247415447587
  0
ARC
  5
29F
330
1F
100
AcDbEntity
  8
0
  6
Continuous
 62
     7
370
    15
100
AcDbCircle
 10
4.414331639046842
 20
6.896110409336368
 30
0.0
 40
0.0519989051029479
100
AcDbArc
 50
138.5386202890463
 51
178.2223775513446
  0
ARC
  5
2A0
330
1F
100
AcDbEntity
  8
0
  6
Continuous
 62
     7
370
    15
100
AcDbCircle
 10
4.376112482178683
 20
6.89030789268339
 30
0.0
 40
0.0235673329566662
100
AcDbArc
 50
192.1200203207197
 51
251.880723711839
  0
ARC
  5
2A1
330
1F
100
AcDbEntity
  8
0
  6
Continuous
 62
     7
370
    15
100
AcDbCircle
 10
4.384601799233164
 20
6.918949504097567
 30
0.0
 40
0.0248163558841529
100
AcDbArc
 50
79.79001147395961
 51
135.8844787074212
  0
ARC
  5
2A2
330
1F
100
AcDbEntity
  8
0
  6
Continuous
 62
     7
370
    15
100
AcDbCircle
 10
6.559020852292277
 20
9.592056686187158
 30
0.0
 40
0.0233960432081831
100
AcDbArc
 50
78.22342273144399
 51
134.4062989201316
  0
ARC
  5
2A3
330
1F
100
AcDbEntity
  8
0
  6
Continuous
 62
     7
370
    15
100
AcDbCircle
 10
6.55159916410014
 20
9.562429160534565
 30
0.0
 40
0.0242945504887813
100
AcDbArc
 50
195.6024883307649
 51
250.7222348495981
  0
ARC
  5
2A4
330
1F
100
AcDbEntity
  8
0
  6
Continuous
 62
     7
370
    15
100
AcDbCircle
 10
6.579844678670389
 20
9.570184673702533
 30
0.0
 40
0.0519974776529481
100
AcDbArc
 50
138.5378715458725
 51
178.2227620437318
  0
ARC
  5
2A5
330
1F
100
AcDbEntity
  8
0
  6
Continuous
 62
     7
370
    15
100
AcDbCircle
 10
6.541626250769454
 20
9.564381202971459
 30
0.0
 40
0.0235664518561532
100
AcDbArc
 50
192.1191913095066
 51
251.8817780119565
  0
ARC
  5
2A6
330
1F
100
AcDbEntity
  8
0
  6
Continuous
 62
     7
370
    15
100
AcDbCircle
 10
6.550116544949738
 20
9.59302188850828
 30
0.0
 40
0.0248176983560295
100
AcDbArc
 50
79.79125223011635
 51
135.8822472263681
  0
ARC
  5
2A7
330
1F
100
AcDbEntity
  8
0
  6
Continuous
 62
     7
370
    15
100
AcDbCircle
 10
6.956769130359227
 20
9.277109685758825
 30
0.0
 40
0.0233973996870305
100
AcDbArc
 50
78.22579084417118
 51
134.4053413988838
  0
ARC
  5
2A8
330
1F
100
AcDbEntity
  8
0
  6
Continuous
 62
     7
370
    15
100
AcDbCircle
 10
6.949347190762378
 20
9.247483795199253
 30
0.0
 40
0.0242950590565297
100
AcDbArc
 50
195.6031142757603
 51
250.7216089046143
  0
ARC
  5
2A9
330
1F
100
AcDbEntity
  8
0
  6
Continuous
 62
     7
370
    15
100
AcDbCircle
 10
6.977593175900135
 20
9.255238846215259
 30
0.0
 40
0.0519983771596812
100
AcDbArc
 50
138.5382292093245
 51
178.2224043802806
  0
ARC
  5
2AA
330
1F
100
AcDbEntity
  8
0
  6
Continuous
 62
     7
370
    15
100
AcDbCircle
 10
6.939375587083
 20
9.249437065892674
 30
0.0
 40
0.0235685296040764
100
AcDbArc
 50
192.1215028232469
 51
251.8790105066524
  0
ARC
  5
2AB
330
1F
100
AcDbEntity
  8
0
  6
Continuous
 62
     7
370
    15
100
AcDbCircle
 10
6.947864440015506
 20
9.278076204935949
 30
0.0
 40
0.024817852640828
100
AcDbArc
 50
79.79198924526589
 51
135.8828311765295
  0
ARC
  5
2AC
330
1F
100
AcDbEntity
  8
0
  6
Continuous
 62
     7
370
    15
100
AcDbCircle
 10
7.221934279971094
 20
9.34815007452134
 30
0.0
 40
0.0233976429477779
100
AcDbArc
 50
78.22610877758911
 51
134.4050234654666
  0
ARC
  5
2AD
330
1F
100
AcDbEntity
  8
0
  6
Continuous
 62
     7
370
    15
100
AcDbCircle
 10
7.214510953109953
 20
9.318523130653687
 30
0.0
 40
0.0242934430511493
100
AcDbArc
 50
195.6009513678035
 51
250.7232893407016
  0
ARC
  5
2AE
330
1F
100
AcDbEntity
  8
0
  6
Continuous
 62
     7
370
    15
100
AcDbCircle
 10
7.242759300734139
 20
9.326279013520625
 30
0.0
 40
0.0519995472143038
100
AcDbArc
 50
138.5386944287781
 51
178.221939160822
  0
ARC
  5
2AF
330
1F
100
AcDbEntity
  8
0
  6
Continuous
 62
     7
370
    15
100
AcDbCircle
 10
7.204541197886083
 20
9.32047812506831
 30
0.0
 40
0.0235691414577182
100
AcDbArc
 50
192.122192297143
 51
251.8778542097535
  0
ARC
  5
2B0
330
1F
100
AcDbEntity
  8
0
  6
Continuous
 62
     7
370
    15
100
AcDbCircle
 10
7.213029512164564
 20
9.349116858333692
 30
0.0
 40
0.0248178526407912
100
AcDbArc
 50
79.7919892452176
 51
135.88283117657
  0
ARC
  5
2B1
330
1F
100
AcDbEntity
  8
0
  6
Continuous
 62
     7
370
    15
100
AcDbCircle
 10
6.956768410193968
 20
9.879263542628269
 30
0.0
 40
0.0233958851756434
100
AcDbArc
 50
78.22321615790352
 51
134.4065054936723
  0
ARC
  5
2B2
330
1F
100
AcDbEntity
  8
0
  6
Continuous
 62
     7
370
    15
100
AcDbCircle
 10
6.949346561992594
 20
9.84963564779944
 30
0.0
 40
0.0242942948546853
100
AcDbArc
 50
195.6021736851731
 51
250.7225494951965
  0
ARC
  5
2B3
330
1F
100
AcDbEntity
  8
0
  6
Continuous
 62
     7
370
    15
100
AcDbCircle
 10
6.977591579241146
 20
9.857391638682488
 30
0.0
 40
0.0519967616430277
100
AcDbArc
 50
138.5375868353258
 51
178.2230467542758
  0
ARC
  5
2B4
330
1F
100
AcDbEntity
  8
0
  6
Continuous
 62
     7
370
    15
100
AcDbCircle
 10
6.939372968414061
 20
9.851587230402856
 30
0.0
 40
0.0235655504065301
100
AcDbArc
 50
192.1180970198426
 51
251.8833391268865
  0
ARC
  5
2B5
330
1F
100
AcDbEntity
  8
0
  6
Continuous
 62
     7
370
    15
100
AcDbCircle
 10
6.947863787736086
 20
9.880229708727966
 30
0.0
 40
0.0248166454098527
100
AcDbArc
 50
79.78995715717957
 51
135.8835422993067
  0
ARC
  5
2B6
330
1F
100
AcDbEntity
  8
0
  6
Continuous
 62
     7
370
    15
100
AcDbCircle
 10
6.824185871355907
 20
9.663097520948273
 30
0.0
 40
0.0233958764969956
100
AcDbArc
 50
78.22320481344256
 51
134.406516838124
  0
ARC
  5
2B7
330
1F
100
AcDbEntity
  8
0
  6
Continuous
 62
     7
370
    15
100
AcDbCircle
 10
6.816764025918035
 20
9.633469616677999
 30
0.0
 40
0.0242942948546555
100
AcDbArc
 50
195.6021736851319
 51
250.7225494952319
  0
ARC
  5
2B8
330
1F
100
AcDbEntity
  8
0
  6
Continuous
 62
     7
370
    15
100
AcDbCircle
 10
6.845009043166636
 20
9.641225607561063
 30
0.0
 40
0.0519967616430534
100
AcDbArc
 50
138.5375868353373
 51
178.2230467542688
  0
ARC
  5
2B9
330
1F
100
AcDbEntity
  8
0
  6
Continuous
 62
     7
370
    15
100
AcDbCircle
 10
6.806791035486134
 20
9.635421597559471
 30
0.0
 40
0.0235661164944891
100
AcDbArc
 50
192.1187228112541
 51
251.8822465102051
  0
ARC
  5
2BA
330
1F
100
AcDbEntity
  8
0
  6
Continuous
 62
     7
370
    15
100
AcDbCircle
 10
6.815281639015164
 20
9.664062473794654
 30
0.0
 40
0.0248177615047373
100
AcDbArc
 50
79.79132989598565
 51
135.8821695604976
  0
ARC
  5
2BB
330
1F
100
AcDbEntity
  8
0
  6
Continuous
 62
     7
370
    15
100
AcDbCircle
 10
6.691603335281366
 20
9.808222898672001
 30
0.0
 40
0.0233958764969806
100
AcDbArc
 50
78.2232048134218
 51
134.4065168381421
  0
ARC
  5
2BC
330
1F
100
AcDbEntity
  8
0
  6
Continuous
 62
     7
370
    15
100
AcDbCircle
 10
6.684181700174664
 20
9.778595191655972
 30
0.0
 40
0.0242945504887684
100
AcDbArc
 50
195.602488330752
 51
250.7222348496208
  0
ARC
  5
2BD
330
1F
100
AcDbEntity
  8
0
  6
Continuous
 62
     7
370
    15
100
AcDbCircle
 10
6.712426507092089
 20
9.786350985284778
 30
0.0
 40
0.0519967616430419
100
AcDbArc
 50
138.5375868353318
 51
178.2230467542704
  0
ARC
  5
2BE
330
1F
100
AcDbEntity
  8
0
  6
Continuous
 62
     7
370
    15
100
AcDbCircle
 10
6.674208365256546
 20
9.780546854487377
 30
0.0
 40
0.0235659599696575
100
AcDbArc
 50
192.1185041416778
 51
251.8824651797776
  0
ARC
  5
2BF
330
1F
100
AcDbEntity
  8
0
  6
Continuous
 62
     7
370
    15
100
AcDbCircle
 10
6.682699081024276
 20
9.809187919629687
 30
0.0
 40
0.0248176983560388
100
AcDbArc
 50
79.79125223012474
 51
135.8822472263547
  0
ARC
  5
2C0
330
1F
100
AcDbEntity
  8
0
  6
Continuous
 62
     7
370
    15
100
AcDbCircle
 10
6.82418569095445
 20
9.060946740673358
 30
0.0
 40
0.0233945629617276
100
AcDbArc
 50
78.22208278429238
 51
134.4090494587771
  0
ARC
  5
2C1
330
1F
100
AcDbEntity
  8
0
  6
Continuous
 62
     7
370
    15
100
AcDbCircle
 10
6.816764654687822
 20
9.031317764077813
 30
0.0
 40
0.024295059056502
100
AcDbArc
 50
195.6031142757214
 51
250.7216089046438
  0
ARC
  5
2C2
330
1F
100
AcDbEntity
  8
0
  6
Continuous
 62
     7
370
    15
100
AcDbCircle
 10
6.845010639825598
 20
9.039072815093842
 30
0.0
 40
0.051998377159681
100
AcDbArc
 50
138.5382292093217
 51
178.2224043802806
  0
ARC
  5
2C3
330
1F
100
AcDbEntity
  8
0
  6
Continuous
 62
     7
370
    15
100
AcDbCircle
 10
6.806793232888108
 20
9.033271053713313
 30
0.0
 40
0.0235686041762782
100
AcDbArc
 50
192.1214419013218
 51
251.8786046055727
  0
ARC
  5
2C4
330
1F
100
AcDbEntity
  8
0
  6
Continuous
 62
     7
370
    15
100
AcDbCircle
 10
6.815280633002934
 20
9.061914123461008
 30
0.0
 40
0.0248141908292368
100
AcDbArc
 50
79.78748489565884
 51
135.8873355261226
  0
ARC
  5
2C5
330
1F
100
AcDbEntity
  8
0
  6
Continuous
 62
     7
370
    15
100
AcDbCircle
 10
7.089350843311824
 20
9.131987120056431
 30
0.0
 40
0.0233948148356577
100
AcDbArc
 50
78.2224120659132
 51
134.4087201771529
  0
ARC
  5
2C6
330
1F
100
AcDbEntity
  8
0
  6
Continuous
 62
     7
370
    15
100
AcDbCircle
 10
7.081928161766061
 20
9.102356949709736
 30
0.0
 40
0.0242931568938741
100
AcDbArc
 50
195.6007729420856
 51
250.7239502382784
  0
ARC
  5
2C7
330
1F
100
AcDbEntity
  8
0
  6
Continuous
 62
     7
370
    15
100
AcDbCircle
 10
7.110175711974658
 20
9.110113468491549
 30
0.0
 40
0.05199837715967
100
AcDbArc
 50
138.5382292093162
 51
178.2224043802822
  0
ARC
  5
2C8
330
1F
100
AcDbEntity
  8
0
  6
Continuous
 62
     7
370
    15
100
AcDbCircle
 10
7.07195812315754
 20
9.104311688168964
 30
0.0
 40
0.0235685296040803
100
AcDbArc
 50
192.1215028232498
 51
251.8790105066448
  0
ARC
  5
2C9
330
1F
100
AcDbEntity
  8
0
  6
Continuous
 62
     7
370
    15
100
AcDbCircle
 10
7.080445318072864
 20
9.132955979770057
 30
0.0
 40
0.0248130756118694
100
AcDbArc
 50
79.7861127788408
 51
135.8887076429499
  0
ARC
  5
2CA
330
1F
100
AcDbEntity
  8
0
  6
Continuous
 62
     7
370
    15
100
AcDbCircle
 10
6.691604055447345
 20
9.206069041799679
 30
0.0
 40
0.0233973910108325
100
AcDbArc
 50
78.22577950454233
 51
134.4053527385151
  0
ARC
  5
2CB
330
1F
100
AcDbEntity
  8
0
  6
Continuous
 62
     7
370
    15
100
AcDbCircle
 10
6.68418232894444
 20
9.176443339055774
 30
0.0
 40
0.0242953146927909
100
AcDbArc
 50
195.6034289015261
 51
250.7212942788421
  0
ARC
  5
2CC
330
1F
100
AcDbEntity
  8
0
  6
Continuous
 62
     7
370
    15
100
AcDbCircle
 10
6.712428103751068
 20
9.184198192817554
 30
0.0
 40
0.0519983771596862
100
AcDbArc
 50
138.5382292093241
 51
178.2224043802789
  0
ARC
  5
2CD
330
1F
100
AcDbEntity
  8
0
  6
Continuous
 62
     7
370
    15
100
AcDbCircle
 10
6.674210984264441
 20
9.178396690259162
 30
0.0
 40
0.0235689395677658
100
AcDbArc
 50
192.121910331581
 51
251.8781361753181
  0
ARC
  5
2CE
330
1F
100
AcDbEntity
  8
0
  6
Continuous
 62
     7
370
    15
100
AcDbCircle
 10
6.68269973333905
 20
9.207034415772698
 30
0.0
 40
0.0248189056645861
100
AcDbArc
 50
79.79328427590501
 51
135.8815361458781
  0
ARC
  5
2CF
330
1F
100
AcDbEntity
  8
0
  6
Continuous
 62
     7
370
    15
100
AcDbCircle
 10
7.000962966035468
 20
7.045933196494561
 30
0.0
 40
0.0233968046021119
100
AcDbArc
 50
78.22471550421416
 51
134.4057114443718
  0
ARC
  5
2D0
330
1F
100
AcDbEntity
  8
0
  6
Continuous
 62
     7
370
    15
100
AcDbCircle
 10
6.993540693315233
 20
7.016306074581323
 30
0.0
 40
0.0242942527244897
100
AcDbArc
 50
195.6019301035606
 51
250.7225467234178
  0
ARC
  5
2D1
330
1F
100
AcDbEntity
  8
0
  6
Continuous
 62
     7
370
    15
100
AcDbCircle
 10
7.021786985994675
 20
7.024061783572935
 30
0.0
 40
0.0519980380367723
100
AcDbArc
 50
138.5380962589534
 51
178.222579582688
  0
ARC
  5
2D2
330
1F
100
AcDbEntity
  8
0
  6
Continuous
 62
     7
370
    15
100
AcDbCircle
 10
6.983569056827476
 20
7.018259243106045
 30
0.0
 40
0.0235676241635287
100
AcDbArc
 50
192.1202620185369
 51
251.880015190448
  0
ARC
  5
2D3
330
1F
100
AcDbEntity
  8
0
  6
Continuous
 62
     7
370
    15
100
AcDbCircle
 10
6.992058371718435
 20
7.04689953288404
 30
0.0
 40
0.024817408650169
100
AcDbArc
 50
79.79130636444236
 51
135.8831838169351
  0
ARC
  5
2D4
330
1F
100
AcDbEntity
  8
0
  6
Continuous
 62
     7
370
    15
100
AcDbCircle
 10
4.128341687929853
 20
6.846941369796958
 30
0.0
 40
0.0233968132793903
100
AcDbArc
 50
78.22472684587932
 51
134.4057001027058
  0
ARC
  5
2D5
330
1F
100
AcDbEntity
  8
0
  6
Continuous
 62
     7
370
    15
100
AcDbCircle
 10
4.120919510247823
 20
6.817314349043865
 30
0.0
 40
0.0242943715906452
100
AcDbArc
 50
195.6020764111507
 51
250.722400415834
  0
ARC
  5
2D6
330
1F
100
AcDbEntity
  8
0
  6
Continuous
 62
     7
370
    15
100
AcDbCircle
 10
4.149165771091511
 20
6.825069977337409
 30
0.0
 40
0.051998102812165
100
AcDbArc
 50
138.5381239056529
 51
178.222594187955
  0
ARC
  5
2D7
330
1F
100
AcDbEntity
  8
0
  6
Continuous
 62
     7
370
    15
100
AcDbCircle
 10
4.110947591739969
 20
6.819267258082932
 30
0.0
 40
0.0235674073335988
100
AcDbArc
 50
192.1199591425974
 51
251.8803180663883
  0
ARC
  5
2D8
330
1F
100
AcDbEntity
  8
0
  6
Continuous
 62
     7
370
    15
100
AcDbCircle
 10
4.119437114387217
 20
6.847907647080567
 30
0.0
 40
0.0248174717989979
100
AcDbArc
 50
79.79138403281339
 51
135.8831061485673
  0
ARC
  5
2D9
330
1F
100
AcDbEntity
  8
0
  6
Continuous
 62
     7
370
    15
100
AcDbCircle
 10
3.730594350892857
 20
5.957582005968394
 30
0.0
 40
0.0233972458410087
100
AcDbArc
 50
78.2253666035771
 51
134.4052366688631
  0
ARC
  5
2DA
330
1F
100
AcDbEntity
  8
0
  6
Continuous
 62
     7
370
    15
100
AcDbCircle
 10
3.723170212084281
 20
5.927953654969454
 30
0.0
 40
0.0242921675597967
100
AcDbArc
 50
195.5991894717542
 51
250.7248048839162
  0
ARC
  5
2DB
330
1F
100
AcDbEntity
  8
0
  6
Continuous
 62
     7
370
    15
100
AcDbCircle
 10
3.751417941016538
 20
5.935711277977332
 30
0.0
 40
0.0519977704926647
100
AcDbArc
 50
138.5381691508692
 51
178.2228286895203
  0
ARC
  5
2DC
330
1F
100
AcDbEntity
  8
0
  6
Continuous
 62
     7
370
    15
100
AcDbCircle
 10
3.713199926135466
 20
5.929908246232653
 30
0.0
 40
0.0235673308639712
100
AcDbArc
 50
192.1197578459468
 51
251.8804040118645
  0
ARC
  5
2DD
330
1F
100
AcDbEntity
  8
0
  6
Continuous
 62
     7
370
    15
100
AcDbCircle
 10
3.721688848315868
 20
5.958551126704545
 30
0.0
 40
0.0248152775851235
100
AcDbArc
 50
79.78868504809153
 51
135.8858051332919
  0
ARC
  5
2DE
330
1F
100
AcDbEntity
  8
0
  6
Continuous
 62
     7
370
    15
100
AcDbCircle
 10
3.730594440921449
 20
6.559734094771409
 30
0.0
 40
0.0233974351764203
100
AcDbArc
 50
78.22568845109174
 51
134.4050911450505
  0
ARC
  5
2DF
330
1F
100
AcDbEntity
  8
0
  6
Continuous
 62
     7
370
    15
100
AcDbCircle
 10
3.72317029067786
 20
6.530105994323911
 30
0.0
 40
0.024292263078606
100
AcDbArc
 50
195.5993070647537
 51
250.7246872909168
  0
ARC
  5
2E0
330
1F
100
AcDbEntity
  8
0
  6
Continuous
 62
     7
370
    15
100
AcDbCircle
 10
3.751417811212295
 20
6.537863595069788
 30
0.0
 40
0.0519976391554649
100
AcDbArc
 50
138.538116927859
 51
178.2228809125262
  0
ARC
  5
2E1
330
1F
100
AcDbEntity
  8
0
  6
Continuous
 62
     7
370
    15
100
AcDbCircle
 10
3.71319995829679
 20
6.532060530822477
 30
0.0
 40
0.023567358868493
100
AcDbArc
 50
192.1197024849973
 51
251.8803440218952
  0
ARC
  5
2E2
330
1F
100
AcDbEntity
  8
0
  6
Continuous
 62
     7
370
    15
100
AcDbCircle
 10
3.721688848315868
 20
6.560703427678615
 30
0.0
 40
0.0248152775851237
100
AcDbArc
 50
79.78868504808952
 51
135.885805133289
  0
ARC
  5
2E3
330
1F
100
AcDbEntity
  8
0
  6
Continuous
 62
     7
370
    15
100
AcDbCircle
 10
3.995759329141256
 20
6.630774994447381
 30
0.0
 40
0.0233971832503969
100
AcDbArc
 50
78.22535918601772
 51
134.4054204101224
  0
ARC
  5
2E4
330
1F
100
AcDbEntity
  8
0
  6
Continuous
 62
     7
370
    15
100
AcDbCircle
 10
3.988337184508919
 20
6.601148515180046
 30
0.0
 40
0.0242946272297316
100
AcDbArc
 50
195.6023910615441
 51
250.7220857654377
  0
ARC
  5
2E5
330
1F
100
AcDbEntity
  8
0
  6
Continuous
 62
     7
370
    15
100
AcDbCircle
 10
4.016583082647488
 20
6.608904006603768
 30
0.0
 40
0.0519979486429932
100
AcDbArc
 50
138.5380626047533
 51
178.2226554888532
  0
ARC
  5
2E6
330
1F
100
AcDbEntity
  8
0
  6
Continuous
 62
     7
370
    15
100
AcDbCircle
 10
3.978365302028004
 20
6.603101428754041
 30
0.0
 40
0.0235676757391253
100
AcDbArc
 50
192.1201451026829
 51
251.8799014042115
  0
ARC
  5
2E7
330
1F
100
AcDbEntity
  8
0
  6
Continuous
 62
     7
370
    15
100
AcDbCircle
 10
3.986854578312689
 20
6.631741686610847
 30
0.0
 40
0.0248174717990185
100
AcDbArc
 50
79.79138403283863
 51
135.8831061485448
  0
ARC
  5
2E8
330
1F
100
AcDbEntity
  8
0
  6
Continuous
 62
     7
370
    15
100
AcDbCircle
 10
7.133545592132513
 20
6.900807641942641
 30
0.0
 40
0.023396993920638
100
AcDbArc
 50
78.22503733999322
 51
134.4055659324436
  0
ARC
  5
2E9
330
1F
100
AcDbEntity
  8
0
  6
Continuous
 62
     7
370
    15
100
AcDbCircle
 10
7.126123239685063
 20
6.871180706512772
 30
0.0
 40
0.0242942652372166
100
AcDbArc
 50
195.6019455050505
 51
250.7225313219221
  0
ARC
  5
2EA
330
1F
100
AcDbEntity
  8
0
  6
Continuous
 62
     7
370
    15
100
AcDbCircle
 10
7.154369564661009
 20
6.878936426031041
 30
0.0
 40
0.0519980799821043
100
AcDbArc
 50
138.5381148279661
 51
178.2226032656408
  0
ARC
  5
2EB
330
1F
100
AcDbEntity
  8
0
  6
Continuous
 62
     7
370
    15
100
AcDbCircle
 10
7.116151333823482
 20
6.873133622089162
 30
0.0
 40
0.0235673123610569
100
AcDbArc
 50
192.1197319998637
 51
251.8804298579392
  0
ARC
  5
2EC
330
1F
100
AcDbEntity
  8
0
  6
Continuous
 62
     7
370
    15
100
AcDbCircle
 10
7.124640929710055
 20
6.901774122374617
 30
0.0
 40
0.0248174717990145
100
AcDbArc
 50
79.79138403283278
 51
135.8831061485479
  0
ARC
  5
2ED
330
1F
100
AcDbEntity
  8
0
  6
Continuous
 62
     7
370
    15
100
AcDbCircle
 10
6.691603839786665
 20
6.782406562207941
 30
0.0
 40
0.0233969939206534
100
AcDbArc
 50
78.22503734001656
 51
134.4055659324256
  0
ARC
  5
2EE
330
1F
100
AcDbEntity
  8
0
  6
Continuous
 62
     7
370
    15
100
AcDbCircle
 10
6.684181697671397
 20
6.752779824032458
 30
0.0
 40
0.0242945208718131
100
AcDbArc
 50
195.6022601530518
 51
250.7222166739313
  0
ARC
  5
2EF
330
1F
100
AcDbEntity
  8
0
  6
Continuous
 62
     7
370
    15
100
AcDbCircle
 10
6.71242781231517
 20
6.760535346296351
 30
0.0
 40
0.0519980799821196
100
AcDbArc
 50
138.5381148279706
 51
178.2226032656354
  0
ARC
  5
2F0
330
1F
100
AcDbEntity
  8
0
  6
Continuous
 62
     7
370
    15
100
AcDbCircle
 10
6.674209868921271
 20
6.754732801170633
 30
0.0
 40
0.0235676477384734
100
AcDbArc
 50
192.1202004696042
 51
251.8799613882098
  0
ARC
  5
2F1
330
1F
100
AcDbEntity
  8
0
  6
Continuous
 62
     7
370
    15
100
AcDbCircle
 10
6.6826991554471
 20
6.783373110751562
 30
0.0
 40
0.0248174086501135
100
AcDbArc
 50
79.79130636437564
 51
135.8831838170067
  0
ARC
  5
2F2
330
1F
100
AcDbEntity
  8
0
  6
Continuous
 62
     7
370
    15
100
AcDbCircle
 10
6.559021266778192
 20
6.927531935389882
 30
0.0
 40
0.0233969713214498
100
AcDbArc
 50
78.22493341361738
 51
134.405493534967
  0
ARC
  5
2F3
330
1F
100
AcDbEntity
  8
0
  6
Continuous
 62
     7
370
    15
100
AcDbCircle
 10
6.551598940969371
 20
6.897904994846631
 30
0.0
 40
0.0242942527244792
100
AcDbArc
 50
195.6019301035501
 51
250.7225467234294
  0
ARC
  5
2F4
330
1F
100
AcDbEntity
  8
0
  6
Continuous
 62
     7
370
    15
100
AcDbCircle
 10
6.579845941298366
 20
6.905660423379028
 30
0.0
 40
0.0519987540454445
100
AcDbArc
 50
138.5383809544168
 51
178.222294887226
  0
ARC
  5
2F5
330
1F
100
AcDbEntity
  8
0
  6
Continuous
 62
     7
370
    15
100
AcDbCircle
 10
6.541627304481617
 20
6.899858163371358
 30
0.0
 40
0.0235676241635237
100
AcDbArc
 50
192.1202620185333
 51
251.8800151904556
  0
ARC
  5
2F6
330
1F
100
AcDbEntity
  8
0
  6
Continuous
 62
     7
370
    15
100
AcDbCircle
 10
6.550116619372563
 20
6.928498453149416
 30
0.0
 40
0.0248174086501143
100
AcDbArc
 50
79.79130636437601
 51
135.8831838170038
  0
ARC
  5
2F7
330
1F
100
AcDbEntity
  8
0
  6
Continuous
 62
     7
370
    15
100
AcDbCircle
 10
3.863176796942829
 20
6.775900479571679
 30
0.0
 40
0.0233970565168098
100
AcDbArc
 50
78.22504476627931
 51
134.4053821823086
  0
ARC
  5
2F8
330
1F
100
AcDbEntity
  8
0
  6
Continuous
 62
     7
370
    15
100
AcDbCircle
 10
3.855752826752403
 20
6.746272025445335
 30
0.0
 40
0.0242922630786159
100
AcDbArc
 50
195.5993070647667
 51
250.7246872909073
  0
ARC
  5
2F9
330
1F
100
AcDbEntity
  8
0
  6
Continuous
 62
     7
370
    15
100
AcDbCircle
 10
3.884000499651381
 20
6.75402956580582
 30
0.0
 40
0.051997793319407
100
AcDbArc
 50
138.5381782273342
 51
178.2228196130575
  0
ARC
  5
2FA
330
1F
100
AcDbEntity
  8
0
  6
Continuous
 62
     7
370
    15
100
AcDbCircle
 10
3.845782535454879
 20
6.748226618969291
 30
0.0
 40
0.0235674258430474
100
AcDbArc
 50
192.1199849975199
 51
251.8802922114625
  0
ARC
  5
2FB
330
1F
100
AcDbEntity
  8
0
  6
Continuous
 62
     7
370
    15
100
AcDbCircle
 10
3.854271384390404
 20
6.776869388148313
 30
0.0
 40
0.0248152775851244
100
AcDbArc
 50
79.78868504809189
 51
135.8858051332883
  0
LINE
  5
2FC
330
1F
100
AcDbEntity
  8
0
  6
Continuous
 62
     7
370
    15
100
AcDbLine
 10
5.785150479210287
 20
9.636479022547135
 30
0.0
 11
7.729694168790483
 21
10.15744376782285
 31
0.0
  0
LINE
  5
2FD
330
1F
100
AcDbEntity
  8
0
  6
Continuous
 62
     7
370
    15
100
AcDbLine
 10
7.155169757217088
 20
10.33504535095777
 30
0.0
 11
5.728456933465726
 21
9.952813217635174
 31
0.0
  0
LINE
  5
2FE
330
1F
100
AcDbEntity
  8
0
  6
Continuous
 62
     7
370
    15
100
AcDbLine
 10
7.155169757217088
 20
10.33504535095777
 30
0.0
 11
7.414274716129666
 21
10.26562826887168
 31
0.0
  0
LINE
  5
2FF
330
1F
100
AcDbEntity
  8
0
  6
Continuous
 62
     7
370
    15
100
AcDbLine
 10
7.414274716129666
 20
10.26562826887168
 30
0.0
 11
7.55291749507544
 21
10.275844845821
 31
0.0
  0
LINE
  5
300
330
1F
100
AcDbEntity
  8
0
  6
Continuous
 62
     7
370
    15
100
AcDbLine
 10
7.55291749507544
 20
10.275844845821
 30
0.0
 11
7.456802172253836
 21
10.23055454966092
 31
0.0
  0
LINE
  5
301
330
1F
100
AcDbEntity
  8
0
  6
Continuous
 62
     7
370
    15
100
AcDbLine
 10
7.456802172253836
 20
10.23055454966092
 30
0.0
 11
7.729694168790483
 21
10.15744376782285
 31
0.0
  0
LINE
  5
302
330
1F
100
AcDbEntity
  8
0
  6
Continuous
 62
     7
370
    15
100
AcDbLine
 10
7.729694168790483
 20
9.796152358977721
 30
0.0
 11
7.729694168790483
 21
10.15744376782285
 31
0.0
  0
LINE
  5
303
330
1F
100
AcDbEntity
  8
0
  6
Continuous
 62
     7
370
    15
100
AcDbLine
 10
5.785150479210287
 20
9.275187613702005
 30
0.0
 11
6.492257303705212
 21
9.464629346834392
 31
0.0
  0
LINE
  5
304
330
1F
100
AcDbEntity
  8
0
  6
Continuous
 62
     7
370
    15
100
AcDbLine
 10
7.250629277305575
 20
9.66780557998771
 30
0.0
 11
7.729694168790483
 21
9.796152358977721
 31
0.0
  0
LINE
  5
305
330
1F
100
AcDbEntity
  8
0
  6
Continuous
 62
     7
370
    15
100
AcDbLine
 10
7.55291749507544
 20
10.20480426054581
 30
0.0
 11
7.55291749507544
 21
10.275844845821
 31
0.0
  0
LINE
  5
306
330
1F
100
AcDbEntity
  8
0
  6
Continuous
 62
     7
370
    15
100
AcDbLine
 10
3.045111780598471
 20
9.344391500067906
 30
0.0
 11
3.133500128799033
 21
9.320711284728755
 31
0.0
  0
LINE
  5
307
330
1F
100
AcDbEntity
  8
0
  6
Continuous
 62
     7
370
    15
100
AcDbLine
 10
3.133500128799033
 20
9.320711284728755
 30
0.0
 11
3.133500128799033
 21
6.138919350375015
 31
0.0
  0
LINE
  5
308
330
1F
100
AcDbEntity
  8
0
  6
Continuous
 62
     7
370
    15
100
AcDbLine
 10
3.111403042154001
 20
6.14483940410127
 30
0.0
 11
3.133500128799033
 21
6.138919350375015
 31
0.0
  0
LINE
  5
309
330
1F
100
AcDbEntity
  8
0
  6
Continuous
 62
     7
370
    15
100
AcDbLine
 10
3.111403042154001
 20
6.14483940410127
 30
0.0
 11
3.111403042154001
 21
6.114731810248082
 31
0.0
  0
LINE
  5
30A
330
1F
100
AcDbEntity
  8
0
  6
Continuous
 62
     7
370
    15
100
AcDbLine
 10
3.111403042154001
 20
6.114731810248082
 30
0.0
 11
3.133500128799033
 21
6.108811756521827
 31
0.0
  0
LINE
  5
30B
330
1F
100
AcDbEntity
  8
0
  6
Continuous
 62
     7
370
    15
100
AcDbLine
 10
3.133500128799033
 20
6.108811756521827
 30
0.0
 11
3.133500128799033
 21
2.80658923480018
 31
0.0
  0
LINE
  5
30C
330
1F
100
AcDbEntity
  8
0
  6
Continuous
 62
     7
370
    15
100
AcDbLine
 10
3.045111780598471
 20
2.830269450139332
 30
0.0
 11
3.133500128799033
 21
2.80658923480018
 31
0.0
  0
LINE
  5
30D
330
1F
100
AcDbEntity
  8
0
  6
Continuous
 62
     7
370
    15
100
AcDbLine
 10
3.045111780598471
 20
9.344391500067906
 30
0.0
 11
3.045111780598471
 21
2.830269450139332
 31
0.0
  0
LINE
  5
30E
330
1F
100
AcDbEntity
  8
0
  6
Continuous
 62
     7
370
    15
100
AcDbLine
 10
5.785150474348984
 20
6.849325783633365
 30
0.0
 11
5.785150474348984
 21
9.925575920457895
 31
0.0
  0
LINE
  5
30F
330
1F
100
AcDbEntity
  8
0
  6
Continuous
 62
     7
370
    15
100
AcDbLine
 10
5.785150474348984
 20
6.849325783633365
 30
0.0
 11
4.422202142989744
 21
6.484176862539275
 31
0.0
  0
LINE
  5
310
330
1F
100
AcDbEntity
  8
0
  6
Continuous
 62
     7
370
    15
100
AcDbLine
 10
3.663830065681583
 20
6.281000601601492
 30
0.0
 11
3.133500128799033
 21
6.138919350375015
 31
0.0
  0
LINE
  5
311
330
1F
100
AcDbEntity
  8
0
  6
Continuous
 62
     7
370
    15
100
AcDbLine
 10
3.133500128799033
 20
9.320711284728755
 30
0.0
 11
3.274534228044206
 21
9.252954081077358
 31
0.0
  0
LINE
  5
312
330
1F
100
AcDbEntity
  8
0
  6
Continuous
 62
     7
370
    15
100
AcDbLine
 10
3.274534228044206
 20
9.252954081077358
 30
0.0
 11
3.52626167358094
 21
9.42515220925175
 31
0.0
  0
LINE
  5
313
330
1F
100
AcDbEntity
  8
0
  6
Continuous
 62
     7
370
    15
100
AcDbLine
 10
3.52626167358094
 20
9.42515220925175
 30
0.0
 11
3.80549512316086
 21
9.395204372988017
 31
0.0
  0
LINE
  5
314
330
1F
100
AcDbEntity
  8
0
  6
Continuous
 62
     7
370
    15
100
AcDbLine
 10
3.80549512316086
 20
9.395204372988017
 30
0.0
 11
4.143667891374048
 21
9.590562158489596
 31
0.0
  0
LINE
  5
315
330
1F
100
AcDbEntity
  8
0
  6
Continuous
 62
     7
370
    15
100
AcDbLine
 10
4.143667891374048
 20
9.590562158489596
 30
0.0
 11
4.283653815919663
 21
9.523308371324121
 31
0.0
  0
LINE
  5
316
330
1F
100
AcDbEntity
  8
0
  6
Continuous
 62
     7
370
    15
100
AcDbLine
 10
4.283653815919663
 20
9.523308371324121
 30
0.0
 11
4.459325282128796
 21
9.675130262076121
 31
0.0
  0
LINE
  5
317
330
1F
100
AcDbEntity
  8
0
  6
Continuous
 62
     7
370
    15
100
AcDbLine
 10
4.459325282128796
 20
9.675130262076121
 30
0.0
 11
4.738558628000919
 21
9.645182398027923
 31
0.0
  0
LINE
  5
318
330
1F
100
AcDbEntity
  8
0
  6
Continuous
 62
     7
370
    15
100
AcDbLine
 10
4.738558628000919
 20
9.645182398027923
 30
0.0
 11
5.076731448068005
 21
9.840540197421734
 31
0.0
  0
LINE
  5
319
330
1F
100
AcDbEntity
  8
0
  6
Continuous
 62
     7
370
    15
100
AcDbLine
 10
5.076731448068005
 20
9.840540197421734
 30
0.0
 11
5.38247307712677
 21
9.870072835830301
 31
0.0
  0
LINE
  5
31A
330
1F
100
AcDbEntity
  8
0
  6
Continuous
 62
     7
370
    15
100
AcDbLine
 10
5.38247307712677
 20
9.870072835830301
 30
0.0
 11
5.645164541296087
 21
9.992829705344176
 31
0.0
  0
LINE
  5
31B
330
1F
100
AcDbEntity
  8
0
  6
Continuous
 62
     7
370
    15
100
AcDbLine
 10
5.645164541296087
 20
9.992829705344176
 30
0.0
 11
5.785150474348984
 21
9.925575920457895
 31
0.0
  0
LINE
  5
31C
330
1F
100
AcDbEntity
  8
0
  6
Continuous
 62
     7
370
    15
100
AcDbLine
 10
3.437873325380378
 20
9.448832424590902
 30
0.0
 11
3.52626167358094
 21
9.42515220925175
 31
0.0
  0
LINE
  5
31D
330
1F
100
AcDbEntity
  8
0
  6
Continuous
 62
     7
370
    15
100
AcDbLine
 10
3.202276590516341
 20
9.287668935738397
 30
0.0
 11
3.437873325380378
 21
9.448832424590902
 31
0.0
  0
LINE
  5
31E
330
1F
100
AcDbEntity
  8
0
  6
Continuous
 62
     7
370
    15
100
AcDbLine
 10
3.717106774960297
 20
9.418884588327168
 30
0.0
 11
3.80549512316086
 21
9.395204372988017
 31
0.0
  0
LINE
  5
31F
330
1F
100
AcDbEntity
  8
0
  6
Continuous
 62
     7
370
    15
100
AcDbLine
 10
3.437873325380378
 20
9.448832424590902
 30
0.0
 11
3.717106774960297
 21
9.418884588327168
 31
0.0
  0
LINE
  5
320
330
1F
100
AcDbEntity
  8
0
  6
Continuous
 62
     7
370
    15
100
AcDbLine
 10
4.055279543173485
 20
9.614242373828746
 30
0.0
 11
4.143667891374048
 21
9.590562158489596
 31
0.0
  0
LINE
  5
321
330
1F
100
AcDbEntity
  8
0
  6
Continuous
 62
     7
370
    15
100
AcDbLine
 10
3.717106774960297
 20
9.418884588327168
 30
0.0
 11
4.055279543173485
 21
9.614242373828746
 31
0.0
  0
LINE
  5
322
330
1F
100
AcDbEntity
  8
0
  6
Continuous
 62
     7
370
    15
100
AcDbLine
 10
3.111403042154001
 20
6.114731810248082
 30
0.0
 11
3.663830206659369
 21
6.262733152970321
 31
0.0
  0
LINE
  5
323
330
1F
100
AcDbEntity
  8
0
  6
Continuous
 62
     7
370
    15
100
AcDbLine
 10
4.422202180259732
 20
6.465909386123638
 30
0.0
 11
5.763053387703952
 21
6.825138243506432
 31
0.0
  0
LINE
  5
324
330
1F
100
AcDbEntity
  8
0
  6
Continuous
 62
     7
370
    15
100
AcDbLine
 10
5.763053387703952
 20
6.825138243506432
 30
0.0
 11
5.785150474348984
 21
6.819218189780177
 31
0.0
  0
LINE
  5
325
330
1F
100
AcDbEntity
  8
0
  6
Continuous
 62
     7
370
    15
100
AcDbLine
 10
3.133500128799033
 20
6.108811756521827
 30
0.0
 11
3.663830065681583
 21
6.250893007748305
 31
0.0
  0
LINE
  5
326
330
1F
100
AcDbEntity
  8
0
  6
Continuous
 62
     7
370
    15
100
AcDbLine
 10
4.422202142989744
 20
6.454069268686087
 30
0.0
 11
5.785150474348984
 21
6.819218189780177
 31
0.0
  0
LINE
  5
327
330
1F
100
AcDbEntity
  8
0
  6
Continuous
 62
     7
370
    15
100
AcDbLine
 10
5.785150474348984
 20
3.622537465587741
 30
0.0
 11
5.785150474348984
 21
6.819218189780177
 31
0.0
  0
LINE
  5
328
330
1F
100
AcDbEntity
  8
0
  6
Continuous
 62
     7
370
    15
100
AcDbLine
 10
5.785150474348984
 20
3.622537465587741
 30
0.0
 11
5.645164541296087
 21
3.480276406166915
 31
0.0
  0
LINE
  5
329
330
1F
100
AcDbEntity
  8
0
  6
Continuous
 62
     7
370
    15
100
AcDbLine
 10
5.645164541296087
 20
3.480276406166915
 30
0.0
 11
5.38247307712677
 21
3.462277100110031
 31
0.0
  0
LINE
  5
32A
330
1F
100
AcDbEntity
  8
0
  6
Continuous
 62
     7
370
    15
100
AcDbLine
 10
5.38247307712677
 20
3.462277100110031
 30
0.0
 11
5.076731448068005
 21
3.327986898244474
 31
0.0
  0
LINE
  5
32B
330
1F
100
AcDbEntity
  8
0
  6
Continuous
 62
     7
370
    15
100
AcDbLine
 10
5.076731448068005
 20
3.327986898244474
 30
0.0
 11
4.738558628000919
 21
3.342143943157771
 31
0.0
  0
LINE
  5
32C
330
1F
100
AcDbEntity
  8
0
  6
Continuous
 62
     7
370
    15
100
AcDbLine
 10
4.738558628000919
 20
3.342143943157771
 30
0.0
 11
4.459325282128796
 21
3.162576962898862
 31
0.0
  0
LINE
  5
32D
330
1F
100
AcDbEntity
  8
0
  6
Continuous
 62
     7
370
    15
100
AcDbLine
 10
4.459325282128796
 20
3.162576962898862
 30
0.0
 11
4.283653815919663
 21
3.220269916453967
 31
0.0
  0
LINE
  5
32E
330
1F
100
AcDbEntity
  8
0
  6
Continuous
 62
     7
370
    15
100
AcDbLine
 10
4.283653815919663
 20
3.220269916453967
 30
0.0
 11
4.143667891374048
 21
3.078008859312335
 31
0.0
  0
LINE
  5
32F
330
1F
100
AcDbEntity
  8
0
  6
Continuous
 62
     7
370
    15
100
AcDbLine
 10
4.143667891374048
 20
3.078008859312335
 30
0.0
 11
3.80549512316086
 21
3.092165918117864
 31
0.0
  0
LINE
  5
330
330
1F
100
AcDbEntity
  8
0
  6
Continuous
 62
     7
370
    15
100
AcDbLine
 10
3.80549512316086
 20
3.092165918117864
 30
0.0
 11
3.52626167358094
 21
2.912598910074491
 31
0.0
  0
LINE
  5
331
330
1F
100
AcDbEntity
  8
0
  6
Continuous
 62
     7
370
    15
100
AcDbLine
 10
3.52626167358094
 20
2.912598910074491
 30
0.0
 11
3.274534228044206
 21
2.949915626207205
 31
0.0
  0
LINE
  5
332
330
1F
100
AcDbEntity
  8
0
  6
Continuous
 62
     7
370
    15
100
AcDbLine
 10
3.274534228044206
 20
2.949915626207205
 30
0.0
 11
3.133500128799033
 21
2.80658923480018
 31
0.0
  0
LINE
  5
333
330
1F
100
AcDbEntity
  8
0
  6
Continuous
 62
     7
370
    15
100
AcDbLine
 10
5.763053387703952
 20
6.825138243506432
 30
0.0
 11
5.763053387703952
 21
6.843405739813754
 31
0.0
  0
LINE
  5
334
330
1F
100
AcDbEntity
  8
0
  6
Continuous
 62
     7
370
    15
100
AcDbLine
 10
4.370936933928234
 20
9.698810477415273
 30
0.0
 11
4.459325282128796
 21
9.675130262076121
 31
0.0
  0
LINE
  5
335
330
1F
100
AcDbEntity
  8
0
  6
Continuous
 62
     7
370
    15
100
AcDbLine
 10
4.209235011619854
 20
9.559061584655481
 30
0.0
 11
4.370936933928234
 21
9.698810477415273
 31
0.0
  0
LINE
  5
336
330
1F
100
AcDbEntity
  8
0
  6
Continuous
 62
     7
370
    15
100
AcDbLine
 10
4.650170279800358
 20
9.668862613367076
 30
0.0
 11
4.738558628000919
 21
9.645182398027923
 31
0.0
  0
LINE
  5
337
330
1F
100
AcDbEntity
  8
0
  6
Continuous
 62
     7
370
    15
100
AcDbLine
 10
4.370936933928234
 20
9.698810477415273
 30
0.0
 11
4.650170279800358
 21
9.668862613367076
 31
0.0
  0
LINE
  5
338
330
1F
100
AcDbEntity
  8
0
  6
Continuous
 62
     7
370
    15
100
AcDbLine
 10
4.988343099867443
 20
9.864220412760886
 30
0.0
 11
5.076731448068005
 21
9.840540197421734
 31
0.0
  0
LINE
  5
339
330
1F
100
AcDbEntity
  8
0
  6
Continuous
 62
     7
370
    15
100
AcDbLine
 10
4.650170279800358
 20
9.668862613367076
 30
0.0
 11
4.988343099867443
 21
9.864220412760886
 31
0.0
  0
LINE
  5
33A
330
1F
100
AcDbEntity
  8
0
  6
Continuous
 62
     7
370
    15
100
AcDbLine
 10
5.294084728926208
 20
9.893753051169454
 30
0.0
 11
5.38247307712677
 21
9.870072835830301
 31
0.0
  0
LINE
  5
33B
330
1F
100
AcDbEntity
  8
0
  6
Continuous
 62
     7
370
    15
100
AcDbLine
 10
4.988343099867443
 20
9.864220412760886
 30
0.0
 11
5.294084728926208
 21
9.893753051169454
 31
0.0
  0
LINE
  5
33C
330
1F
100
AcDbEntity
  8
0
  6
Continuous
 62
     7
370
    15
100
AcDbLine
 10
5.556776193095525
 20
10.01650992068332
 30
0.0
 11
5.645164541296087
 21
9.992829705344176
 31
0.0
  0
LINE
  5
33D
330
1F
100
AcDbEntity
  8
0
  6
Continuous
 62
     7
370
    15
100
AcDbLine
 10
5.294084728926208
 20
9.893753051169454
 30
0.0
 11
5.556776193095525
 21
10.01650992068332
 31
0.0
  0
LINE
  5
33E
330
1F
100
AcDbEntity
  8
0
  6
Continuous
 62
     7
370
    15
100
AcDbLine
 10
4.370936933928234
 20
3.186257178238014
 30
0.0
 11
4.459325282128796
 21
3.162576962898862
 31
0.0
  0
LINE
  5
33F
330
1F
100
AcDbEntity
  8
0
  6
Continuous
 62
     7
370
    15
100
AcDbLine
 10
4.370936933928234
 20
3.186257178238014
 30
0.0
 11
4.279676769382158
 21
3.216228329249403
 31
0.0
  0
LINE
  5
340
330
1F
100
AcDbEntity
  8
0
  6
Continuous
 62
     7
370
    15
100
AcDbLine
 10
7.250629277305575
 20
9.66780557998771
 30
0.0
 11
7.862276704865018
 21
9.831672685676574
 31
0.0
  0
LINE
  5
341
330
1F
100
AcDbEntity
  8
0
  6
Continuous
 62
     7
370
    15
100
AcDbLine
 10
7.862276704865018
 20
9.831672685676574
 30
0.0
 11
7.862276704865018
 21
9.651027263860882
 31
0.0
  0
LINE
  5
342
330
1F
100
AcDbEntity
  8
0
  6
Continuous
 62
     7
370
    15
100
AcDbLine
 10
7.862276704865018
 20
9.831672685676574
 30
0.0
 11
7.729694175272221
 21
9.867193010638898
 31
0.0
  0
LINE
  5
343
330
1F
100
AcDbEntity
  8
0
  6
Continuous
 62
     7
370
    15
100
AcDbLine
 10
6.569283398170272
 20
10.17807988252946
 30
0.0
 11
5.336205994020054
 21
10.50843494690811
 31
0.0
  0
LINE
  5
344
330
1F
100
AcDbEntity
  8
0
  6
Continuous
 62
     7
370
    15
100
AcDbLine
 10
1.450583077510635
 20
9.4655772885237
 30
0.0
 11
3.045111709299364
 21
9.038385445549991
 31
0.0
  0
LINE
  5
345
330
1F
100
AcDbEntity
  8
0
  6
Continuous
 62
     7
370
    15
100
AcDbLine
 10
1.450583077510635
 20
9.4655772885237
 30
0.0
 11
1.587482761739235
 21
9.483257099200764
 31
0.0
  0
LINE
  5
346
330
1F
100
AcDbEntity
  8
0
  6
Continuous
 62
     7
370
    15
100
AcDbLine
 10
1.587482761739235
 20
9.483257099200764
 30
0.0
 11
1.923544142922813
 21
9.611285912774967
 31
0.0
  0
LINE
  5
347
330
1F
100
AcDbEntity
  8
0
  6
Continuous
 62
     7
370
    15
100
AcDbLine
 10
1.923544142922813
 20
9.611285912774967
 30
0.0
 11
2.331951616282526
 21
9.704750838176282
 31
0.0
  0
LINE
  5
348
330
1F
100
AcDbEntity
  8
0
  6
Continuous
 62
     7
370
    15
100
AcDbLine
 10
2.331951616282526
 20
9.704750838176282
 30
0.0
 11
2.421567856691864
 21
9.774589493947624
 31
0.0
  0
LINE
  5
349
330
1F
100
AcDbEntity
  8
0
  6
Continuous
 62
     7
370
    15
100
AcDbLine
 10
2.421567856691864
 20
9.774589493947624
 30
0.0
 11
3.031029120659528
 21
9.907993378086713
 31
0.0
  0
LINE
  5
34A
330
1F
100
AcDbEntity
  8
0
  6
Continuous
 62
     7
370
    15
100
AcDbLine
 10
3.031029120659528
 20
9.907993378086713
 30
0.0
 11
3.223125908705227
 21
9.975410069870953
 31
0.0
  0
LINE
  5
34B
330
1F
100
AcDbEntity
  8
0
  6
Continuous
 62
     7
370
    15
100
AcDbLine
 10
3.223125908705227
 20
9.975410069870953
 30
0.0
 11
3.604733861458686
 21
10.04574326827838
 31
0.0
  0
LINE
  5
34C
330
1F
100
AcDbEntity
  8
0
  6
Continuous
 62
     7
370
    15
100
AcDbLine
 10
3.604733861458686
 20
10.04574326827838
 30
0.0
 11
3.872324710822555
 21
10.13965482895225
 31
0.0
  0
LINE
  5
34D
330
1F
100
AcDbEntity
  8
0
  6
Continuous
 62
     7
370
    15
100
AcDbLine
 10
3.872324710822555
 20
10.13965482895225
 30
0.0
 11
4.28498062592113
 21
10.21571049490304
 31
0.0
  0
LINE
  5
34E
330
1F
100
AcDbEntity
  8
0
  6
Continuous
 62
     7
370
    15
100
AcDbLine
 10
4.28498062592113
 20
10.21571049490304
 30
0.0
 11
4.627792347581022
 21
10.33602083970922
 31
0.0
  0
LINE
  5
34F
330
1F
100
AcDbEntity
  8
0
  6
Continuous
 62
     7
370
    15
100
AcDbLine
 10
4.627792347581022
 20
10.33602083970922
 30
0.0
 11
5.08508420201507
 21
10.42030318007471
 31
0.0
  0
LINE
  5
350
330
1F
100
AcDbEntity
  8
0
  6
Continuous
 62
     7
370
    15
100
AcDbLine
 10
5.08508420201507
 20
10.42030318007471
 30
0.0
 11
5.336205994020054
 21
10.50843494690811
 31
0.0
  0
LINE
  5
351
330
1F
100
AcDbEntity
  8
0
  6
Continuous
 62
     7
370
    15
100
AcDbLine
 10
1.450583077510635
 20
9.284931866708008
 30
0.0
 11
3.045111709299364
 21
8.857740023734299
 31
0.0
  0
LINE
  5
352
330
1F
100
AcDbEntity
  8
0
  6
Continuous
 62
     7
370
    15
100
AcDbLine
 10
1.450583077510635
 20
9.284931866708008
 30
0.0
 11
1.450583077510635
 21
9.4655772885237
 31
0.0
  0
LINE
  5
353
330
1F
100
AcDbEntity
  8
0
  6
Continuous
 62
     7
370
    15
100
AcDbLine
 10
5.785150479210287
 20
6.023565410994937
 30
0.0
 11
5.851441721320606
 21
6.041325567398246
 31
0.0
  0
LINE
  5
354
330
1F
100
AcDbEntity
  8
0
  6
Continuous
 62
     7
370
    15
100
AcDbLine
 10
5.851441721320606
 20
3.331640371981296
 30
0.0
 11
5.851441721320606
 21
6.041325567398246
 31
0.0
  0
LINE
  5
355
330
1F
100
AcDbEntity
  8
0
  6
Continuous
 62
     7
370
    15
100
AcDbLine
 10
5.851441721320606
 20
3.331640371981296
 30
0.0
 11
5.586276688061959
 21
3.260599729002767
 31
0.0
  0
LINE
  5
356
330
1F
100
AcDbEntity
  8
0
  6
Continuous
 62
     7
370
    15
100
AcDbLine
 10
5.586276688061959
 20
3.260599729002767
 30
0.0
 11
5.586276688061959
 21
3.476241490313749
 31
0.0
  0
LINE
  5
357
330
1F
100
AcDbEntity
  8
0
  6
Continuous
 62
     7
370
    15
100
AcDbLine
 10
5.586276688061959
 20
3.260599729002767
 30
0.0
 11
5.313384691525311
 21
3.333710510840838
 31
0.0
  0
LINE
  5
358
330
1F
100
AcDbEntity
  8
0
  6
Continuous
 62
     7
370
    15
100
AcDbLine
 10
5.313384691525311
 20
3.333710510840838
 30
0.0
 11
5.276917478272379
 21
3.162834775879505
 31
0.0
  0
LINE
  5
359
330
1F
100
AcDbEntity
  8
0
  6
Continuous
 62
     7
370
    15
100
AcDbLine
 10
5.276917478272379
 20
3.162834775879505
 30
0.0
 11
5.226663194986693
 21
3.29672882918812
 31
0.0
  0
LINE
  5
35A
330
1F
100
AcDbEntity
  8
0
  6
Continuous
 62
     7
370
    15
100
AcDbLine
 10
5.226663194986693
 20
3.29672882918812
 30
0.0
 11
5.08933203447062
 21
3.333521364856023
 31
0.0
  0
LINE
  5
35B
330
1F
100
AcDbEntity
  8
0
  6
Continuous
 62
     7
370
    15
100
AcDbLine
 10
5.542082511531027
 20
3.233875418858034
 30
0.0
 11
5.276917478272379
 21
3.162834775879505
 31
0.0
  0
LINE
  5
35C
330
1F
100
AcDbEntity
  8
0
  6
Continuous
 62
     7
370
    15
100
AcDbLine
 10
5.549867544693348
 20
3.270353973700007
 30
0.0
 11
5.542082511531027
 21
3.233875418858034
 31
0.0
  0
LINE
  5
35D
330
1F
100
AcDbEntity
  8
0
  6
Continuous
 62
     7
370
    15
100
AcDbLine
 10
2.93462626473116
 20
5.259878470323019
 30
0.0
 11
3.045111780598471
 21
5.289478761095039
 31
0.0
  0
LINE
  5
35E
330
1F
100
AcDbEntity
  8
0
  6
Continuous
 62
     7
370
    15
100
AcDbLine
 10
3.199791336880231
 20
2.621233928303772
 30
0.0
 11
3.199791336880231
 21
2.873957950438717
 31
0.0
  0
LINE
  5
35F
330
1F
100
AcDbEntity
  8
0
  6
Continuous
 62
     7
370
    15
100
AcDbLine
 10
3.199791336880231
 20
2.621233928303772
 30
0.0
 11
2.93462626473116
 21
2.550193274906068
 31
0.0
  0
LINE
  5
360
330
1F
100
AcDbEntity
  8
0
  6
Continuous
 62
     7
370
    15
100
AcDbLine
 10
2.93462626473116
 20
2.550193274906068
 30
0.0
 11
2.93462626473116
 21
5.259878470323019
 31
0.0
  0
LINE
  5
361
330
1F
100
AcDbEntity
  8
0
  6
Continuous
 62
     7
370
    15
100
AcDbLine
 10
2.315907812743315
 20
5.176997738848871
 30
0.0
 11
2.315907812743315
 21
2.655739457177507
 31
0.0
  0
LINE
  5
362
330
1F
100
AcDbEntity
  8
0
  6
Continuous
 62
     7
370
    15
100
AcDbLine
 10
2.93462626473116
 20
2.550193274906068
 30
0.0
 11
2.661734268194513
 21
2.62330405674414
 31
0.0
  0
LINE
  5
363
330
1F
100
AcDbEntity
  8
0
  6
Continuous
 62
     7
370
    15
100
AcDbLine
 10
2.661734268194513
 20
2.62330405674414
 30
0.0
 11
2.625267054941581
 21
2.452428321782806
 31
0.0
  0
LINE
  5
364
330
1F
100
AcDbEntity
  8
0
  6
Continuous
 62
     7
370
    15
100
AcDbLine
 10
2.625267054941581
 20
2.452428321782806
 30
0.0
 11
2.575012771655895
 21
2.586322375091422
 31
0.0
  0
LINE
  5
365
330
1F
100
AcDbEntity
  8
0
  6
Continuous
 62
     7
370
    15
100
AcDbLine
 10
2.575012771655895
 20
2.586322375091422
 30
0.0
 11
2.315907812743315
 21
2.655739457177507
 31
0.0
  0
LINE
  5
366
330
1F
100
AcDbEntity
  8
0
  6
Continuous
 62
     7
370
    15
100
AcDbLine
 10
2.890432127090652
 20
2.52346897518051
 30
0.0
 11
2.625267054941581
 21
2.452428321782806
 31
0.0
  0
LINE
  5
367
330
1F
100
AcDbEntity
  8
0
  6
Continuous
 62
     7
370
    15
100
AcDbLine
 10
2.898217160252973
 20
2.559947530022483
 30
0.0
 11
2.890432127090652
 21
2.52346897518051
 31
0.0
  0
ARC
  5
368
330
1F
100
AcDbEntity
  8
0
  6
Continuous
 62
     8
370
    15
100
AcDbCircle
 10
4.279962723517621
 20
6.07829645555897
 30
0.0
 40
0.0520010837103998
100
AcDbArc
 50
132.9177992760814
 51
180.9478128622476
  0
ARC
  5
369
330
1F
100
AcDbEntity
  8
0
  6
Continuous
 62
     8
370
    15
100
AcDbCircle
 10
4.271919078941811
 20
6.077037512216163
 30
0.0
 40
0.0439521330794643
100
AcDbArc
 50
179.4801752738919
 51
197.9355027834553
  0
LWPOLYLINE
  5
36A
330
1F
100
AcDbEntity
  8
0
  6
Continuous
 62
     8
370
    15
100
AcDbPolyline
 90
       38
 70
   128
 43
0.0
 10
4.229775222239427
 20
6.079405138750614
 10
4.22973653923132
 20
6.077436274190358
 10
4.230021424548397
 20
6.072208349718374
 10
4.23087016915522
 20
6.067244496805099
 10
4.2322646241874
 20
6.062650529085776
 10
4.234175025507328
 20
6.058524379344598
 10
4.236560719658767
 20
6.054953997825128
 10
4.239370786113617
 20
6.052015434711402
 10
4.24254538547328
 20
6.049771329055431
 10
4.246016796546619
 20
6.048269561632342
 10
4.249711179382503
 20
6.047542066960891
 10
4.253549716055569
 20
6.047604432415404
 10
4.257450477406554
 20
6.048455267918646
 10
4.261330497198232
 20
6.050076443698387
 10
4.265107016608971
 20
6.052433423700984
 10
4.268699454680865
 20
6.05547597012551
 10
4.272031482475664
 20
6.059139264326786
 10
4.275031749029355
 20
6.063345125756564
 10
4.277636577754868
 20
6.068004041416386
 10
4.279790381273259
 20
6.073016690029824
 10
4.281447217030665
 20
6.078276160428249
 10
4.282571824376266
 20
6.083670419598757
 10
4.283140143101265
 20
6.089084465180461
 10
4.283140143101265
 20
6.094402949898626
 10
4.282571824376266
 20
6.09951247774551
 10
4.281447217030665
 20
6.104304147442227
 10
4.279790381273259
 20
6.108675848619578
 10
4.277636577754868
 20
6.112534441700763
 10
4.275031749029355
 20
6.115797632553019
 10
4.272031482475664
 20
6.118395884846237
 10
4.268699454680865
 20
6.120273804904808
 10
4.265107016608971
 20
6.121391443604121
 10
4.261330497198232
 20
6.121724881031268
 10
4.257450477406554
 20
6.121267056443707
 10
4.253549716055569
 20
6.120027777793703
 10
4.249711179382503
 20
6.118033370452798
 10
4.246016796546619
 20
6.115326343798228
 10
4.242781113294799
 20
6.112221398690873
  0
ARC
  5
36B
330
1F
100
AcDbEntity
  8
0
  6
Continuous
 62
     8
370
    15
100
AcDbCircle
 10
4.263086362207131
 20
6.079560274269635
 30
0.0
 40
0.0443998632795044
100
AcDbArc
 50
179.5323132477966
 51
196.3770298172681
  0
ARC
  5
36C
330
1F
100
AcDbEntity
  8
0
  6
Continuous
 62
     8
370
    15
100
AcDbCircle
 10
4.271836321672169
 20
6.080373997167304
 30
0.0
 40
0.0531502596669166
100
AcDbArc
 50
135.0774188078141
 51
180.4865112863554
  0
ARC
  5
36D
330
1F
100
AcDbEntity
  8
0
  6
Continuous
 62
     8
370
    15
100
AcDbCircle
 10
4.41254494285732
 20
6.294462621564947
 30
0.0
 40
0.0520007692503097
100
AcDbArc
 50
132.9176449043212
 51
180.9479672340077
  0
ARC
  5
36E
330
1F
100
AcDbEntity
  8
0
  6
Continuous
 62
     8
370
    15
100
AcDbCircle
 10
4.404496042637656
 20
6.293202689863552
 30
0.0
 40
0.0439465686825764
100
AcDbArc
 50
179.4789966820443
 51
197.9366813753006
  0
LWPOLYLINE
  5
36F
330
1F
100
AcDbEntity
  8
0
  6
Continuous
 62
     8
370
    15
100
AcDbPolyline
 90
       38
 70
   128
 43
0.0
 10
4.362357758313963
 20
6.295571169872031
 10
4.362319075305857
 20
6.293602305311774
 10
4.362603960622932
 20
6.288374345513931
 10
4.363452705229756
 20
6.283410492600657
 10
4.364847160261935
 20
6.278816560207192
 10
4.366757561581864
 20
6.274690410466014
 10
4.369143152025506
 20
6.271119965836221
 10
4.371953322188153
 20
6.26818143050696
 10
4.375127921547815
 20
6.265937360176849
 10
4.378599332621155
 20
6.2644355574279
 10
4.38229371545704
 20
6.263708098082308
 10
4.386132252130105
 20
6.26377046353682
 10
4.390033013481089
 20
6.264621263714203
 10
4.393913033272768
 20
6.266242439493944
 10
4.397689552683506
 20
6.268599454822401
 10
4.4012819907554
 20
6.271641965921067
 10
4.404613914842403
 20
6.275305232337878
 10
4.407614285103892
 20
6.27951115687798
 10
4.410219113829403
 20
6.284170072537803
 10
4.412372917347794
 20
6.289182685825381
 10
4.414029753105201
 20
6.294442156223806
 10
4.415154360450802
 20
6.299836415394314
 10
4.415722679175801
 20
6.305250496301878
 10
4.415722679175801
 20
6.310568945694185
 10
4.415154360450802
 20
6.315678473541068
 10
4.414029753105201
 20
6.320470178563643
 10
4.412372917347794
 20
6.324841879740993
 10
4.410219113829403
 20
6.32870043749632
 10
4.407614285103892
 20
6.331963628348576
 10
4.404613914842403
 20
6.334561888183189
 10
4.4012819907554
 20
6.336439836026224
 10
4.397689552683506
 20
6.337557439399678
 10
4.393913033272768
 20
6.337890876826826
 10
4.390033013481089
 20
6.337433087565123
 10
4.386132252130105
 20
6.336193773589261
 10
4.38229371545704
 20
6.334199366248356
 10
4.378599332621155
 20
6.331492374919646
 10
4.375363545661538
 20
6.328387366701965
  0
ARC
  5
370
330
1F
100
AcDbEntity
  8
0
  6
Continuous
 62
     8
370
    15
100
AcDbCircle
 10
4.395661637298541
 20
6.295725256454494
 30
0.0
 40
0.0443926111141375
100
AcDbArc
 50
179.5308829768137
 51
196.3784170167283
  0
ARC
  5
371
330
1F
100
AcDbEntity
  8
0
  6
Continuous
 62
     8
370
    15
100
AcDbCircle
 10
4.404418295673269
 20
6.296540222967123
 30
0.0
 40
0.0531496992671559
100
AcDbArc
 50
135.077166498672
 51
180.4867262885209
  0
ARC
  5
372
330
1F
100
AcDbEntity
  8
0
  6
Continuous
 62
     8
370
    15
100
AcDbCircle
 10
6.578058400067948
 20
8.968536817655156
 30
0.0
 40
0.0519997732632624
100
AcDbArc
 50
132.9171620153973
 51
180.9481878155022
  0
ARC
  5
373
330
1F
100
AcDbEntity
  8
0
  6
Continuous
 62
     8
370
    15
100
AcDbCircle
 10
6.570019785193201
 20
8.967277884340113
 30
0.0
 40
0.0439558437499302
100
AcDbArc
 50
179.4806474997797
 51
197.9347262235735
  0
LWPOLYLINE
  5
374
330
1F
100
AcDbEntity
  8
0
  6
Continuous
 62
     8
370
    15
100
AcDbPolyline
 90
       38
 70
   128
 43
0.0
 10
6.527872213877553
 20
8.969645147166316
 10
6.527833530869446
 20
8.967676317931918
 10
6.528118519894318
 20
8.962448421244399
 10
6.528967264501141
 20
8.95748432105011
 10
6.530361615825523
 20
8.952890502175618
 10
6.532272017145452
 20
8.948764458412016
 10
6.53465771129689
 20
8.945193900263252
 10
6.537467777751742
 20
8.942255337149527
 10
6.540642377111405
 20
8.940011302145274
 10
6.54411389189254
 20
8.938509527180791
 10
6.547808274728424
 20
8.937782173812776
 10
6.551646707693693
 20
8.937844299527668
 10
6.555547572752475
 20
8.938695233467091
 10
6.559427592544153
 20
8.940316338595115
 10
6.563204008247097
 20
8.94267329081325
 10
6.566796550026785
 20
8.945716041651532
 10
6.570128474113788
 20
8.949379096113192
 10
6.573128844375276
 20
8.953585232608446
 10
6.575733673100788
 20
8.958244112942413
 10
6.57788747661918
 20
8.963256655578272
 10
6.579544312376586
 20
8.968516161302554
 10
6.58066881601439
 20
8.973910286711022
 10
6.581237134739389
 20
8.979324402944444
 10
6.581237134739389
 20
8.984642781685032
 10
6.58066881601439
 20
8.989752380183634
 10
6.579544312376586
 20
8.994543971687237
 10
6.57788747661918
 20
8.998915708190448
 10
6.575733673100788
 20
9.002774477900929
 10
6.573128844375276
 20
9.006037633427323
 10
6.570128474113788
 20
9.008635822610219
 10
6.566796550026785
 20
9.010513841104973
 10
6.563204008247097
 20
9.011631346042245
 10
6.559427592544153
 20
9.011964811253857
 10
6.555547572752475
 20
9.011506916014578
 10
6.551646707693693
 20
9.010267680231827
 10
6.547808274728424
 20
9.008273371327106
 10
6.54411389189254
 20
9.005566203369099
 10
6.540878104932923
 20
9.002461336454855
  0
ARC
  5
375
330
1F
100
AcDbEntity
  8
0
  6
Continuous
 62
     8
370
    15
100
AcDbCircle
 10
6.561178141770372
 20
8.969799822635396
 30
0.0
 40
0.0443946562370269
100
AcDbArc
 50
179.5316187577697
 51
196.3784908042319
  0
ARC
  5
376
330
1F
100
AcDbEntity
  8
0
  6
Continuous
 62
     8
370
    15
100
AcDbCircle
 10
6.569933341302255
 20
8.970613819923981
 30
0.0
 40
0.0531502865902654
100
AcDbArc
 50
135.0774336748595
 51
180.4862725765668
  0
ARC
  5
377
330
1F
100
AcDbEntity
  8
0
  6
Continuous
 62
     8
370
    15
100
AcDbCircle
 10
7.152584421602072
 20
7.240731768854634
 30
0.0
 40
0.052001498501645
100
AcDbArc
 50
132.918002032515
 51
180.9476475780734
  0
ARC
  5
378
330
1F
100
AcDbEntity
  8
0
  6
Continuous
 62
     8
370
    15
100
AcDbCircle
 10
7.144539637189508
 20
7.239472892278347
 30
0.0
 40
0.0439514111810539
100
AcDbArc
 50
179.4800671833096
 51
197.9356543511787
  0
LWPOLYLINE
  5
379
330
1F
100
AcDbEntity
  8
0
  6
Continuous
 62
     8
370
    15
100
AcDbPolyline
 90
       38
 70
   128
 43
0.0
 10
7.102396502297942
 20
7.241840630718811
 10
7.102357819289835
 20
7.239871730832694
 10
7.10264270460691
 20
7.234643806360709
 10
7.103491449213733
 20
7.229679918121577
 10
7.104885904245913
 20
7.225085985728114
 10
7.106796305565841
 20
7.220959871312794
 10
7.10918199971728
 20
7.217389454467466
 10
7.111992066172131
 20
7.214450891353738
 10
7.115166665531794
 20
7.212206785697769
 10
7.118638180312929
 20
7.210705010733286
 10
7.122332459441016
 20
7.209977558929089
 10
7.126170996114082
 20
7.210039853731882
 10
7.130071757465067
 20
7.210890689235124
 10
7.133951777256745
 20
7.212511865014865
 10
7.137728296667484
 20
7.21486891566918
 10
7.141320838447175
 20
7.217911454552311
 10
7.144652762534177
 20
7.221574720969123
 10
7.147653132795665
 20
7.225780645509224
 10
7.150257961521177
 20
7.230439525843189
 10
7.152411661331773
 20
7.235452111346302
 10
7.154068497089178
 20
7.240711617070584
 10
7.15519310443478
 20
7.246105840915236
 10
7.155761423159778
 20
7.251519957148658
 10
7.155761423159778
 20
7.256838406540963
 10
7.15519310443478
 20
7.261947934387848
 10
7.154068497089178
 20
7.266739568758705
 10
7.152411661331773
 20
7.271111305261914
 10
7.150257961521177
 20
7.274969890801706
 10
7.147653132795665
 20
7.278233116979821
 10
7.144652762534177
 20
7.280831376814433
 10
7.141320838447175
 20
7.282709324657469
 10
7.137728296667484
 20
7.283826900246458
 10
7.133951777256745
 20
7.284160337673606
 10
7.130071757465067
 20
7.283702513086044
 10
7.126170996114082
 20
7.282463234436041
 10
7.122332459441016
 20
7.280468827095135
 10
7.118638180312929
 20
7.277761828225031
 10
7.115402393353312
 20
7.274656820007351
  0
ARC
  5
37A
330
1F
100
AcDbEntity
  8
0
  6
Continuous
 62
     8
370
    15
100
AcDbCircle
 10
7.135699446068887
 20
7.241994955850622
 30
0.0
 40
0.0443916745022506
100
AcDbArc
 50
179.5312262977529
 51
196.3790555592204
  0
ARC
  5
37B
330
1F
100
AcDbEntity
  8
0
  6
Continuous
 62
     8
370
    15
100
AcDbCircle
 10
7.144457674604331
 20
7.242809423929819
 30
0.0
 40
0.053150333092578
100
AcDbArc
 50
135.0774519253884
 51
180.4864781687808
  0
ARC
  5
37C
330
1F
100
AcDbEntity
  8
0
  6
Continuous
 62
     8
370
    15
100
AcDbCircle
 10
7.020001694943704
 20
7.385857158648938
 30
0.0
 40
0.0520013081435167
100
AcDbArc
 50
132.9179103172529
 51
180.947664348756
  0
ARC
  5
37D
330
1F
100
AcDbEntity
  8
0
  6
Continuous
 62
     8
370
    15
100
AcDbCircle
 10
7.011958210181299
 20
7.384598371238696
 30
0.0
 40
0.0439525192831961
100
AcDbArc
 50
179.4802122677171
 51
197.9354223126994
  0
LWPOLYLINE
  5
37E
330
1F
100
AcDbEntity
  8
0
  6
Continuous
 62
     8
370
    15
100
AcDbPolyline
 90
       38
 70
   128
 43
0.0
 10
6.969813966223405
 20
7.386965937790805
 10
6.969775283215298
 20
7.384997108556408
 10
6.97006027224017
 20
7.37976914121717
 10
6.970908913139198
 20
7.374805295845291
 10
6.972303368171377
 20
7.370211363451826
 10
6.974213769491306
 20
7.366085178384789
 10
6.976599463642744
 20
7.362514832191178
 10
6.979409530097595
 20
7.359576269077452
 10
6.982584129457258
 20
7.357332163421482
 10
6.986055644238393
 20
7.355830388456998
 10
6.989750027074278
 20
7.355102893785548
 10
6.993588460039546
 20
7.355165231455596
 10
6.997489325098328
 20
7.356016094743301
 10
7.00136924118221
 20
7.357637242738577
 10
7.005145760592949
 20
7.359994222741176
 10
7.008738302372638
 20
7.363036832276024
 10
7.012070226459641
 20
7.366700098692835
 10
7.015070596721129
 20
7.370905952581219
 10
7.017675425446642
 20
7.375564903566901
 10
7.019829125257237
 20
7.380577489070014
 10
7.021485961014643
 20
7.385836994794298
 10
7.022610568360245
 20
7.391231218638949
 10
7.023178887085243
 20
7.396645264220652
 10
7.023178887085243
 20
7.401963784264677
 10
7.022610568360245
 20
7.407073312111561
 10
7.021485961014643
 20
7.411864946482417
 10
7.019829125257237
 20
7.416236682985628
 10
7.017675425446642
 20
7.420095268525418
 10
7.015070596721129
 20
7.423358424051815
 10
7.012070226459641
 20
7.425956683886428
 10
7.008738302372638
 20
7.427834631729465
 10
7.005145760592949
 20
7.428952277970171
 10
7.00136924118221
 20
7.429285715397318
 10
6.997489325098328
 20
7.428827918594222
 10
6.993588460039546
 20
7.427588612159754
 10
6.989750027074278
 20
7.425594161951595
 10
6.986055644238393
 20
7.422887205948744
 10
6.982819857278776
 20
7.419782197731064
  0
ARC
  5
37F
330
1F
100
AcDbEntity
  8
0
  6
Continuous
 62
     8
370
    15
100
AcDbCircle
 10
7.003116909994412
 20
7.387120333574351
 30
0.0
 40
0.0443916745023136
100
AcDbArc
 50
179.5312262977731
 51
196.3790555592168
  0
ARC
  5
380
330
1F
100
AcDbEntity
  8
0
  6
Continuous
 62
     8
370
    15
100
AcDbCircle
 10
7.01187513911569
 20
7.387934731601835
 30
0.0
 40
0.0531503330837231
100
AcDbArc
 50
135.0774528293762
 51
180.4864026507784
  0
ARC
  5
381
330
1F
100
AcDbEntity
  8
0
  6
Continuous
 62
     8
370
    15
100
AcDbCircle
 10
4.014797946422652
 20
6.007255676509655
 30
0.0
 40
0.0520013766458049
100
AcDbArc
 50
132.9179430793021
 51
180.947669059029
  0
ARC
  5
382
330
1F
100
AcDbEntity
  8
0
  6
Continuous
 62
     8
370
    15
100
AcDbCircle
 10
4.006754006792766
 20
6.005996858818463
 30
0.0
 40
0.0439521330794898
100
AcDbArc
 50
179.4801752738968
 51
197.935502783447
  0
LWPOLYLINE
  5
383
330
1F
100
AcDbEntity
  8
0
  6
Continuous
 62
     8
370
    15
100
AcDbPolyline
 90
       38
 70
   128
 43
0.0
 10
3.964610150090356
 20
6.008364485352911
 10
3.964571467082249
 20
6.006395620792654
 10
3.964856456107122
 20
6.001167724105135
 10
3.965705097006149
 20
5.996203843407396
 10
3.967099552038328
 20
5.991609875688072
 10
3.969009953358257
 20
5.987483725946894
 10
3.971395647509695
 20
5.983913344427424
 10
3.974205713964545
 20
5.980974781313698
 10
3.977380313324209
 20
5.978730675657728
 10
3.980851828105345
 20
5.977228936019104
 10
3.984546107233433
 20
5.976501413563189
 10
3.988384643906498
 20
5.976563779017701
 10
3.992285508965279
 20
5.977414642305406
 10
3.996165425049161
 20
5.979035790300683
 10
3.9999419444599
 20
5.981392770303281
 10
4.00353448623959
 20
5.98443534451227
 10
4.006866410326593
 20
5.988098610929083
 10
4.00986678058808
 20
5.992304500143324
 10
4.012471609313593
 20
5.996963415803148
 10
4.014625309124187
 20
6.001976036632119
 10
4.016282144881594
 20
6.007235507030545
 10
4.017406752227195
 20
6.012629766201054
 10
4.017975070952194
 20
6.018043811782759
 10
4.017975070952194
 20
6.023362296500923
 10
4.017406752227195
 20
6.028471824347807
 10
4.016282144881594
 20
6.033263494044524
 10
4.014625309124187
 20
6.037635195221874
 10
4.012471609313593
 20
6.041493816087524
 10
4.00986678058808
 20
6.04475700693978
 10
4.006866410326593
 20
6.047355231448535
 10
4.00353448623959
 20
6.04923317929157
 10
3.9999419444599
 20
6.050350790206418
 10
3.996165425049161
 20
6.050684227633565
 10
3.992285508965279
 20
6.050226430830469
 10
3.988384643906498
 20
6.048987124396
 10
3.984546107233433
 20
6.046992717055094
 10
3.980851828105345
 20
6.04428571818499
 10
3.977616041145727
 20
6.041180745293169
  0
ARC
  5
384
330
1F
100
AcDbEntity
  8
0
  6
Continuous
 62
     8
370
    15
100
AcDbCircle
 10
3.997913289746529
 20
6.00851887285379
 30
0.0
 40
0.0443918693477103
100
AcDbArc
 50
179.5312635408656
 51
196.3790183161104
  0
ARC
  5
385
330
1F
100
AcDbEntity
  8
0
  6
Continuous
 62
     8
370
    15
100
AcDbCircle
 10
4.006671590310605
 20
6.009333204571642
 30
0.0
 40
0.0531505992603837
100
AcDbArc
 50
135.0775719756597
 51
180.4863581185053
  0
ARC
  5
386
330
1F
100
AcDbEntity
  8
0
  6
Continuous
 62
     8
370
    15
100
AcDbCircle
 10
4.279962655097512
 20
6.680448751124856
 30
0.0
 40
0.0520010152101922
100
AcDbArc
 50
132.917766514773
 51
180.947808151239
  0
ARC
  5
387
330
1F
100
AcDbEntity
  8
0
  6
Continuous
 62
     8
370
    15
100
AcDbCircle
 10
4.271919465387034
 20
6.679189838063772
 30
0.0
 40
0.0439525192831252
100
AcDbArc
 50
179.4802122677023
 51
197.9354223127146
  0
LWPOLYLINE
  5
388
330
1F
100
AcDbEntity
  8
0
  6
Continuous
 62
     8
370
    15
100
AcDbPolyline
 90
       38
 70
   128
 43
0.0
 10
4.229775222239427
 20
6.681557404398826
 10
4.22973653923132
 20
6.679588575164428
 10
4.230021424548397
 20
6.674360650692444
 10
4.23087016915522
 20
6.669396762453311
 10
4.2322646241874
 20
6.664802830059847
 10
4.234175025507328
 20
6.660676644992808
 10
4.236560719658767
 20
6.657106298799199
 10
4.239370786113617
 20
6.654167735685471
 10
4.24254538547328
 20
6.651923630029502
 10
4.246016796546619
 20
6.650421827280554
 10
4.249711179382503
 20
6.649694332609104
 10
4.253549716055569
 20
6.649756698063615
 10
4.257450477406554
 20
6.650607533566857
 10
4.261330497198232
 20
6.652228709346598
 10
4.265107016608971
 20
6.654585689349196
 10
4.268699454680865
 20
6.65762827109958
 10
4.272031482475664
 20
6.661291565300857
 10
4.275031749029355
 20
6.665497391404774
 10
4.277636577754868
 20
6.670156342390457
 10
4.279790381273259
 20
6.675168955678035
 10
4.281447217030665
 20
6.680428461402319
 10
4.282571824376266
 20
6.685822685246969
 10
4.283140143101265
 20
6.691236730828673
 10
4.283140143101265
 20
6.696555250872696
 10
4.282571824376266
 20
6.701664778719581
 10
4.281447217030665
 20
6.706456413090438
 10
4.279790381273259
 20
6.710828149593648
 10
4.277636577754868
 20
6.714686707348975
 10
4.275031749029355
 20
6.717949862875371
 10
4.272031482475664
 20
6.720548150494449
 10
4.268699454680865
 20
6.722426070553019
 10
4.265107016608971
 20
6.723543744578192
 10
4.261330497198232
 20
6.723877182005339
 10
4.257450477406554
 20
6.723419357417777
 10
4.253549716055569
 20
6.722180078767774
 10
4.249711179382503
 20
6.720185671426868
 10
4.246016796546619
 20
6.717478644772299
 10
4.242781113294799
 20
6.714373664339084
  0
ARC
  5
389
330
1F
100
AcDbEntity
  8
0
  6
Continuous
 62
     8
370
    15
100
AcDbCircle
 10
4.263086167104394
 20
6.681712547981186
 30
0.0
 40
0.0443996684058093
100
AcDbArc
 50
179.5322760128065
 51
196.3770670522557
  0
ARC
  5
38A
330
1F
100
AcDbEntity
  8
0
  6
Continuous
 62
     8
370
    15
100
AcDbCircle
 10
4.271836472918206
 20
6.682526236363465
 30
0.0
 40
0.0531504103829751
100
AcDbArc
 50
135.0774867859869
 51
180.486443308181
  0
ARC
  5
38B
330
1F
100
AcDbEntity
  8
0
  6
Continuous
 62
     8
370
    15
100
AcDbCircle
 10
6.710642478672386
 20
7.483622110035672
 30
0.0
 40
0.0520013081435154
100
AcDbArc
 50
132.9179103172542
 51
180.9476643487571
  0
ARC
  5
38C
330
1F
100
AcDbEntity
  8
0
  6
Continuous
 62
     8
370
    15
100
AcDbCircle
 10
6.702598242598805
 20
7.482363207553752
 30
0.0
 40
0.0439517690470209
100
AcDbArc
 50
179.4800533806635
 51
197.93558119975
  0
LWPOLYLINE
  5
38D
330
1F
100
AcDbEntity
  8
0
  6
Continuous
 62
     8
370
    15
100
AcDbPolyline
 90
       38
 70
   128
 43
0.0
 10
6.660454749952088
 20
7.484730889177537
 10
6.660416066943981
 20
7.48276205994314
 10
6.660701055968853
 20
7.477534092603903
 10
6.66154969686788
 20
7.472570247232023
 10
6.662944151900059
 20
7.467976314838558
 10
6.664854553219988
 20
7.463850129771521
 10
6.667240247371426
 20
7.460279712926193
 10
6.670050313826277
 20
7.457341149812465
 10
6.67322491318594
 20
7.455097114808213
 10
6.676696427967075
 20
7.45359533984373
 10
6.680390810802959
 20
7.45286784517228
 10
6.684229243768229
 20
7.452930182842328
 10
6.68813010882701
 20
7.453781046130034
 10
6.692010024910891
 20
7.455402194125309
 10
6.695786544321632
 20
7.457759174127907
 10
6.699379086101322
 20
7.460801713011037
 10
6.702711010188324
 20
7.46446497942785
 10
6.705711380449811
 20
7.468670903967952
 10
6.708316209175324
 20
7.473329854953634
 10
6.710469908985919
 20
7.478342440456747
 10
6.712126744743326
 20
7.483601875529313
 10
6.713251352088926
 20
7.48899617002568
 10
6.713819670813926
 20
7.494410215607385
 10
6.713819670813926
 20
7.499728664999691
 10
6.713251352088926
 20
7.504838192846575
 10
6.712126744743326
 20
7.50962989786915
 10
6.710469908985919
 20
7.51400163437236
 10
6.708316209175324
 20
7.517860219912151
 10
6.705711380449811
 20
7.521123375438547
 10
6.702711010188324
 20
7.523721635273161
 10
6.699379086101322
 20
7.525599583116196
 10
6.695786544321632
 20
7.526717158705185
 10
6.692010024910891
 20
7.527050596132332
 10
6.68813010882701
 20
7.526592869980954
 10
6.684229243768229
 20
7.525353492894767
 10
6.680390810802959
 20
7.523359113338327
 10
6.676696427967075
 20
7.520652157335476
 10
6.673460641007459
 20
7.517547149117796
  0
ARC
  5
38E
330
1F
100
AcDbEntity
  8
0
  6
Continuous
 62
     8
370
    15
100
AcDbCircle
 10
6.693758105445123
 20
7.48488527383636
 30
0.0
 40
0.0443920863015787
100
AcDbArc
 50
179.5312162875191
 51
196.3789794215042
  0
ARC
  5
38F
330
1F
100
AcDbEntity
  8
0
  6
Continuous
 62
     8
370
    15
100
AcDbCircle
 10
6.702516036244677
 20
7.485699636669031
 30
0.0
 40
0.0531504460867442
100
AcDbArc
 50
135.0775037974528
 51
180.4863516827053
  0
ARC
  5
390
330
1F
100
AcDbEntity
  8
0
  6
Continuous
 62
     8
370
    15
100
AcDbCircle
 10
6.578059942597846
 20
7.267456078914259
 30
0.0
 40
0.0520013081435101
100
AcDbArc
 50
132.9179103172533
 51
180.947664348761
  0
ARC
  5
391
330
1F
100
AcDbEntity
  8
0
  6
Continuous
 62
     8
370
    15
100
AcDbCircle
 10
6.570016457835405
 20
7.266197291504003
 30
0.0
 40
0.0439525192831545
100
AcDbArc
 50
179.480212267705
 51
197.9354223127047
  0
LWPOLYLINE
  5
392
330
1F
100
AcDbEntity
  8
0
  6
Continuous
 62
     8
370
    15
100
AcDbPolyline
 90
       38
 70
   128
 43
0.0
 10
6.527872213877553
 20
7.268564858056121
 10
6.527833530869446
 20
7.266596028821724
 10
6.528118519894318
 20
7.261368061482485
 10
6.528967264501141
 20
7.256404243895071
 10
6.530361615825523
 20
7.251810283717142
 10
6.532272017145452
 20
7.247684098650104
 10
6.53465771129689
 20
7.244113752456494
 10
6.537467777751742
 20
7.241175189342767
 10
6.540642377111405
 20
7.238931083686797
 10
6.54411389189254
 20
7.237429308722314
 10
6.547808274728424
 20
7.236701814050864
 10
6.551646707693693
 20
7.236764151720911
 10
6.555547572752475
 20
7.237615015008616
 10
6.559427592544153
 20
7.239236190788357
 10
6.563204008247097
 20
7.241593143006491
 10
6.566796550026785
 20
7.24463575254134
 10
6.570128474113788
 20
7.248299018958151
 10
6.573128844375276
 20
7.252504872846534
 10
6.575733673100788
 20
7.257163823832218
 10
6.57788747661918
 20
7.262176437119795
 10
6.579544312376586
 20
7.26743594284408
 10
6.58066881601439
 20
7.272830138904264
 10
6.581237134739389
 20
7.278244184485969
 10
6.581237134739389
 20
7.283562704529992
 10
6.58066881601439
 20
7.288672232376876
 10
6.579544312376586
 20
7.293463894532198
 10
6.57788747661918
 20
7.297835631035408
 10
6.575733673100788
 20
7.301694188790735
 10
6.573128844375276
 20
7.304957344317131
 10
6.570128474113788
 20
7.307555604151745
 10
6.566796550026785
 20
7.309433551994779
 10
6.563204008247097
 20
7.310551198235486
 10
6.559427592544153
 20
7.310884663447099
 10
6.555547572752475
 20
7.310426838859538
 10
6.551646707693693
 20
7.309187532425069
 10
6.547808274728424
 20
7.30719308221691
 10
6.54411389189254
 20
7.30448612621406
 10
6.540878104932923
 20
7.301381117996379
  0
ARC
  5
393
330
1F
100
AcDbEntity
  8
0
  6
Continuous
 62
     8
370
    15
100
AcDbCircle
 10
6.561175157648497
 20
7.268719253839651
 30
0.0
 40
0.0443916745022497
100
AcDbArc
 50
179.5312262977529
 51
196.3790555592207
  0
ARC
  5
394
330
1F
100
AcDbEntity
  8
0
  6
Continuous
 62
     8
370
    15
100
AcDbCircle
 10
6.569933386769825
 20
7.269533651867157
 30
0.0
 40
0.0531503330837106
100
AcDbArc
 50
135.0774528293708
 51
180.4864026507862
  0
ARC
  5
395
330
1F
100
AcDbEntity
  8
0
  6
Continuous
 62
     8
370
    15
100
AcDbCircle
 10
6.710642964312448
 20
7.122330563467547
 30
0.0
 40
0.0520017914395401
100
AcDbArc
 50
132.9181458345678
 51
180.9475037760224
  0
ARC
  5
396
330
1F
100
AcDbEntity
  8
0
  6
Continuous
 62
     8
370
    15
100
AcDbCircle
 10
6.702597884843725
 20
7.121071812543676
 30
0.0
 40
0.043951411181125
100
AcDbArc
 50
179.4800671833279
 51
197.9356543511656
  0
LWPOLYLINE
  5
397
330
1F
100
AcDbEntity
  8
0
  6
Continuous
 62
     8
370
    15
100
AcDbPolyline
 90
       38
 70
   128
 43
0.0
 10
6.660454749952088
 20
7.123439550984127
 10
6.660416066943981
 20
7.121470651098011
 10
6.660701055968853
 20
7.116242754410492
 10
6.66154969686788
 20
7.111278838386894
 10
6.662944151900059
 20
7.106684905993429
 10
6.664854553219988
 20
7.10255879157811
 10
6.667240247371426
 20
7.098988374732781
 10
6.670050313826277
 20
7.096049811619055
 10
6.67322491318594
 20
7.093805705963085
 10
6.676696427967075
 20
7.092303930998601
 10
6.680390810802959
 20
7.091576506978869
 10
6.684229243768229
 20
7.091638773997197
 10
6.68813010882701
 20
7.092489637284904
 10
6.692010024910891
 20
7.09411078528018
 10
6.695786544321632
 20
7.096467835934496
 10
6.699379086101322
 20
7.099510374817627
 10
6.702711010188324
 20
7.103173641234438
 10
6.705711380449811
 20
7.107379565774539
 10
6.708316209175324
 20
7.112038446108504
 10
6.710469908985919
 20
7.117051031611617
 10
6.712126744743326
 20
7.122310537335901
 10
6.713251352088926
 20
7.127704761180551
 10
6.713819670813926
 20
7.133118877413973
 10
6.713819670813926
 20
7.13843732680628
 10
6.713251352088926
 20
7.143546854653163
 10
6.712126744743326
 20
7.14833848902402
 10
6.710469908985919
 20
7.15271022552723
 10
6.708316209175324
 20
7.156568811067021
 10
6.705711380449811
 20
7.159832037245136
 10
6.702711010188324
 20
7.162430297079749
 10
6.699379086101322
 20
7.164308244922785
 10
6.695786544321632
 20
7.165425820511774
 10
6.692010024910891
 20
7.165759257938921
 10
6.68813010882701
 20
7.165301461135825
 10
6.684229243768229
 20
7.164062154701356
 10
6.680390810802959
 20
7.162067775144916
 10
6.676696427967075
 20
7.159360748490347
 10
6.673460641007459
 20
7.156255740272666
  0
ARC
  5
398
330
1F
100
AcDbEntity
  8
0
  6
Continuous
 62
     8
370
    15
100
AcDbCircle
 10
6.693757693723066
 20
7.123593876115943
 30
0.0
 40
0.0443916745022834
100
AcDbArc
 50
179.5312262977601
 51
196.3790555592139
  0
ARC
  5
399
330
1F
100
AcDbEntity
  8
0
  6
Continuous
 62
     8
370
    15
100
AcDbCircle
 10
6.702516263045988
 20
7.124408204997178
 30
0.0
 40
0.0531506726861289
100
AcDbArc
 50
135.0776050928137
 51
180.4863250013557
  0
ARC
  5
39A
330
1F
100
AcDbEntity
  8
0
  6
Continuous
 62
     8
370
    15
100
AcDbCircle
 10
7.020001269978162
 20
7.747148679378798
 30
0.0
 40
0.0520008850867101
100
AcDbArc
 50
132.9177043679008
 51
180.9477953533015
  0
ARC
  5
39B
330
1F
100
AcDbEntity
  8
0
  6
Continuous
 62
     8
370
    15
100
AcDbCircle
 10
7.011957816630077
 20
7.745889651177626
 30
0.0
 40
0.0439521269177907
100
AcDbArc
 50
179.4800395789741
 51
197.9355080482257
  0
LWPOLYLINE
  5
39C
330
1F
100
AcDbEntity
  8
0
  6
Continuous
 62
     8
370
    15
100
AcDbPolyline
 90
       38
 70
   128
 43
0.0
 10
6.969813966223405
 20
7.748257346635935
 10
6.969775283215298
 20
7.746288517401538
 10
6.97006027224017
 20
7.741060479410582
 10
6.970908913139198
 20
7.736096634038702
 10
6.972303368171377
 20
7.731502701645237
 10
6.974213769491306
 20
7.727376516578201
 10
6.976599463642744
 20
7.723806241036308
 10
6.979409530097595
 20
7.720867677922582
 10
6.982584129457258
 20
7.718623501614892
 10
6.986055644238393
 20
7.717121726650409
 10
6.989750027074278
 20
7.716394231978959
 10
6.993588460039546
 20
7.716456640300725
 10
6.997489325098328
 20
7.717307432936713
 10
7.00136924118221
 20
7.718928651583707
 10
7.005145760592949
 20
7.721285631586304
 10
7.008738302372638
 20
7.724328099817718
 10
7.012070226459641
 20
7.727991436886247
 10
7.015070596721129
 20
7.732197290774631
 10
7.017675425446642
 20
7.736856312412031
 10
7.019829125257237
 20
7.741868827263425
 10
7.021485961014643
 20
7.74712833298771
 10
7.022610568360245
 20
7.752522627484077
 10
7.023178887085243
 20
7.757936602414064
 10
7.023178887085243
 20
7.763255122458088
 10
7.022610568360245
 20
7.768364720956691
 10
7.021485961014643
 20
7.773156284675828
 10
7.019829125257237
 20
7.777528021179039
 10
7.017675425446642
 20
7.781386677370548
 10
7.015070596721129
 20
7.784649832896945
 10
7.012070226459641
 20
7.78724802207984
 10
7.008738302372638
 20
7.789126040574593
 10
7.005145760592949
 20
7.790243545511864
 10
7.00136924118221
 20
7.790577124242448
 10
6.997489325098328
 20
7.790119256787633
 10
6.993588460039546
 20
7.788879879701446
 10
6.989750027074278
 20
7.786885570796724
 10
6.986055644238393
 20
7.784178544142155
 10
6.982819857278776
 20
7.781073535924475
  0
ARC
  5
39D
330
1F
100
AcDbEntity
  8
0
  6
Continuous
 62
     8
370
    15
100
AcDbCircle
 10
7.003114749533606
 20
7.748411440511243
 30
0.0
 40
0.0443895165850458
100
AcDbArc
 50
179.5308138074792
 51
196.3794680495075
  0
ARC
  5
39E
330
1F
100
AcDbEntity
  8
0
  6
Continuous
 62
     8
370
    15
100
AcDbCircle
 10
7.011875252516001
 20
7.749226094127425
 30
0.0
 40
0.0531504460867518
100
AcDbArc
 50
135.0775037974555
 51
180.4863516827014
  0
ARC
  5
39F
330
1F
100
AcDbEntity
  8
0
  6
Continuous
 62
     8
370
    15
100
AcDbCircle
 10
6.578059517632308
 20
7.628747599644117
 30
0.0
 40
0.0520008850867084
100
AcDbArc
 50
132.9177043679028
 51
180.9477953533045
  0
ARC
  5
3A0
330
1F
100
AcDbEntity
  8
0
  6
Continuous
 62
     8
370
    15
100
AcDbCircle
 10
6.570016064284185
 20
7.627488571442935
 30
0.0
 40
0.0439521269177507
100
AcDbArc
 50
179.4800395789644
 51
197.9355080482315
  0
LWPOLYLINE
  5
3A1
330
1F
100
AcDbEntity
  8
0
  6
Continuous
 62
     8
370
    15
100
AcDbPolyline
 90
       38
 70
   128
 43
0.0
 10
6.527872213877553
 20
7.629856266901251
 10
6.527833530869446
 20
7.627887437666854
 10
6.528118519894318
 20
7.622659399675897
 10
6.528967264501141
 20
7.617695582088483
 10
6.530361615825523
 20
7.613101621910553
 10
6.532272017145452
 20
7.608975436843516
 10
6.53465771129689
 20
7.605405161301623
 10
6.537467777751742
 20
7.602466598187897
 10
6.540642377111405
 20
7.600222421880209
 10
6.54411389189254
 20
7.598720646915725
 10
6.547808274728424
 20
7.597993152244274
 10
6.551646707693693
 20
7.598055560566041
 10
6.555547572752475
 20
7.598906353202028
 10
6.559427592544153
 20
7.600527599633487
 10
6.563204008247097
 20
7.602884551851621
 10
6.566796550026785
 20
7.605927020083033
 10
6.570128474113788
 20
7.609590357151564
 10
6.573128844375276
 20
7.613796211039946
 10
6.575733673100788
 20
7.618455232677347
 10
6.57788747661918
 20
7.623467775313206
 10
6.579544312376586
 20
7.62872728103749
 10
6.58066881601439
 20
7.634121547749394
 10
6.581237134739389
 20
7.63953552267938
 10
6.581237134739389
 20
7.644854042723403
 10
6.58066881601439
 20
7.649963641222006
 10
6.579544312376586
 20
7.654755232725609
 10
6.57788747661918
 20
7.65912696922882
 10
6.575733673100788
 20
7.662985597635864
 10
6.573128844375276
 20
7.66624875316226
 10
6.570128474113788
 20
7.668846942345155
 10
6.566796550026785
 20
7.670724960839909
 10
6.563204008247097
 20
7.67184246577718
 10
6.559427592544153
 20
7.672176072292229
 10
6.555547572752475
 20
7.67171817705295
 10
6.551646707693693
 20
7.670478799966763
 10
6.547808274728424
 20
7.668484491062041
 10
6.54411389189254
 20
7.665777464407471
 10
6.540878104932923
 20
7.66267245618979
  0
ARC
  5
3A2
330
1F
100
AcDbEntity
  8
0
  6
Continuous
 62
     8
370
    15
100
AcDbCircle
 10
6.561172997187703
 20
7.630010360776546
 30
0.0
 40
0.0443895165849945
100
AcDbArc
 50
179.5308138074626
 51
196.3794680495113
  0
ARC
  5
3A3
330
1F
100
AcDbEntity
  8
0
  6
Continuous
 62
     8
370
    15
100
AcDbCircle
 10
6.569933500170136
 20
7.630825014392747
 30
0.0
 40
0.0531504460867377
100
AcDbArc
 50
135.0775037974508
 51
180.4863516827082
  0
ARC
  5
3A4
330
1F
100
AcDbEntity
  8
0
  6
Continuous
 62
     8
370
    15
100
AcDbCircle
 10
7.152583935966237
 20
7.602023315421189
 30
0.0
 40
0.0520010152101863
100
AcDbArc
 50
132.9177665147707
 51
180.9478081512431
  0
ARC
  5
3A5
330
1F
100
AcDbEntity
  8
0
  6
Continuous
 62
     8
370
    15
100
AcDbCircle
 10
7.144539994944581
 20
7.600764287288424
 30
0.0
 40
0.0439517690469438
100
AcDbArc
 50
179.4800533806487
 51
197.9355811997655
  0
LWPOLYLINE
  5
3A6
330
1F
100
AcDbEntity
  8
0
  6
Continuous
 62
     8
370
    15
100
AcDbPolyline
 90
       38
 70
   128
 43
0.0
 10
7.102396502297942
 20
7.603131968912222
 10
7.102357819289835
 20
7.601163139677824
 10
7.10264270460691
 20
7.595935144554122
 10
7.103491449213733
 20
7.590971326966707
 10
7.104885904245913
 20
7.586377394573243
 10
7.106796305565841
 20
7.582251209506205
 10
7.10918199971728
 20
7.578680792660876
 10
7.111992066172131
 20
7.57574222954715
 10
7.115166665531794
 20
7.573498194542898
 10
7.118638180312929
 20
7.571996419578415
 10
7.122332459441016
 20
7.571268897122499
 10
7.126170996114082
 20
7.571331262577012
 10
7.130071757465067
 20
7.572182098080252
 10
7.133951777256745
 20
7.573803273859994
 10
7.137728296667484
 20
7.576160253862592
 10
7.141320838447175
 20
7.579202792745722
 10
7.144652762534177
 20
7.582866059162533
 10
7.147653132795665
 20
7.587071983702635
 10
7.150257961521177
 20
7.591730934688318
 10
7.152411661331773
 20
7.596743520191432
 10
7.154068497089178
 20
7.602002955263996
 10
7.15519310443478
 20
7.607397249760365
 10
7.155761423159778
 20
7.612811295342069
 10
7.155761423159778
 20
7.618129744734375
 10
7.15519310443478
 20
7.623239272581259
 10
7.154068497089178
 20
7.628030977603835
 10
7.152411661331773
 20
7.632402714107045
 10
7.150257961521177
 20
7.636261299646835
 10
7.147653132795665
 20
7.639524455173232
 10
7.144652762534177
 20
7.642122715007845
 10
7.141320838447175
 20
7.64400066285088
 10
7.137728296667484
 20
7.64511823843987
 10
7.133951777256745
 20
7.645451675867017
 10
7.130071757465067
 20
7.644993921931174
 10
7.126170996114082
 20
7.643754572629452
 10
7.122332459441016
 20
7.641760165288546
 10
7.118638180312929
 20
7.639053237070161
 10
7.115402393353312
 20
7.63594822885248
  0
ARC
  5
3A7
330
1F
100
AcDbEntity
  8
0
  6
Continuous
 62
     8
370
    15
100
AcDbCircle
 10
7.13569985779094
 20
7.603286353571038
 30
0.0
 40
0.0443920863015415
100
AcDbArc
 50
179.5312162875118
 51
196.3789794215123
  0
ARC
  5
3A8
330
1F
100
AcDbEntity
  8
0
  6
Continuous
 62
     8
370
    15
100
AcDbCircle
 10
7.144457447802071
 20
7.604100855602321
 30
0.0
 40
0.0531501064923152
100
AcDbArc
 50
135.0773506284993
 51
180.4865048516615
  0
ARC
  5
3A9
330
1F
100
AcDbEntity
  8
0
  6
Continuous
 62
     8
370
    15
100
AcDbCircle
 10
3.882214174271325
 20
6.152381652577918
 30
0.0
 40
0.0520000464844548
100
AcDbArc
 50
132.9172900831958
 51
180.9483220551342
  0
ARC
  5
3AA
330
1F
100
AcDbEntity
  8
0
  6
Continuous
 62
     8
370
    15
100
AcDbCircle
 10
3.874161489701995
 20
6.151120719734915
 30
0.0
 40
0.0439420628143162
100
AcDbArc
 50
179.4780420749597
 51
197.9376359823867
  0
LWPOLYLINE
  5
3AB
330
1F
100
AcDbEntity
  8
0
  6
Continuous
 62
     8
370
    15
100
AcDbPolyline
 90
       38
 70
   128
 43
0.0
 10
3.832027717723618
 20
6.15348989086109
 10
3.831988931007714
 20
6.151520998516368
 10
3.832273920032586
 20
6.146293066502989
 10
3.83312266463941
 20
6.141329213589715
 10
3.834517119671589
 20
6.136735281196251
 10
3.836427417283721
 20
6.132609103670608
 10
3.838813111435159
 20
6.129038686825278
 10
3.84162317789001
 20
6.126100123711553
 10
3.844797880957469
 20
6.123856081165905
 10
3.848269188323012
 20
6.122354250632493
 10
3.851963674866694
 20
6.121626819071367
 10
3.855802107831962
 20
6.121689156741415
 10
3.859702972890744
 20
6.12253998470326
 10
3.863582888974626
 20
6.124161132698537
 10
3.867359512093161
 20
6.126518175811458
 10
3.870951950165054
 20
6.129560686910124
 10
3.874283874252057
 20
6.133223953326936
 10
3.877284140805748
 20
6.137429850082573
 10
3.879889073239057
 20
6.142088793526862
 10
3.882042876757448
 20
6.147101406814439
 10
3.883699712514855
 20
6.152360877212863
 10
3.884824319860456
 20
6.157755136383372
 10
3.885392638585455
 20
6.163169217290937
 10
3.885392638585455
 20
6.168487666683241
 10
3.884824319860456
 20
6.173597194530127
 10
3.883699712514855
 20
6.178388899552701
 10
3.882042876757448
 20
6.182760600730052
 10
3.879889073239057
 20
6.186619158485378
 10
3.877284140805748
 20
6.189882321553169
 10
3.874283874252057
 20
6.192480609172247
 10
3.870951950165054
 20
6.194358557015283
 10
3.867359512093161
 20
6.195476160388736
 10
3.863582888974626
 20
6.195809570031419
 10
3.859702972890744
 20
6.195351808554181
 10
3.855802107831962
 20
6.194112466793853
 10
3.851963674866694
 20
6.192118087237414
 10
3.848269188323012
 20
6.189411068124239
 10
3.845033505071192
 20
6.186306087691023
  0
ARC
  5
3AC
330
1F
100
AcDbEntity
  8
0
  6
Continuous
 62
     8
370
    15
100
AcDbCircle
 10
3.865326332707115
 20
6.153643241884762
 30
0.0
 40
0.0443873533187489
100
AcDbArc
 50
179.529877906603
 51
196.3794220869378
  0
ARC
  5
3AD
330
1F
100
AcDbEntity
  8
0
  6
Continuous
 62
     8
370
    15
100
AcDbCircle
 10
3.874088255082922
 20
6.154458943956181
 30
0.0
 40
0.053149699267155
100
AcDbArc
 50
135.077166498672
 51
180.4867262885209
  0
ARC
  5
3AE
330
1F
100
AcDbEntity
  8
0
  6
Continuous
 62
     8
370
    15
100
AcDbCircle
 10
4.147380361839759
 20
6.223421759014193
 30
0.0
 40
0.0520012568547415
100
AcDbArc
 50
132.9178842735817
 51
180.9477278647514
  0
ARC
  5
3AF
330
1F
100
AcDbEntity
  8
0
  6
Continuous
 62
     8
370
    15
100
AcDbCircle
 10
4.139335999123252
 20
6.222162806659209
 30
0.0
 40
0.0439515901134734
100
AcDbArc
 50
179.4800602818748
 51
197.9356177754667
  0
LWPOLYLINE
  5
3B0
330
1F
100
AcDbEntity
  8
0
  6
Continuous
 62
     8
370
    15
100
AcDbPolyline
 90
       38
 70
   128
 43
0.0
 10
4.097192686164892
 20
6.224530516474327
 10
4.097154003156785
 20
6.22256165191407
 10
4.097438888473861
 20
6.217333692116227
 10
4.098287633080685
 20
6.212369839202954
 10
4.099682088112863
 20
6.20777590680949
 10
4.101592489432793
 20
6.20364975706831
 10
4.103978183584231
 20
6.200079340222982
 10
4.106788250039081
 20
6.197140777109256
 10
4.109962849398745
 20
6.194896706779145
 10
4.11343436417988
 20
6.193394931814661
 10
4.117128643307968
 20
6.192667444684604
 10
4.120967179981033
 20
6.192729810139117
 10
4.124867941332018
 20
6.193580610316499
 10
4.128747961123697
 20
6.19520178609624
 10
4.132524480534436
 20
6.197558801424698
 10
4.136117022314125
 20
6.200601340307827
 10
4.139448946401128
 20
6.20426460672464
 10
4.142449316662617
 20
6.208470531264741
 10
4.145054145388129
 20
6.213129446924564
 10
4.147207845198724
 20
6.218142032427678
 10
4.14886468095613
 20
6.223401502826102
 10
4.14998928830173
 20
6.228795761996611
 10
4.15055760702673
 20
6.234209842904175
 10
4.15055760702673
 20
6.23952829229648
 10
4.14998928830173
 20
6.244637820143364
 10
4.14886468095613
 20
6.24942952516594
 10
4.147207845198724
 20
6.253801226343291
 10
4.145054145388129
 20
6.257659811883082
 10
4.142449316662617
 20
6.260923002735337
 10
4.139448946401128
 20
6.263521262569951
 10
4.136117022314125
 20
6.265399210412986
 10
4.132524480534436
 20
6.266516786001975
 10
4.128747961123697
 20
6.266850223429123
 10
4.124867941332018
 20
6.26639243416742
 10
4.120967179981033
 20
6.265153120191557
 10
4.117128643307968
 20
6.263158712850652
 10
4.11343436417988
 20
6.260451749306407
 10
4.110198577220263
 20
6.257346741088726
  0
ARC
  5
3B1
330
1F
100
AcDbEntity
  8
0
  6
Continuous
 62
     8
370
    15
100
AcDbCircle
 10
4.130495836606305
 20
6.224684871152501
 30
0.0
 40
0.0443918804011206
100
AcDbArc
 50
179.5312212925047
 51
196.3790174903781
  0
ARC
  5
3B2
330
1F
100
AcDbEntity
  8
0
  6
Continuous
 62
     8
370
    15
100
AcDbCircle
 10
4.139253745879932
 20
6.225499356207966
 30
0.0
 40
0.0531502197920104
100
AcDbArc
 50
135.0774012768347
 51
180.4864915103595
  0
ARC
  5
3B3
330
1F
100
AcDbEntity
  8
0
  6
Continuous
 62
     8
370
    15
100
AcDbCircle
 10
7.240972529408289
 20
9.928935974547528
 30
0.0
 40
0.0520012163958886
100
AcDbArc
 50
132.9178635462336
 51
180.9477860643546
  0
ARC
  5
3B4
330
1F
100
AcDbEntity
  8
0
  6
Continuous
 62
     8
370
    15
100
AcDbCircle
 10
7.232923000493033
 20
9.927676206767554
 30
0.0
 40
0.0439463897360006
100
AcDbArc
 50
179.4790035744076
 51
197.93671796008
  0
LWPOLYLINE
  5
3B5
330
1F
100
AcDbEntity
  8
0
  6
Continuous
 62
     8
370
    15
100
AcDbPolyline
 90
       38
 70
   128
 43
0.0
 10
7.190784790542434
 20
9.930044616969308
 10
7.190746211242124
 20
9.928075815519376
 10
7.1910310965592
 20
9.922847891047389
 10
7.191879841166023
 20
9.917884073459976
 10
7.193274296198201
 20
9.913289999763076
 10
7.19518469751813
 20
9.909163955999474
 10
7.197570287961773
 20
9.905593370066245
 10
7.200380354416624
 20
9.902654806952517
 10
7.203555057484083
 20
9.90041079973273
 10
7.207026468557422
 20
9.898908996983781
 10
7.210720851393306
 20
9.898181643615769
 10
7.214559284358576
 20
9.898244051937535
 10
7.218460149417357
 20
9.899094703270083
 10
7.222340169209035
 20
9.90071609100498
 10
7.226116688619774
 20
9.903073071007579
 10
7.229709126691668
 20
9.906115511454528
 10
7.233041050778671
 20
9.909778848523057
 10
7.236041421040157
 20
9.91398470241144
 10
7.23864624976567
 20
9.918643582745403
 10
7.240800053284062
 20
9.923656125381263
 10
7.242456889041467
 20
9.928915631105548
 10
7.243581496387069
 20
9.934310066905352
 10
7.244149815112067
 20
9.9397239005319
 10
7.244149815112067
 20
9.945042561879363
 10
7.243581496387069
 20
9.950151877771093
 10
7.242456889041467
 20
9.954943724097104
 10
7.240800053284062
 20
9.959315460600313
 10
7.23864624976567
 20
9.963173947703921
 10
7.236041421040157
 20
9.966437103230319
 10
7.233041050778671
 20
9.969035292413213
 10
7.229709126691668
 20
9.970913310907967
 10
7.226116688619774
 20
9.972030843629701
 10
7.222340169209035
 20
9.972364281056849
 10
7.218460149417357
 20
9.971906668424443
 10
7.214559284358576
 20
9.970667150034818
 10
7.210720851393306
 20
9.968672841130096
 10
7.207026468557422
 20
9.965965955778965
 10
7.203790681597805
 20
9.962860806257848
  0
ARC
  5
3B6
330
1F
100
AcDbEntity
  8
0
  6
Continuous
 62
     8
370
    15
100
AcDbCircle
 10
7.224091550471419
 20
9.930199052076122
 30
0.0
 40
0.0443953867338535
100
AcDbArc
 50
179.5312803885808
 51
196.3778903917851
  0
ARC
  5
3B7
330
1F
100
AcDbEntity
  8
0
  6
Continuous
 62
     8
370
    15
100
AcDbCircle
 10
7.232845476261475
 20
9.931013819540069
 30
0.0
 40
0.0531497454595593
100
AcDbArc
 50
135.0771859706755
 51
180.4868187372689
  0
ARC
  5
3B8
330
1F
100
AcDbEntity
  8
0
  6
Continuous
 62
     8
370
    15
100
AcDbCircle
 10
7.108389993333766
 20
9.712769943426106
 30
0.0
 40
0.0520012163959001
100
AcDbArc
 50
132.9178635462389
 51
180.9477860643505
  0
ARC
  5
3B9
330
1F
100
AcDbEntity
  8
0
  6
Continuous
 62
     8
370
    15
100
AcDbCircle
 10
7.100340464418475
 20
9.711510175646132
 30
0.0
 40
0.0439463897359775
100
AcDbArc
 50
179.4790035744027
 51
197.9367179600823
  0
LWPOLYLINE
  5
3BA
330
1F
100
AcDbEntity
  8
0
  6
Continuous
 62
     8
370
    15
100
AcDbPolyline
 90
       38
 70
   128
 43
0.0
 10
7.058202358175694
 20
9.713878613632356
 10
7.058163675167588
 20
9.711909784397958
 10
7.058448560484663
 20
9.706681859925975
 10
7.059297305091487
 20
9.70171804233856
 10
7.060691760123666
 20
9.697123968641658
 10
7.062602161443595
 20
9.692997924878058
 10
7.064987751887236
 20
9.689427621551701
 10
7.067797922049884
 20
9.686489086222438
 10
7.070972521409546
 20
9.684244768611314
 10
7.074443932482886
 20
9.682742965862367
 10
7.078138315318771
 20
9.682015612494353
 10
7.081976851991836
 20
9.682078048600583
 10
7.085877613342821
 20
9.682928672148669
 10
7.0897576331345
 20
9.684550059883566
 10
7.093534152545238
 20
9.686907039886163
 10
7.097126590617131
 20
9.68994948033311
 10
7.100458514704135
 20
9.693612817401639
 10
7.103458884965622
 20
9.697818671290022
 10
7.106063713691134
 20
9.702477551623987
 10
7.108217517209525
 20
9.707490094259847
 10
7.109874352966932
 20
9.71274959998413
 10
7.110998960312533
 20
9.718144035783936
 10
7.111567279037532
 20
9.723557869410486
 10
7.111567279037532
 20
9.728876530757945
 10
7.110998960312533
 20
9.733986129256548
 10
7.109874352966932
 20
9.738777692975686
 10
7.108217517209525
 20
9.743149429478897
 10
7.106063713691134
 20
9.747007916582505
 10
7.103458884965622
 20
9.750271072108901
 10
7.100458514704135
 20
9.752869261291797
 10
7.097126590617131
 20
9.754747279786551
 10
7.093534152545238
 20
9.755864812508287
 10
7.0897576331345
 20
9.756198532542306
 10
7.085877613342821
 20
9.755740637303025
 10
7.081976851991836
 20
9.754501146697867
 10
7.078138315318771
 20
9.75250681000868
 10
7.074443932482886
 20
9.749799924657548
 10
7.071208249231066
 20
9.746694802920897
  0
ARC
  5
3BB
330
1F
100
AcDbEntity
  8
0
  6
Continuous
 62
     8
370
    15
100
AcDbCircle
 10
7.091509014396949
 20
9.714033020954721
 30
0.0
 40
0.0443953867339209
100
AcDbArc
 50
179.5312803885998
 51
196.377890391781
  0
ARC
  5
3BC
330
1F
100
AcDbEntity
  8
0
  6
Continuous
 62
     8
370
    15
100
AcDbCircle
 10
7.100262940186955
 20
9.714847788418644
 30
0.0
 40
0.0531497454595764
100
AcDbArc
 50
135.0771859706816
 51
180.4868187372592
  0
ARC
  5
3BD
330
1F
100
AcDbEntity
  8
0
  6
Continuous
 62
     8
370
    15
100
AcDbCircle
 10
4.412544700039038
 20
6.896614991400152
 30
0.0
 40
0.0520005276045792
100
AcDbArc
 50
132.9175271427079
 51
180.9480475233027
  0
ARC
  5
3BE
330
1F
100
AcDbEntity
  8
0
  6
Continuous
 62
     8
370
    15
100
AcDbCircle
 10
4.404496221529933
 20
6.89535498392428
 30
0.0
 40
0.0439467476303215
100
AcDbArc
 50
179.4789897899119
 51
197.9366447905038
  0
LWPOLYLINE
  5
3BF
330
1F
100
AcDbEntity
  8
0
  6
Continuous
 62
     8
370
    15
100
AcDbPolyline
 90
       38
 70
   128
 43
0.0
 10
4.362357758313963
 20
6.897723435520242
 10
4.362319075305857
 20
6.895754606285844
 10
4.362603960622932
 20
6.890526611162141
 10
4.363452705229756
 20
6.885562793574727
 10
4.364847160261935
 20
6.880968861181263
 10
4.366757561581864
 20
6.876842676114226
 10
4.369143152025506
 20
6.873272231484432
 10
4.371953322188153
 20
6.87033369615517
 10
4.375127921547815
 20
6.868089661150918
 10
4.378599332621155
 20
6.86658785840197
 10
4.38229371545704
 20
6.865860363730519
 10
4.386132252130105
 20
6.865922729185032
 10
4.390033013481089
 20
6.866773564688274
 10
4.393913033272768
 20
6.868394740468015
 10
4.397689552683506
 20
6.870751720470612
 10
4.4012819907554
 20
6.873794231569278
 10
4.404613914842403
 20
6.87745749798609
 10
4.407614285103892
 20
6.88166342252619
 10
4.410219113829403
 20
6.886322373511874
 10
4.412372917347794
 20
6.891334986799451
 10
4.414029753105201
 20
6.896594421872017
 10
4.415154360450802
 20
6.901988716368385
 10
4.415722679175801
 20
6.907402761950089
 10
4.415722679175801
 20
6.912721211342395
 10
4.415154360450802
 20
6.917830739189279
 10
4.414029753105201
 20
6.922622444211855
 10
4.412372917347794
 20
6.926994180715064
 10
4.410219113829403
 20
6.930852738470391
 10
4.407614285103892
 20
6.934115893996787
 10
4.404613914842403
 20
6.936714153831401
 10
4.4012819907554
 20
6.938592101674436
 10
4.397689552683506
 20
6.939709705047889
 10
4.393913033272768
 20
6.940043142475038
 10
4.390033013481089
 20
6.939585388539194
 10
4.386132252130105
 20
6.938346039237472
 10
4.38229371545704
 20
6.936351631896568
 10
4.378599332621155
 20
6.933644675893717
 10
4.375363545661538
 20
6.930539667676035
  0
ARC
  5
3C0
330
1F
100
AcDbEntity
  8
0
  6
Continuous
 62
     8
370
    15
100
AcDbCircle
 10
4.395661843191486
 20
6.897877551869647
 30
0.0
 40
0.0443928170456946
100
AcDbArc
 50
179.5308779781448
 51
196.3783789441054
  0
ARC
  5
3C1
330
1F
100
AcDbEntity
  8
0
  6
Continuous
 62
     8
370
    15
100
AcDbCircle
 10
4.404418182270961
 20
6.898692535355586
 30
0.0
 40
0.0531495859659049
100
AcDbArc
 50
135.0771158487658
 51
180.4867396313937
  0
ARC
  5
3C2
330
1F
100
AcDbEntity
  8
0
  6
Continuous
 62
     8
370
    15
100
AcDbCircle
 10
6.578060635232939
 20
9.570688301821354
 30
0.0
 40
0.052001996948656
100
AcDbArc
 50
132.9182467171162
 51
180.9474028934747
  0
ARC
  5
3C3
330
1F
100
AcDbEntity
  8
0
  6
Continuous
 62
     8
370
    15
100
AcDbCircle
 10
6.570015348769178
 20
9.569429639048211
 30
0.0
 40
0.0439514111811133
100
AcDbArc
 50
179.4800671833219
 51
197.9356543511622
  0
LWPOLYLINE
  5
3C4
330
1F
100
AcDbEntity
  8
0
  6
Continuous
 62
     8
370
    15
100
AcDbPolyline
 90
       38
 70
   128
 43
0.0
 10
6.527872213877553
 20
9.571797306836948
 10
6.527833530869446
 20
9.569828477602552
 10
6.528118519894318
 20
9.564600580915032
 10
6.528967264501141
 20
9.559636763327619
 10
6.530361615825523
 20
9.55504266184625
 10
6.532272017145452
 20
9.55091661808265
 10
6.53465771129689
 20
9.547346342540759
 10
6.537467777751742
 20
9.544407779427032
 10
6.540642377111405
 20
9.542163461815906
 10
6.54411389189254
 20
9.540661686851423
 10
6.547808274728424
 20
9.53993433348341
 10
6.551646707693693
 20
9.539996741805175
 10
6.555547572752475
 20
9.540847393137726
 10
6.559427592544153
 20
9.542468780872622
 10
6.563204008247097
 20
9.544825733090755
 10
6.566796550026785
 20
9.547868201322168
 10
6.570128474113788
 20
9.551531538390698
 10
6.573128844375276
 20
9.55573739227908
 10
6.575733673100788
 20
9.560396272613045
 10
6.57788747661918
 20
9.565408815248906
 10
6.579544312376586
 20
9.570668320973188
 10
6.58066881601439
 20
9.576062728988528
 10
6.581237134739389
 20
9.58147656261508
 10
6.581237134739389
 20
9.586795223962539
 10
6.58066881601439
 20
9.591904822461142
 10
6.579544312376586
 20
9.596696413964744
 10
6.57788747661918
 20
9.601068150467956
 10
6.575733673100788
 20
9.604926637571562
 10
6.573128844375276
 20
9.60818979309796
 10
6.570128474113788
 20
9.610787982280855
 10
6.566796550026785
 20
9.612666000775607
 10
6.563204008247097
 20
9.613783505712879
 10
6.559427592544153
 20
9.614117253531365
 10
6.555547572752475
 20
9.613659358292084
 10
6.551646707693693
 20
9.612419839902461
 10
6.547808274728424
 20
9.610425530997739
 10
6.54411389189254
 20
9.607718645646606
 10
6.540878104932923
 20
9.604613496125489
  0
ARC
  5
3C5
330
1F
100
AcDbEntity
  8
0
  6
Continuous
 62
     8
370
    15
100
AcDbCircle
 10
6.561178141770339
 20
9.571951982306025
 30
0.0
 40
0.044394656236994
100
AcDbArc
 50
179.5316187577648
 51
196.3784908042373
  0
ARC
  5
3C6
330
1F
100
AcDbEntity
  8
0
  6
Continuous
 62
     8
370
    15
100
AcDbCircle
 10
6.569933659039967
 20
9.572766129061449
 30
0.0
 40
0.0531506055852555
100
AcDbArc
 50
135.0775739204727
 51
180.4864307874667
  0
ARC
  5
3C7
330
1F
100
AcDbEntity
  8
0
  6
Continuous
 62
     8
370
    15
100
AcDbCircle
 10
6.975805713247418
 20
9.255743627822441
 30
0.0
 40
0.0519994803389473
100
AcDbArc
 50
132.9170182087995
 51
180.9483316220989
  0
ARC
  5
3C8
330
1F
100
AcDbEntity
  8
0
  6
Continuous
 62
     8
370
    15
100
AcDbCircle
 10
6.967764388042148
 20
9.254484108559633
 30
0.0
 40
0.0439528426737284
100
AcDbArc
 50
179.4800119784648
 51
197.9353617448936
  0
LWPOLYLINE
  5
3C9
330
1F
100
AcDbEntity
  8
0
  6
Continuous
 62
     8
370
    15
100
AcDbPolyline
 90
       38
 70
   128
 43
0.0
 10
6.925619822101159
 20
9.256851831685436
 10
6.925581139093052
 20
9.254883002451038
 10
6.925866024410127
 20
9.24965479537218
 10
6.926714769016951
 20
9.244690977784767
 10
6.928109224049131
 20
9.240097186694738
 10
6.93001962536906
 20
9.235970860324263
 10
6.932405319520498
 20
9.232400584782373
 10
6.935215385975348
 20
9.229462021668645
 10
6.93838998533501
 20
9.227217986664394
 10
6.941861500116147
 20
9.225716211699909
 10
6.945555779244235
 20
9.22498854794056
 10
6.949394315917301
 20
9.22505098404679
 10
6.953295077268286
 20
9.225901890201747
 10
6.957175097059964
 20
9.227522995329771
 10
6.960951616470702
 20
9.229879975332369
 10
6.964544158250392
 20
9.232922443563781
 10
6.967876082337395
 20
9.236585780632312
 10
6.970876348891087
 20
9.240791606736229
 10
6.973481177616599
 20
9.245450769677066
 10
6.975634981134989
 20
9.250463312312927
 10
6.977291816892397
 20
9.255722818037209
 10
6.978416424237997
 20
9.261116971230142
 10
6.978984742962997
 20
9.266531087463564
 10
6.978984742962997
 20
9.271849466204152
 10
6.978416424237997
 20
9.276959064702754
 10
6.977291816892397
 20
9.281750628421892
 10
6.975634981134989
 20
9.286122364925104
 10
6.973481177616599
 20
9.289981134635585
 10
6.970876348891087
 20
9.293244290161981
 10
6.967876082337395
 20
9.295842507129339
 10
6.964544158250392
 20
9.297720525624093
 10
6.960951616470702
 20
9.298838030561364
 10
6.957175097059964
 20
9.299171467988513
 10
6.953295077268286
 20
9.298713572749232
 10
6.949394315917301
 20
9.297474364750947
 10
6.945555779244235
 20
9.29548002806176
 10
6.941861500116147
 20
9.29277288788822
 10
6.938625713156529
 20
9.289668020973975
  0
ARC
  5
3CA
330
1F
100
AcDbEntity
  8
0
  6
Continuous
 62
     8
370
    15
100
AcDbCircle
 10
6.958929428354214
 20
9.257006651223512
 30
0.0
 40
0.0443983332969772
100
AcDbArc
 50
179.531843476237
 51
196.3773273041378
  0
ARC
  5
3CB
330
1F
100
AcDbEntity
  8
0
  6
Continuous
 62
     8
370
    15
100
AcDbCircle
 10
6.967680608735498
 20
9.257820643642999
 30
0.0
 40
0.0531499469937499
100
AcDbArc
 50
135.0772805045385
 51
180.4864257468876
  0
ARC
  5
3CC
330
1F
100
AcDbEntity
  8
0
  6
Continuous
 62
     8
370
    15
100
AcDbCircle
 10
7.240970294273238
 20
9.326784490371009
 30
0.0
 40
0.0519989927450239
100
AcDbArc
 50
132.9167788282624
 51
180.9485710026359
  0
ARC
  5
3CD
330
1F
100
AcDbEntity
  8
0
  6
Continuous
 62
     8
370
    15
100
AcDbCircle
 10
7.232924431655352
 20
9.325523991792778
 30
0.0
 40
0.0439478213420518
100
AcDbArc
 50
179.4789484421472
 51
197.9364252812149
  0
LWPOLYLINE
  5
3CE
330
1F
100
AcDbEntity
  8
0
  6
Continuous
 62
     8
370
    15
100
AcDbPolyline
 90
       38
 70
   128
 43
0.0
 10
7.190784790542434
 20
9.327892457298675
 10
7.190746211242124
 20
9.32592365584874
 10
7.1910310965592
 20
9.320695448769884
 10
7.191879841166023
 20
9.315731631182469
 10
7.193274296198201
 20
9.311137840092442
 10
7.19518469751813
 20
9.307011513721969
 10
7.197570287961773
 20
9.303441210395611
 10
7.200380354416624
 20
9.300502647281884
 10
7.203555057484083
 20
9.298258640062098
 10
7.207026468557422
 20
9.296756837313148
 10
7.210720851393306
 20
9.296029201338262
 10
7.214559284358576
 20
9.296091609660027
 10
7.218460149417357
 20
9.296942543599451
 10
7.222340169209035
 20
9.298563648727474
 10
7.226116688619774
 20
9.300920628730072
 10
7.229709126691668
 20
9.30396306917702
 10
7.233041050778671
 20
9.30762640624555
 10
7.236041421040157
 20
9.311832260133932
 10
7.23864624976567
 20
9.31649142307477
 10
7.240800053284062
 20
9.321503965710629
 10
7.242456889041467
 20
9.326763471434913
 10
7.243581496387069
 20
9.332157624627845
 10
7.244149815112067
 20
9.337571740861267
 10
7.244149815112067
 20
9.342890119601854
 10
7.243581496387069
 20
9.347999718100457
 10
7.242456889041467
 20
9.352791281819596
 10
7.240800053284062
 20
9.357163018322806
 10
7.23864624976567
 20
9.361021788033287
 10
7.236041421040157
 20
9.364284943559683
 10
7.233041050778671
 20
9.366883132742579
 10
7.229709126691668
 20
9.368761151237332
 10
7.226116688619774
 20
9.369878683959068
 10
7.222340169209035
 20
9.370212121386217
 10
7.218460149417357
 20
9.369754226146936
 10
7.214559284358576
 20
9.368514990364186
 10
7.210720851393306
 20
9.366520681459464
 10
7.207026468557422
 20
9.363813513501458
 10
7.203790681597805
 20
9.360708646587214
  0
ARC
  5
3CF
330
1F
100
AcDbEntity
  8
0
  6
Continuous
 62
     8
370
    15
100
AcDbCircle
 10
7.224087229979347
 20
9.328046288691751
 30
0.0
 40
0.0443910713296989
100
AcDbArc
 50
179.5304555792805
 51
196.378715201089
  0
ARC
  5
3D0
330
1F
100
AcDbEntity
  8
0
  6
Continuous
 62
     8
370
    15
100
AcDbCircle
 10
7.232845158534459
 20
9.32886151040085
 30
0.0
 40
0.0531494264742575
100
AcDbArc
 50
135.0770457272705
 51
180.4866605241531
  0
ARC
  5
3D1
330
1F
100
AcDbEntity
  8
0
  6
Continuous
 62
     8
370
    15
100
AcDbCircle
 10
6.975807948395522
 20
9.85789511199492
 30
0.0
 40
0.0520017040057723
100
AcDbArc
 50
132.9181029138636
 51
180.9475466967259
  0
ARC
  5
3D2
330
1F
100
AcDbEntity
  8
0
  6
Continuous
 62
     8
370
    15
100
AcDbCircle
 10
6.967762956992789
 20
9.856636323567336
 30
0.0
 40
0.0439514111811188
100
AcDbArc
 50
179.4800671833266
 51
197.935654351167
  0
LWPOLYLINE
  5
3D3
330
1F
100
AcDbEntity
  8
0
  6
Continuous
 62
     8
370
    15
100
AcDbPolyline
 90
       38
 70
   128
 43
0.0
 10
6.925619822101159
 20
9.85900399135607
 10
6.925581139093052
 20
9.857035162121672
 10
6.925866024410127
 20
9.851807237649687
 10
6.926714769016951
 20
9.846843420062272
 10
6.928109224049131
 20
9.842249346365372
 10
6.93001962536906
 20
9.838123302601772
 10
6.932405319520498
 20
9.834552744453006
 10
6.935215385975348
 20
9.831614181339279
 10
6.93838998533501
 20
9.829370146335028
 10
6.941861500116147
 20
9.827868371370545
 10
6.945555779244235
 20
9.827140990218065
 10
6.949394315917301
 20
9.827203426324295
 10
6.953295077268286
 20
9.828054049872381
 10
6.957175097059964
 20
9.829675437607278
 10
6.960951616470702
 20
9.832032417609875
 10
6.964544158250392
 20
9.835074885841288
 10
6.967876082337395
 20
9.838738222909817
 10
6.970876348891087
 20
9.842944049013736
 10
6.973481177616599
 20
9.847602929347701
 10
6.975634981134989
 20
9.852615471983561
 10
6.977291816892397
 20
9.857874977707844
 10
6.978416424237997
 20
9.863269413507648
 10
6.978984742962997
 20
9.868683247134198
 10
6.978984742962997
 20
9.874001908481659
 10
6.978416424237997
 20
9.879111224373389
 10
6.977291816892397
 20
9.883903070699398
 10
6.975634981134989
 20
9.888274807202609
 10
6.973481177616599
 20
9.892133294306217
 10
6.970876348891087
 20
9.895396449832613
 10
6.967876082337395
 20
9.897994666799974
 10
6.964544158250392
 20
9.899872685294729
 10
6.960951616470702
 20
9.900990190231999
 10
6.957175097059964
 20
9.901323627659147
 10
6.953295077268286
 20
9.900866015026737
 10
6.949394315917301
 20
9.899626524421579
 10
6.945555779244235
 20
9.897632187732394
 10
6.941861500116147
 20
9.894925330165726
 10
6.938625713156529
 20
9.891820180644609
  0
ARC
  5
3D4
330
1F
100
AcDbEntity
  8
0
  6
Continuous
 62
     8
370
    15
100
AcDbCircle
 10
6.95893375117821
 20
9.859159414933731
 30
0.0
 40
0.0444026510457982
100
AcDbArc
 50
179.5326684607466
 51
196.3765023196294
  0
ARC
  5
3D5
330
1F
100
AcDbEntity
  8
0
  6
Continuous
 62
     8
370
    15
100
AcDbCircle
 10
6.967680926477029
 20
9.859972952777873
 30
0.0
 40
0.0531502659929287
100
AcDbArc
 50
135.0774207528935
 51
180.4865839550465
  0
ARC
  5
3D6
330
1F
100
AcDbEntity
  8
0
  6
Continuous
 62
     8
370
    15
100
AcDbCircle
 10
6.843225412320991
 20
9.641729080873504
 30
0.0
 40
0.0520017040057758
100
AcDbArc
 50
132.9181029138671
 51
180.9475466967258
  0
ARC
  5
3D7
330
1F
100
AcDbEntity
  8
0
  6
Continuous
 62
     8
370
    15
100
AcDbCircle
 10
6.835180420918254
 20
9.64047029244592
 30
0.0
 40
0.0439514111811188
100
AcDbArc
 50
179.4800671833266
 51
197.935654351167
  0
LWPOLYLINE
  5
3D8
330
1F
100
AcDbEntity
  8
0
  6
Continuous
 62
     8
370
    15
100
AcDbPolyline
 90
       38
 70
   128
 43
0.0
 10
6.793037286026623
 20
9.642837960234652
 10
6.792998603018516
 20
9.640869131000256
 10
6.793283488335592
 20
9.635641206528271
 10
6.794132232942416
 20
9.630677388940856
 10
6.795526687974595
 20
9.626083315243954
 10
6.797437089294525
 20
9.621957271480354
 10
6.799822783445963
 20
9.618386995938461
 10
6.802632849900812
 20
9.615448432824734
 10
6.805807449260475
 20
9.613204115213612
 10
6.80927896404161
 20
9.611702340249127
 10
6.8129732431697
 20
9.610974959096648
 10
6.816811779842764
 20
9.611037395202879
 10
6.82071254119375
 20
9.611888018750965
 10
6.824592560985428
 20
9.61350940648586
 10
6.828369080396167
 20
9.615866386488459
 10
6.831961622175857
 20
9.618908854719871
 10
6.835293546262859
 20
9.622572191788401
 10
6.838293916524348
 20
9.626778045676784
 10
6.84089874524986
 20
9.631436926010749
 10
6.843052445060454
 20
9.636449440862143
 10
6.844709280817862
 20
9.641708946586428
 10
6.845833888163461
 20
9.647103382386234
 10
6.846402206888462
 20
9.652517216012782
 10
6.846402206888462
 20
9.657835877360243
 10
6.845833888163461
 20
9.662945475858846
 10
6.844709280817862
 20
9.667737039577984
 10
6.843052445060454
 20
9.672108776081195
 10
6.84089874524986
 20
9.675967290969266
 10
6.838293916524348
 20
9.679230446495662
 10
6.835293546262859
 20
9.681828635678558
 10
6.831961622175857
 20
9.683706654173311
 10
6.828369080396167
 20
9.684824159110581
 10
6.824592560985428
 20
9.685157879144604
 10
6.82071254119375
 20
9.684699983905323
 10
6.816811779842764
 20
9.683460493300165
 10
6.8129732431697
 20
9.681466156610978
 10
6.80927896404161
 20
9.67875929904431
 10
6.806043177081994
 20
9.675654149523193
  0
ARC
  5
3D9
330
1F
100
AcDbEntity
  8
0
  6
Continuous
 62
     8
370
    15
100
AcDbCircle
 10
6.826343213919486
 20
9.642992635703741
 30
0.0
 40
0.0443946562370706
100
AcDbArc
 50
179.5316187577816
 51
196.3784908042249
  0
ARC
  5
3DA
330
1F
100
AcDbEntity
  8
0
  6
Continuous
 62
     8
370
    15
100
AcDbCircle
 10
6.8350983904025
 20
9.643806921656453
 30
0.0
 40
0.0531502659929348
100
AcDbArc
 50
135.0774207528949
 51
180.4865839550446
  0
ARC
  5
3DB
330
1F
100
AcDbEntity
  8
0
  6
Continuous
 62
     8
370
    15
100
AcDbCircle
 10
6.710643171307496
 20
9.786854332942764
 30
0.0
 40
0.0520019969486768
100
AcDbArc
 50
132.9182467171281
 51
180.9474028934665
  0
ARC
  5
3DC
330
1F
100
AcDbEntity
  8
0
  6
Continuous
 62
     8
370
    15
100
AcDbCircle
 10
6.702597884843722
 20
9.785595670169632
 30
0.0
 40
0.0439514111811222
100
AcDbArc
 50
179.4800671833266
 51
197.9356543511656
  0
LWPOLYLINE
  5
3DD
330
1F
100
AcDbEntity
  8
0
  6
Continuous
 62
     8
370
    15
100
AcDbPolyline
 90
       38
 70
   128
 43
0.0
 10
6.660454749952088
 20
9.787963337958366
 10
6.660416066943981
 20
9.785994508723968
 10
6.660701055968853
 20
9.780766612036448
 10
6.66154969686788
 20
9.77580276666457
 10
6.662944151900059
 20
9.771208692967668
 10
6.664854553219988
 20
9.767082649204066
 10
6.667240247371426
 20
9.763512091055304
 10
6.670050313826277
 20
9.760573527941575
 10
6.67322491318594
 20
9.758329492937324
 10
6.676696427967075
 20
9.756827717972839
 10
6.680390810802959
 20
9.756100364604826
 10
6.684229243768229
 20
9.756162772926593
 10
6.68813010882701
 20
9.757013424259142
 10
6.692010024910891
 20
9.758634784209574
 10
6.695786544321632
 20
9.760991764212173
 10
6.699379086101322
 20
9.764034232443584
 10
6.702711010188324
 20
9.767697569512115
 10
6.705711380449811
 20
9.771903423400496
 10
6.708316209175324
 20
9.776562303734461
 10
6.710469908985919
 20
9.781574818585857
 10
6.712126744743326
 20
9.786834324310142
 10
6.713251352088926
 20
9.792228760109946
 10
6.713819670813926
 20
9.797642593736496
 10
6.713819670813926
 20
9.802961255083955
 10
6.713251352088926
 20
9.808070570975685
 10
6.712126744743326
 20
9.812862417301696
 10
6.710469908985919
 20
9.817234153804907
 10
6.708316209175324
 20
9.82109266869298
 10
6.705711380449811
 20
9.824355824219376
 10
6.702711010188324
 20
9.826954013402271
 10
6.699379086101322
 20
9.828832031897023
 10
6.695786544321632
 20
9.829949536834295
 10
6.692010024910891
 20
9.830282974261443
 10
6.68813010882701
 20
9.829825389413501
 10
6.684229243768229
 20
9.828585871023877
 10
6.680390810802959
 20
9.826591562119155
 10
6.676696427967075
 20
9.823884676768022
 10
6.673460641007459
 20
9.820779527246905
  0
ARC
  5
3DE
330
1F
100
AcDbEntity
  8
0
  6
Continuous
 62
     8
370
    15
100
AcDbCircle
 10
6.69376067784489
 20
9.788118013427446
 30
0.0
 40
0.0443946562370102
100
AcDbArc
 50
179.5316187577695
 51
196.3784908042359
  0
ARC
  5
3DF
330
1F
100
AcDbEntity
  8
0
  6
Continuous
 62
     8
370
    15
100
AcDbCircle
 10
6.702516195114513
 20
9.788932160182863
 30
0.0
 40
0.0531506055852656
100
AcDbArc
 50
135.0775739204781
 51
180.4864307874628
  0
ARC
  5
3E0
330
1F
100
AcDbEntity
  8
0
  6
Continuous
 62
     8
370
    15
100
AcDbCircle
 10
6.843223177172872
 20
9.039577596701029
 30
0.0
 40
0.0519994803389367
100
AcDbArc
 50
132.9170182087956
 51
180.9483316221049
  0
ARC
  5
3E1
330
1F
100
AcDbEntity
  8
0
  6
Continuous
 62
     8
370
    15
100
AcDbCircle
 10
6.835184857342268
 20
9.038318537737819
 30
0.0
 40
0.0439558437499266
100
AcDbArc
 50
179.4806474997843
 51
197.9347262235775
  0
LWPOLYLINE
  5
3E2
330
1F
100
AcDbEntity
  8
0
  6
Continuous
 62
     8
370
    15
100
AcDbPolyline
 90
       38
 70
   128
 43
0.0
 10
6.793037286026623
 20
9.040685800564018
 10
6.792998603018516
 20
9.038716971329622
 10
6.793283488335592
 20
9.033489046857637
 10
6.794132232942416
 20
9.028524946663349
 10
6.795526687974595
 20
9.02393115557332
 10
6.797437089294525
 20
9.01980511180972
 10
6.799822783445963
 20
9.016234553660956
 10
6.802632849900812
 20
9.013295990547229
 10
6.805807449260475
 20
9.011051955542978
 10
6.80927896404161
 20
9.009550180578493
 10
6.8129732431697
 20
9.008822799426015
 10
6.816811779842764
 20
9.008884952925372
 10
6.82071254119375
 20
9.009735859080331
 10
6.824592560985428
 20
9.011356964208355
 10
6.828369080396167
 20
9.013713944210952
 10
6.831961622175857
 20
9.016756695049238
 10
6.835293546262859
 20
9.020419749510894
 10
6.838293916524348
 20
9.02462588600615
 10
6.84089874524986
 20
9.029284766340115
 10
6.843052445060454
 20
9.034297281191509
 10
6.844709280817862
 20
9.039556786915794
 10
6.845833888163461
 20
9.044950940108725
 10
6.846402206888462
 20
9.050365056342148
 10
6.846402206888462
 20
9.055683435082736
 10
6.845833888163461
 20
9.060793033581338
 10
6.844709280817862
 20
9.065584597300475
 10
6.843052445060454
 20
9.069956333803686
 10
6.84089874524986
 20
9.073815131298632
 10
6.838293916524348
 20
9.077078286825029
 10
6.835293546262859
 20
9.079676476007925
 10
6.831961622175857
 20
9.081554494502677
 10
6.828369080396167
 20
9.082671999439948
 10
6.824592560985428
 20
9.083005436867097
 10
6.82071254119375
 20
9.082547541627816
 10
6.816811779842764
 20
9.081308333629531
 10
6.8129732431697
 20
9.079313996940344
 10
6.80927896404161
 20
9.076606856766803
 10
6.806043177081994
 20
9.073501989852559
  0
ARC
  5
3E3
330
1F
100
AcDbEntity
  8
0
  6
Continuous
 62
     8
370
    15
100
AcDbCircle
 10
6.826343213919486
 20
9.040840476033107
 30
0.0
 40
0.0443946562370706
100
AcDbArc
 50
179.5316187577816
 51
196.3784908042249
  0
ARC
  5
3E4
330
1F
100
AcDbEntity
  8
0
  6
Continuous
 62
     8
370
    15
100
AcDbCircle
 10
6.835098072660962
 20
9.041654612521583
 30
0.0
 40
0.053149946993749
100
AcDbArc
 50
135.0772805045378
 51
180.4864257468896
  0
ARC
  5
3E5
330
1F
100
AcDbEntity
  8
0
  6
Continuous
 62
     8
370
    15
100
AcDbCircle
 10
7.10838775819869
 20
9.110618459249597
 30
0.0
 40
0.0519989927450116
100
AcDbArc
 50
132.9167788282564
 51
180.94857100264
  0
ARC
  5
3E6
330
1F
100
AcDbEntity
  8
0
  6
Continuous
 62
     8
370
    15
100
AcDbCircle
 10
7.100344899783505
 20
9.10935842079146
 30
0.0
 40
0.0439508212389123
100
AcDbArc
 50
179.47958386082
 51
197.9357898625307
  0
LWPOLYLINE
  5
3E7
330
1F
100
AcDbEntity
  8
0
  6
Continuous
 62
     8
370
    15
100
AcDbPolyline
 90
       38
 70
   128
 43
0.0
 10
7.058202358175694
 20
9.111726453961724
 10
7.058163675167588
 20
9.109757624727324
 10
7.058448560484663
 20
9.104529700255341
 10
7.059297305091487
 20
9.099565600061053
 10
7.060691760123666
 20
9.094971808971026
 10
7.062602161443595
 20
9.090845765207424
 10
7.064987751887236
 20
9.087275179274195
 10
7.067797922049884
 20
9.084336643944933
 10
7.070972521409546
 20
9.08209260894068
 10
7.074443932482886
 20
9.080590806191732
 10
7.078138315318771
 20
9.079863452823717
 10
7.081976851991836
 20
9.079925606323076
 10
7.085877613342821
 20
9.080776512478033
 10
7.0897576331345
 20
9.082397617606059
 10
7.093534152545238
 20
9.084754597608656
 10
7.097126590617131
 20
9.087797320662476
 10
7.100458514704135
 20
9.091460375124134
 10
7.103458884965622
 20
9.095666511619389
 10
7.106063713691134
 20
9.100325391953354
 10
7.108217517209525
 20
9.105337934589213
 10
7.109874352966932
 20
9.110597440313497
 10
7.110998960312533
 20
9.115991593506429
 10
7.111567279037532
 20
9.121405709739851
 10
7.111567279037532
 20
9.126724088480438
 10
7.110998960312533
 20
9.131833686979041
 10
7.109874352966932
 20
9.13662525069818
 10
7.108217517209525
 20
9.14099698720139
 10
7.106063713691134
 20
9.144855756911871
 10
7.103458884965622
 20
9.148118912438267
 10
7.100458514704135
 20
9.150717101621163
 10
7.097126590617131
 20
9.152595120115915
 10
7.093534152545238
 20
9.153712652837651
 10
7.0897576331345
 20
9.154046090264799
 10
7.085877613342821
 20
9.15358819502552
 10
7.081976851991836
 20
9.152348987027234
 10
7.078138315318771
 20
9.150354650338048
 10
7.074443932482886
 20
9.147647482380042
 10
7.071208249231066
 20
9.144542643250263
  0
ARC
  5
3E8
330
1F
100
AcDbEntity
  8
0
  6
Continuous
 62
     8
370
    15
100
AcDbCircle
 10
7.091509014396927
 20
9.111880861284085
 30
0.0
 40
0.0443953867338987
100
AcDbArc
 50
179.5312803885973
 51
196.3778903917847
  0
ARC
  5
3E9
330
1F
100
AcDbEntity
  8
0
  6
Continuous
 62
     8
370
    15
100
AcDbCircle
 10
7.100262622459943
 20
9.112695479279425
 30
0.0
 40
0.0531494264742789
100
AcDbArc
 50
135.07704572728
 51
180.4866605241433
  0
ARC
  5
3EA
330
1F
100
AcDbEntity
  8
0
  6
Continuous
 62
     8
370
    15
100
AcDbCircle
 10
6.710640936142485
 20
9.184702848776574
 30
0.0
 40
0.0519997732632636
100
AcDbArc
 50
132.9171620154
 51
180.9481878155042
  0
ARC
  5
3EB
330
1F
100
AcDbEntity
  8
0
  6
Continuous
 62
     8
370
    15
100
AcDbCircle
 10
6.702599315893079
 20
9.183443455161931
 30
0.0
 40
0.0439528426737296
100
AcDbArc
 50
179.4800119784671
 51
197.9353617448954
  0
LWPOLYLINE
  5
3EC
330
1F
100
AcDbEntity
  8
0
  6
Continuous
 62
     8
370
    15
100
AcDbPolyline
 90
       38
 70
   128
 43
0.0
 10
6.660454749952088
 20
9.185811178287732
 10
6.660416066943981
 20
9.183842349053334
 10
6.660701055968853
 20
9.178614169758942
 10
6.66154969686788
 20
9.173650324387061
 10
6.662944151900059
 20
9.169056533297034
 10
6.664854553219988
 20
9.164930206926561
 10
6.667240247371426
 20
9.161359931384668
 10
6.670050313826277
 20
9.158421368270943
 10
6.67322491318594
 20
9.156177333266692
 10
6.676696427967075
 20
9.154675558302207
 10
6.680390810802959
 20
9.15394792232732
 10
6.684229243768229
 20
9.154010330649084
 10
6.68813010882701
 20
9.154861264588509
 10
6.692010024910891
 20
9.156482341932067
 10
6.695786544321632
 20
9.158839321934665
 10
6.699379086101322
 20
9.161881790166077
 10
6.702711010188324
 20
9.165545127234608
 10
6.705711380449811
 20
9.169750981122989
 10
6.708316209175324
 20
9.174410144063829
 10
6.710469908985919
 20
9.179422658915223
 10
6.712126744743326
 20
9.184682164639506
 10
6.713251352088926
 20
9.190076317832438
 10
6.713819670813926
 20
9.195490434065861
 10
6.713819670813926
 20
9.200808812806448
 10
6.713251352088926
 20
9.20591841130505
 10
6.712126744743326
 20
9.210709975024188
 10
6.710469908985919
 20
9.2150817115274
 10
6.708316209175324
 20
9.218940509022345
 10
6.705711380449811
 20
9.222203664548741
 10
6.702711010188324
 20
9.224801853731637
 10
6.699379086101322
 20
9.226679872226391
 10
6.695786544321632
 20
9.22779737716366
 10
6.692010024910891
 20
9.228130814590809
 10
6.68813010882701
 20
9.227672947135994
 10
6.684229243768229
 20
9.226433711353243
 10
6.680390810802959
 20
9.224439402448522
 10
6.676696427967075
 20
9.221732234490515
 10
6.673460641007459
 20
9.218627367576273
  0
ARC
  5
3ED
330
1F
100
AcDbEntity
  8
0
  6
Continuous
 62
     8
370
    15
100
AcDbCircle
 10
6.693756356736756
 20
9.185965249920897
 30
0.0
 40
0.0443903402140401
100
AcDbArc
 50
179.530793803586
 51
196.3793157584196
  0
ARC
  5
3EE
330
1F
100
AcDbEntity
  8
0
  6
Continuous
 62
     8
370
    15
100
AcDbCircle
 10
6.702515877376786
 20
9.186779851045399
 30
0.0
 40
0.053150286590261
100
AcDbArc
 50
135.0774336748574
 51
180.4862725765688
  0
ARC
  5
3EF
330
1F
100
AcDbEntity
  8
0
  6
Continuous
 62
     8
370
    15
100
AcDbCircle
 10
7.020001937762582
 20
7.024565716268583
 30
0.0
 40
0.0520015497903314
100
AcDbArc
 50
132.9180280758362
 51
180.9475840624916
  0
ARC
  5
3F0
330
1F
100
AcDbEntity
  8
0
  6
Continuous
 62
     8
370
    15
100
AcDbCircle
 10
7.011957279992019
 20
7.023306889565217
 30
0.0
 40
0.0439515901135105
100
AcDbArc
 50
179.4800602818857
 51
197.935617775462
  0
LWPOLYLINE
  5
3F1
330
1F
100
AcDbEntity
  8
0
  6
Continuous
 62
     8
370
    15
100
AcDbPolyline
 90
       38
 70
   128
 43
0.0
 10
6.969813966223405
 20
7.025674599597394
 10
6.969775283215298
 20
7.023705735037137
 10
6.97006027224017
 20
7.018477803023758
 10
6.970908913139198
 20
7.01351392232602
 10
6.972303368171377
 20
7.008919989932556
 10
6.974213769491306
 20
7.004793840191377
 10
6.976599463642744
 20
7.001223423346049
 10
6.979409530097595
 20
6.998284860232322
 10
6.982584129457258
 20
6.996040789902211
 10
6.986055644238393
 20
6.994539014937728
 10
6.989750027074278
 20
6.993811555592137
 10
6.993588460039546
 20
6.993873893262184
 10
6.997489325098328
 20
6.99472472122403
 10
7.00136924118221
 20
6.996345869219307
 10
7.005145760592949
 20
6.998702884547764
 10
7.008738302372638
 20
7.001745423430894
 10
7.012070226459641
 20
7.005408689847707
 10
7.015070596721129
 20
7.009614614387807
 10
7.017675425446642
 20
7.014273530047631
 10
7.019829125257237
 20
7.019286115550745
 10
7.021485961014643
 20
7.024545585949169
 10
7.022610568360245
 20
7.029939845119677
 10
7.023178887085243
 20
7.035353926027242
 10
7.023178887085243
 20
7.040672375419547
 10
7.022610568360245
 20
7.045781903266432
 10
7.021485961014643
 20
7.050573572963148
 10
7.019829125257237
 20
7.054945309466358
 10
7.017675425446642
 20
7.058803895006149
 10
7.015070596721129
 20
7.062067085858403
 10
7.012070226459641
 20
7.064665345693017
 10
7.008738302372638
 20
7.066543293536053
 10
7.005145760592949
 20
7.067660869125042
 10
7.00136924118221
 20
7.067994306552189
 10
6.997489325098328
 20
7.067536545074952
 10
6.993588460039546
 20
7.066297203314624
 10
6.989750027074278
 20
7.064302823758183
 10
6.986055644238393
 20
7.061595832429474
 10
6.982819857278776
 20
7.058490824211793
  0
ARC
  5
3F2
330
1F
100
AcDbEntity
  8
0
  6
Continuous
 62
     8
370
    15
100
AcDbCircle
 10
7.003117115854649
 20
7.025828954492648
 30
0.0
 40
0.0443918804011699
100
AcDbArc
 50
179.5312212925235
 51
196.3790174903797
  0
ARC
  5
3F3
330
1F
100
AcDbEntity
  8
0
  6
Continuous
 62
     8
370
    15
100
AcDbCircle
 10
7.011875365916218
 20
7.026643300349814
 30
0.0
 40
0.0531505593860065
100
AcDbArc
 50
135.0775544450252
 51
180.4863383421649
  0
ARC
  5
3F4
330
1F
100
AcDbEntity
  8
0
  6
Continuous
 62
     8
370
    15
100
AcDbCircle
 10
4.147380119022982
 20
6.825574128848567
 30
0.0
 40
0.0520010152101975
100
AcDbArc
 50
132.9177665147767
 51
180.947808151237
  0
ARC
  5
3F5
330
1F
100
AcDbEntity
  8
0
  6
Continuous
 62
     8
370
    15
100
AcDbCircle
 10
4.1393361780014
 20
6.824315100715818
 30
0.0
 40
0.0439517690470289
100
AcDbArc
 50
179.4800533806625
 51
197.9355811997453
  0
LWPOLYLINE
  5
3F6
330
1F
100
AcDbEntity
  8
0
  6
Continuous
 62
     8
370
    15
100
AcDbPolyline
 90
       38
 70
   128
 43
0.0
 10
4.097192686164892
 20
6.826682782122539
 10
4.097154003156785
 20
6.824713952888141
 10
4.097438888473861
 20
6.819485957764438
 10
4.098287633080685
 20
6.814522140177024
 10
4.099682088112863
 20
6.809928207783559
 10
4.101592489432793
 20
6.805802022716522
 10
4.103978183584231
 20
6.802231605871194
 10
4.106788250039081
 20
6.799293042757467
 10
4.109962849398745
 20
6.797049007753215
 10
4.11343436417988
 20
6.795547232788731
 10
4.117128643307968
 20
6.794819710332816
 10
4.120967179981033
 20
6.794882075787329
 10
4.124867941332018
 20
6.79573291129057
 10
4.128747961123697
 20
6.797354087070311
 10
4.132524480534436
 20
6.799711067072909
 10
4.136117022314125
 20
6.80275360595604
 10
4.139448946401128
 20
6.80641687237285
 10
4.142449316662617
 20
6.810622796912952
 10
4.145054145388129
 20
6.815281747898635
 10
4.147207845198724
 20
6.820294333401747
 10
4.14886468095613
 20
6.825553768474313
 10
4.14998928830173
 20
6.830948062970682
 10
4.15055760702673
 20
6.836362108552386
 10
4.15055760702673
 20
6.841680557944692
 10
4.14998928830173
 20
6.846790085791576
 10
4.14886468095613
 20
6.85158179081415
 10
4.147207845198724
 20
6.855953527317361
 10
4.145054145388129
 20
6.859812112857151
 10
4.142449316662617
 20
6.863075268383549
 10
4.139448946401128
 20
6.865673528218161
 10
4.136117022314125
 20
6.867551476061198
 10
4.132524480534436
 20
6.868669051650186
 10
4.128747961123697
 20
6.869002489077335
 10
4.124867941332018
 20
6.868544735141491
 10
4.120967179981033
 20
6.867305385839769
 10
4.117128643307968
 20
6.865310978498864
 10
4.11343436417988
 20
6.862604050280477
 10
4.110198577220263
 20
6.859499042062797
  0
ARC
  5
3F7
330
1F
100
AcDbEntity
  8
0
  6
Continuous
 62
     8
370
    15
100
AcDbCircle
 10
4.130496042468149
 20
6.826837166564295
 30
0.0
 40
0.0443920863015833
100
AcDbArc
 50
179.5312162875203
 51
196.3789794215048
  0
ARC
  5
3F8
330
1F
100
AcDbEntity
  8
0
  6
Continuous
 62
     8
370
    15
100
AcDbCircle
 10
4.139253632479243
 20
6.827651668595567
 30
0.0
 40
0.0531501064923208
100
AcDbArc
 50
135.0773506284993
 51
180.4865048516567
  0
ARC
  5
3F9
330
1F
100
AcDbEntity
  8
0
  6
Continuous
 62
     8
370
    15
100
AcDbCircle
 10
3.749631463810314
 20
5.93621569572065
 30
0.0
 40
0.0519998733510375
100
AcDbArc
 50
132.9172050867104
 51
180.9484070516213
  0
ARC
  5
3FA
330
1F
100
AcDbEntity
  8
0
  6
Continuous
 62
     8
370
    15
100
AcDbCircle
 10
3.741579497145275
 20
5.934954771859517
 30
0.0
 40
0.0439426055513157
100
AcDbArc
 50
179.478157068986
 51
197.9375209883611
  0
LWPOLYLINE
  5
3FB
330
1F
100
AcDbEntity
  8
0
  6
Continuous
 62
     8
370
    15
100
AcDbPolyline
 90
       38
 70
   128
 43
0.0
 10
3.699445181649081
 20
5.937323859739673
 10
3.699406394933179
 20
5.935354967394951
 10
3.69969138395805
 20
5.93012707070743
 10
3.700540128564874
 20
5.925163217794157
 10
3.701934583597053
 20
5.920569250074834
 10
3.703844881209186
 20
5.916443072549191
 10
3.706230575360624
 20
5.912872691029721
 10
3.709040641815474
 20
5.909934127915995
 10
3.712215344882934
 20
5.907690050044489
 10
3.715686859664069
 20
5.906188310405865
 10
3.719381138792158
 20
5.90546078794995
 10
3.723219571757427
 20
5.905523125619997
 10
3.727120436816208
 20
5.906373988907703
 10
3.731000352900089
 20
5.90799513690298
 10
3.734776976018625
 20
5.910352144690042
 10
3.738369414090518
 20
5.913394691114567
 10
3.741701338177521
 20
5.917057957531379
 10
3.744701604731213
 20
5.921263818961157
 10
3.747306537164522
 20
5.925922762405445
 10
3.749460340682913
 20
5.930935411018881
 10
3.751117176440319
 20
5.936194881417306
 10
3.75224178378592
 20
5.941589140587815
 10
3.752810102510919
 20
5.94700318616952
 10
3.752810102510919
 20
5.952321670887684
 10
3.75224178378592
 20
5.957431198734568
 10
3.751117176440319
 20
5.962222868431284
 10
3.749460340682913
 20
5.966594569608635
 10
3.747306537164522
 20
5.970453162689821
 10
3.744701604731213
 20
5.973716325757612
 10
3.741701338177521
 20
5.97631457805083
 10
3.738369414090518
 20
5.978192525893866
 10
3.734776976018625
 20
5.979310164593178
 10
3.731000352900089
 20
5.979643574235861
 10
3.727120436816208
 20
5.979185777432765
 10
3.723219571757427
 20
5.977946470998296
 10
3.719381138792158
 20
5.975952091441857
 10
3.715686859664069
 20
5.973245092571753
 10
3.712450968996656
 20
5.970140091895466
  0
ARC
  5
3FC
330
1F
100
AcDbEntity
  8
0
  6
Continuous
 62
     8
370
    15
100
AcDbCircle
 10
3.732743785811582
 20
5.937477243578399
 30
0.0
 40
0.0443873422288784
100
AcDbArc
 50
179.5299201486841
 51
196.3794229163904
  0
ARC
  5
3FD
330
1F
100
AcDbEntity
  8
0
  6
Continuous
 62
     8
370
    15
100
AcDbCircle
 10
3.741505758724267
 20
5.938292931518361
 30
0.0
 40
0.0531497391403216
100
AcDbArc
 50
135.0771840290305
 51
180.4867460651399
  0
ARC
  5
3FE
330
1F
100
AcDbEntity
  8
0
  6
Continuous
 62
     8
370
    15
100
AcDbCircle
 10
3.749631395390553
 20
6.538367991286858
 30
0.0
 40
0.0519998048511381
100
AcDbArc
 50
132.9171723243785
 51
180.9484023416337
  0
ARC
  5
3FF
330
1F
100
AcDbEntity
  8
0
  6
Continuous
 62
     8
370
    15
100
AcDbCircle
 10
3.741579883485748
 20
6.537107097694786
 30
0.0
 40
0.0439429916493437
100
AcDbArc
 50
179.4781940712214
 51
197.9374405091935
  0
LWPOLYLINE
  5
400
330
1F
100
AcDbEntity
  8
0
  6
Continuous
 62
     8
370
    15
100
AcDbPolyline
 90
       38
 70
   128
 43
0.0
 10
3.699445181649081
 20
6.539476125387883
 10
3.699406394933179
 20
6.537507268369021
 10
3.69969138395805
 20
6.532279371681501
 10
3.700540128564874
 20
6.527315483442369
 10
3.701934583597053
 20
6.522721551048904
 10
3.703844881209186
 20
6.518595338197402
 10
3.706230575360624
 20
6.515024992003792
 10
3.709040641815474
 20
6.512086428890064
 10
3.712215344882934
 20
6.509842351018559
 10
3.715686859664069
 20
6.508340576054077
 10
3.719381138792158
 20
6.50761305359816
 10
3.723219571757427
 20
6.507675391268208
 10
3.727120436816208
 20
6.508526254555915
 10
3.731000352900089
 20
6.510147402551191
 10
3.734776976018625
 20
6.512504410338253
 10
3.738369414090518
 20
6.515546992088637
 10
3.741701338177521
 20
6.51921025850545
 10
3.744701604731213
 20
6.523416084609367
 10
3.747306537164522
 20
6.528075063379516
 10
3.749460340682913
 20
6.533087676667093
 10
3.751117176440319
 20
6.538347182391377
 10
3.75224178378592
 20
6.543741406236026
 10
3.752810102510919
 20
6.549155451817731
 10
3.752810102510919
 20
6.554473971861755
 10
3.75224178378592
 20
6.559583499708639
 10
3.751117176440319
 20
6.564375134079496
 10
3.749460340682913
 20
6.568746870582706
 10
3.747306537164522
 20
6.572605428338032
 10
3.744701604731213
 20
6.575868556079965
 10
3.741701338177521
 20
6.578466843699042
 10
3.738369414090518
 20
6.580344791542078
 10
3.734776976018625
 20
6.581462465567249
 10
3.731000352900089
 20
6.581795875209932
 10
3.727120436816208
 20
6.581338078406836
 10
3.723219571757427
 20
6.580098771972367
 10
3.719381138792158
 20
6.578104392415927
 10
3.715686859664069
 20
6.575397393545822
 10
3.712450968996656
 20
6.572292357543677
  0
ARC
  5
401
330
1F
100
AcDbEntity
  8
0
  6
Continuous
 62
     8
370
    15
100
AcDbCircle
 10
3.732743590810622
 20
6.539629517304172
 30
0.0
 40
0.0443871474580455
100
AcDbArc
 50
179.5298829121189
 51
196.3794601529539
  0
ARC
  5
402
330
1F
100
AcDbEntity
  8
0
  6
Continuous
 62
     8
370
    15
100
AcDbCircle
 10
3.741505909966881
 20
6.540445170715922
 30
0.0
 40
0.0531498898527096
100
AcDbArc
 50
135.0772520069954
 51
180.4866780871732
  0
ARC
  5
403
330
1F
100
AcDbEntity
  8
0
  6
Continuous
 62
     8
370
    15
100
AcDbCircle
 10
4.014797878000432
 20
6.609407972076325
 30
0.0
 40
0.0520013081435104
100
AcDbArc
 50
132.9179103172527
 51
180.9476643487591
  0
ARC
  5
404
330
1F
100
AcDbEntity
  8
0
  6
Continuous
 62
     8
370
    15
100
AcDbCircle
 10
4.006754393238004
 20
6.608149184666072
 30
0.0
 40
0.0439525192831669
100
AcDbArc
 50
179.4802122677074
 51
197.9354223127032
  0
LWPOLYLINE
  5
405
330
1F
100
AcDbEntity
  8
0
  6
Continuous
 62
     8
370
    15
100
AcDbPolyline
 90
       38
 70
   128
 43
0.0
 10
3.964610150090356
 20
6.610516751001123
 10
3.964571467082249
 20
6.608547921766725
 10
3.964856456107122
 20
6.603320025079205
 10
3.965705097006149
 20
6.598356109055607
 10
3.967099552038328
 20
6.593762176662143
 10
3.969009953358257
 20
6.589635991595105
 10
3.971395647509695
 20
6.586065645401495
 10
3.974205713964545
 20
6.583127082287769
 10
3.977380313324209
 20
6.580882976631799
 10
3.980851828105345
 20
6.579381201667315
 10
3.984546107233433
 20
6.5786536792114
 10
3.988384643906498
 20
6.578716044665912
 10
3.992285508965279
 20
6.579566907953618
 10
3.996165425049161
 20
6.581188055948894
 10
3.9999419444599
 20
6.583545035951493
 10
4.00353448623959
 20
6.586587645486341
 10
4.006866410326593
 20
6.590250911903154
 10
4.00986678058808
 20
6.594456765791536
 10
4.012471609313593
 20
6.599115716777219
 10
4.014625309124187
 20
6.604128302280331
 10
4.016282144881594
 20
6.609387808004616
 10
4.017406752227195
 20
6.614782031849266
 10
4.017975070952194
 20
6.62019607743097
 10
4.017975070952194
 20
6.625514597474993
 10
4.017406752227195
 20
6.630624125321878
 10
4.016282144881594
 20
6.635415759692734
 10
4.014625309124187
 20
6.639787496195945
 10
4.012471609313593
 20
6.643646081735735
 10
4.00986678058808
 20
6.646909237262132
 10
4.006866410326593
 20
6.649507497096745
 10
4.00353448623959
 20
6.65138544493978
 10
3.9999419444599
 20
6.652503091180488
 10
3.996165425049161
 20
6.652836528607636
 10
3.992285508965279
 20
6.65237873180454
 10
3.988384643906498
 20
6.651139425370071
 10
3.984546107233433
 20
6.649145018029165
 10
3.980851828105345
 20
6.646438019159061
 10
3.977616041145727
 20
6.64333301094138
  0
ARC
  5
406
330
1F
100
AcDbEntity
  8
0
  6
Continuous
 62
     8
370
    15
100
AcDbCircle
 10
3.997913094671621
 20
6.610671146567602
 30
0.0
 40
0.0443916745023535
100
AcDbArc
 50
179.5312262977746
 51
196.3790555592029
  0
ARC
  5
407
330
1F
100
AcDbEntity
  8
0
  6
Continuous
 62
     8
370
    15
100
AcDbCircle
 10
4.006671741556639
 20
6.611485443767808
 30
0.0
 40
0.0531507499766064
100
AcDbArc
 50
135.0776399529651
 51
180.4862901412043
  0
ARC
  5
408
330
1F
100
AcDbEntity
  8
0
  6
Continuous
 62
     8
370
    15
100
AcDbCircle
 10
7.15258400438634
 20
6.879440538464977
 30
0.0
 40
0.0520010837103875
100
AcDbArc
 50
132.9177992760767
 51
180.9478128622546
  0
ARC
  5
409
330
1F
100
AcDbEntity
  8
0
  6
Continuous
 62
     8
370
    15
100
AcDbCircle
 10
7.144540359810518
 20
6.878181595122158
 30
0.0
 40
0.0439521330794392
100
AcDbArc
 50
179.4801752738846
 51
197.9355027834587
  0
LWPOLYLINE
  5
40A
330
1F
100
AcDbEntity
  8
0
  6
Continuous
 62
     8
370
    15
100
AcDbPolyline
 90
       38
 70
   128
 43
0.0
 10
7.102396502297942
 20
6.880549221873682
 10
7.102357819289835
 20
6.878580357313425
 10
7.10264270460691
 20
6.87335243284144
 10
7.103491449213733
 20
6.868388579928166
 10
7.104885904245913
 20
6.863794612208843
 10
7.106796305565841
 20
6.859668462467665
 10
7.10918199971728
 20
6.856098080948195
 10
7.111992066172131
 20
6.853159517834469
 10
7.115166665531794
 20
6.850915429841427
 10
7.118638180312929
 20
6.849413654876943
 10
7.122332459441016
 20
6.848686167746889
 10
7.126170996114082
 20
6.848748515538471
 10
7.130071757465067
 20
6.849599333378782
 10
7.133951777256745
 20
6.851220526821453
 10
7.137728296667484
 20
6.85357750682405
 10
7.141320838447175
 20
6.856620081033041
 10
7.144652762534177
 20
6.860283329786923
 10
7.147653132795665
 20
6.864489236664095
 10
7.150257961521177
 20
6.869148152323918
 10
7.152411661331773
 20
6.874160737827031
 10
7.154068497089178
 20
6.879420243551315
 10
7.15519310443478
 20
6.884814502721823
 10
7.155761423159778
 20
6.890228548303528
 10
7.155761423159778
 20
6.895547033021692
 10
7.15519310443478
 20
6.900656560868577
 10
7.154068497089178
 20
6.905448230565293
 10
7.152411661331773
 20
6.909819931742644
 10
7.150257961521177
 20
6.913678552608295
 10
7.147653132795665
 20
6.916941708134691
 10
7.144652762534177
 20
6.919539967969304
 10
7.141320838447175
 20
6.921417915812339
 10
7.137728296667484
 20
6.922535526727187
 10
7.133951777256745
 20
6.922868964154335
 10
7.130071757465067
 20
6.922411139566775
 10
7.126170996114082
 20
6.92117186091677
 10
7.122332459441016
 20
6.919177453575865
 10
7.118638180312929
 20
6.916470454705761
 10
7.115402393353312
 20
6.913365481813939
  0
ARC
  5
40B
330
1F
100
AcDbEntity
  8
0
  6
Continuous
 62
     8
370
    15
100
AcDbCircle
 10
7.135699641143768
 20
6.880703609591607
 30
0.0
 40
0.0443918693475803
100
AcDbArc
 50
179.5312635408413
 51
196.3790183161323
  0
ARC
  5
40C
330
1F
100
AcDbEntity
  8
0
  6
Continuous
 62
     8
370
    15
100
AcDbCircle
 10
7.144457600920453
 20
6.881518080507441
 30
0.0
 40
0.053150259666904
100
AcDbArc
 50
135.0774188078074
 51
180.4865112863604
  0
ARC
  5
40D
330
1F
100
AcDbEntity
  8
0
  6
Continuous
 62
     8
370
    15
100
AcDbCircle
 10
6.710642547094607
 20
6.761039333078673
 30
0.0
 40
0.0520013766458111
100
AcDbArc
 50
132.9179430793051
 51
180.9476690590279
  0
ARC
  5
40E
330
1F
100
AcDbEntity
  8
0
  6
Continuous
 62
     8
370
    15
100
AcDbCircle
 10
6.702598607464716
 20
6.759780515387483
 30
0.0
 40
0.0439521330794915
100
AcDbArc
 50
179.480175273898
 51
197.9355027834476
  0
LWPOLYLINE
  5
40F
330
1F
100
AcDbEntity
  8
0
  6
Continuous
 62
     8
370
    15
100
AcDbPolyline
 90
       38
 70
   128
 43
0.0
 10
6.660454749952088
 20
6.762148142138997
 10
6.660416066943981
 20
6.76017927757874
 10
6.660701055968853
 20
6.75495138089122
 10
6.66154969686788
 20
6.749987500193483
 10
6.662944151900059
 20
6.745393532474159
 10
6.664854553219988
 20
6.74126738273298
 10
6.667240247371426
 20
6.737697001213511
 10
6.670050313826277
 20
6.734758438099784
 10
6.67322491318594
 20
6.732514350106743
 10
6.676696427967075
 20
6.73101257514226
 10
6.680390810802959
 20
6.730285115796669
 10
6.684229243768229
 20
6.730347435803786
 10
6.68813010882701
 20
6.731198281428564
 10
6.692010024910891
 20
6.732819447086768
 10
6.695786544321632
 20
6.735176427089367
 10
6.699379086101322
 20
6.738219001298356
 10
6.702711010188324
 20
6.741882250052238
 10
6.705711380449811
 20
6.74608815692941
 10
6.708316209175324
 20
6.750747072589234
 10
6.710469908985919
 20
6.755759658092348
 10
6.712126744743326
 20
6.76101916381663
 10
6.713251352088926
 20
6.76641342298714
 10
6.713819670813926
 20
6.771827468568844
 10
6.713819670813926
 20
6.777145953287009
 10
6.713251352088926
 20
6.782255481133893
 10
6.712126744743326
 20
6.787047150830609
 10
6.710469908985919
 20
6.79141885200796
 10
6.708316209175324
 20
6.79527747287361
 10
6.705711380449811
 20
6.798540628400006
 10
6.702711010188324
 20
6.80113888823462
 10
6.699379086101322
 20
6.803016836077656
 10
6.695786544321632
 20
6.804134446992502
 10
6.692010024910891
 20
6.804467884419652
 10
6.68813010882701
 20
6.804010087616554
 10
6.684229243768229
 20
6.802770781182085
 10
6.680390810802959
 20
6.800776401625645
 10
6.676696427967075
 20
6.798069374971077
 10
6.673460641007459
 20
6.794964402079256
  0
ARC
  5
410
330
1F
100
AcDbEntity
  8
0
  6
Continuous
 62
     8
370
    15
100
AcDbCircle
 10
6.69375788879798
 20
6.762302529856932
 30
0.0
 40
0.0443918693476469
100
AcDbArc
 50
179.5312635408523
 51
196.3790183161202
  0
ARC
  5
411
330
1F
100
AcDbEntity
  8
0
  6
Continuous
 62
     8
370
    15
100
AcDbCircle
 10
6.702516189362106
 20
6.7631168615748
 30
0.0
 40
0.0531505992603689
100
AcDbArc
 50
135.0775719756546
 51
180.4863581185122
  0
ARC
  5
412
330
1F
100
AcDbEntity
  8
0
  6
Continuous
 62
     8
370
    15
100
AcDbCircle
 10
6.578060185416714
 20
6.906164636533905
 30
0.0
 40
0.0520015497903159
100
AcDbArc
 50
132.9180280758307
 51
180.9475840624988
  0
ARC
  5
413
330
1F
100
AcDbEntity
  8
0
  6
Continuous
 62
     8
370
    15
100
AcDbCircle
 10
6.570015527646132
 20
6.904905809830524
 30
0.0
 40
0.0439515901134759
100
AcDbArc
 50
179.4800602818725
 51
197.9356177754657
  0
LWPOLYLINE
  5
414
330
1F
100
AcDbEntity
  8
0
  6
Continuous
 62
     8
370
    15
100
AcDbPolyline
 90
       38
 70
   128
 43
0.0
 10
6.527872213877553
 20
6.907273519862711
 10
6.527833530869446
 20
6.905304655302454
 10
6.528118519894318
 20
6.900076723289075
 10
6.528967264501141
 20
6.8951128703758
 10
6.530361615825523
 20
6.890518910197871
 10
6.532272017145452
 20
6.886392760456693
 10
6.53465771129689
 20
6.882822343611365
 10
6.537467777751742
 20
6.879883780497638
 10
6.540642377111405
 20
6.877639710167526
 10
6.54411389189254
 20
6.876137935203043
 10
6.547808274728424
 20
6.875410475857452
 10
6.551646707693693
 20
6.8754728135275
 10
6.555547572752475
 20
6.876323641489347
 10
6.559427592544153
 20
6.877944817269088
 10
6.563204008247097
 20
6.880301804813079
 10
6.566796550026785
 20
6.883344343696211
 10
6.570128474113788
 20
6.887007610113021
 10
6.573128844375276
 20
6.891213534653124
 10
6.575733673100788
 20
6.895872450312947
 10
6.57788747661918
 20
6.900885063600525
 10
6.579544312376586
 20
6.90614453399895
 10
6.58066881601439
 20
6.911538765384993
 10
6.581237134739389
 20
6.916952846292557
 10
6.581237134739389
 20
6.922271295684862
 10
6.58066881601439
 20
6.927380823531747
 10
6.579544312376586
 20
6.932172521012928
 10
6.57788747661918
 20
6.936544257516137
 10
6.575733673100788
 20
6.940402815271464
 10
6.573128844375276
 20
6.94366600612372
 10
6.570128474113788
 20
6.946264265958332
 10
6.566796550026785
 20
6.948142213801368
 10
6.563204008247097
 20
6.949259789390357
 10
6.559427592544153
 20
6.949593254601969
 10
6.555547572752475
 20
6.949135465340267
 10
6.551646707693693
 20
6.947896123579941
 10
6.547808274728424
 20
6.945901744023498
 10
6.54411389189254
 20
6.94319475269479
 10
6.540878104932923
 20
6.940089744477109
  0
ARC
  5
415
330
1F
100
AcDbEntity
  8
0
  6
Continuous
 62
     8
370
    15
100
AcDbCircle
 10
6.561175363508736
 20
6.907427874757948
 30
0.0
 40
0.0443918804011083
100
AcDbArc
 50
179.5312212925022
 51
196.3790174903815
  0
ARC
  5
416
330
1F
100
AcDbEntity
  8
0
  6
Continuous
 62
     8
370
    15
100
AcDbCircle
 10
6.569933613570348
 20
6.908242220615139
 30
0.0
 40
0.0531505593859873
100
AcDbArc
 50
135.0775544450191
 51
180.4863383421747
  0
ARC
  5
417
330
1F
100
AcDbEntity
  8
0
  6
Continuous
 62
     8
370
    15
100
AcDbCircle
 10
3.882213931465095
 20
6.754534022408272
 30
0.0
 40
0.0519998048511447
100
AcDbArc
 50
132.9171723243819
 51
180.9484023416296
  0
ARC
  5
418
330
1F
100
AcDbEntity
  8
0
  6
Continuous
 62
     8
370
    15
100
AcDbCircle
 10
3.874161668542148
 20
6.753273013789411
 30
0.0
 40
0.0439422417100837
100
AcDbArc
 50
179.4780351772641
 51
197.9375994031526
  0
LWPOLYLINE
  5
419
330
1F
100
AcDbEntity
  8
0
  6
Continuous
 62
     8
370
    15
100
AcDbPolyline
 90
       38
 70
   128
 43
0.0
 10
3.832027717723618
 20
6.7556421565093
 10
3.831988931007714
 20
6.753673299490437
 10
3.832273920032586
 20
6.7484453321512
 10
3.83312266463941
 20
6.743481514563785
 10
3.834517119671589
 20
6.738887582170321
 10
3.836427417283721
 20
6.734761369318818
 10
3.838813111435159
 20
6.73119095247349
 10
3.84162317789001
 20
6.728252389359763
 10
3.844797880957469
 20
6.726008382139976
 10
3.848269188323012
 20
6.724506551606563
 10
3.851963674866694
 20
6.723779084719578
 10
3.855802107831962
 20
6.723841422389625
 10
3.859702972890744
 20
6.724692285677331
 10
3.863582888974626
 20
6.726313433672608
 10
3.867359512093161
 20
6.72867044145967
 10
3.870951950165054
 20
6.731712952558337
 10
3.874283874252057
 20
6.735376218975147
 10
3.877284140805748
 20
6.739582115730783
 10
3.879889073239057
 20
6.744241094500931
 10
3.882042876757448
 20
6.749253707788509
 10
3.883699712514855
 20
6.754513142861076
 10
3.884824319860456
 20
6.759907437357443
 10
3.885392638585455
 20
6.765321482939148
 10
3.885392638585455
 20
6.770639932331453
 10
3.884824319860456
 20
6.775749460178337
 10
3.883699712514855
 20
6.780541165200912
 10
3.882042876757448
 20
6.784912901704123
 10
3.879889073239057
 20
6.788771459459448
 10
3.877284140805748
 20
6.79203458720138
 10
3.874283874252057
 20
6.794632874820458
 10
3.870951950165054
 20
6.796510822663494
 10
3.867359512093161
 20
6.797628426036948
 10
3.863582888974626
 20
6.797961835679631
 10
3.859702972890744
 20
6.797504109528252
 10
3.855802107831962
 20
6.796264732442065
 10
3.851963674866694
 20
6.794270352885624
 10
3.848269188323012
 20
6.791563369098309
 10
3.845033505071192
 20
6.788458388665094
  0
ARC
  5
41A
330
1F
100
AcDbEntity
  8
0
  6
Continuous
 62
     8
370
    15
100
AcDbCircle
 10
3.865326538530565
 20
6.755795537292224
 30
0.0
 40
0.0443875591809454
100
AcDbArc
 50
179.529872901343
 51
196.3793840209128
  0
ARC
  5
41B
330
1F
100
AcDbEntity
  8
0
  6
Continuous
 62
     8
370
    15
100
AcDbCircle
 10
3.874088141680615
 20
6.756611256344643
 30
0.0
 40
0.0531495859659057
100
AcDbArc
 50
135.0771158487654
 51
180.4867396313937
  0
TEXT
  5
423
330
1F
100
AcDbEntity
  8
0
100
AcDbText
 10
4.059271113138088
 20
1.677644804052661
 30
0.0
 40
0.25
  1
USP: MP_F
100
AcDbText
  0
TEXT
  5
424
330
1F
100
AcDbEntity
  8
0
100
AcDbText
 10
3.136227059804156
 20
1.167990305850256
 30
0.0
 40
0.25
  1
SIMPSON: LTP
100
AcDbText
  0
ENDSEC
  0
SECTION
  2
OBJECTS
  0
DICTIONARY
  5
C
330
0
100
AcDbDictionary
281
     1
  3
ACAD_COLOR
350
420
  3
ACAD_GROUP
350
D
  3
ACAD_LAYOUT
350
1A
  3
ACAD_MATERIAL
350
41F
  3
ACAD_MLINESTYLE
350
17
  3
ACAD_PLOTSETTINGS
350
19
  3
ACAD_PLOTSTYLENAME
350
E
  3
ACDBHEADERROUNDTRIPXREC
350
42F
  3
AcDbVariableDictionary
350
42B
  0
DICTIONARY
  5
420
102
{ACAD_REACTORS
330
C
102
}
330
C
100
AcDbDictionary
281
     1
  0
DICTIONARY
  5
D
102
{ACAD_REACTORS
330
C
102
}
330
C
100
AcDbDictionary
281
     1
  0
DICTIONARY
  5
1A
102
{ACAD_REACTORS
330
C
102
}
330
C
100
AcDbDictionary
281
     1
  3
Layout1
350
1E
  3
Layout2
350
26
  3
Model
350
22
  0
DICTIONARY
  5
41F
102
{ACAD_REACTORS
330
C
102
}
330
C
100
AcDbDictionary
281
     1
  0
DICTIONARY
  5
17
102
{ACAD_REACTORS
330
C
102
}
330
C
100
AcDbDictionary
281
     1
  3
Standard
350
18
  0
DICTIONARY
  5
19
102
{ACAD_REACTORS
330
C
102
}
330
C
100
AcDbDictionary
281
     1
  0
ACDBDICTIONARYWDFLT
  5
E
102
{ACAD_REACTORS
330
C
102
}
330
C
100
AcDbDictionary
281
     1
  3
Normal
350
F
100
AcDbDictionaryWithDefault
340
F
  0
DICTIONARY
  5
42F
102
{ACAD_REACTORS
330
C
102
}
330
C
100
AcDbDictionary
281
     1
  3
COLORDICT
350
431
  3
MATERIALDICT
350
430
  0
DICTIONARY
  5
42B
102
{ACAD_REACTORS
330
C
102
}
330
C
100
AcDbDictionary
281
     1
  3
DIMASSOC
350
42C
  3
PROJECTNAME
350
42D
  0
LAYOUT
  5
1E
102
{ACAD_XDICTIONARY
360
432
102
}
102
{ACAD_REACTORS
330
1A
102
}
330
1A
100
AcDbPlotSettings
  1

  2
none_device
  4

  6

 40
0.0
 41
0.0
 42
0.0
 43
0.0
 44
0.0
 45
0.0
 46
0.0
 47
0.0
 48
0.0
 49
0.0
140
0.0
141
0.0
142
1.0
143
1.0
 70
   688
 72
     0
 73
     0
 74
     5
  7

 75
    16
147
1.0
148
0.0
149
0.0
100
AcDbLayout
  1
Layout1
 70
     1
 71
     1
 10
0.0
 20
0.0
 11
12.0
 21
9.0
 12
0.0
 22
0.0
 32
0.0
 14
1.000000000000000E+20
 24
1.000000000000000E+20
 34
1.000000000000000E+20
 15
-1.000000000000000E+20
 25
-1.000000000000000E+20
 35
-1.000000000000000E+20
146
0.0
 13
0.0
 23
0.0
 33
0.0
 16
1.0
 26
0.0
 36
0.0
 17
0.0
 27
1.0
 37
0.0
 76
     0
330
1B
  0
LAYOUT
  5
26
102
{ACAD_XDICTIONARY
360
436
102
}
102
{ACAD_REACTORS
330
1A
102
}
330
1A
100
AcDbPlotSettings
  1

  2
none_device
  4

  6

 40
0.0
 41
0.0
 42
0.0
 43
0.0
 44
0.0
 45
0.0
 46
0.0
 47
0.0
 48
0.0
 49
0.0
140
0.0
141
0.0
142
1.0
143
1.0
 70
   688
 72
     0
 73
     0
 74
     5
  7

 75
    16
147
1.0
148
0.0
149
0.0
100
AcDbLayout
  1
Layout2
 70
     1
 71
     2
 10
0.0
 20
0.0
 11
0.0
 21
0.0
 12
0.0
 22
0.0
 32
0.0
 14
0.0
 24
0.0
 34
0.0
 15
0.0
 25
0.0
 35
0.0
146
0.0
 13
0.0
 23
0.0
 33
0.0
 16
1.0
 26
0.0
 36
0.0
 17
0.0
 27
1.0
 37
0.0
 76
     0
330
23
  0
LAYOUT
  5
22
102
{ACAD_XDICTIONARY
360
434
102
}
102
{ACAD_REACTORS
330
1A
102
}
330
1A
100
AcDbPlotSettings
  1

  2
none_device
  4

  6

 40
0.0
 41
0.0
 42
0.0
 43
0.0
 44
0.0
 45
0.0
 46
0.0
 47
0.0
 48
0.0
 49
0.0
140
0.0
141
0.0
142
1.0
143
1.0
 70
  1712
 72
     0
 73
     0
 74
     0
  7

 75
     0
147
1.0
148
0.0
149
0.0
100
AcDbLayout
  1
Model
 70
     1
 71
     0
 10
0.0
 20
0.0
 11
8.5
 21
11.0
 12
0.0
 22
0.0
 32
0.0
 14
0.0
 24
0.0
 34
0.0
 15
8.5
 25
11.0
 35
0.0
146
0.0
 13
0.0
 23
0.0
 33
0.0
 16
1.0
 26
0.0
 36
0.0
 17
0.0
 27
1.0
 37
0.0
 76
     0
330
1F
  0
MLINESTYLE
  5
18
102
{ACAD_REACTORS
330
17
102
}
330
17
100
AcDbMlineStyle
  2
STANDARD
 70
     0
  3

 62
   256
 51
90.0
 52
90.0
 71
     2
 49
0.5
 62
   256
  6
BYLAYER
 49
-0.5
 62
   256
  6
BYLAYER
  0
ACDBPLACEHOLDER
  5
F
102
{ACAD_REACTORS
330
E
102
}
330
E
  0
XRECORD
  5
431
102
{ACAD_REACTORS
330
42F
102
}
330
42F
100
AcDbXrecord
280
     1
340
420
  0
XRECORD
  5
430
102
{ACAD_REACTORS
330
42F
102
}
330
42F
100
AcDbXrecord
280
     1
340
41F
  0
DICTIONARYVAR
  5
42C
102
{ACAD_REACTORS
330
42B
102
}
330
42B
100
DictionaryVariables
280
     0
  1
1
  0
DICTIONARYVAR
  5
42D
102
{ACAD_REACTORS
330
42B
102
}
330
42B
100
DictionaryVariables
280
     0
  1

  0
DICTIONARY
  5
432
330
1E
100
AcDbDictionary
280
     1
281
     1
  3
ACAD_XREC_ROUNDTRIP
360
433
  0
DICTIONARY
  5
436
330
26
100
AcDbDictionary
280
     1
281
     1
  3
ACAD_XREC_ROUNDTRIP
360
437
  0
DICTIONARY
  5
434
330
22
100
AcDbDictionary
280
     1
281
     1
  3
ACAD_XREC_ROUNDTRIP
360
435
  0
XRECORD
  5
433
102
{ACAD_REACTORS
330
432
102
}
330
432
100
AcDbXrecord
280
     1
102
SHADEPLOT
 70
     0
102
SHADEPLOTRESLEVEL
 70
     2
102
SHADEPLOTCUSTOMDPI
 70
   300
  0
XRECORD
  5
437
102
{ACAD_REACTORS
330
436
102
}
330
436
100
AcDbXrecord
280
     1
102
SHADEPLOT
 70
     0
102
SHADEPLOTRESLEVEL
 70
     2
102
SHADEPLOTCUSTOMDPI
 70
   300
  0
XRECORD
  5
435
102
{ACAD_REACTORS
330
434
102
}
330
434
100
AcDbXrecord
280
     1
102
SHADEPLOT
 70
     0
102
SHADEPLOTRESLEVEL
 70
     2
102
SHADEPLOTCUSTOMDPI
 70
   300
  0
ENDSEC
  0
EOF
