  0
SECTION
  2
HEADER
  9
$ACADVER
  1
AC1018
  9
$ACADMAINTVER
 70
     0
  9
$DWGCODEPAGE
  3
ANSI_1252
  9
$INSBASE
 10
0.0
 20
0.0
 30
0.0
  9
$EXTMIN
 10
0.3713117498292525
 20
2.472263707520674
 30
0.0
  9
$EXTMAX
 10
8.172239972782339
 20
6.638536327930941
 30
0.0
  9
$LIMMIN
 10
0.0
 20
0.0
  9
$LIMMAX
 10
8.5
 20
11.0
  9
$ORTHOMODE
 70
     0
  9
$REGENMODE
 70
     1
  9
$FILLMODE
 70
     1
  9
$QTEXTMODE
 70
     0
  9
$MIRRTEXT
 70
     1
  9
$LTSCALE
 40
1.0
  9
$ATTMODE
 70
     1
  9
$TEXTSIZE
 40
0.25
  9
$TRACEWID
 40
0.05
  9
$TEXTSTYLE
  7
Standard
  9
$CLAYER
  8
0
  9
$CELTYPE
  6
ByLayer
  9
$CECOLOR
 62
   256
  9
$CELTSCALE
 40
1.0
  9
$DISPSILH
 70
     0
  9
$DIMSCALE
 40
1.0
  9
$DIMASZ
 40
0.156
  9
$DIMEXO
 40
0.05
  9
$DIMDLI
 40
0.38
  9
$DIMRND
 40
0.0
  9
$DIMDLE
 40
0.0
  9
$DIMEXE
 40
0.125
  9
$DIMTP
 40
0.0
  9
$DIMTM
 40
0.0
  9
$DIMTXT
 40
0.125
  9
$DIMCEN
 40
0.09
  9
$DIMTSZ
 40
0.0
  9
$DIMTOL
 70
     0
  9
$DIMLIM
 70
     0
  9
$DIMTIH
 70
     1
  9
$DIMTOH
 70
     1
  9
$DIMSE1
 70
     0
  9
$DIMSE2
 70
     0
  9
$DIMTAD
 70
     0
  9
$DIMZIN
 70
     0
  9
$DIMBLK
  1

  9
$DIMASO
 70
     1
  9
$DIMSHO
 70
     1
  9
$DIMPOST
  1

  9
$DIMAPOST
  1

  9
$DIMALT
 70
     0
  9
$DIMALTD
 70
     2
  9
$DIMALTF
 40
25.4
  9
$DIMLFAC
 40
24.0
  9
$DIMTOFL
 70
     0
  9
$DIMTVP
 40
0.0
  9
$DIMTIX
 70
     0
  9
$DIMSOXD
 70
     0
  9
$DIMSAH
 70
     0
  9
$DIMBLK1
  1

  9
$DIMBLK2
  1

  9
$DIMSTYLE
  2
Standard
  9
$DIMCLRD
 70
     0
  9
$DIMCLRE
 70
     0
  9
$DIMCLRT
 70
     0
  9
$DIMTFAC
 40
1.0
  9
$DIMGAP
 40
0.06
  9
$DIMJUST
 70
     0
  9
$DIMSD1
 70
     0
  9
$DIMSD2
 70
     0
  9
$DIMTOLJ
 70
     1
  9
$DIMTZIN
 70
     0
  9
$DIMALTZ
 70
     0
  9
$DIMALTTZ
 70
     0
  9
$DIMUPT
 70
     0
  9
$DIMDEC
 70
     3
  9
$DIMTDEC
 70
     3
  9
$DIMALTU
 70
     2
  9
$DIMALTTD
 70
     2
  9
$DIMTXSTY
  7
Standard
  9
$DIMAUNIT
 70
     0
  9
$DIMADEC
 70
     0
  9
$DIMALTRND
 40
0.0
  9
$DIMAZIN
 70
     0
  9
$DIMDSEP
 70
    46
  9
$DIMATFIT
 70
     3
  9
$DIMFRAC
 70
     0
  9
$DIMLDRBLK
  1

  9
$DIMLUNIT
 70
     2
  9
$DIMLWD
 70
    -2
  9
$DIMLWE
 70
    -2
  9
$DIMTMOVE
 70
     0
  9
$LUNITS
 70
     2
  9
$LUPREC
 70
     3
  9
$SKETCHINC
 40
0.1
  9
$FILLETRAD
 40
0.5
  9
$AUNITS
 70
     0
  9
$AUPREC
 70
     0
  9
$MENU
  1
.
  9
$ELEVATION
 40
0.0
  9
$PELEVATION
 40
0.0
  9
$THICKNESS
 40
0.0
  9
$LIMCHECK
 70
     0
  9
$CHAMFERA
 40
0.5
  9
$CHAMFERB
 40
0.5
  9
$CHAMFERC
 40
1.0
  9
$CHAMFERD
 40
0.0
  9
$SKPOLY
 70
     0
  9
$TDCREATE
 40
2456574.565657118
  9
$TDUCREATE
 40
2456574.773990451
  9
$TDUPDATE
 40
2456574.566421979
  9
$TDUUPDATE
 40
2456574.774755313
  9
$TDINDWG
 40
0.0005780671
  9
$TDUSRTIMER
 40
0.0005780671
  9
$USRTIMER
 70
     1
  9
$ANGBASE
 50
0.0
  9
$ANGDIR
 70
     0
  9
$PDMODE
 70
     0
  9
$PDSIZE
 40
-1.0
  9
$PLINEWID
 40
0.0
  9
$SPLFRAME
 70
     0
  9
$SPLINETYPE
 70
     6
  9
$SPLINESEGS
 70
     8
  9
$HANDSEED
  5
36C
  9
$SURFTAB1
 70
     6
  9
$SURFTAB2
 70
     6
  9
$SURFTYPE
 70
     6
  9
$SURFU
 70
     6
  9
$SURFV
 70
     6
  9
$UCSBASE
  2

  9
$UCSNAME
  2

  9
$UCSORG
 10
0.0
 20
0.0
 30
0.0
  9
$UCSXDIR
 10
1.0
 20
0.0
 30
0.0
  9
$UCSYDIR
 10
0.0
 20
1.0
 30
0.0
  9
$UCSORTHOREF
  2

  9
$UCSORTHOVIEW
 70
     0
  9
$UCSORGTOP
 10
0.0
 20
0.0
 30
0.0
  9
$UCSORGBOTTOM
 10
0.0
 20
0.0
 30
0.0
  9
$UCSORGLEFT
 10
0.0
 20
0.0
 30
0.0
  9
$UCSORGRIGHT
 10
0.0
 20
0.0
 30
0.0
  9
$UCSORGFRONT
 10
0.0
 20
0.0
 30
0.0
  9
$UCSORGBACK
 10
0.0
 20
0.0
 30
0.0
  9
$PUCSBASE
  2

  9
$PUCSNAME
  2

  9
$PUCSORG
 10
0.0
 20
0.0
 30
0.0
  9
$PUCSXDIR
 10
1.0
 20
0.0
 30
0.0
  9
$PUCSYDIR
 10
0.0
 20
1.0
 30
0.0
  9
$PUCSORTHOREF
  2

  9
$PUCSORTHOVIEW
 70
     0
  9
$PUCSORGTOP
 10
0.0
 20
0.0
 30
0.0
  9
$PUCSORGBOTTOM
 10
0.0
 20
0.0
 30
0.0
  9
$PUCSORGLEFT
 10
0.0
 20
0.0
 30
0.0
  9
$PUCSORGRIGHT
 10
0.0
 20
0.0
 30
0.0
  9
$PUCSORGFRONT
 10
0.0
 20
0.0
 30
0.0
  9
$PUCSORGBACK
 10
0.0
 20
0.0
 30
0.0
  9
$USERI1
 70
     0
  9
$USERI2
 70
     0
  9
$USERI3
 70
     0
  9
$USERI4
 70
     0
  9
$USERI5
 70
     0
  9
$USERR1
 40
0.0
  9
$USERR2
 40
0.0
  9
$USERR3
 40
0.0
  9
$USERR4
 40
0.0
  9
$USERR5
 40
0.0
  9
$WORLDVIEW
 70
     1
  9
$SHADEDGE
 70
     3
  9
$SHADEDIF
 70
    70
  9
$TILEMODE
 70
     1
  9
$MAXACTVP
 70
    64
  9
$PINSBASE
 10
0.0
 20
0.0
 30
0.0
  9
$PLIMCHECK
 70
     0
  9
$PEXTMIN
 10
1.000000000000000E+20
 20
1.000000000000000E+20
 30
1.000000000000000E+20
  9
$PEXTMAX
 10
-1.000000000000000E+20
 20
-1.000000000000000E+20
 30
-1.000000000000000E+20
  9
$PLIMMIN
 10
0.0
 20
0.0
  9
$PLIMMAX
 10
12.0
 20
9.0
  9
$UNITMODE
 70
     0
  9
$VISRETAIN
 70
     1
  9
$PLINEGEN
 70
     0
  9
$PSLTSCALE
 70
     1
  9
$TREEDEPTH
 70
  3020
  9
$CMLSTYLE
  2
Standard
  9
$CMLJUST
 70
     0
  9
$CMLSCALE
 40
1.0
  9
$PROXYGRAPHICS
 70
     1
  9
$MEASUREMENT
 70
     0
  9
$CELWEIGHT
370
    -1
  9
$ENDCAPS
280
     0
  9
$JOINSTYLE
280
     0
  9
$LWDISPLAY
290
     1
  9
$INSUNITS
 70
     1
  9
$HYPERLINKBASE
  1

  9
$STYLESHEET
  1

  9
$XEDIT
290
     1
  9
$CEPSNTYPE
380
     0
  9
$PSTYLEMODE
290
     1
  9
$FINGERPRINTGUID
  2
{F6BEC5C7-CD93-4B2B-97FC-C10A7C2DDA38}
  9
$VERSIONGUID
  2
{A7A5CA32-E4FE-45FA-B0BA-1552820ECE75}
  9
$EXTNAMES
290
     1
  9
$PSVPSCALE
 40
0.0
  9
$OLESTARTUP
290
     0
  9
$SORTENTS
280
   127
  9
$INDEXCTL
280
     0
  9
$HIDETEXT
280
     0
  9
$XCLIPFRAME
290
     0
  9
$HALOGAP
280
     0
  9
$OBSCOLOR
 70
   257
  9
$OBSLTYPE
280
     0
  9
$INTERSECTIONDISPLAY
280
     0
  9
$INTERSECTIONCOLOR
 70
   257
  9
$DIMASSOC
280
     1
  9
$PROJECTNAME
  1

  0
ENDSEC
  0
SECTION
  2
CLASSES
  0
CLASS
  1
ACDBDICTIONARYWDFLT
  2
AcDbDictionaryWithDefault
  3
ObjectDBX Classes
 90
        0
 91
        1
280
     0
281
     0
  0
CLASS
  1
VISUALSTYLE
  2
AcDbVisualStyle
  3
ObjectDBX Classes
 90
     4095
 91
        0
280
     0
281
     0
  0
CLASS
  1
MATERIAL
  2
AcDbMaterial
  3
ObjectDBX Classes
 90
        0
 91
        0
280
     0
281
     0
  0
ENDSEC
  0
SECTION
  2
TABLES
  0
TABLE
  2
VPORT
  5
8
330
0
100
AcDbSymbolTable
 70
     3
  0
VPORT
  5
36B
330
8
100
AcDbSymbolTableRecord
100
AcDbViewportTableRecord
  2
*Active
 70
     0
 10
0.0
 20
0.0
 11
1.0
 21
1.0
 12
3.603178099311509
 22
4.866480076561195
 13
0.0
 23
0.0
 14
0.5
 24
0.5
 15
0.5
 25
0.5
 16
0.0
 26
0.0
 36
1.0
 17
0.0
 27
0.0
 37
0.0
 40
5.198505257906881
 41
2.144329896907216
 42
50.0
 43
0.0
 44
0.0
 50
0.0
 51
0.0
 71
     0
 72
  2000
 73
     1
 74
     3
 75
     0
 76
     0
 77
     0
 78
     0
281
     0
 65
     1
110
0.0
120
0.0
130
0.0
111
1.0
121
0.0
131
0.0
112
0.0
122
1.0
132
0.0
 79
     0
146
0.0
  0
ENDTAB
  0
TABLE
  2
LTYPE
  5
5
330
0
100
AcDbSymbolTable
 70
     6
  0
LTYPE
  5
14
330
5
100
AcDbSymbolTableRecord
100
AcDbLinetypeTableRecord
  2
ByBlock
 70
     0
  3

 72
    65
 73
     0
 40
0.0
  0
LTYPE
  5
15
330
5
100
AcDbSymbolTableRecord
100
AcDbLinetypeTableRecord
  2
ByLayer
 70
     0
  3

 72
    65
 73
     0
 40
0.0
  0
LTYPE
  5
16
330
5
100
AcDbSymbolTableRecord
100
AcDbLinetypeTableRecord
  2
Continuous
 70
     0
  3
Solid line
 72
    65
 73
     0
 40
0.0
  0
LTYPE
  5
3F
330
5
100
AcDbSymbolTableRecord
100
AcDbLinetypeTableRecord
  2
HIDDEN
 70
     0
  3
Hidden __ __ __ __ __ __ __ __ __ __ __ __ __ __
 72
    65
 73
     2
 40
0.075
 49
0.05
 74
     0
 49
-0.025
 74
     0
  0
LTYPE
  5
40
330
5
100
AcDbSymbolTableRecord
100
AcDbLinetypeTableRecord
  2
PHANTOM
 70
     0
  3
Phantom ______  __  __  ______  __  __  ______
 72
    65
 73
     6
 40
0.5
 49
0.25
 74
     0
 49
-0.05
 74
     0
 49
0.05
 74
     0
 49
-0.05
 74
     0
 49
0.05
 74
     0
 49
-0.05
 74
     0
  0
LTYPE
  5
41
330
5
100
AcDbSymbolTableRecord
100
AcDbLinetypeTableRecord
  2
CENTER
 70
     0
  3
Center ____ _ ____ _ ____ _ ____ _ ____ _ ____
 72
    65
 73
     4
 40
0.4
 49
0.25
 74
     0
 49
-0.05
 74
     0
 49
0.05
 74
     0
 49
-0.05
 74
     0
  0
LTYPE
  5
42
330
5
100
AcDbSymbolTableRecord
100
AcDbLinetypeTableRecord
  2
CENTERX2
 70
     0
  3
Center (2x) ________  __  ________  __  _____
 72
    65
 73
     4
 40
0.8
 49
0.5
 74
     0
 49
-0.1
 74
     0
 49
0.1
 74
     0
 49
-0.1
 74
     0
  0
LTYPE
  5
43
330
5
100
AcDbSymbolTableRecord
100
AcDbLinetypeTableRecord
  2
DOT2
 70
     0
  3
Dot (.5x) ........................................
 72
    65
 73
     2
 40
0.025
 49
0.0
 74
     0
 49
-0.025
 74
     0
  0
ENDTAB
  0
TABLE
  2
LAYER
  5
2
330
0
100
AcDbSymbolTable
 70
     8
  0
LAYER
  5
10
330
2
100
AcDbSymbolTableRecord
100
AcDbLayerTableRecord
  2
0
 70
     0
 62
     7
  6
Continuous
370
    -3
390
F
  0
LAYER
  5
44
330
2
100
AcDbSymbolTableRecord
100
AcDbLayerTableRecord
  2
SLD-0
 70
     0
 62
   179
  6
Continuous
370
    -3
390
F
  0
LAYER
  5
45
330
2
100
AcDbSymbolTableRecord
100
AcDbLayerTableRecord
  2
SLD-DEFPOINTS
 70
     0
 62
   179
  6
Continuous
370
    -3
390
F
  0
LAYER
  5
46
330
2
100
AcDbSymbolTableRecord
100
AcDbLayerTableRecord
  2
OBJ
 70
     0
 62
   179
  6
Continuous
370
    -3
390
F
  0
LAYER
  5
47
330
2
100
AcDbSymbolTableRecord
100
AcDbLayerTableRecord
  2
FORMAT
 70
     0
 62
     7
  6
Continuous
370
    -3
390
F
  0
LAYER
  5
48
330
2
100
AcDbSymbolTableRecord
100
AcDbLayerTableRecord
  2
BLANK-SIZE-1
 70
     0
 62
     7
  6
Continuous
370
    -3
390
F
  0
LAYER
  5
49
330
2
100
AcDbSymbolTableRecord
100
AcDbLayerTableRecord
  2
TOLERANCES
 70
     0
 62
     7
  6
Continuous
370
    -3
390
F
  0
LAYER
  5
4A
330
2
100
AcDbSymbolTableRecord
100
AcDbLayerTableRecord
  2
QTY-BLANK-SIZE-1
 70
     0
 62
     7
  6
Continuous
370
    -3
390
F
  0
ENDTAB
  0
TABLE
  2
STYLE
  5
3
330
0
100
AcDbSymbolTable
 70
     2
  0
STYLE
  5
11
330
3
100
AcDbSymbolTableRecord
100
AcDbTextStyleTableRecord
  2
Standard
 70
     0
 40
0.0
 41
1.0
 50
0.0
 71
     0
 42
0.25
  3
txt
  4

  0
STYLE
  5
361
330
3
100
AcDbSymbolTableRecord
100
AcDbTextStyleTableRecord
  2
SLDTEXTSTYLE0
 70
     0
 40
0.0
 41
0.7
 50
0.0
 71
     0
 42
0.2
  3
TXT
  4

  0
ENDTAB
  0
TABLE
  2
VIEW
  5
6
330
0
100
AcDbSymbolTable
 70
     0
  0
ENDTAB
  0
TABLE
  2
UCS
  5
7
330
0
100
AcDbSymbolTable
 70
     0
  0
ENDTAB
  0
TABLE
  2
APPID
  5
9
330
0
100
AcDbSymbolTable
 70
     1
  0
APPID
  5
12
330
9
100
AcDbSymbolTableRecord
100
AcDbRegAppTableRecord
  2
ACAD
 70
     0
  0
ENDTAB
  0
TABLE
  2
DIMSTYLE
  5
A
330
0
100
AcDbSymbolTable
 70
     1
100
AcDbDimStyleTable
 71
     0
  0
DIMSTYLE
105
27
330
A
100
AcDbSymbolTableRecord
100
AcDbDimStyleTableRecord
  2
Standard
 70
     0
340
11
  0
ENDTAB
  0
TABLE
  2
BLOCK_RECORD
  5
1
330
0
100
AcDbSymbolTable
 70
     1
  0
BLOCK_RECORD
  5
1F
330
1
100
AcDbSymbolTableRecord
100
AcDbBlockTableRecord
  2
*Model_Space
340
22
  0
BLOCK_RECORD
  5
1B
330
1
100
AcDbSymbolTableRecord
100
AcDbBlockTableRecord
  2
*Paper_Space
340
1E
  0
BLOCK_RECORD
  5
23
330
1
100
AcDbSymbolTableRecord
100
AcDbBlockTableRecord
  2
*Paper_Space0
340
26
  0
ENDTAB
  0
ENDSEC
  0
SECTION
  2
BLOCKS
  0
BLOCK
  5
20
330
1F
100
AcDbEntity
  8
0
100
AcDbBlockBegin
  2
*Model_Space
 70
     0
 10
0.0
 20
0.0
 30
0.0
  3
*Model_Space
  1

  0
ENDBLK
  5
21
330
1F
100
AcDbEntity
  8
0
100
AcDbBlockEnd
  0
BLOCK
  5
1C
330
1B
100
AcDbEntity
 67
     1
  8
0
100
AcDbBlockBegin
  2
*Paper_Space
 70
     0
 10
0.0
 20
0.0
 30
0.0
  3
*Paper_Space
  1

  0
ENDBLK
  5
1D
330
1B
100
AcDbEntity
 67
     1
  8
0
100
AcDbBlockEnd
  0
BLOCK
  5
24
330
23
100
AcDbEntity
  8
0
100
AcDbBlockBegin
  2
*Paper_Space0
 70
     0
 10
0.0
 20
0.0
 30
0.0
  3
*Paper_Space0
  1

  0
ENDBLK
  5
25
330
23
100
AcDbEntity
  8
0
100
AcDbBlockEnd
  0
ENDSEC
  0
SECTION
  2
ENTITIES
  0
LINE
  5
4B
330
1F
100
AcDbEntity
  8
0
  6
Continuous
 62
     7
370
    15
100
AcDbLine
 10
6.836086724199897
 20
4.618880354053755
 30
0.0
 11
6.833843420853097
 21
4.616637619835056
 31
0.0
  0
LINE
  5
4C
330
1F
100
AcDbEntity
  8
0
  6
Continuous
 62
     7
370
    15
100
AcDbLine
 10
6.836086724199897
 20
4.09701506422381
 30
0.0
 11
6.833843420853097
 21
4.094772330005111
 31
0.0
  0
LINE
  5
4D
330
1F
100
AcDbEntity
  8
0
  6
Continuous
 62
     7
370
    15
100
AcDbLine
 10
7.006709764012348
 20
4.717212444721988
 30
0.0
 11
7.004445062290197
 21
4.714948121974097
 31
0.0
  0
LINE
  5
4E
330
1F
100
AcDbEntity
  8
0
  6
Continuous
 62
     7
370
    15
100
AcDbLine
 10
7.041270940315122
 20
4.678117009160414
 30
0.0
 11
7.043535676606538
 21
4.680381341169793
 31
0.0
  0
LINE
  5
4F
330
1F
100
AcDbEntity
  8
0
  6
Continuous
 62
     7
370
    15
100
AcDbLine
 10
7.006709764012348
 20
4.264554510596415
 30
0.0
 11
7.004445062290197
 21
4.262290187848524
 31
0.0
  0
LINE
  5
50
330
1F
100
AcDbEntity
  8
0
  6
Continuous
 62
     7
370
    15
100
AcDbLine
 10
7.041270940315122
 20
4.225459075034841
 30
0.0
 11
7.043535676606538
 21
4.227723407044219
 31
0.0
  0
LINE
  5
51
330
1F
100
AcDbEntity
  8
0
  6
Continuous
 62
     7
370
    15
100
AcDbLine
 10
6.910117048276355
 20
4.125174828339336
 30
0.0
 11
6.907852311984941
 21
4.122910496329957
 31
0.0
  0
LINE
  5
52
330
1F
100
AcDbEntity
  8
0
  6
Continuous
 62
     7
370
    15
100
AcDbLine
 10
6.94467822457913
 20
4.086079392777762
 30
0.0
 11
6.946942960870545
 21
4.088343724787141
 31
0.0
  0
LINE
  5
53
330
1F
100
AcDbEntity
  8
0
  6
Continuous
 62
     7
370
    15
100
AcDbLine
 10
7.324020827436708
 20
4.076423168048065
 30
0.0
 11
7.317833637580199
 21
4.07476555150551
 31
0.0
  0
LINE
  5
54
330
1F
100
AcDbEntity
  8
0
  6
Continuous
 62
     7
370
    15
100
AcDbLine
 10
7.331312055925839
 20
4.024456409741575
 30
0.0
 11
7.337499245782348
 21
4.02611402628413
 31
0.0
  0
LINE
  5
55
330
1F
100
AcDbEntity
  8
0
  6
Continuous
 62
     7
370
    15
100
AcDbLine
 10
7.394731568653952
 20
4.203792740900406
 30
0.0
 11
7.388544378797443
 21
4.202135124357852
 31
0.0
  0
LINE
  5
56
330
1F
100
AcDbEntity
  8
0
  6
Continuous
 62
     7
370
    15
100
AcDbLine
 10
7.402022797143083
 20
4.151825994369203
 30
0.0
 11
7.408209986999592
 21
4.153483610911758
 31
0.0
  0
LINE
  5
57
330
1F
100
AcDbEntity
  8
0
  6
Continuous
 62
     7
370
    15
100
AcDbLine
 10
3.532387941232245
 20
5.499329373678004
 30
0.0
 11
3.526200751375736
 21
5.497671757135449
 31
0.0
  0
LINE
  5
58
330
1F
100
AcDbEntity
  8
0
  6
Continuous
 62
     7
370
    15
100
AcDbLine
 10
3.53967913515211
 20
5.447362624633004
 30
0.0
 11
3.545866325008619
 21
5.449020241175558
 31
0.0
  0
LINE
  5
59
330
1F
100
AcDbEntity
  8
0
  6
Continuous
 62
     7
370
    15
100
AcDbLine
 10
3.290216391337526
 20
5.639201136060379
 30
0.0
 11
3.296403563909402
 21
5.637543524148569
 31
0.0
  0
LINE
  5
5A
330
1F
100
AcDbEntity
  8
0
  6
Continuous
 62
     7
370
    15
100
AcDbLine
 10
3.309881947685777
 20
5.687852633100442
 30
0.0
 11
3.303694775113901
 21
5.689510245012253
 31
0.0
  0
LINE
  5
5B
330
1F
100
AcDbEntity
  8
0
  6
Continuous
 62
     7
370
    15
100
AcDbLine
 10
7.394731568653952
 20
4.656450680913622
 30
0.0
 11
7.388544378797443
 21
4.654793064371068
 31
0.0
  0
LINE
  5
5C
330
1F
100
AcDbEntity
  8
0
  6
Continuous
 62
     7
370
    15
100
AcDbLine
 10
7.402022797143083
 20
4.604483946157706
 30
0.0
 11
7.408209986999592
 21
4.606141562700261
 31
0.0
  0
LINE
  5
5D
330
1F
100
AcDbEntity
  8
0
  6
Continuous
 62
     7
370
    15
100
AcDbLine
 10
2.02978607313644
 20
6.093778871823957
 30
0.0
 11
2.023598883279931
 21
6.092121255281401
 31
0.0
  0
LINE
  5
5E
330
1F
100
AcDbEntity
  8
0
  6
Continuous
 62
     7
370
    15
100
AcDbLine
 10
2.037077232487039
 20
6.041812155591017
 30
0.0
 11
2.043264422343548
 21
6.043469772133572
 31
0.0
  0
LINE
  5
5F
330
1F
100
AcDbEntity
  8
0
  6
Continuous
 62
     7
370
    15
100
AcDbLine
 10
3.550065626536556
 20
5.087507475618129
 30
0.0
 11
3.543878436680047
 21
5.085849859075574
 31
0.0
  0
LINE
  5
60
330
1F
100
AcDbEntity
  8
0
  6
Continuous
 62
     7
370
    15
100
AcDbLine
 10
3.557356785887156
 20
5.035540735834617
 30
0.0
 11
3.563543975743664
 21
5.037198352377171
 31
0.0
  0
LINE
  5
61
330
1F
100
AcDbEntity
  8
0
  6
Continuous
 62
     7
370
    15
100
AcDbLine
 10
3.620776298615269
 20
5.214877066993448
 30
0.0
 11
3.61458910875876
 21
5.213219450450893
 31
0.0
  0
LINE
  5
62
330
1F
100
AcDbEntity
  8
0
  6
Continuous
 62
     7
370
    15
100
AcDbLine
 10
3.628067457965868
 20
5.162910338985222
 30
0.0
 11
3.634254647822377
 21
5.164567955527776
 31
0.0
  0
LINE
  5
63
330
1F
100
AcDbEntity
  8
0
  6
Continuous
 62
     7
370
    15
100
AcDbLine
 10
1.699226096720166
 20
5.612787067612146
 30
0.0
 11
1.705413303861308
 21
5.611129446438847
 31
0.0
  0
LINE
  5
64
330
1F
100
AcDbEntity
  8
0
  6
Continuous
 62
     7
370
    15
100
AcDbLine
 10
1.718891687637682
 20
5.661438567166007
 30
0.0
 11
1.71270448049654
 21
5.663096188339307
 31
0.0
  0
LINE
  5
65
330
1F
100
AcDbEntity
  8
0
  6
Continuous
 62
     7
370
    15
100
AcDbLine
 10
1.610837739337142
 20
5.849878926922947
 30
0.0
 11
1.617024946478285
 21
5.848221305749648
 31
0.0
  0
LINE
  5
66
330
1F
100
AcDbEntity
  8
0
  6
Continuous
 62
     7
370
    15
100
AcDbLine
 10
1.630503330254658
 20
5.898530438252095
 30
0.0
 11
1.624316123113516
 21
5.900188059425394
 31
0.0
  0
LINE
  5
67
330
1F
100
AcDbEntity
  8
0
  6
Continuous
 62
     7
370
    15
100
AcDbLine
 10
1.699226096720166
 20
6.065445019400649
 30
0.0
 11
1.705413303861308
 21
6.063787398227351
 31
0.0
  0
LINE
  5
68
330
1F
100
AcDbEntity
  8
0
  6
Continuous
 62
     7
370
    15
100
AcDbLine
 10
1.718891687637682
 20
6.114096507179224
 30
0.0
 11
1.71270448049654
 21
6.115754128352523
 31
0.0
  0
LINE
  5
69
330
1F
100
AcDbEntity
  8
0
  6
Continuous
 62
     7
370
    15
100
AcDbLine
 10
2.02978607313644
 20
5.641120931810741
 30
0.0
 11
2.023598883279931
 21
5.639463315268186
 31
0.0
  0
LINE
  5
6A
330
1F
100
AcDbEntity
  8
0
  6
Continuous
 62
     7
370
    15
100
AcDbLine
 10
2.037077232487039
 20
5.589154203802514
 30
0.0
 11
2.043264422343548
 21
5.590811820345069
 31
0.0
  0
LINE
  5
6B
330
1F
100
AcDbEntity
  8
0
  6
Continuous
 62
     7
370
    15
100
AcDbLine
 10
6.885968998977103
 20
4.533994161158612
 30
0.0
 11
6.883704297254953
 21
4.531729838410721
 31
0.0
  0
LINE
  5
6C
330
1F
100
AcDbEntity
  8
0
  6
Continuous
 62
     7
370
    15
100
AcDbLine
 10
6.920530175279878
 20
4.494898725597038
 30
0.0
 11
6.922794911571294
 21
4.497163057606416
 31
0.0
  0
LINE
  5
6D
330
1F
100
AcDbEntity
  8
0
  6
Continuous
 62
     7
370
    15
100
AcDbLine
 10
1.941397715753416
 20
5.925573238495298
 30
0.0
 11
1.935210525896907
 21
5.923915621952742
 31
0.0
  0
LINE
  5
6E
330
1F
100
AcDbEntity
  8
0
  6
Continuous
 62
     7
370
    15
100
AcDbLine
 10
1.948688875104016
 20
5.873606498711784
 30
0.0
 11
1.954876064960525
 21
5.875264115254339
 31
0.0
  0
LINE
  5
6F
330
1F
100
AcDbEntity
  8
0
  6
Continuous
 62
     7
370
    15
100
AcDbLine
 10
3.620776298615269
 20
5.667535007006665
 30
0.0
 11
3.61458910875876
 21
5.665877390464109
 31
0.0
  0
LINE
  5
70
330
1F
100
AcDbEntity
  8
0
  6
Continuous
 62
     7
370
    15
100
AcDbLine
 10
3.628067457965868
 20
5.615568290773724
 30
0.0
 11
3.634254647822377
 21
5.617225907316279
 31
0.0
  0
LINE
  5
71
330
1F
100
AcDbEntity
  8
0
  6
Continuous
 62
     7
370
    15
100
AcDbLine
 10
7.306343211270928
 20
4.488245047584962
 30
0.0
 11
7.300156021414419
 21
4.486587431042408
 31
0.0
  0
LINE
  5
72
330
1F
100
AcDbEntity
  8
0
  6
Continuous
 62
     7
370
    15
100
AcDbLine
 10
7.313634439760059
 20
4.436278289278472
 30
0.0
 11
7.319821629616568
 21
4.437935905821028
 31
0.0
  0
LINE
  5
73
330
1F
100
AcDbEntity
  8
0
  6
Continuous
 62
     7
370
    15
100
AcDbLine
 10
3.219505719258814
 20
5.021285240051688
 30
0.0
 11
3.22569289183069
 21
5.019627628139877
 31
0.0
  0
LINE
  5
74
330
1F
100
AcDbEntity
  8
0
  6
Continuous
 62
     7
370
    15
100
AcDbLine
 10
3.239171241037798
 20
5.069936751380835
 30
0.0
 11
3.232984068465922
 21
5.071594363292646
 31
0.0
  0
LINE
  5
75
330
1F
100
AcDbEntity
  8
0
  6
Continuous
 62
     7
370
    15
100
AcDbLine
 10
3.290216391337526
 20
5.186543184271878
 30
0.0
 11
3.296403563909402
 21
5.184885572360067
 31
0.0
  0
LINE
  5
76
330
1F
100
AcDbEntity
  8
0
  6
Continuous
 62
     7
370
    15
100
AcDbLine
 10
3.309881947685777
 20
5.235194693087226
 30
0.0
 11
3.303694775113901
 21
5.236852304999037
 31
0.0
  0
LINE
  5
77
330
1F
100
AcDbEntity
  8
0
  6
Continuous
 62
     7
370
    15
100
AcDbLine
 10
3.201828033954503
 20
5.423635043582678
 30
0.0
 11
3.208015206526379
 21
5.421977431670867
 31
0.0
  0
LINE
  5
78
330
1F
100
AcDbEntity
  8
0
  6
Continuous
 62
     7
370
    15
100
AcDbLine
 10
3.221493590302753
 20
5.472286564173313
 30
0.0
 11
3.215306417730876
 21
5.473944176085124
 31
0.0
  0
LINE
  5
79
330
1F
100
AcDbEntity
  8
0
  6
Continuous
 62
     7
370
    15
100
AcDbLine
 10
1.628515424641453
 20
5.447529123391957
 30
0.0
 11
1.634702631782595
 21
5.445871502218658
 31
0.0
  0
LINE
  5
7A
330
1F
100
AcDbEntity
  8
0
  6
Continuous
 62
     7
370
    15
100
AcDbLine
 10
1.648180980989704
 20
5.496180625459616
 30
0.0
 11
1.641993773848562
 21
5.497838246632914
 31
0.0
  0
LINE
  5
7B
330
1F
100
AcDbEntity
  8
0
  6
Continuous
 62
     7
370
    15
100
AcDbLine
 10
1.959075331919196
 20
5.513751358958399
 30
0.0
 11
1.952888142062687
 21
5.512093742415844
 31
0.0
  0
LINE
  5
7C
330
1F
100
AcDbEntity
  8
0
  6
Continuous
 62
     7
370
    15
100
AcDbLine
 10
1.966366560408327
 20
5.46178460065191
 30
0.0
 11
1.972553750264835
 21
5.463442217194465
 31
0.0
  0
LINE
  5
7D
330
1F
100
AcDbEntity
  8
0
  6
Continuous
 62
     7
370
    15
100
AcDbLine
 10
5.71083238022587
 20
4.975301891612404
 30
0.0
 11
7.199968050211396
 21
4.868401973459816
 31
0.0
  0
LINE
  5
7E
330
1F
100
AcDbEntity
  8
0
  6
Continuous
 62
     7
370
    15
100
AcDbLine
 10
5.775537126391781
 20
5.039997443816934
 30
0.0
 11
5.71083238022587
 21
4.975301891612404
 31
0.0
  0
LINE
  5
7F
330
1F
100
AcDbEntity
  8
0
  6
Continuous
 62
     7
370
    15
100
AcDbLine
 10
5.775537126391781
 20
5.039997443816934
 30
0.0
 11
6.846414620679302
 21
4.963122844656753
 31
0.0
  0
LINE
  5
80
330
1F
100
AcDbEntity
  8
0
  6
Continuous
 62
     7
370
    15
100
AcDbLine
 10
6.846414620679302
 20
4.963122844656753
 30
0.0
 11
7.199968050211396
 21
4.868401973459816
 31
0.0
  0
LINE
  5
81
330
1F
100
AcDbEntity
  8
0
  6
Continuous
 62
     7
370
    15
100
AcDbLine
 10
7.199968050211396
 20
3.985245298335314
 30
0.0
 11
5.670585527685986
 21
4.095034374804448
 31
0.0
  0
LINE
  5
82
330
1F
100
AcDbEntity
  8
0
  6
Continuous
 62
     7
370
    15
100
AcDbLine
 10
5.670585527685986
 20
4.095034374804448
 30
0.0
 11
5.670585527685986
 21
4.49677900869138
 31
0.0
  0
LINE
  5
83
330
1F
100
AcDbEntity
  8
0
  6
Continuous
 62
     7
370
    15
100
AcDbLine
 10
5.670585527685986
 20
4.49677900869138
 30
0.0
 11
5.590091615190626
 21
4.542391121614672
 31
0.0
  0
LINE
  5
84
330
1F
100
AcDbEntity
  8
0
  6
Continuous
 62
     7
370
    15
100
AcDbLine
 10
5.590091615190626
 20
4.542391121614672
 30
0.0
 11
5.791326292721231
 21
4.595541129106221
 31
0.0
  0
LINE
  5
85
330
1F
100
AcDbEntity
  8
0
  6
Continuous
 62
     7
370
    15
100
AcDbLine
 10
5.791326292721231
 20
4.595541129106221
 30
0.0
 11
5.71083238022587
 21
4.641153247917157
 31
0.0
  0
LINE
  5
86
330
1F
100
AcDbEntity
  8
0
  6
Continuous
 62
     7
370
    15
100
AcDbLine
 10
5.71083238022587
 20
4.641153247917157
 30
0.0
 11
5.71083238022587
 21
4.975301891612404
 31
0.0
  0
LINE
  5
87
330
1F
100
AcDbEntity
  8
0
  6
Continuous
 62
     7
370
    15
100
AcDbLine
 10
7.199968050211396
 20
4.868401973459816
 30
0.0
 11
7.199968050211396
 21
4.767865803065213
 31
0.0
  0
LINE
  5
88
330
1F
100
AcDbEntity
  8
0
  6
Continuous
 62
     7
370
    15
100
AcDbLine
 10
7.199968050211396
 20
4.734249480031303
 30
0.0
 11
7.199968050211396
 21
4.618475924220317
 31
0.0
  0
LINE
  5
89
330
1F
100
AcDbEntity
  8
0
  6
Continuous
 62
     7
370
    15
100
AcDbLine
 10
7.199968050211396
 20
4.553603799159311
 30
0.0
 11
7.199968050211396
 21
4.437830243348325
 31
0.0
  0
LINE
  5
8A
330
1F
100
AcDbEntity
  8
0
  6
Continuous
 62
     7
370
    15
100
AcDbLine
 10
7.199968050211396
 20
4.372958106512033
 30
0.0
 11
7.199968050211396
 21
4.257184562476333
 31
0.0
  0
LINE
  5
8B
330
1F
100
AcDbEntity
  8
0
  6
Continuous
 62
     7
370
    15
100
AcDbLine
 10
7.199968050211396
 20
4.192312425640041
 30
0.0
 11
7.199968050211396
 21
4.076538881604341
 31
0.0
  0
LINE
  5
8C
330
1F
100
AcDbEntity
  8
0
  6
Continuous
 62
     7
370
    15
100
AcDbLine
 10
7.199968050211396
 20
4.022105123999754
 30
0.0
 11
7.199968050211396
 21
3.985245298335314
 31
0.0
  0
LINE
  5
8D
330
1F
100
AcDbEntity
  8
0
  6
Continuous
 62
     7
370
    15
100
AcDbLine
 10
5.654796361356536
 20
4.607086673819202
 30
0.0
 11
5.590091615190626
 21
4.542391121614672
 31
0.0
  0
LINE
  5
8E
330
1F
100
AcDbEntity
  8
0
  6
Continuous
 62
     7
370
    15
100
AcDbLine
 10
5.654796361356536
 20
4.607086673819202
 30
0.0
 11
5.73402317199386
 21
4.628012086341936
 31
0.0
  0
LINE
  5
8F
330
1F
100
AcDbEntity
  8
0
  6
Continuous
 62
     7
370
    15
100
AcDbLine
 10
7.203031163689785
 20
4.767222638227395
 30
0.0
 11
7.470295834748927
 21
4.695619479077197
 31
0.0
  0
LINE
  5
90
330
1F
100
AcDbEntity
  8
0
  6
Continuous
 62
     7
370
    15
100
AcDbLine
 10
7.464167585490113
 20
4.693977653372168
 30
0.0
 11
7.470295834748927
 21
4.695619479077197
 31
0.0
  0
LINE
  5
91
330
1F
100
AcDbEntity
  8
0
  6
Continuous
 62
     7
370
    15
100
AcDbLine
 10
7.196902914430973
 20
4.765580812522366
 30
0.0
 11
7.464167585490113
 21
4.693977653372168
 31
0.0
  0
ARC
  5
92
330
1F
100
AcDbEntity
  8
0
  6
Continuous
 62
     7
370
    15
100
AcDbCircle
 10
7.192415903151999
 20
4.7477001275689
 30
0.0
 40
0.0184350797292215
100
AcDbArc
 50
75.91298078358639
 51
86.50163931372313
  0
LINE
  5
93
330
1F
100
AcDbEntity
  8
0
  6
Continuous
 62
     7
370
    15
100
AcDbLine
 10
6.949191138483782
 20
4.783641890887669
 30
0.0
 11
7.193540811375179
 21
4.766100854351073
 31
0.0
  0
LINE
  5
94
330
1F
100
AcDbEntity
  8
0
  6
Continuous
 62
     7
370
    15
100
AcDbLine
 10
6.951434165276457
 20
4.785884699198273
 30
0.0
 11
6.949191138483782
 21
4.783641890887669
 31
0.0
  0
LINE
  5
95
330
1F
100
AcDbEntity
  8
0
  6
Continuous
 62
     7
370
    15
100
AcDbLine
 10
7.195783803598589
 20
4.768343653400189
 30
0.0
 11
6.951434165276457
 21
4.785884699198273
 31
0.0
  0
ARC
  5
96
330
1F
100
AcDbEntity
  8
0
  6
Continuous
 62
     7
370
    15
100
AcDbCircle
 10
7.193358908988578
 20
4.728679126857103
 30
0.0
 40
0.0397385804949912
100
AcDbArc
 50
75.91287372492044
 51
86.50157118315627
  0
LINE
  5
97
330
1F
100
AcDbEntity
  8
0
  6
Continuous
 62
     7
370
    15
100
AcDbLine
 10
7.470295834748927
 20
4.643718208761565
 30
0.0
 11
7.470295834748927
 21
4.695619479077197
 31
0.0
  0
LINE
  5
98
330
1F
100
AcDbEntity
  8
0
  6
Continuous
 62
     7
370
    15
100
AcDbLine
 10
7.464167585490113
 20
4.642076383056537
 30
0.0
 11
7.470295834748927
 21
4.643718208761565
 31
0.0
  0
LINE
  5
99
330
1F
100
AcDbEntity
  8
0
  6
Continuous
 62
     7
370
    15
100
AcDbLine
 10
7.464167585490113
 20
4.642076383056537
 30
0.0
 11
7.464167585490113
 21
4.693977653372168
 31
0.0
  0
ARC
  5
9A
330
1F
100
AcDbEntity
  8
0
  6
Continuous
 62
     7
370
    15
100
AcDbCircle
 10
7.444861382221946
 20
4.641233672344909
 30
0.0
 40
0.0193245865667362
100
AcDbArc
 50
320.8747608391105
 51
2.499359218908876
  0
LINE
  5
9B
330
1F
100
AcDbEntity
  8
0
  6
Continuous
 62
     7
370
    15
100
AcDbLine
 10
7.459852788046105
 20
4.629039518114677
 30
0.0
 11
7.380094025551098
 21
4.541735067198807
 31
0.0
  0
ARC
  5
9C
330
1F
100
AcDbEntity
  8
0
  6
Continuous
 62
     7
370
    15
100
AcDbCircle
 10
7.395083482488824
 20
4.529541556465958
 30
0.0
 40
0.01932266863764
100
AcDbArc
 50
140.8725945256307
 51
182.5015872806025
  0
LINE
  5
9D
330
1F
100
AcDbEntity
  8
0
  6
Continuous
 62
     7
370
    15
100
AcDbLine
 10
7.375779228107091
 20
4.528698178706375
 30
0.0
 11
7.375779228107091
 21
4.364680473919309
 31
0.0
  0
ARC
  5
9E
330
1F
100
AcDbEntity
  8
0
  6
Continuous
 62
     7
370
    15
100
AcDbCircle
 10
7.405624615508176
 20
4.364789571312345
 30
0.0
 40
0.0298455867987555
100
AcDbArc
 50
180.2094391421947
 51
211.1935449391381
  0
LINE
  5
9F
330
1F
100
AcDbEntity
  8
0
  6
Continuous
 62
     7
370
    15
100
AcDbLine
 10
7.380094025551098
 20
4.349331627470889
 30
0.0
 11
7.459852788046105
 21
4.219290671587632
 31
0.0
  0
ARC
  5
A0
330
1F
100
AcDbEntity
  8
0
  6
Continuous
 62
     7
370
    15
100
AcDbCircle
 10
7.434319063249088
 20
4.203831846515416
 30
0.0
 40
0.0298487248408237
100
AcDbArc
 50
0.2111030404748097
 51
31.19187531499873
  0
LINE
  5
A1
330
1F
100
AcDbEntity
  8
0
  6
Continuous
 62
     7
370
    15
100
AcDbLine
 10
7.464167585490113
 20
4.120211081451306
 30
0.0
 11
7.464167585490113
 21
4.203941822195392
 31
0.0
  0
ARC
  5
A2
330
1F
100
AcDbEntity
  8
0
  6
Continuous
 62
     7
370
    15
100
AcDbCircle
 10
7.444861345941191
 20
4.11936837173335
 30
0.0
 40
0.0193246227696457
100
AcDbArc
 50
320.8747993474862
 51
2.499351584662805
  0
LINE
  5
A3
330
1F
100
AcDbEntity
  8
0
  6
Continuous
 62
     7
370
    15
100
AcDbLine
 10
7.459852788046105
 20
4.10717420473416
 30
0.0
 11
7.380094025551098
 21
4.01986975381829
 31
0.0
  0
ARC
  5
A4
330
1F
100
AcDbEntity
  8
0
  6
Continuous
 62
     7
370
    15
100
AcDbCircle
 10
7.395083482488824
 20
4.007676243085442
 30
0.0
 40
0.01932266863764
100
AcDbArc
 50
140.8725945256328
 51
182.5015872806052
  0
LINE
  5
A5
330
1F
100
AcDbEntity
  8
0
  6
Continuous
 62
     7
370
    15
100
AcDbLine
 10
7.375779228107091
 20
4.006832865325858
 30
0.0
 11
7.375779228107091
 21
3.975003371346831
 31
0.0
  0
LINE
  5
A6
330
1F
100
AcDbEntity
  8
0
  6
Continuous
 62
     7
370
    15
100
AcDbLine
 10
7.196902914430973
 20
4.022926312697794
 30
0.0
 11
7.375779228107091
 21
3.975003371346831
 31
0.0
  0
LINE
  5
A7
330
1F
100
AcDbEntity
  8
0
  6
Continuous
 62
     7
370
    15
100
AcDbLine
 10
7.196902914430973
 20
4.022926312697794
 30
0.0
 11
7.196902914430973
 21
4.074267338438529
 31
0.0
  0
LWPOLYLINE
  5
A8
330
1F
100
AcDbEntity
  8
0
  6
Continuous
 62
     7
370
    15
100
AcDbPolyline
 90
        9
 70
   128
 43
0.0
 10
7.206191261242567
 20
4.086674624931788
 10
7.206020074239757
 20
4.084076606323764
 10
7.205511491205561
 20
4.081650747429955
 10
7.204681552279175
 20
4.079471951495919
 10
7.203555700440015
 20
4.077607657022126
 10
7.202168781507718
 20
4.076115482706684
 10
7.200563661371516
 20
4.075041572555609
 10
7.198790119773744
 20
4.074419102406933
 10
7.196902914430973
 20
4.074267338438529
  0
LINE
  5
A9
330
1F
100
AcDbEntity
  8
0
  6
Continuous
 62
     7
370
    15
100
AcDbLine
 10
7.206191261242567
 20
4.177077749270252
 30
0.0
 11
7.206191261242567
 21
4.086674624931788
 31
0.0
  0
ARC
  5
AA
330
1F
100
AcDbEntity
  8
0
  6
Continuous
 62
     7
370
    15
100
AcDbCircle
 10
7.186550601892964
 20
4.177757219647086
 30
0.0
 40
0.0196524090045001
100
AcDbArc
 50
358.0186375469017
 51
58.21247986320793
  0
LINE
  5
AB
330
1F
100
AcDbEntity
  8
0
  6
Continuous
 62
     7
370
    15
100
AcDbLine
 10
7.196902914430973
 20
4.194461913741728
 30
0.0
 11
7.196902914430973
 21
4.254913031085806
 31
0.0
  0
LWPOLYLINE
  5
AC
330
1F
100
AcDbEntity
  8
0
  6
Continuous
 62
     7
370
    15
100
AcDbPolyline
 90
        9
 70
   128
 43
0.0
 10
7.206191261242567
 20
4.267320299916137
 10
7.206020074239757
 20
4.264722298971042
 10
7.205511491205561
 20
4.262296440077233
 10
7.204681552279175
 20
4.260117644143197
 10
7.203555700440015
 20
4.258253343781762
 10
7.202168781507718
 20
4.256761169466319
 10
7.200563661371516
 20
4.255687265202888
 10
7.198790119773744
 20
4.255064795054211
 10
7.196902914430973
 20
4.254913031085806
  0
LINE
  5
AD
330
1F
100
AcDbEntity
  8
0
  6
Continuous
 62
     7
370
    15
100
AcDbLine
 10
7.206191261242567
 20
4.357723430142244
 30
0.0
 11
7.206191261242567
 21
4.267320299916137
 31
0.0
  0
ARC
  5
AE
330
1F
100
AcDbEntity
  8
0
  6
Continuous
 62
     7
370
    15
100
AcDbCircle
 10
7.186550594923005
 20
4.358402902452557
 30
0.0
 40
0.0196524160371406
100
AcDbArc
 50
358.0186326158718
 51
58.21246866324896
  0
LINE
  5
AF
330
1F
100
AcDbEntity
  8
0
  6
Continuous
 62
     7
370
    15
100
AcDbLine
 10
7.196902914430973
 20
4.375107600501363
 30
0.0
 11
7.196902914430973
 21
4.435558711957799
 31
0.0
  0
LWPOLYLINE
  5
B0
330
1F
100
AcDbEntity
  8
0
  6
Continuous
 62
     7
370
    15
100
AcDbPolyline
 90
        9
 70
   128
 43
0.0
 10
7.206191261242567
 20
4.447965986675772
 10
7.206020074239757
 20
4.445367979843034
 10
7.205511491205561
 20
4.442942120949225
 10
7.204681552279175
 20
4.440763336790476
 10
7.203555700440015
 20
4.438899030541398
 10
7.202168781507718
 20
4.437406856225954
 10
7.200563661371516
 20
4.436332946074879
 10
7.198790119773744
 20
4.435710475926203
 10
7.196902914430973
 20
4.435558711957799
  0
LINE
  5
B1
330
1F
100
AcDbEntity
  8
0
  6
Continuous
 62
     7
370
    15
100
AcDbLine
 10
7.206191261242567
 20
4.538369122789522
 30
0.0
 11
7.206191261242567
 21
4.447965986675772
 31
0.0
  0
ARC
  5
B2
330
1F
100
AcDbEntity
  8
0
  6
Continuous
 62
     7
370
    15
100
AcDbCircle
 10
7.186550588792595
 20
4.539048586166839
 30
0.0
 40
0.0196524218550342
100
AcDbArc
 50
358.0186592620084
 51
58.21245814810078
  0
LINE
  5
B3
330
1F
100
AcDbEntity
  8
0
  6
Continuous
 62
     7
370
    15
100
AcDbLine
 10
7.196902914430973
 20
4.555753287260999
 30
0.0
 11
7.196902914430973
 21
4.616204404605078
 31
0.0
  0
LWPOLYLINE
  5
B4
330
1F
100
AcDbEntity
  8
0
  6
Continuous
 62
     7
370
    15
100
AcDbPolyline
 90
        9
 70
   128
 43
0.0
 10
7.206191261242567
 20
4.628611667547764
 10
7.206020074239757
 20
4.626013672490312
 10
7.205511491205561
 20
4.623587813596503
 10
7.204681552279175
 20
4.621409017662468
 10
7.203555700440015
 20
4.619544723188676
 10
7.202168781507718
 20
4.618052548873232
 10
7.200563661371516
 20
4.616978638722158
 10
7.198790119773744
 20
4.616356168573481
 10
7.196902914430973
 20
4.616204404605078
  0
LINE
  5
B5
330
1F
100
AcDbEntity
  8
0
  6
Continuous
 62
     7
370
    15
100
AcDbLine
 10
7.206191261242567
 20
4.719014780110942
 30
0.0
 11
7.206191261242567
 21
4.628611667547764
 31
0.0
  0
ARC
  5
B6
330
1F
100
AcDbEntity
  8
0
  6
Continuous
 62
     7
370
    15
100
AcDbCircle
 10
7.18655058711345
 20
4.719694265221174
 30
0.0
 40
0.019652424284581
100
AcDbArc
 50
358.0185961077871
 51
58.21245677842913
  0
LINE
  5
B7
330
1F
100
AcDbEntity
  8
0
  6
Continuous
 62
     7
370
    15
100
AcDbLine
 10
7.196902914430973
 20
4.73639896813299
 30
0.0
 11
7.196902914430973
 21
4.765580812522366
 31
0.0
  0
LINE
  5
B8
330
1F
100
AcDbEntity
  8
0
  6
Continuous
 62
     7
370
    15
100
AcDbLine
 10
7.465981037304918
 20
4.630681343819706
 30
0.0
 11
7.459852788046105
 21
4.629039518114677
 31
0.0
  0
ARC
  5
B9
330
1F
100
AcDbEntity
  8
0
  6
Continuous
 62
     7
370
    15
100
AcDbCircle
 10
7.450989631480747
 20
4.642875498049942
 30
0.0
 40
0.0193245865667492
100
AcDbArc
 50
320.8747608391214
 51
2.499359218891368
  0
LINE
  5
BA
330
1F
100
AcDbEntity
  8
0
  6
Continuous
 62
     7
370
    15
100
AcDbLine
 10
7.380094025551098
 20
4.541735067198807
 30
0.0
 11
7.386222274809911
 21
4.543376892903836
 31
0.0
  0
LINE
  5
BB
330
1F
100
AcDbEntity
  8
0
  6
Continuous
 62
     7
370
    15
100
AcDbLine
 10
7.465981037304918
 20
4.630681343819706
 30
0.0
 11
7.386222274809911
 21
4.543376892903836
 31
0.0
  0
LINE
  5
BC
330
1F
100
AcDbEntity
  8
0
  6
Continuous
 62
     7
370
    15
100
AcDbLine
 10
7.459852788046105
 20
4.219290671587632
 30
0.0
 11
7.465981037304918
 21
4.220932497292661
 31
0.0
  0
LINE
  5
BD
330
1F
100
AcDbEntity
  8
0
  6
Continuous
 62
     7
370
    15
100
AcDbLine
 10
7.386222274809911
 20
4.350973453175918
 30
0.0
 11
7.380094025551098
 21
4.349331627470889
 31
0.0
  0
LINE
  5
BE
330
1F
100
AcDbEntity
  8
0
  6
Continuous
 62
     7
370
    15
100
AcDbLine
 10
7.386222274809911
 20
4.350973453175918
 30
0.0
 11
7.465981037304918
 21
4.220932497292661
 31
0.0
  0
LINE
  5
BF
330
1F
100
AcDbEntity
  8
0
  6
Continuous
 62
     7
370
    15
100
AcDbLine
 10
7.381907477365904
 20
4.530340004411403
 30
0.0
 11
7.375779228107091
 21
4.528698178706375
 31
0.0
  0
ARC
  5
C0
330
1F
100
AcDbEntity
  8
0
  6
Continuous
 62
     7
370
    15
100
AcDbCircle
 10
7.401211731747636
 20
4.531183382170987
 30
0.0
 40
0.0193226686376393
100
AcDbArc
 50
140.8725945256291
 51
182.5015872806053
  0
LINE
  5
C1
330
1F
100
AcDbEntity
  8
0
  6
Continuous
 62
     7
370
    15
100
AcDbLine
 10
7.470295834748927
 20
4.20558364790042
 30
0.0
 11
7.464167585490113
 21
4.203941822195392
 31
0.0
  0
ARC
  5
C2
330
1F
100
AcDbEntity
  8
0
  6
Continuous
 62
     7
370
    15
100
AcDbCircle
 10
7.440447312507874
 20
4.205473672220436
 30
0.0
 40
0.0298487248408512
100
AcDbArc
 50
0.2111030404899589
 51
31.19187531498682
  0
LINE
  5
C3
330
1F
100
AcDbEntity
  8
0
  6
Continuous
 62
     7
370
    15
100
AcDbLine
 10
7.464167585490113
 20
4.120211081451306
 30
0.0
 11
7.470295834748927
 21
4.121852907156334
 31
0.0
  0
LINE
  5
C4
330
1F
100
AcDbEntity
  8
0
  6
Continuous
 62
     7
370
    15
100
AcDbLine
 10
7.470295834748927
 20
4.121852907156334
 30
0.0
 11
7.470295834748927
 21
4.20558364790042
 31
0.0
  0
LINE
  5
C5
330
1F
100
AcDbEntity
  8
0
  6
Continuous
 62
     7
370
    15
100
AcDbLine
 10
7.375779228107091
 20
4.364680473919309
 30
0.0
 11
7.381907477365904
 21
4.366322299624337
 31
0.0
  0
LINE
  5
C6
330
1F
100
AcDbEntity
  8
0
  6
Continuous
 62
     7
370
    15
100
AcDbLine
 10
7.381907477365904
 20
4.530340004411403
 30
0.0
 11
7.381907477365904
 21
4.366322299624337
 31
0.0
  0
LINE
  5
C7
330
1F
100
AcDbEntity
  8
0
  6
Continuous
 62
     7
370
    15
100
AcDbLine
 10
7.465981037304918
 20
4.108816030439188
 30
0.0
 11
7.459852788046105
 21
4.10717420473416
 31
0.0
  0
ARC
  5
C8
330
1F
100
AcDbEntity
  8
0
  6
Continuous
 62
     7
370
    15
100
AcDbCircle
 10
7.450989595199992
 20
4.121010197438384
 30
0.0
 40
0.0193246227696592
100
AcDbArc
 50
320.8747993474951
 51
2.499351584642666
  0
LINE
  5
C9
330
1F
100
AcDbEntity
  8
0
  6
Continuous
 62
     7
370
    15
100
AcDbLine
 10
7.380094025551098
 20
4.01986975381829
 30
0.0
 11
7.386222274809911
 21
4.021511579523318
 31
0.0
  0
LINE
  5
CA
330
1F
100
AcDbEntity
  8
0
  6
Continuous
 62
     7
370
    15
100
AcDbLine
 10
7.465981037304918
 20
4.108816030439188
 30
0.0
 11
7.386222274809911
 21
4.021511579523318
 31
0.0
  0
ARC
  5
CB
330
1F
100
AcDbEntity
  8
0
  6
Continuous
 62
     7
370
    15
100
AcDbCircle
 10
7.411752864766971
 20
4.366431397017369
 30
0.0
 40
0.0298455867987376
100
AcDbArc
 50
180.2094391421881
 51
211.193544939147
  0
SPLINE
  5
CC
330
1F
100
AcDbEntity
  8
0
  6
Continuous
 62
     7
370
    15
100
AcDbSpline
210
0.0
220
0.0
230
1.0
 70
     8
 71
     3
 72
     9
 73
     5
 74
     0
 42
0.0000000001
 43
0.0000000001
 40
0.0
 40
0.0
 40
0.0
 40
0.0
 40
0.499989355142986
 40
0.9999999999999998
 40
0.9999999999999998
 40
0.9999999999999998
 40
0.9999999999999998
 10
7.196902914430973
 20
4.73639896813299
 30
0.0
 10
7.196406458337433
 20
4.736515283666259
 30
0.0
 10
7.195413525011086
 20
4.736747919685551
 30
0.0
 10
7.194165058113648
 20
4.736861979060217
 30
0.0
 10
7.193540811375179
 20
4.736919009961697
 30
0.0
  0
LINE
  5
CD
330
1F
100
AcDbEntity
  8
0
  6
Continuous
 62
     7
370
    15
100
AcDbLine
 10
7.193540811375179
 20
4.736919009961697
 30
0.0
 11
7.193540811375179
 21
4.766100854351073
 31
0.0
  0
ARC
  5
CE
330
1F
100
AcDbEntity
  8
0
  6
Continuous
 62
     7
370
    15
100
AcDbCircle
 10
7.194705504917823
 20
4.723113805013293
 30
0.0
 40
0.0138542482551643
100
AcDbArc
 50
94.82241096520473
 51
180.7430642422031
  0
LINE
  5
CF
330
1F
100
AcDbEntity
  8
0
  6
Continuous
 62
     7
370
    15
100
AcDbLine
 10
7.180852421738893
 20
4.632531022882978
 30
0.0
 11
7.180852421738893
 21
4.722934135446156
 31
0.0
  0
ARC
  5
D0
330
1F
100
AcDbEntity
  8
0
  6
Continuous
 62
     7
370
    15
100
AcDbCircle
 10
7.197342393309161
 20
4.632772038961562
 30
0.0
 40
0.0164917328118782
100
AcDbArc
 50
180.8373708125665
 51
256.6726413498945
  0
LINE
  5
D1
330
1F
100
AcDbEntity
  8
0
  6
Continuous
 62
     7
370
    15
100
AcDbLine
 10
7.193540811375179
 20
4.556273329089705
 30
0.0
 11
7.193540811375179
 21
4.616724446433784
 31
0.0
  0
ARC
  5
D2
330
1F
100
AcDbEntity
  8
0
  6
Continuous
 62
     7
370
    15
100
AcDbCircle
 10
7.194705504584291
 20
4.542468124746459
 30
0.0
 40
0.0138542476241102
100
AcDbArc
 50
94.82240980112342
 51
180.742969374762
  0
LINE
  5
D3
330
1F
100
AcDbEntity
  8
0
  6
Continuous
 62
     7
370
    15
100
AcDbLine
 10
7.180852421738893
 20
4.451885342010986
 30
0.0
 11
7.180852421738893
 21
4.542288478124737
 31
0.0
  0
ARC
  5
D4
330
1F
100
AcDbEntity
  8
0
  6
Continuous
 62
     7
370
    15
100
AcDbCircle
 10
7.197342393042283
 20
4.45212634592051
 30
0.0
 40
0.01649173236719
100
AcDbArc
 50
180.8373285527324
 51
256.6726419367592
  0
LINE
  5
D5
330
1F
100
AcDbEntity
  8
0
  6
Continuous
 62
     7
370
    15
100
AcDbLine
 10
7.193540811375179
 20
4.37562764233007
 30
0.0
 11
7.193540811375179
 21
4.436078753786506
 31
0.0
  0
ARC
  5
D6
330
1F
100
AcDbEntity
  8
0
  6
Continuous
 62
     7
370
    15
100
AcDbCircle
 10
7.194705501038488
 20
4.361822441128277
 30
0.0
 40
0.0138542441956895
100
AcDbArc
 50
94.82239628116074
 51
180.7430069026109
  0
LINE
  5
D7
330
1F
100
AcDbEntity
  8
0
  6
Continuous
 62
     7
370
    15
100
AcDbLine
 10
7.180852421738893
 20
4.271239655251351
 30
0.0
 11
7.180852421738893
 21
4.361642785477458
 31
0.0
  0
ARC
  5
D8
330
1F
100
AcDbEntity
  8
0
  6
Continuous
 62
     7
370
    15
100
AcDbCircle
 10
7.197342388635437
 20
4.27148066160079
 30
0.0
 40
0.0164917279964716
100
AcDbArc
 50
180.8373372523512
 51
256.6726540736223
  0
LINE
  5
D9
330
1F
100
AcDbEntity
  8
0
  6
Continuous
 62
     7
370
    15
100
AcDbLine
 10
7.193540811375179
 20
4.194981955570434
 30
0.0
 11
7.193540811375179
 21
4.255433072914514
 31
0.0
  0
ARC
  5
DA
330
1F
100
AcDbEntity
  8
0
  6
Continuous
 62
     7
370
    15
100
AcDbCircle
 10
7.194705497325933
 20
4.181176757812662
 30
0.0
 40
0.0138542404517568
100
AcDbArc
 50
94.8223821792005
 51
180.7429969966769
  0
LINE
  5
DB
330
1F
100
AcDbEntity
  8
0
  6
Continuous
 62
     7
370
    15
100
AcDbLine
 10
7.180852421738893
 20
4.090593980267002
 30
0.0
 11
7.180852421738893
 21
4.180997104605467
 31
0.0
  0
ARC
  5
DC
330
1F
100
AcDbEntity
  8
0
  6
Continuous
 62
     7
370
    15
100
AcDbCircle
 10
7.197342392775421
 20
4.090834972007489
 30
0.0
 40
0.0164917319225281
100
AcDbArc
 50
180.8372862929754
 51
256.6726425235854
  0
LINE
  5
DD
330
1F
100
AcDbEntity
  8
0
  6
Continuous
 62
     7
370
    15
100
AcDbLine
 10
7.193540811375179
 20
4.023446354526501
 30
0.0
 11
7.193540811375179
 21
4.074787380267236
 31
0.0
  0
LINE
  5
DE
330
1F
100
AcDbEntity
  8
0
  6
Continuous
 62
     7
370
    15
100
AcDbLine
 10
6.828450373448538
 20
4.049654958627616
 30
0.0
 11
7.193540811375179
 21
4.023446354526501
 31
0.0
  0
LINE
  5
DF
330
1F
100
AcDbEntity
  8
0
  6
Continuous
 62
     7
370
    15
100
AcDbLine
 10
6.828450373448538
 20
4.081484452606644
 30
0.0
 11
6.828450373448538
 21
4.049654958627616
 31
0.0
  0
ARC
  5
E0
330
1F
100
AcDbEntity
  8
0
  6
Continuous
 62
     7
370
    15
100
AcDbCircle
 10
6.847096738398295
 20
4.081649196964541
 30
0.0
 40
0.0186470927102063
100
AcDbArc
 50
133.1468634490209
 51
180.5062064822724
  0
LINE
  5
E1
330
1F
100
AcDbEntity
  8
0
  6
Continuous
 62
     7
370
    15
100
AcDbLine
 10
6.834344536925943
 20
4.095254174882625
 30
0.0
 11
6.9432972515605
 21
4.196105534374206
 31
0.0
  0
ARC
  5
E2
330
1F
100
AcDbEntity
  8
0
  6
Continuous
 62
     7
370
    15
100
AcDbCircle
 10
6.930546746062579
 20
4.209709412616107
 30
0.0
 40
0.0186451305619731
100
AcDbArc
 50
313.1453719809354
 51
0.5098306552770178
  0
LINE
  5
E3
330
1F
100
AcDbEntity
  8
0
  6
Continuous
 62
     7
370
    15
100
AcDbLine
 10
6.949191138483782
 20
4.209875318966807
 30
0.0
 11
6.949191138483782
 21
4.293606059710893
 31
0.0
  0
ARC
  5
E4
330
1F
100
AcDbEntity
  8
0
  6
Continuous
 62
     7
370
    15
100
AcDbCircle
 10
6.927668319540134
 20
4.293423297869804
 30
0.0
 40
0.021523594894246
100
AcDbArc
 50
0.4865176119554901
 51
43.43705242671222
  0
LINE
  5
E5
330
1F
100
AcDbEntity
  8
0
  6
Continuous
 62
     7
370
    15
100
AcDbLine
 10
6.9432972515605
 20
4.308222001227679
 30
0.0
 11
6.834344536925943
 21
4.424716048535224
 31
0.0
  0
ARC
  5
E6
330
1F
100
AcDbEntity
  8
0
  6
Continuous
 62
     7
370
    15
100
AcDbCircle
 10
6.849975594747544
 20
4.439516015512828
 30
0.0
 40
0.0215260073204575
100
AcDbArc
 50
180.4896372037197
 51
223.4356043084955
  0
LINE
  5
E7
330
1F
100
AcDbEntity
  8
0
  6
Continuous
 62
     7
370
    15
100
AcDbLine
 10
6.828450373448538
 20
4.603349765987161
 30
0.0
 11
6.828450373448538
 21
4.439332061200095
 31
0.0
  0
ARC
  5
E8
330
1F
100
AcDbEntity
  8
0
  6
Continuous
 62
     7
370
    15
100
AcDbCircle
 10
6.847096738398295
 20
4.603514510345058
 30
0.0
 40
0.0186470927102063
100
AcDbArc
 50
133.1468634490209
 51
180.5062064822724
  0
LINE
  5
E9
330
1F
100
AcDbEntity
  8
0
  6
Continuous
 62
     7
370
    15
100
AcDbLine
 10
6.834344536925943
 20
4.617119488263142
 30
0.0
 11
6.9432972515605
 21
4.717970847754723
 31
0.0
  0
ARC
  5
EA
330
1F
100
AcDbEntity
  8
0
  6
Continuous
 62
     7
370
    15
100
AcDbCircle
 10
6.930546775248312
 20
4.731574713362363
 30
0.0
 40
0.0186451013850394
100
AcDbArc
 50
313.1453330938894
 51
0.5098340928172043
  0
LINE
  5
EB
330
1F
100
AcDbEntity
  8
0
  6
Continuous
 62
     7
370
    15
100
AcDbLine
 10
6.949191138483782
 20
4.731740620572038
 30
0.0
 11
6.949191138483782
 21
4.783641890887669
 31
0.0
  0
LINE
  5
EC
330
1F
100
AcDbEntity
  8
0
  6
Continuous
 62
     7
370
    15
100
AcDbLine
 10
7.183095431246936
 20
4.725176939126016
 30
0.0
 11
7.180852421738893
 21
4.722934135446156
 31
0.0
  0
ARC
  5
ED
330
1F
100
AcDbEntity
  8
0
  6
Continuous
 62
     7
370
    15
100
AcDbCircle
 10
7.197229472867377
 20
4.725275295554225
 30
0.0
 40
0.0141343838392525
100
AcDbArc
 50
141.9745010294898
 51
180.3987052969569
  0
LINE
  5
EE
330
1F
100
AcDbEntity
  8
0
  6
Continuous
 62
     7
370
    15
100
AcDbLine
 10
7.381907477365904
 20
4.008474691030886
 30
0.0
 11
7.375779228107091
 21
4.006832865325858
 31
0.0
  0
ARC
  5
EF
330
1F
100
AcDbEntity
  8
0
  6
Continuous
 62
     7
370
    15
100
AcDbCircle
 10
7.401211731747632
 20
4.009318068790471
 30
0.0
 40
0.0193226686376347
100
AcDbArc
 50
140.8725945256248
 51
182.5015872806085
  0
LINE
  5
F0
330
1F
100
AcDbEntity
  8
0
  6
Continuous
 62
     7
370
    15
100
AcDbLine
 10
7.183095431246936
 20
4.634773826562838
 30
0.0
 11
7.180852421738893
 21
4.632531022882978
 31
0.0
  0
LINE
  5
F1
330
1F
100
AcDbEntity
  8
0
  6
Continuous
 62
     7
370
    15
100
AcDbLine
 10
7.183095431246936
 20
4.634773826562838
 30
0.0
 11
7.183095431246936
 21
4.725176939126016
 31
0.0
  0
LINE
  5
F2
330
1F
100
AcDbEntity
  8
0
  6
Continuous
 62
     7
370
    15
100
AcDbLine
 10
7.375779228107091
 20
3.975003371346831
 30
0.0
 11
7.381907477365904
 21
3.976645197051859
 31
0.0
  0
LINE
  5
F3
330
1F
100
AcDbEntity
  8
0
  6
Continuous
 62
     7
370
    15
100
AcDbLine
 10
7.381907477365904
 20
4.008474691030886
 30
0.0
 11
7.381907477365904
 21
3.976645197051859
 31
0.0
  0
LINE
  5
F4
330
1F
100
AcDbEntity
  8
0
  6
Continuous
 62
     7
370
    15
100
AcDbLine
 10
7.196902914430973
 20
4.616204404605078
 30
0.0
 11
7.201250224269195
 21
4.617369096956625
 31
0.0
  0
LINE
  5
F5
330
1F
100
AcDbEntity
  8
0
  6
Continuous
 62
     7
370
    15
100
AcDbLine
 10
7.193540811375179
 20
4.616724446433784
 30
0.0
 11
7.195783803598589
 21
4.6189672454829
 31
0.0
  0
ARC
  5
F6
330
1F
100
AcDbEntity
  8
0
  6
Continuous
 62
     7
370
    15
100
AcDbCircle
 10
7.1995856369595
 20
4.635015021735385
 30
0.0
 40
0.0164919695474481
100
AcDbArc
 50
180.837981059591
 51
256.6719385110854
  0
SPLINE
  5
F7
330
1F
100
AcDbEntity
  8
0
  6
Continuous
 62
     7
370
    15
100
AcDbSpline
210
0.0
220
0.0
230
1.0
 70
     8
 71
     3
 72
     9
 73
     5
 74
     0
 42
0.0000000001
 43
0.0000000001
 40
0.0
 40
0.0
 40
0.0
 40
0.0
 40
0.6067409990203957
 40
1.0
 40
1.0
 40
1.0
 40
1.0
 10
7.195783803598589
 20
4.6189672454829
 30
0.0
 10
7.197139178732476
 20
4.618848876801846
 30
0.0
 10
7.199373039862802
 20
4.618653787494804
 30
0.0
 10
7.201152917409118
 20
4.618248031667496
 30
0.0
 10
7.201852870274847
 20
4.618088464536207
 30
0.0
  0
SPLINE
  5
F8
330
1F
100
AcDbEntity
  8
0
  6
Continuous
 62
     7
370
    15
100
AcDbSpline
210
0.0
220
0.0
230
1.0
 70
     8
 71
     3
 72
     9
 73
     5
 74
     0
 42
0.0000000001
 43
0.0000000001
 40
0.0
 40
0.0
 40
0.0
 40
0.0
 40
0.500010644857014
 40
0.9999999999999998
 40
0.9999999999999998
 40
0.9999999999999998
 40
0.9999999999999998
 10
7.193540811375179
 20
4.616724446433784
 30
0.0
 10
7.194165058113648
 20
4.616667415532305
 30
0.0
 10
7.195413525011086
 20
4.616553356157637
 30
0.0
 10
7.196406458337433
 20
4.616320720138346
 30
0.0
 10
7.196902914430973
 20
4.616204404605078
 30
0.0
  0
SPLINE
  5
F9
330
1F
100
AcDbEntity
  8
0
  6
Continuous
 62
     7
370
    15
100
AcDbSpline
210
0.0
220
0.0
230
1.0
 70
     8
 71
     3
 72
     9
 73
     5
 74
     0
 42
0.0000000001
 43
0.0000000001
 40
0.0
 40
0.0
 40
0.0
 40
0.0
 40
0.499989355142986
 40
0.9999999999999998
 40
0.9999999999999998
 40
0.9999999999999998
 40
0.9999999999999998
 10
7.196902914430973
 20
4.555753287260999
 30
0.0
 10
7.196406458337433
 20
4.555869602794267
 30
0.0
 10
7.195413525011086
 20
4.556102238813559
 30
0.0
 10
7.194165058113648
 20
4.556216298188226
 30
0.0
 10
7.193540811375179
 20
4.556273329089705
 30
0.0
  0
LINE
  5
FA
330
1F
100
AcDbEntity
  8
0
  6
Continuous
 62
     7
370
    15
100
AcDbLine
 10
7.183095431246936
 20
4.544531281804597
 30
0.0
 11
7.180852421738893
 21
4.542288478124737
 31
0.0
  0
ARC
  5
FB
330
1F
100
AcDbEntity
  8
0
  6
Continuous
 62
     7
370
    15
100
AcDbCircle
 10
7.197229551557693
 20
4.544629611423903
 30
0.0
 40
0.0141344623411365
100
AcDbArc
 50
141.9746119197126
 51
180.3985944067234
  0
LINE
  5
FC
330
1F
100
AcDbEntity
  8
0
  6
Continuous
 62
     7
370
    15
100
AcDbLine
 10
7.183095431246936
 20
4.454128145690846
 30
0.0
 11
7.180852421738893
 21
4.451885342010986
 31
0.0
  0
LINE
  5
FD
330
1F
100
AcDbEntity
  8
0
  6
Continuous
 62
     7
370
    15
100
AcDbLine
 10
7.183095431246936
 20
4.454128145690846
 30
0.0
 11
7.183095431246936
 21
4.544531281804597
 31
0.0
  0
LINE
  5
FE
330
1F
100
AcDbEntity
  8
0
  6
Continuous
 62
     7
370
    15
100
AcDbLine
 10
7.196902914430973
 20
4.435558711957799
 30
0.0
 11
7.201250224269195
 21
4.436723404309347
 31
0.0
  0
LINE
  5
FF
330
1F
100
AcDbEntity
  8
0
  6
Continuous
 62
     7
370
    15
100
AcDbLine
 10
6.836587563718618
 20
4.619362296573746
 30
0.0
 11
6.834344536925943
 21
4.617119488263142
 31
0.0
  0
LINE
  5
100
330
1F
100
AcDbEntity
  8
0
  6
Continuous
 62
     7
370
    15
100
AcDbLine
 10
6.836587563718618
 20
4.619362296573746
 30
0.0
 11
6.944752479361447
 21
4.719484498215981
 31
0.0
  0
LINE
  5
101
330
1F
100
AcDbEntity
  8
0
  6
Continuous
 62
     7
370
    15
100
AcDbLine
 10
7.193540811375179
 20
4.436078753786506
 30
0.0
 11
7.195783803598589
 21
4.438321552835621
 31
0.0
  0
ARC
  5
102
330
1F
100
AcDbEntity
  8
0
  6
Continuous
 62
     7
370
    15
100
AcDbCircle
 10
7.199585636692447
 20
4.454369328694059
 30
0.0
 40
0.0164919691024514
100
AcDbArc
 50
180.8379387994385
 51
256.6719390982921
  0
SPLINE
  5
103
330
1F
100
AcDbEntity
  8
0
  6
Continuous
 62
     7
370
    15
100
AcDbSpline
210
0.0
220
0.0
230
1.0
 70
     8
 71
     3
 72
     9
 73
     5
 74
     0
 42
0.0000000001
 43
0.0000000001
 40
0.0
 40
0.0
 40
0.0
 40
0.0
 40
0.6067409990203957
 40
1.0
 40
1.0
 40
1.0
 40
1.0
 10
7.195783803598589
 20
4.438321552835621
 30
0.0
 10
7.197139178732476
 20
4.438203184154568
 30
0.0
 10
7.199373039862802
 20
4.438008094847526
 30
0.0
 10
7.201152917409118
 20
4.437602339020218
 30
0.0
 10
7.201852870274847
 20
4.437442771888929
 30
0.0
  0
SPLINE
  5
104
330
1F
100
AcDbEntity
  8
0
  6
Continuous
 62
     7
370
    15
100
AcDbSpline
210
0.0
220
0.0
230
1.0
 70
     8
 71
     3
 72
     9
 73
     5
 74
     0
 42
0.0000000001
 43
0.0000000001
 40
0.0
 40
0.0
 40
0.0
 40
0.0
 40
0.500010644857014
 40
0.9999999999999998
 40
0.9999999999999998
 40
0.9999999999999998
 40
0.9999999999999998
 10
7.193540811375179
 20
4.436078753786506
 30
0.0
 10
7.194165058113648
 20
4.436021722885026
 30
0.0
 10
7.195413525011086
 20
4.435907663510359
 30
0.0
 10
7.196406458337433
 20
4.435675027491067
 30
0.0
 10
7.196902914430973
 20
4.435558711957799
 30
0.0
  0
SPLINE
  5
105
330
1F
100
AcDbEntity
  8
0
  6
Continuous
 62
     7
370
    15
100
AcDbSpline
210
0.0
220
0.0
230
1.0
 70
     8
 71
     3
 72
     9
 73
     5
 74
     0
 42
0.0000000001
 43
0.0000000001
 40
0.0
 40
0.0
 40
0.0
 40
0.0
 40
0.499989355142986
 40
0.9999999999999998
 40
0.9999999999999998
 40
0.9999999999999998
 40
0.9999999999999998
 10
7.196902914430973
 20
4.375107600501363
 30
0.0
 10
7.196406458337433
 20
4.375223916034632
 30
0.0
 10
7.195413525011086
 20
4.375456552053924
 30
0.0
 10
7.194165058113648
 20
4.375570611428591
 30
0.0
 10
7.193540811375179
 20
4.37562764233007
 30
0.0
  0
LINE
  5
106
330
1F
100
AcDbEntity
  8
0
  6
Continuous
 62
     7
370
    15
100
AcDbLine
 10
7.183095431246936
 20
4.363885589157319
 30
0.0
 11
7.180852421738893
 21
4.361642785477458
 31
0.0
  0
ARC
  5
107
330
1F
100
AcDbEntity
  8
0
  6
Continuous
 62
     7
370
    15
100
AcDbCircle
 10
7.197229535708333
 20
4.363983924176324
 30
0.0
 40
0.0141344465297248
100
AcDbArc
 50
141.9745895849315
 51
180.3986167415146
  0
LINE
  5
108
330
1F
100
AcDbEntity
  8
0
  6
Continuous
 62
     7
370
    15
100
AcDbLine
 10
7.183095431246936
 20
4.273482458931211
 30
0.0
 11
7.180852421738893
 21
4.271239655251351
 31
0.0
  0
LINE
  5
109
330
1F
100
AcDbEntity
  8
0
  6
Continuous
 62
     7
370
    15
100
AcDbLine
 10
7.183095431246936
 20
4.273482458931211
 30
0.0
 11
7.183095431246936
 21
4.363885589157319
 31
0.0
  0
LINE
  5
10A
330
1F
100
AcDbEntity
  8
0
  6
Continuous
 62
     7
370
    15
100
AcDbLine
 10
7.196902914430973
 20
4.254913031085806
 30
0.0
 11
7.201250224269195
 21
4.256077723437354
 31
0.0
  0
LINE
  5
10B
330
1F
100
AcDbEntity
  8
0
  6
Continuous
 62
     7
370
    15
100
AcDbLine
 10
7.193540811375179
 20
4.255433072914514
 30
0.0
 11
7.195783803598589
 21
4.25767587196363
 31
0.0
  0
ARC
  5
10C
330
1F
100
AcDbEntity
  8
0
  6
Continuous
 62
     7
370
    15
100
AcDbCircle
 10
7.199585632285194
 20
4.273723644374084
 30
0.0
 40
0.0164919647313482
100
AcDbArc
 50
180.8379474982294
 51
256.6719512359687
  0
SPLINE
  5
10D
330
1F
100
AcDbEntity
  8
0
  6
Continuous
 62
     7
370
    15
100
AcDbSpline
210
0.0
220
0.0
230
1.0
 70
     8
 71
     3
 72
     9
 73
     5
 74
     0
 42
0.0000000001
 43
0.0000000001
 40
0.0
 40
0.0
 40
0.0
 40
0.0
 40
0.6067409990203957
 40
1.0
 40
1.0
 40
1.0
 40
1.0
 10
7.195783803598589
 20
4.25767587196363
 30
0.0
 10
7.197139178732476
 20
4.257557503282576
 30
0.0
 10
7.199373039862802
 20
4.257362413975534
 30
0.0
 10
7.201152917409118
 20
4.256956658148226
 30
0.0
 10
7.201852870274847
 20
4.256797091016936
 30
0.0
  0
SPLINE
  5
10E
330
1F
100
AcDbEntity
  8
0
  6
Continuous
 62
     7
370
    15
100
AcDbSpline
210
0.0
220
0.0
230
1.0
 70
     8
 71
     3
 72
     9
 73
     5
 74
     0
 42
0.0000000001
 43
0.0000000001
 40
0.0
 40
0.0
 40
0.0
 40
0.0
 40
0.500010644857014
 40
0.9999999999999998
 40
0.9999999999999998
 40
0.9999999999999998
 40
0.9999999999999998
 10
7.193540811375179
 20
4.255433072914514
 30
0.0
 10
7.194165058113648
 20
4.255376042013034
 30
0.0
 10
7.195413525011086
 20
4.255261982638367
 30
0.0
 10
7.196406458337433
 20
4.255029346619076
 30
0.0
 10
7.196902914430973
 20
4.254913031085806
 30
0.0
  0
SPLINE
  5
10F
330
1F
100
AcDbEntity
  8
0
  6
Continuous
 62
     7
370
    15
100
AcDbSpline
210
0.0
220
0.0
230
1.0
 70
     8
 71
     3
 72
     9
 73
     5
 74
     0
 42
0.0000000001
 43
0.0000000001
 40
0.0
 40
0.0
 40
0.0
 40
0.0
 40
0.499989355142986
 40
0.9999999999999998
 40
0.9999999999999998
 40
0.9999999999999998
 40
0.9999999999999998
 10
7.196902914430973
 20
4.194461913741728
 30
0.0
 10
7.196406458337433
 20
4.194578229274997
 30
0.0
 10
7.195413525011086
 20
4.194810865294288
 30
0.0
 10
7.194165058113648
 20
4.194924924668955
 30
0.0
 10
7.193540811375179
 20
4.194981955570434
 30
0.0
  0
LINE
  5
110
330
1F
100
AcDbEntity
  8
0
  6
Continuous
 62
     7
370
    15
100
AcDbLine
 10
6.836086724199897
 20
4.618880354053755
 30
0.0
 11
6.836587563718618
 21
4.619362296573746
 31
0.0
  0
LINE
  5
111
330
1F
100
AcDbEntity
  8
0
  6
Continuous
 62
     7
370
    15
100
AcDbLine
 10
7.183095431246936
 20
4.183239908285327
 30
0.0
 11
7.180852421738893
 21
4.180997104605467
 31
0.0
  0
ARC
  5
112
330
1F
100
AcDbEntity
  8
0
  6
Continuous
 62
     7
370
    15
100
AcDbCircle
 10
7.197229551557687
 20
4.183338237904634
 30
0.0
 40
0.01413446234113
100
AcDbArc
 50
141.9746119197056
 51
180.3985944067308
  0
LINE
  5
113
330
1F
100
AcDbEntity
  8
0
  6
Continuous
 62
     7
370
    15
100
AcDbLine
 10
7.183095431246936
 20
4.092836783946862
 30
0.0
 11
7.180852421738893
 21
4.090593980267002
 31
0.0
  0
LINE
  5
114
330
1F
100
AcDbEntity
  8
0
  6
Continuous
 62
     7
370
    15
100
AcDbLine
 10
7.183095431246936
 20
4.092836783946862
 30
0.0
 11
7.183095431246936
 21
4.183239908285327
 31
0.0
  0
LINE
  5
115
330
1F
100
AcDbEntity
  8
0
  6
Continuous
 62
     7
370
    15
100
AcDbLine
 10
7.196902914430973
 20
4.074267338438529
 30
0.0
 11
7.201250224269195
 21
4.075432030790076
 31
0.0
  0
LINE
  5
116
330
1F
100
AcDbEntity
  8
0
  6
Continuous
 62
     7
370
    15
100
AcDbLine
 10
7.193540811375179
 20
4.074787380267236
 30
0.0
 11
7.195783803598589
 21
4.077030179316351
 31
0.0
  0
ARC
  5
117
330
1F
100
AcDbEntity
  8
0
  6
Continuous
 62
     7
370
    15
100
AcDbCircle
 10
7.199585636425411
 20
4.093077954780766
 30
0.0
 40
0.0164919686574824
100
AcDbArc
 50
180.8378965393725
 51
256.6719396854647
  0
SPLINE
  5
118
330
1F
100
AcDbEntity
  8
0
  6
Continuous
 62
     7
370
    15
100
AcDbSpline
210
0.0
220
0.0
230
1.0
 70
     8
 71
     3
 72
     9
 73
     5
 74
     0
 42
0.0000000001
 43
0.0000000001
 40
0.0
 40
0.0
 40
0.0
 40
0.0
 40
0.6067409990203957
 40
1.0
 40
1.0
 40
1.0
 40
1.0
 10
7.195783803598589
 20
4.077030179316351
 30
0.0
 10
7.197139178732476
 20
4.076911810635298
 30
0.0
 10
7.199373039862802
 20
4.076716721328256
 30
0.0
 10
7.201152917409118
 20
4.076310965500947
 30
0.0
 10
7.201852870274847
 20
4.076151398369659
 30
0.0
  0
SPLINE
  5
119
330
1F
100
AcDbEntity
  8
0
  6
Continuous
 62
     7
370
    15
100
AcDbSpline
210
0.0
220
0.0
230
1.0
 70
     8
 71
     3
 72
     9
 73
     5
 74
     0
 42
0.0000000001
 43
0.0000000001
 40
0.0
 40
0.0
 40
0.0
 40
0.0
 40
0.500010644857014
 40
0.9999999999999998
 40
0.9999999999999998
 40
0.9999999999999998
 40
0.9999999999999998
 10
7.193540811375179
 20
4.074787380267236
 30
0.0
 10
7.194165058113648
 20
4.074730349365756
 30
0.0
 10
7.195413525011086
 20
4.074616289991089
 30
0.0
 10
7.196406458337433
 20
4.074383653971797
 30
0.0
 10
7.196902914430973
 20
4.074267338438529
 30
0.0
  0
ARC
  5
11A
330
1F
100
AcDbEntity
  8
0
  6
Continuous
 62
     7
370
    15
100
AcDbCircle
 10
7.192415903152004
 20
4.005045627744358
 30
0.0
 40
0.0184350797291911
100
AcDbArc
 50
75.91298078357694
 51
86.50163931373118
  0
LINE
  5
11B
330
1F
100
AcDbEntity
  8
0
  6
Continuous
 62
     7
370
    15
100
AcDbLine
 10
6.836587563718618
 20
4.097496983193229
 30
0.0
 11
6.834344536925943
 21
4.095254174882625
 31
0.0
  0
LINE
  5
11C
330
1F
100
AcDbEntity
  8
0
  6
Continuous
 62
     7
370
    15
100
AcDbLine
 10
6.836587563718618
 20
4.097496983193229
 30
0.0
 11
6.944752479361447
 21
4.197619173060178
 31
0.0
  0
LINE
  5
11D
330
1F
100
AcDbEntity
  8
0
  6
Continuous
 62
     7
370
    15
100
AcDbLine
 10
6.836086724199897
 20
4.09701506422381
 30
0.0
 11
6.836587563718618
 21
4.097496983193229
 31
0.0
  0
ARC
  5
11E
330
1F
100
AcDbEntity
  8
0
  6
Continuous
 62
     7
370
    15
100
AcDbCircle
 10
7.021750713426221
 20
4.69816134671231
 30
0.0
 40
0.0241097777868546
100
AcDbArc
 50
135.8719561982461
 51
203.3901068795617
  0
ARC
  5
11F
330
1F
100
AcDbEntity
  8
0
  6
Continuous
 62
     7
370
    15
100
AcDbCircle
 10
7.023970948182346
 20
4.697369149468749
 30
0.0
 40
0.025883095530596
100
AcDbArc
 50
199.8271609603318
 51
311.9428954949112
  0
LWPOLYLINE
  5
120
330
1F
100
AcDbEntity
  8
0
  6
Continuous
 62
     7
370
    15
100
AcDbPolyline
 90
       38
 70
   128
 43
0.0
 10
7.000150073035325
 20
4.688628520748188
 10
7.002049861590743
 20
4.684834538693095
 10
7.004542029079955
 20
4.681370880551408
 10
7.007554982554089
 20
4.678337176374548
 10
7.011001987725977
 20
4.675820691637333
 10
7.014783692526544
 20
4.673893924020475
 10
7.018791653169877
 20
4.672612165528245
 10
7.022910408309175
 20
4.672012318344832
 10
7.027021385363731
 20
4.67211172947664
 10
7.031006288306969
 20
4.672907465446756
 10
7.034750762008579
 20
4.674376626654807
 10
7.03814677751384
 20
4.676476999118921
 10
7.041096607509151
 20
4.679148168495976
 10
7.043515833848134
 20
4.682313172590217
 10
7.045334453768132
 20
4.685881075246057
 10
7.046500094831895
 20
4.689749225878616
 10
7.046979535975266
 20
4.69380628400222
 10
7.046758811214978
 20
4.697935591196199
 10
7.045844419572949
 20
4.702018277134
 10
7.044262599121701
 20
4.705936941146621
 10
7.042058462752725
 20
4.709578943481483
 10
7.039295894468688
 20
4.712839385110917
 10
7.03605433444173
 20
4.715624500339066
 10
7.032427050550203
 20
4.717854134639635
 10
7.028518061714025
 20
4.719464225405474
 10
7.024439925461704
 20
4.720408426938096
 10
7.020310488419365
 20
4.720659454683104
 10
7.016247631782399
 20
4.720210347702048
 10
7.012369098469138
 20
4.719073758978003
 10
7.008785994098932
 20
4.717282535186195
 10
7.005601542498599
 20
4.714888158650633
 10
7.002907386791007
 20
4.711959495460604
 10
7.000780823853838
 20
4.708580871204094
 10
6.99928324870264
 20
4.704849413986949
 10
6.998457561795913
 20
4.700872523938073
 10
6.998327615926856
 20
4.696764592799447
 10
6.99889728285321
 20
4.692643712932604
 10
7.000150073035325
 20
4.688628520748188
  0
ARC
  5
121
330
1F
100
AcDbEntity
  8
0
  6
Continuous
 62
     7
370
    15
100
AcDbCircle
 10
7.024084810095367
 20
4.697759129014379
 30
0.0
 40
0.0260830158993726
100
AcDbArc
 50
318.2217697440898
 51
131.7701544472409
  0
ARC
  5
122
330
1F
100
AcDbEntity
  8
0
  6
Continuous
 62
     7
370
    15
100
AcDbCircle
 10
7.021750760190971
 20
4.245503404029978
 30
0.0
 40
0.0241098173116988
100
AcDbArc
 50
135.8720189809785
 51
203.3900440968331
  0
ARC
  5
123
330
1F
100
AcDbEntity
  8
0
  6
Continuous
 62
     7
370
    15
100
AcDbCircle
 10
7.023970938371716
 20
4.244711176328571
 30
0.0
 40
0.0258830730684344
100
AcDbArc
 50
199.8270870818709
 51
311.9429693733728
  0
LWPOLYLINE
  5
124
330
1F
100
AcDbEntity
  8
0
  6
Continuous
 62
     7
370
    15
100
AcDbPolyline
 90
       38
 70
   128
 43
0.0
 10
7.000150073035325
 20
4.235970580734971
 10
7.002049861590743
 20
4.232176592792236
 10
7.004542029079955
 20
4.228712934650548
 10
7.007554982554089
 20
4.225679224586046
 10
7.011001987725977
 20
4.223162751624117
 10
7.014783692526544
 20
4.221235984007259
 10
7.018791653169877
 20
4.219954213739742
 10
7.022910408309175
 20
4.219354390106902
 10
7.027021385363731
 20
4.219453789463424
 10
7.031006288306969
 20
4.220249537208826
 10
7.034750762008579
 20
4.221718686641591
 10
7.03814677751384
 20
4.223819059105704
 10
7.041096607509151
 20
4.226490222595117
 10
7.043515833848134
 20
4.229655232577001
 10
7.045334453768132
 20
4.233223129345198
 10
7.046500094831895
 20
4.237091279977756
 10
7.046979535975266
 20
4.241148349876648
 10
7.046758811214978
 20
4.24527764529534
 10
7.045844419572949
 20
4.249360337120784
 10
7.044262599121701
 20
4.253279001133404
 10
7.042058462752725
 20
4.256921003468268
 10
7.039295894468688
 20
4.260181450985343
 10
7.03605433444173
 20
4.262966560325849
 10
7.032427050550203
 20
4.265196182851132
 10
7.028518061714025
 20
4.266806267729328
 10
7.024439925461704
 20
4.267750486924879
 10
7.020310488419365
 20
4.268001526445175
 10
7.016247631782399
 20
4.267552401801188
 10
7.012369098469138
 20
4.266415813077144
 10
7.008785994098932
 20
4.264624595172979
 10
7.005601542498599
 20
4.262230212749773
 10
7.002907386791007
 20
4.259301561335031
 10
7.000780823853838
 20
4.255922931190877
 10
6.99928324870264
 20
4.252191473973732
 10
6.998457561795913
 20
4.2482145898125
 10
6.998327615926856
 20
4.244106641010945
 10
6.99889728285321
 20
4.239985772919387
 10
7.000150073035325
 20
4.235970580734971
  0
ARC
  5
125
330
1F
100
AcDbEntity
  8
0
  6
Continuous
 62
     7
370
    15
100
AcDbCircle
 10
7.024084810037692
 20
4.24510119483114
 30
0.0
 40
0.0260830159039615
100
AcDbArc
 50
318.2217699229607
 51
131.7701542683684
  0
ARC
  5
126
330
1F
100
AcDbEntity
  8
0
  6
Continuous
 62
     7
370
    15
100
AcDbCircle
 10
6.925158173484348
 20
4.106123920234002
 30
0.0
 40
0.0241097901123578
100
AcDbArc
 50
135.872644007531
 51
203.3907777582274
  0
ARC
  5
127
330
1F
100
AcDbEntity
  8
0
  6
Continuous
 62
     7
370
    15
100
AcDbCircle
 10
6.927378219150603
 20
4.105330899358333
 30
0.0
 40
0.0258826330470617
100
AcDbArc
 50
199.8262131784956
 51
311.9438550497518
  0
LWPOLYLINE
  5
128
330
1F
100
AcDbEntity
  8
0
  6
Continuous
 62
     7
370
    15
100
AcDbPolyline
 90
       38
 70
   128
 43
0.0
 10
6.903557357299334
 20
4.096590904365536
 10
6.905457422408875
 20
4.092796848218538
 10
6.907949589898088
 20
4.08933319007685
 10
6.910962543372222
 20
4.086299462349417
 10
6.914409271989985
 20
4.083783075254682
 10
6.918191253344676
 20
4.081856233545917
 10
6.92219921398801
 20
4.080574451503114
 10
6.926317692573182
 20
4.07997470196218
 10
6.930428669627739
 20
4.080074113093989
 10
6.934413572570977
 20
4.080869849064105
 10
6.938158046272588
 20
4.082339010272156
 10
6.941554061777848
 20
4.084439382736269
 10
6.944504168327283
 20
4.087110478021418
 10
6.946923118112142
 20
4.090275556207566
 10
6.948741738032141
 20
4.093843458863406
 10
6.949907655650027
 20
4.097711535404059
 10
6.950387096793397
 20
4.101768593527663
 10
6.950166372033111
 20
4.105897900721641
 10
6.94925198039108
 20
4.109980586659442
 10
6.947669883385709
 20
4.113899324763969
 10
6.945466023570858
 20
4.117541253006926
 10
6.94270345528682
 20
4.120801694636358
 10
6.939461895259863
 20
4.123586809864508
 10
6.93583433481421
 20
4.125816494706411
 10
6.931925345978034
 20
4.12742658547225
 10
6.927847486279836
 20
4.128370736463537
 10
6.923717772683373
 20
4.128621838300453
 10
6.919655192600531
 20
4.12817265722749
 10
6.915776382733146
 20
4.127036142595352
 10
6.91219327836294
 20
4.125244918803544
 10
6.909008826762606
 20
4.122850542267981
 10
6.906314671055015
 20
4.119921879077953
 10
6.904188108117846
 20
4.116543254821442
 10
6.902690532966649
 20
4.112811797604297
 10
6.901864811490654
 20
4.108834898293934
 10
6.901735176744989
 20
4.104726878774317
 10
6.902304843671343
 20
4.100606022458046
 10
6.903557357299334
 20
4.096590904365536
  0
ARC
  5
129
330
1F
100
AcDbEntity
  8
0
  6
Continuous
 62
     7
370
    15
100
AcDbCircle
 10
6.927492148133116
 20
4.105721566397891
 30
0.0
 40
0.0260830116204949
100
AcDbArc
 50
318.221602969118
 51
131.7703212222126
  0
ARC
  5
12A
330
1F
100
AcDbEntity
  8
0
  6
Continuous
 62
     7
370
    15
100
AcDbCircle
 10
7.326297713928212
 20
4.0561383824284
 30
0.0
 40
0.0204600101723397
100
AcDbArc
 50
114.4367689013564
 51
191.4775737564278
  0
ARC
  5
12B
330
1F
100
AcDbEntity
  8
0
  6
Continuous
 62
     7
370
    15
100
AcDbCircle
 10
7.328542801709022
 20
4.04150275733616
 30
0.0
 40
0.0172698215171082
100
AcDbArc
 50
219.8902169756765
 51
279.2273409052778
  0
ARC
  5
12C
330
1F
100
AcDbEntity
  8
0
  6
Continuous
 62
     7
370
    15
100
AcDbCircle
 10
7.311527523024726
 20
4.045978108143081
 30
0.0
 40
0.0305751598825919
100
AcDbArc
 50
330.1798889470085
 51
63.89991053894173
  0
LWPOLYLINE
  5
12D
330
1F
100
AcDbEntity
  8
0
  6
Continuous
 62
     7
370
    15
100
AcDbPolyline
 90
       21
 70
   128
 43
0.0
 10
7.337499245782348
 20
4.02611402628413
 10
7.339194246008879
 20
4.026705727274164
 10
7.341773389770116
 20
4.02821038960324
 10
7.344052195752594
 20
4.030344008581639
 10
7.345968439278395
 20
4.033048387617536
 10
7.347469851618065
 20
4.036249757096618
 10
7.348515502761238
 20
4.039860782530401
 10
7.349076907633135
 20
4.043782976504467
 10
7.349138579202807
 20
4.047909376563386
 10
7.348698858145509
 20
4.052127431610591
 10
7.347769912842698
 20
4.056322039932265
 10
7.346376909719672
 20
4.060378809496947
 10
7.344557736691426
 20
4.064187146520742
 10
7.342362450054422
 20
4.06764301776471
 10
7.339850785499462
 20
4.07065220792503
 10
7.337091051895195
 20
4.073132688451015
 10
7.334158471963374
 20
4.075016804838941
 10
7.331133246399984
 20
4.076253137658036
 10
7.328098064888125
 20
4.076807875894814
 10
7.32513534055678
 20
4.076666028883598
 10
7.324020827436708
 20
4.076423168048065
  0
ARC
  5
12E
330
1F
100
AcDbEntity
  8
0
  6
Continuous
 62
     7
370
    15
100
AcDbCircle
 10
7.313095219599599
 20
4.046536095579156
 30
0.0
 40
0.0360786852603633
100
AcDbArc
 50
359.9510767401886
 51
30.09647740035719
  0
LWPOLYLINE
  5
12F
330
1F
100
AcDbEntity
  8
0
  6
Continuous
 62
     7
370
    15
100
AcDbPolyline
 90
       11
 70
   128
 43
0.0
 10
7.378273711737091
 20
4.171927116597359
 10
7.377344766434283
 20
4.176121719031391
 10
7.376905045376984
 20
4.180339774078595
 10
7.376966716946655
 20
4.184466180025157
 10
7.377528121818552
 20
4.188388368111581
 10
7.378573772961726
 20
4.19199940532065
 10
7.380075185301396
 20
4.195200774799732
 10
7.381991428827196
 20
4.197905147947985
 10
7.384270234809675
 20
4.200038761038741
 10
7.386849378570913
 20
4.201543423367819
 10
7.388544378797443
 20
4.202135124357852
  0
LWPOLYLINE
  5
130
330
1F
100
AcDbEntity
  8
0
  6
Continuous
 62
     7
370
    15
100
AcDbPolyline
 90
       11
 70
   128
 43
0.0
 10
7.402022797143083
 20
4.151825994369203
 10
7.400908284023011
 20
4.151583121758384
 10
7.397945559691664
 20
4.151441274747168
 10
7.394910378179807
 20
4.151996024759232
 10
7.391885152616417
 20
4.153232345803041
 10
7.388952572684596
 20
4.155116473966254
 10
7.386192839080329
 20
4.157596954492238
 10
7.383680897971245
 20
4.160606218744464
 10
7.381485611334239
 20
4.164062095876076
 10
7.379666714860119
 20
4.167870341145034
 10
7.378273711737091
 20
4.171927116597359
  0
ARC
  5
131
330
1F
100
AcDbEntity
  8
0
  6
Continuous
 62
     7
370
    15
100
AcDbCircle
 10
7.382238269389259
 20
4.17334768636235
 30
0.0
 40
0.030575158085708
100
AcDbArc
 50
330.1798754248355
 51
63.89991963030197
  0
LWPOLYLINE
  5
132
330
1F
100
AcDbEntity
  8
0
  6
Continuous
 62
     7
370
    15
100
AcDbPolyline
 90
       21
 70
   128
 43
0.0
 10
7.408209986999592
 20
4.153483610911758
 10
7.409904710671997
 20
4.154075385993698
 10
7.41248413098736
 20
4.155579974230868
 10
7.414762936969838
 20
4.157713587321624
 10
7.416679180495639
 20
4.160417960469878
 10
7.418180592835308
 20
4.163619329948959
 10
7.419226243978482
 20
4.167230367158029
 10
7.419787372296255
 20
4.171152635224002
 10
7.419849043865927
 20
4.175279035282921
 10
7.419409322808627
 20
4.179497090330125
 10
7.418480377505819
 20
4.183691692764156
 10
7.41708737438279
 20
4.187748468216481
 10
7.415268477908671
 20
4.19155671348544
 10
7.413073191271664
 20
4.195012584729409
 10
7.410561526716706
 20
4.198021774889728
 10
7.407801516558314
 20
4.200502335395262
 10
7.404869213180618
 20
4.202386389466569
 10
7.401843987617227
 20
4.203622710510377
 10
7.398808529551246
 20
4.204177534614348
 10
7.395845805219899
 20
4.204035681715489
 10
7.394731568653952
 20
4.203792740900406
  0
LWPOLYLINE
  5
133
330
1F
100
AcDbEntity
  8
0
  6
Continuous
 62
     7
370
    15
100
AcDbPolyline
 90
       11
 70
   128
 43
0.0
 10
3.515930188023181
 20
5.46746371570285
 10
3.515001208151107
 20
5.471658321510726
 10
3.51456155623234
 20
5.475876358034954
 10
3.514623193232745
 20
5.480002779130647
 10
3.515184494396846
 20
5.483924989113893
 10
3.516230076401489
 20
5.487536044845938
 10
3.517731488741158
 20
5.490737414325019
 10
3.519647732266959
 20
5.493441793360917
 10
3.521926572818703
 20
5.495575403077828
 10
3.524505820287737
 20
5.497080037622439
 10
3.526200751375736
 20
5.497671757135449
  0
LWPOLYLINE
  5
134
330
1F
100
AcDbEntity
  8
0
  6
Continuous
 62
     7
370
    15
100
AcDbPolyline
 90
       11
 70
   128
 43
0.0
 10
3.53967913515211
 20
5.447362624633004
 10
3.538564760309101
 20
5.447119726751517
 10
3.535602001408489
 20
5.446977877226502
 10
3.532566681619569
 20
5.447532664284521
 10
3.529541490625445
 20
5.448768987842126
 10
3.52660901440142
 20
5.450653088220875
 10
3.523849246227888
 20
5.453133578008348
 10
3.521337443395867
 20
5.456142805214621
 10
3.519142122189597
 20
5.459598685720077
 10
3.517323156576943
 20
5.46340694362437
 10
3.515930188023181
 20
5.46746371570285
  0
ARC
  5
135
330
1F
100
AcDbEntity
  8
0
  6
Continuous
 62
     7
370
    15
100
AcDbCircle
 10
3.519894682799263
 20
5.468884264199544
 30
0.0
 40
0.0305751703904579
100
AcDbArc
 50
330.1799418663487
 51
63.90016040342374
  0
LWPOLYLINE
  5
136
330
1F
100
AcDbEntity
  8
0
  6
Continuous
 62
     7
370
    15
100
AcDbPolyline
 90
       21
 70
   128
 43
0.0
 10
3.545866325008619
 20
5.449020241175558
 10
3.547561256096619
 20
5.449611960688568
 10
3.550140503565653
 20
5.451116595233179
 10
3.552419344117397
 20
5.45325020495009
 10
3.554335587643198
 20
5.455954572210702
 10
3.555836999982867
 20
5.459155953465069
 10
3.556882616556776
 20
5.462766988160341
 10
3.557443883151611
 20
5.46668921918036
 10
3.557505520152016
 20
5.470815628500766
 10
3.557065868233249
 20
5.475033665024995
 10
3.556136888361174
 20
5.479228282608158
 10
3.554743919807412
 20
5.483285042911351
 10
3.55292495419476
 20
5.48709331259093
 10
3.55072963298849
 20
5.490549204871673
 10
3.548217830156467
 20
5.493558432077946
 10
3.545458061982935
 20
5.496038921865419
 10
3.542525585758911
 20
5.497923010468881
 10
3.539500429334052
 20
5.499159324764999
 10
3.536465074975867
 20
5.499714109309218
 10
3.533502316075255
 20
5.499572271559491
 10
3.532387941232245
 20
5.499329373678004
  0
ARC
  5
137
330
1F
100
AcDbEntity
  8
0
  6
Continuous
 62
     7
370
    15
100
AcDbCircle
 10
3.521465759264232
 20
5.469442935481883
 30
0.0
 40
0.0360752709940933
100
AcDbArc
 50
359.9328777325992
 51
30.09851941462803
  0
LWPOLYLINE
  5
138
330
1F
100
AcDbEntity
  8
0
  6
Continuous
 62
     7
370
    15
100
AcDbPolyline
 90
       16
 70
   128
 43
0.0
 10
3.286133000556847
 20
5.648530388830766
 10
3.285204020684773
 20
5.652227238464548
 10
3.284764368766005
 20
5.656209699772753
 10
3.284826005766411
 20
5.660369135560385
 10
3.285387272361246
 20
5.664592105628004
 10
3.286432888935154
 20
5.668763404795605
 10
3.287934301274824
 20
5.672769287743672
 10
3.289850544800624
 20
5.676500408866255
 10
3.292129385352369
 20
5.679855071721672
 10
3.294708632821403
 20
5.68274172407119
 10
3.297517938752412
 20
5.685081653230242
 10
3.300480663083758
 20
5.686810969874888
 10
3.303516017441944
 20
5.687882618839019
 10
3.306541208436069
 20
5.688267259484079
 10
3.309473684660093
 20
5.687954456460121
 10
3.309881947685777
 20
5.687852633100442
  0
ARC
  5
139
330
1F
100
AcDbEntity
  8
0
  6
Continuous
 62
     7
370
    15
100
AcDbCircle
 10
3.301477054021753
 20
5.652580155613327
 30
0.0
 40
0.0158694860574327
100
AcDbArc
 50
194.784965694745
 51
251.3551581123083
  0
ARC
  5
13A
330
1F
100
AcDbEntity
  8
0
  6
Continuous
 62
     7
370
    15
100
AcDbCircle
 10
3.287312810719968
 20
5.666971248491063
 30
0.0
 40
0.0342486239964908
100
AcDbArc
 50
316.3881936021416
 51
11.34389363732054
  0
ARC
  5
13B
330
1F
100
AcDbEntity
  8
0
  6
Continuous
 62
     7
370
    15
100
AcDbCircle
 10
3.317716984469473
 20
5.658469839951923
 30
0.0
 40
0.0319410679478351
100
AcDbArc
 50
119.8388068961834
 51
197.5735179653508
  0
ARC
  5
13C
330
1F
100
AcDbEntity
  8
0
  6
Continuous
 62
     7
370
    15
100
AcDbCircle
 10
3.295073417298554
 20
5.65403541600411
 30
0.0
 40
0.0156091819976291
100
AcDbArc
 50
194.2695567201124
 51
251.8705670869243
  0
LWPOLYLINE
  5
13D
330
1F
100
AcDbEntity
  8
0
  6
Continuous
 62
     7
370
    15
100
AcDbPolyline
 90
       16
 70
   128
 43
0.0
 10
3.303694775113901
 20
5.689510245012253
 10
3.303286512088217
 20
5.68961206837193
 10
3.300354035864192
 20
5.68992487139589
 10
3.297328844870067
 20
5.68954023075083
 10
3.294293490511882
 20
5.688468581786699
 10
3.291330766180536
 20
5.686739265142053
 10
3.288521460249527
 20
5.684399335983001
 10
3.285942212780493
 20
5.681512683633483
 10
3.283663372228748
 20
5.678158020778066
 10
3.281747128702948
 20
5.674426899655482
 10
3.280245716363278
 20
5.670421016707416
 10
3.27920009978937
 20
5.666249717539815
 10
3.278638833194535
 20
5.662026747472195
 10
3.278577196194129
 20
5.657867311684563
 10
3.279016848112897
 20
5.653884850376359
 10
3.279945827984971
 20
5.650188000742577
  0
ARC
  5
13E
330
1F
100
AcDbEntity
  8
0
  6
Continuous
 62
     7
370
    15
100
AcDbCircle
 10
3.314616292180109
 20
5.659624166558823
 30
0.0
 40
0.036074623781228
100
AcDbArc
 50
149.9363655642854
 51
180.0676687789249
  0
ARC
  5
13F
330
1F
100
AcDbEntity
  8
0
  6
Continuous
 62
     7
370
    15
100
AcDbCircle
 10
7.397008436924038
 20
4.636165904595396
 30
0.0
 40
0.020459994166147
100
AcDbArc
 50
114.436733221105
 51
191.4776094366734
  0
ARC
  5
140
330
1F
100
AcDbEntity
  8
0
  6
Continuous
 62
     7
370
    15
100
AcDbCircle
 10
7.399253487746886
 20
4.621530189389321
 30
0.0
 40
0.0172697273528938
100
AcDbArc
 50
219.8901286659927
 51
279.2275771261524
  0
ARC
  5
141
330
1F
100
AcDbEntity
  8
0
  6
Continuous
 62
     7
370
    15
100
AcDbCircle
 10
7.382238300495559
 20
4.626005632120087
 30
0.0
 40
0.0305751339548019
100
AcDbArc
 50
330.1798370984021
 51
63.89996238754607
  0
LWPOLYLINE
  5
142
330
1F
100
AcDbEntity
  8
0
  6
Continuous
 62
     7
370
    15
100
AcDbPolyline
 90
       21
 70
   128
 43
0.0
 10
7.408209986999592
 20
4.606141562700261
 10
7.409904710671997
 20
4.606733337782201
 10
7.41248413098736
 20
4.608237926019371
 10
7.414762936969838
 20
4.610371521447198
 10
7.416679180495639
 20
4.613075900483094
 10
7.418180592835308
 20
4.616277269962176
 10
7.419226243978482
 20
4.619888318946531
 10
7.419787372296255
 20
4.623810563461931
 10
7.419849043865927
 20
4.627936987071423
 10
7.419409322808627
 20
4.632155042118628
 10
7.418480377505819
 20
4.63634962688973
 10
7.41708737438279
 20
4.640406420004985
 10
7.415268477908671
 20
4.6442146593863
 10
7.413073191271664
 20
4.647670530630268
 10
7.410561526716706
 20
4.650679720790588
 10
7.407801516558314
 20
4.653160298959051
 10
7.404869213180618
 20
4.655044341255072
 10
7.401843987617227
 20
4.656280674074166
 10
7.398808529551246
 20
4.656835462852278
 10
7.395845805219899
 20
4.656693639391635
 10
7.394731568653952
 20
4.656450680913622
  0
ARC
  5
143
330
1F
100
AcDbEntity
  8
0
  6
Continuous
 62
     7
370
    15
100
AcDbCircle
 10
7.383807958129018
 20
4.626563706253697
 30
0.0
 40
0.0360767060758673
100
AcDbArc
 50
359.9245501476964
 51
30.0982557134397
  0
LWPOLYLINE
  5
144
330
1F
100
AcDbEntity
  8
0
  6
Continuous
 62
     7
370
    15
100
AcDbPolyline
 90
       11
 70
   128
 43
0.0
 10
2.01332828535811
 20
6.06191322311029
 10
2.012399270916771
 20
6.066107849954942
 10
2.011959618998003
 20
6.070325886479169
 10
2.012021290567674
 20
6.074452286538089
 10
2.012582557162509
 20
6.078374517558108
 10
2.013628208305683
 20
6.081985542991891
 10
2.015129551506821
 20
6.085186954544522
 10
2.017045864171153
 20
6.08789129150687
 10
2.019324670153632
 20
6.090024910485269
 10
2.021903883053401
 20
6.091529554291368
 10
2.023598883279931
 20
6.092121255281401
  0
LWPOLYLINE
  5
145
330
1F
100
AcDbEntity
  8
0
  6
Continuous
 62
     7
370
    15
100
AcDbPolyline
 90
       11
 70
   128
 43
0.0
 10
2.037077232487039
 20
6.041812155591017
 10
2.03596285764403
 20
6.041569234158957
 10
2.033000133312683
 20
6.041427387147742
 10
2.029964744385233
 20
6.041982204504022
 10
2.026939587960373
 20
6.043218495249568
 10
2.024007146305615
 20
6.045102598142114
 10
2.021247343562817
 20
6.047583097191076
 10
2.018735540730795
 20
6.050592324397348
 10
2.01654018495526
 20
6.054048214164294
 10
2.014721288481138
 20
6.057856453545609
 10
2.01332828535811
 20
6.06191322311029
  0
ARC
  5
146
330
1F
100
AcDbEntity
  8
0
  6
Continuous
 62
     7
370
    15
100
AcDbCircle
 10
2.017292939138056
 20
6.06333384439436
 30
0.0
 40
0.0305750281828145
100
AcDbArc
 50
330.1796773447091
 51
63.90043378673798
  0
LWPOLYLINE
  5
147
330
1F
100
AcDbEntity
  8
0
  6
Continuous
 62
     7
370
    15
100
AcDbPolyline
 90
       21
 70
   128
 43
0.0
 10
2.043264422343548
 20
6.043469772133572
 10
2.044959353431548
 20
6.044061491646582
 10
2.047538566331316
 20
6.045566135452682
 10
2.049817441452326
 20
6.047699712357532
 10
2.051733684978127
 20
6.050404091393428
 10
2.053235097317796
 20
6.05360546087251
 10
2.054280679322439
 20
6.057216528379842
 10
2.054841945917274
 20
6.06113873584929
 10
2.054903617486945
 20
6.065265159458781
 10
2.054463965568178
 20
6.069483195983009
 10
2.053534951126837
 20
6.073677799277088
 10
2.052142017142341
 20
6.077734573869366
 10
2.050323051529689
 20
6.081542831773658
 10
2.048127764892684
 20
6.084998703017627
 10
2.045615892922131
 20
6.088007948746875
 10
2.042856159317864
 20
6.090488452823433
 10
2.039923648524574
 20
6.092372550688383
 10
2.036898492099715
 20
6.093608864984501
 10
2.033863172310796
 20
6.09416361671666
 10
2.030900447979449
 20
6.094021793256017
 10
2.02978607313644
 20
6.093778871823957
  0
ARC
  5
148
330
1F
100
AcDbEntity
  8
0
  6
Continuous
 62
     7
370
    15
100
AcDbCircle
 10
2.018864046625312
 20
6.063892574211284
 30
0.0
 40
0.0360750466389702
100
AcDbArc
 50
359.9325525400427
 51
30.09850649967958
  0
LWPOLYLINE
  5
149
330
1F
100
AcDbEntity
  8
0
  6
Continuous
 62
     7
370
    15
100
AcDbPolyline
 90
       11
 70
   128
 43
0.0
 10
3.533607873327492
 20
5.055641817642975
 10
3.532678893455418
 20
5.059836435226138
 10
3.532239206967385
 20
5.064054481011854
 10
3.532300878537056
 20
5.068180881070772
 10
3.532862145131891
 20
5.072103112090793
 10
3.533907761705799
 20
5.075714146786063
 10
3.535409174045469
 20
5.078915516265146
 10
3.53732541757127
 20
5.081619895301042
 10
3.539604258123014
 20
5.083753505017953
 10
3.542183505592048
 20
5.085258139562564
 10
3.543878436680047
 20
5.085849859075574
  0
LWPOLYLINE
  5
14A
330
1F
100
AcDbEntity
  8
0
  6
Continuous
 62
     7
370
    15
100
AcDbPolyline
 90
       11
 70
   128
 43
0.0
 10
3.557356785887156
 20
5.035540735834617
 10
3.556242411044146
 20
5.03529783795313
 10
3.553279686712799
 20
5.035155990941914
 10
3.550244332354615
 20
5.035710775486134
 10
3.547219175929756
 20
5.036947089782253
 10
3.544286699705731
 20
5.038831178385714
 10
3.541526931532199
 20
5.04131169172376
 10
3.539015094130911
 20
5.04432092819152
 10
3.536819772924642
 20
5.047776808696977
 10
3.535000841881254
 20
5.051585057339782
 10
3.533607873327492
 20
5.055641817642975
  0
ARC
  5
14B
330
1F
100
AcDbEntity
  8
0
  6
Continuous
 62
     7
370
    15
100
AcDbCircle
 10
3.53757228939642
 20
5.057062346212929
 30
0.0
 40
0.0305752229114688
100
AcDbArc
 50
330.1800667519123
 51
63.90004437954091
  0
LWPOLYLINE
  5
14C
330
1F
100
AcDbEntity
  8
0
  6
Continuous
 62
     7
370
    15
100
AcDbPolyline
 90
       21
 70
   128
 43
0.0
 10
3.563543975743664
 20
5.037198352377171
 10
3.565238906831664
 20
5.037790071890182
 10
3.567818188869964
 20
5.039294697173304
 10
3.570096994852443
 20
5.041428316151705
 10
3.572013238378243
 20
5.044132695187601
 10
3.573514650717913
 20
5.047334064666682
 10
3.574560301861086
 20
5.050945090100466
 10
3.575121568455922
 20
5.054867321120485
 10
3.575183170887062
 20
5.058993739702381
 10
3.574743518968295
 20
5.063211776226609
 10
3.573814573665485
 20
5.067406384548284
 10
3.572421570542458
 20
5.071463154112965
 10
3.570602604929805
 20
5.07527143556783
 10
3.568407318292801
 20
5.078727306811798
 10
3.565895515460778
 20
5.081736534018071
 10
3.563135712717981
 20
5.084217033067032
 10
3.560203271063222
 20
5.086101112409006
 10
3.557178080069097
 20
5.087337435966612
 10
3.554142725710912
 20
5.087892220510831
 10
3.551180001379566
 20
5.087750373499616
 10
3.550065626536556
 20
5.087507475618129
  0
ARC
  5
14D
330
1F
100
AcDbEntity
  8
0
  6
Continuous
 62
     7
370
    15
100
AcDbCircle
 10
3.539142008464455
 20
5.057620714180503
 30
0.0
 40
0.0360767067336712
100
AcDbArc
 50
359.9333750640849
 51
30.09779569761272
  0
LWPOLYLINE
  5
14E
330
1F
100
AcDbEntity
  8
0
  6
Continuous
 62
     7
370
    15
100
AcDbPolyline
 90
       11
 70
   128
 43
0.0
 10
3.604318510836939
 20
5.183011424167424
 10
3.603389565534131
 20
5.187206026601455
 10
3.602949913615363
 20
5.191424063125684
 10
3.603011516046503
 20
5.195550487595222
 10
3.603572851779869
 20
5.199472694204623
 10
3.604618433784512
 20
5.203083749936668
 10
3.606119846124181
 20
5.206285119415751
 10
3.608036089649982
 20
5.208989492564003
 10
3.610314895632461
 20
5.21112310565476
 10
3.61289417767076
 20
5.212627730937883
 10
3.61458910875876
 20
5.213219450450893
  0
LWPOLYLINE
  5
14F
330
1F
100
AcDbEntity
  8
0
  6
Continuous
 62
     7
370
    15
100
AcDbPolyline
 90
       11
 70
   128
 43
0.0
 10
3.628067457965868
 20
5.162910338985222
 10
3.626953083122859
 20
5.162667429328449
 10
3.623990358791512
 20
5.162525582317233
 10
3.620955039002593
 20
5.163080369375251
 10
3.617929813439203
 20
5.164316690419059
 10
3.614997371784444
 20
5.166200781536319
 10
3.612237569041646
 20
5.16868128058528
 10
3.609725766209624
 20
5.171690507791552
 10
3.60753047957262
 20
5.175146384923165
 10
3.605711513959967
 20
5.1789546487151
 10
3.604318510836939
 20
5.183011424167424
  0
ARC
  5
150
330
1F
100
AcDbEntity
  8
0
  6
Continuous
 62
     7
370
    15
100
AcDbCircle
 10
3.608282966622474
 20
5.184431942955216
 30
0.0
 40
0.0305752211145367
100
AcDbArc
 50
330.1800532296623
 51
63.90005347094776
  0
LWPOLYLINE
  5
151
330
1F
100
AcDbEntity
  8
0
  6
Continuous
 62
     7
370
    15
100
AcDbPolyline
 90
       21
 70
   128
 43
0.0
 10
3.634254647822377
 20
5.164567955527776
 10
3.635949578910377
 20
5.165159675040786
 10
3.638528860948676
 20
5.166664300323909
 10
3.640807666931155
 20
5.168797913414666
 10
3.642723910456956
 20
5.171502286562919
 10
3.644225322796625
 20
5.174703656042001
 10
3.645270973939799
 20
5.178314693251071
 10
3.645832240534634
 20
5.18223692427109
 10
3.645893912104305
 20
5.186363324330009
 10
3.645454191047007
 20
5.190581379377213
 10
3.644525245744198
 20
5.194775981811245
 10
3.64313224262117
 20
5.19883275726357
 10
3.641313277008518
 20
5.202641021055505
 10
3.639117990371513
 20
5.206096892299474
 10
3.636606187539491
 20
5.209106119505747
 10
3.633846384796693
 20
5.21158662444235
 10
3.630913943141934
 20
5.213470715559611
 10
3.627888786717075
 20
5.214707018080442
 10
3.624853397789625
 20
5.215261823661436
 10
3.621890673458278
 20
5.215119970762578
 10
3.620776298615269
 20
5.214877066993448
  0
ARC
  5
152
330
1F
100
AcDbEntity
  8
0
  6
Continuous
 62
     7
370
    15
100
AcDbCircle
 10
3.609852743336738
 20
5.184990316607309
 30
0.0
 40
0.0360766439119251
100
AcDbArc
 50
359.9334134998802
 51
30.09782243334389
  0
LWPOLYLINE
  5
153
330
1F
100
AcDbEntity
  8
0
  6
Continuous
 62
     7
370
    15
100
AcDbPolyline
 90
       16
 70
   128
 43
0.0
 10
1.695142740508753
 20
5.622116328783974
 10
1.694213760636678
 20
5.625813172530113
 10
1.693774108717911
 20
5.629795633838317
 10
1.693835745718317
 20
5.633955075513592
 10
1.694397012313152
 20
5.638178039693569
 10
1.69544262888706
 20
5.642349350636456
 10
1.696944041226729
 20
5.64635521003395
 10
1.69886028475253
 20
5.650086348819463
 10
1.701139125304274
 20
5.653441005787238
 10
1.703718372773308
 20
5.656327658136754
 10
1.706527678704317
 20
5.658667569632877
 10
1.709490403035664
 20
5.66039691571574
 10
1.712525757393849
 20
5.661468529354011
 10
1.715550948387974
 20
5.661853181774357
 10
1.718483424611998
 20
5.661540366975112
 10
1.718891687637682
 20
5.661438567166007
  0
ARC
  5
154
330
1F
100
AcDbEntity
  8
0
  6
Continuous
 62
     7
370
    15
100
AcDbCircle
 10
1.710486803802212
 20
5.626166080580812
 30
0.0
 40
0.0158694917363373
100
AcDbArc
 50
194.7849043255729
 51
251.3551275794671
  0
ARC
  5
155
330
1F
100
AcDbEntity
  8
0
  6
Continuous
 62
     7
370
    15
100
AcDbCircle
 10
1.696322566972711
 20
5.640557175228356
 30
0.0
 40
0.0342486071393857
100
AcDbArc
 50
316.3881836683695
 51
11.34389170707306
  0
ARC
  5
156
330
1F
100
AcDbEntity
  8
0
  6
Continuous
 62
     7
370
    15
100
AcDbCircle
 10
1.726726708552028
 20
5.632055775835276
 30
0.0
 40
0.0319410533679465
100
AcDbArc
 50
119.8387890808984
 51
197.5735296687558
  0
ARC
  5
157
330
1F
100
AcDbEntity
  8
0
  6
Continuous
 62
     7
370
    15
100
AcDbCircle
 10
1.70408312679999
 20
5.627621345220902
 30
0.0
 40
0.0156091810601944
100
AcDbArc
 50
194.2694818531608
 51
251.8705500518806
  0
LWPOLYLINE
  5
158
330
1F
100
AcDbEntity
  8
0
  6
Continuous
 62
     7
370
    15
100
AcDbPolyline
 90
       16
 70
   128
 43
0.0
 10
1.71270448049654
 20
5.663096188339307
 10
1.712296217470856
 20
5.663197988148411
 10
1.709363741246832
 20
5.663510802947655
 10
1.706338550252708
 20
5.663126150527309
 10
1.703303195894522
 20
5.662054536889039
 10
1.700340471563176
 20
5.660325190806177
 10
1.697531165632167
 20
5.657985279310053
 10
1.694951918163133
 20
5.655098626960536
 10
1.692673077611389
 20
5.651743969992762
 10
1.690756834085588
 20
5.648012831207248
 10
1.689255421745919
 20
5.644006971809754
 10
1.68820980517201
 20
5.639835660866867
 10
1.687648538577175
 20
5.635612696686892
 10
1.687586901576769
 20
5.631453255011615
 10
1.688026553495537
 20
5.627470793703412
 10
1.688955533367612
 20
5.623773949957273
  0
ARC
  5
159
330
1F
100
AcDbEntity
  8
0
  6
Continuous
 62
     7
370
    15
100
AcDbCircle
 10
1.723626397341609
 20
5.633210035557358
 30
0.0
 40
0.036074954327691
100
AcDbArc
 50
149.9366164434416
 51
180.0675421220427
  0
LWPOLYLINE
  5
15A
330
1F
100
AcDbEntity
  8
0
  6
Continuous
 62
     7
370
    15
100
AcDbPolyline
 90
       16
 70
   128
 43
0.0
 10
1.606754383125729
 20
5.859208193982418
 10
1.605825403253654
 20
5.862905031840914
 10
1.605385751334887
 20
5.866887493149119
 10
1.605447388335293
 20
5.871046940712036
 10
1.606008689499393
 20
5.875269908265857
 10
1.607054271504036
 20
5.879441209947257
 10
1.608555683843706
 20
5.883447069344751
 10
1.610471961938772
 20
5.887178223279395
 10
1.612750767921251
 20
5.890532876873324
 10
1.615330015390284
 20
5.893419529222842
 10
1.618139321321294
 20
5.895759434831322
 10
1.621102080221906
 20
5.897488784288028
 10
1.624137434580091
 20
5.898560409701586
 10
1.62716259100495
 20
5.898945041085157
 10
1.630095067228974
 20
5.898632238061199
 10
1.630503330254658
 20
5.898530438252095
  0
ARC
  5
15B
330
1F
100
AcDbEntity
  8
0
  6
Continuous
 62
     7
370
    15
100
AcDbCircle
 10
1.622098482952958
 20
5.863257971873274
 30
0.0
 40
0.0158695337194655
100
AcDbArc
 50
194.7849617565193
 51
251.3550395145607
  0
ARC
  5
15C
330
1F
100
AcDbEntity
  8
0
  6
Continuous
 62
     7
370
    15
100
AcDbCircle
 10
1.607934301225496
 20
5.877648987002745
 30
0.0
 40
0.0342485266440949
100
AcDbArc
 50
316.3881866138098
 51
11.34399983307243
  0
ARC
  5
15D
330
1F
100
AcDbEntity
  8
0
  6
Continuous
 62
     7
370
    15
100
AcDbCircle
 10
1.638338394773485
 20
5.869147613783347
 30
0.0
 40
0.0319410884873983
100
AcDbArc
 50
119.838843117156
 51
197.5734695206161
  0
ARC
  5
15E
330
1F
100
AcDbEntity
  8
0
  6
Continuous
 62
     7
370
    15
100
AcDbCircle
 10
1.615694817804396
 20
5.864713247702625
 30
0.0
 40
0.0156092371444427
100
AcDbArc
 50
194.2695707056537
 51
251.8704305654278
  0
LWPOLYLINE
  5
15F
330
1F
100
AcDbEntity
  8
0
  6
Continuous
 62
     7
370
    15
100
AcDbPolyline
 90
       16
 70
   128
 43
0.0
 10
1.624316123113516
 20
5.900188059425394
 10
1.623907860087833
 20
5.900289859234498
 10
1.620975383863808
 20
5.900602662258457
 10
1.617950227438949
 20
5.900218030874885
 10
1.614914873080764
 20
5.899146405461327
 10
1.611952114180152
 20
5.89741705600462
 10
1.609142808249143
 20
5.89507715039614
 10
1.606563560780109
 20
5.892190498046623
 10
1.60428475479763
 20
5.888835844452693
 10
1.602368476702564
 20
5.885104690518049
 10
1.600867064362895
 20
5.881098831120555
 10
1.599821482358252
 20
5.876927529439157
 10
1.599260181194151
 20
5.872704561885335
 10
1.599198544193745
 20
5.868545114322416
 10
1.599638196112513
 20
5.864562653014213
 10
1.600567175984588
 20
5.860865815155716
  0
ARC
  5
160
330
1F
100
AcDbEntity
  8
0
  6
Continuous
 62
     7
370
    15
100
AcDbCircle
 10
1.635237446033171
 20
5.87030207389989
 30
0.0
 40
0.0360743266227141
100
AcDbArc
 50
149.935469426543
 51
180.0685984372188
  0
LWPOLYLINE
  5
161
330
1F
100
AcDbEntity
  8
0
  6
Continuous
 62
     7
370
    15
100
AcDbPolyline
 90
       16
 70
   128
 43
0.0
 10
1.695142740508753
 20
6.074774262909547
 10
1.694213760636678
 20
6.07847111254333
 10
1.693774108717911
 20
6.082453573851533
 10
1.693835745718317
 20
6.086613009639165
 10
1.694397012313152
 20
6.090835979706785
 10
1.69544262888706
 20
6.095007278874385
 10
1.696944041226729
 20
6.099013161822452
 10
1.69886028475253
 20
6.102744282945035
 10
1.701139125304274
 20
6.106098945800453
 10
1.703718372773308
 20
6.10898559814997
 10
1.706527678704317
 20
6.111325527309023
 10
1.709490403035664
 20
6.113054843953669
 10
1.712525757393849
 20
6.1141264929178
 10
1.715550948387974
 20
6.114511133562859
 10
1.718483424611998
 20
6.114198330538902
 10
1.718891687637682
 20
6.114096507179224
  0
ARC
  5
162
330
1F
100
AcDbEntity
  8
0
  6
Continuous
 62
     7
370
    15
100
AcDbCircle
 10
1.710486793973655
 20
6.078824029692103
 30
0.0
 40
0.0158694860574269
100
AcDbArc
 50
194.7849656947332
 51
251.355158112315
  0
ARC
  5
163
330
1F
100
AcDbEntity
  8
0
  6
Continuous
 62
     7
370
    15
100
AcDbCircle
 10
1.696322550671872
 20
6.093215122569845
 30
0.0
 40
0.0342486239964915
100
AcDbArc
 50
316.3881936021415
 51
11.34389363732032
  0
ARC
  5
164
330
1F
100
AcDbEntity
  8
0
  6
Continuous
 62
     7
370
    15
100
AcDbCircle
 10
1.72672672442138
 20
6.084713714030704
 30
0.0
 40
0.0319410679478361
100
AcDbArc
 50
119.838806896183
 51
197.5735179653502
  0
ARC
  5
165
330
1F
100
AcDbEntity
  8
0
  6
Continuous
 62
     7
370
    15
100
AcDbCircle
 10
1.704083122681187
 20
6.080279299344375
 30
0.0
 40
0.0156091819976207
100
AcDbArc
 50
194.2695567201034
 51
251.8705670869438
  0
LWPOLYLINE
  5
166
330
1F
100
AcDbEntity
  8
0
  6
Continuous
 62
     7
370
    15
100
AcDbPolyline
 90
       16
 70
   128
 43
0.0
 10
1.71270448049654
 20
6.115754128352523
 10
1.712296217470856
 20
6.1158559517122
 10
1.709363741246832
 20
6.116168754736158
 10
1.706338550252708
 20
6.115784114091099
 10
1.703303195894522
 20
6.114712465126968
 10
1.700340471563176
 20
6.112983148482323
 10
1.697531165632167
 20
6.11064321932327
 10
1.694951918163133
 20
6.107756566973752
 10
1.692673077611389
 20
6.104401904118334
 10
1.690756834085588
 20
6.100670782995751
 10
1.689255421745919
 20
6.096664900047684
 10
1.68820980517201
 20
6.092493600880084
 10
1.687648538577175
 20
6.088270630812465
 10
1.687586901576769
 20
6.084111195024832
 10
1.688026553495537
 20
6.080128733716628
 10
1.688955533367612
 20
6.076431884082846
  0
ARC
  5
167
330
1F
100
AcDbEntity
  8
0
  6
Continuous
 62
     7
370
    15
100
AcDbCircle
 10
1.723626103343595
 20
6.085868025077313
 30
0.0
 40
0.0360746603327172
100
AcDbArc
 50
149.936491041212
 51
180.0675464931851
  0
LWPOLYLINE
  5
168
330
1F
100
AcDbEntity
  8
0
  6
Continuous
 62
     7
370
    15
100
AcDbPolyline
 90
       11
 70
   128
 43
0.0
 10
2.01332828535811
 20
5.609255288984718
 10
2.012399270916771
 20
5.613449909941725
 10
2.011959618998003
 20
5.617667946465953
 10
2.012021290567674
 20
5.621794352412515
 10
2.012582557162509
 20
5.625716577544892
 10
2.013628208305683
 20
5.629327614753961
 10
2.015129551506821
 20
5.63252900275602
 10
2.017045864171153
 20
5.635233357381297
 10
2.019324670153632
 20
5.637366970472052
 10
2.021903883053401
 20
5.638871614278152
 10
2.023598883279931
 20
5.639463315268186
  0
LWPOLYLINE
  5
169
330
1F
100
AcDbEntity
  8
0
  6
Continuous
 62
     7
370
    15
100
AcDbPolyline
 90
       11
 70
   128
 43
0.0
 10
2.037077232487039
 20
5.589154203802514
 10
2.03596285764403
 20
5.588911294145741
 10
2.033000133312683
 20
5.588769447134526
 10
2.029964744385233
 20
5.58932425271552
 10
2.026939587960373
 20
5.590560555236351
 10
2.024007146305615
 20
5.592444646353611
 10
2.021247343562817
 20
5.594925145402573
 10
2.018735540730795
 20
5.597934372608845
 10
2.01654018495526
 20
5.601390268263434
 10
2.014721288481138
 20
5.605198513532392
 10
2.01332828535811
 20
5.609255288984718
  0
ARC
  5
16A
330
1F
100
AcDbEntity
  8
0
  6
Continuous
 62
     7
370
    15
100
AcDbCircle
 10
2.01729290803206
 20
5.610675898636622
 30
0.0
 40
0.0305750523134
100
AcDbArc
 50
330.1797156711213
 51
63.90039102948581
  0
LWPOLYLINE
  5
16B
330
1F
100
AcDbEntity
  8
0
  6
Continuous
 62
     7
370
    15
100
AcDbPolyline
 90
       21
 70
   128
 43
0.0
 10
2.043264422343548
 20
5.590811820345069
 10
2.044959353431548
 20
5.591403539858079
 10
2.047538566331316
 20
5.592908183664179
 10
2.049817441452326
 20
5.595041778231958
 10
2.051733684978127
 20
5.597746151380212
 10
2.053235097317796
 20
5.600947520859294
 10
2.054280679322439
 20
5.604558576591339
 10
2.054841945917274
 20
5.60848080761136
 10
2.054903617486945
 20
5.612607207670278
 10
2.054463965568178
 20
5.616825244194506
 10
2.053534951126837
 20
5.621019865151515
 10
2.052142017142341
 20
5.625076622080863
 10
2.050323051529689
 20
5.628884885872798
 10
2.048127764892684
 20
5.632340757116767
 10
2.045615892922131
 20
5.635350002846015
 10
2.042856159317864
 20
5.637830489259644
 10
2.039923648524574
 20
5.63971459889988
 10
2.036898492099715
 20
5.640950901420712
 10
2.033863172310796
 20
5.641505688478729
 10
2.030900447979449
 20
5.641363835579871
 10
2.02978607313644
 20
5.641120931810741
  0
ARC
  5
16C
330
1F
100
AcDbEntity
  8
0
  6
Continuous
 62
     7
370
    15
100
AcDbCircle
 10
2.018862741032834
 20
5.61123441586817
 30
0.0
 40
0.0360763518708842
100
AcDbArc
 50
359.9330419876738
 51
30.06289573896738
  0
ARC
  5
16D
330
1F
100
AcDbEntity
  8
0
  6
Continuous
 62
     7
370
    15
100
AcDbCircle
 10
6.901010012445847
 20
4.514943051428523
 30
0.0
 40
0.0241098319250472
100
AcDbArc
 50
135.8720421933008
 51
203.3900208845068
  0
ARC
  5
16E
330
1F
100
AcDbEntity
  8
0
  6
Continuous
 62
     7
370
    15
100
AcDbCircle
 10
6.903230173801438
 20
4.514150828739826
 30
0.0
 40
0.0258830741330049
100
AcDbArc
 50
199.8270905832664
 51
311.9429658719718
  0
LWPOLYLINE
  5
16F
330
1F
100
AcDbEntity
  8
0
  6
Continuous
 62
     7
370
    15
100
AcDbPolyline
 90
       38
 70
   128
 43
0.0
 10
6.879409342569347
 20
4.505410234671014
 10
6.8813090965555
 20
4.501616243354434
 10
6.883801264044711
 20
4.498152585212745
 10
6.886814217518845
 20
4.4951188692606
 10
6.890261222690734
 20
4.492602408073958
 10
6.894042927491299
 20
4.490675628681813
 10
6.898050888134633
 20
4.489393858414296
 10
6.902169643273929
 20
4.488794034781456
 10
6.906280620328486
 20
4.488893434137978
 10
6.910265557840991
 20
4.489689191144868
 10
6.914010031542601
 20
4.491158340577634
 10
6.917406012478596
 20
4.493258703780259
 10
6.920355842473907
 20
4.495929873157314
 10
6.92277506881289
 20
4.499094877251555
 10
6.924593688732888
 20
4.502662779907396
 10
6.925759364365916
 20
4.506530939801442
 10
6.926238770940021
 20
4.510588000438845
 10
6.926018322733858
 20
4.514717221765631
 10
6.925103689106971
 20
4.518799991056827
 10
6.923521834086457
 20
4.522718657583244
 10
6.921317732286746
 20
4.52636065740431
 10
6.918555440556832
 20
4.529621036717123
 10
6.915313569406486
 20
4.532406216775689
 10
6.911686285514957
 20
4.534635827525686
 10
6.907777296678781
 20
4.536245918291525
 10
6.903699436980584
 20
4.537190069282813
 10
6.89956972338412
 20
4.537441171119729
 10
6.895506866747155
 20
4.5369920405881
 10
6.891628368003159
 20
4.535855461125544
 10
6.888045229063688
 20
4.53406425162282
 10
6.884860777463355
 20
4.531669863311971
 10
6.882166621755762
 20
4.528741211897228
 10
6.880040058818594
 20
4.525362587640717
 10
6.878542483667397
 20
4.521631118648286
 10
6.877716796760668
 20
4.517654240374698
 10
6.877586850891613
 20
4.513546285685499
 10
6.878156517817966
 20
4.509425429369228
 10
6.879409342569347
 20
4.505410234671014
  0
ARC
  5
170
330
1F
100
AcDbEntity
  8
0
  6
Continuous
 62
     7
370
    15
100
AcDbCircle
 10
6.903344111002541
 20
4.514540911384128
 30
0.0
 40
0.0260830106522425
100
AcDbArc
 50
318.2215652289303
 51
131.7703589624004
  0
LWPOLYLINE
  5
171
330
1F
100
AcDbEntity
  8
0
  6
Continuous
 62
     7
370
    15
100
AcDbPolyline
 90
       11
 70
   128
 43
0.0
 10
1.924939927975087
 20
5.89370758978163
 10
1.924010982672278
 20
5.897902186328018
 10
1.923571261614979
 20
5.902120241375222
 10
1.923632933184651
 20
5.906246653209429
 10
1.924194199779486
 20
5.910168872454162
 10
1.92523985092266
 20
5.91377990966323
 10
1.926741263262329
 20
5.916981279142313
 10
1.92865750678813
 20
5.91968565817821
 10
1.930936312770608
 20
5.921819277156608
 10
1.933515594808908
 20
5.923323902439732
 10
1.935210525896907
 20
5.923915621952742
  0
LWPOLYLINE
  5
172
330
1F
100
AcDbEntity
  8
0
  6
Continuous
 62
     7
370
    15
100
AcDbPolyline
 90
       11
 70
   128
 43
0.0
 10
1.948688875104016
 20
5.873606498711784
 10
1.947574500261006
 20
5.873363600830297
 10
1.94461177592966
 20
5.873221742043796
 10
1.941576387002209
 20
5.873776547624789
 10
1.93855123057735
 20
5.875012861920907
 10
1.935618788922591
 20
5.876896953038167
 10
1.932858986179794
 20
5.879377452087128
 10
1.930347183347772
 20
5.882386679293401
 10
1.928151827572236
 20
5.885842569060346
 10
1.926332931098114
 20
5.889650808441662
 10
1.924939927975087
 20
5.89370758978163
  0
ARC
  5
173
330
1F
100
AcDbEntity
  8
0
  6
Continuous
 62
     7
370
    15
100
AcDbCircle
 10
1.928904503404724
 20
5.895128192732641
 30
0.0
 40
0.030575092897663
100
AcDbArc
 50
330.1797610190211
 51
63.90018542816108
  0
LWPOLYLINE
  5
174
330
1F
100
AcDbEntity
  8
0
  6
Continuous
 62
     7
370
    15
100
AcDbPolyline
 90
       21
 70
   128
 43
0.0
 10
1.954876064960525
 20
5.875264115254339
 10
1.956570996048524
 20
5.875855834767349
 10
1.959150208948292
 20
5.877360478573449
 10
1.961429084069303
 20
5.879494079028872
 10
1.963345327595104
 20
5.882198446289482
 10
1.964846739934773
 20
5.885399827543849
 10
1.965892321939415
 20
5.889010871500609
 10
1.966453657672782
 20
5.892933083997653
 10
1.966515260103922
 20
5.897059502579549
 10
1.966075608185154
 20
5.901277539103777
 10
1.965146593743814
 20
5.905472165948427
 10
1.963753659759318
 20
5.909528916990133
 10
1.961934694146665
 20
5.913337186669711
 10
1.959739407509661
 20
5.916793069688966
 10
1.957227604677638
 20
5.919802296895238
 10
1.954467801934841
 20
5.9222827959442
 10
1.951535360280082
 20
5.924166875286173
 10
1.948510134716692
 20
5.925403208105269
 10
1.945474814927772
 20
5.925957983387999
 10
1.942512090596426
 20
5.925816136376784
 10
1.941397715753416
 20
5.925573238495298
  0
ARC
  5
175
330
1F
100
AcDbEntity
  8
0
  6
Continuous
 62
     7
370
    15
100
AcDbCircle
 10
1.930476720779181
 20
5.895687206166683
 30
0.0
 40
0.0360740152489569
100
AcDbArc
 50
359.9323536950862
 51
30.09894740993627
  0
LWPOLYLINE
  5
176
330
1F
100
AcDbEntity
  8
0
  6
Continuous
 62
     7
370
    15
100
AcDbPolyline
 90
       11
 70
   128
 43
0.0
 10
3.604318510836939
 20
5.635669358292997
 10
3.603389565534131
 20
5.639863966614672
 10
3.602949913615363
 20
5.6440820031389
 10
3.603011516046503
 20
5.648208421720795
 10
3.603572851779869
 20
5.652130634217838
 10
3.604618433784512
 20
5.655741678174599
 10
3.606119846124181
 20
5.658943071204252
 10
3.608036089649982
 20
5.661647426689577
 10
3.610314895632461
 20
5.663781045667976
 10
3.61289417767076
 20
5.6652856709511
 10
3.61458910875876
 20
5.665877390464109
  0
LWPOLYLINE
  5
177
330
1F
100
AcDbEntity
  8
0
  6
Continuous
 62
     7
370
    15
100
AcDbPolyline
 90
       11
 70
   128
 43
0.0
 10
3.628067457965868
 20
5.615568290773724
 10
3.626953083122859
 20
5.615325369341665
 10
3.623990358791512
 20
5.615183522330449
 10
3.620955039002593
 20
5.615738321163753
 10
3.617929813439203
 20
5.616974630432276
 10
3.614997371784444
 20
5.618858733324821
 10
3.612237569041646
 20
5.621339232373783
 10
3.609725766209624
 20
5.624348459580055
 10
3.60753047957262
 20
5.627804330824024
 10
3.605711513959967
 20
5.631612588728316
 10
3.604318510836939
 20
5.635669358292997
  0
ARC
  5
178
330
1F
100
AcDbEntity
  8
0
  6
Continuous
 62
     7
370
    15
100
AcDbCircle
 10
3.608282997728981
 20
5.637089888713099
 30
0.0
 40
0.0305751969834604
100
AcDbArc
 50
330.1800149030161
 51
63.90009622843457
  0
LWPOLYLINE
  5
179
330
1F
100
AcDbEntity
  8
0
  6
Continuous
 62
     7
370
    15
100
AcDbPolyline
 90
       21
 70
   128
 43
0.0
 10
3.634254647822377
 20
5.617225907316279
 10
3.635949578910377
 20
5.61781762682929
 10
3.638528860948676
 20
5.619322252112413
 10
3.640807666931155
 20
5.621455847540239
 10
3.642723910456956
 20
5.624160226576136
 10
3.644225322796625
 20
5.627361596055217
 10
3.645270973939799
 20
5.630972645039572
 10
3.645832240534634
 20
5.63489485250902
 10
3.645893912104305
 20
5.639021276118511
 10
3.645454191047007
 20
5.643239331165716
 10
3.644525245744198
 20
5.647433915936819
 10
3.64313224262117
 20
5.651490709052072
 10
3.641313277008518
 20
5.655298966956364
 10
3.639117990371513
 20
5.658754838200334
 10
3.636606187539491
 20
5.661764065406607
 10
3.633846384796693
 20
5.66424458800614
 10
3.630913943141934
 20
5.666128667348113
 10
3.627888786717075
 20
5.667364981644231
 10
3.624853397789625
 20
5.667919751899367
 10
3.621890673458278
 20
5.667777928438724
 10
3.620776298615269
 20
5.667535007006665
  0
ARC
  5
17A
330
1F
100
AcDbEntity
  8
0
  6
Continuous
 62
     7
370
    15
100
AcDbCircle
 10
3.609852681088435
 20
5.637648245769768
 30
0.0
 40
0.0360767061612597
100
AcDbArc
 50
359.933412146466
 51
30.09779585606989
  0
ARC
  5
17B
330
1F
100
AcDbEntity
  8
0
  6
Continuous
 62
     7
370
    15
100
AcDbCircle
 10
7.308620102380104
 20
4.46796025749609
 30
0.0
 40
0.020460016151467
100
AcDbArc
 50
114.4367754966728
 51
191.4775912339534
  0
ARC
  5
17C
330
1F
100
AcDbEntity
  8
0
  6
Continuous
 62
     7
370
    15
100
AcDbCircle
 10
7.310865167513891
 20
4.453324610342193
 30
0.0
 40
0.0172697982206171
100
AcDbArc
 50
219.8902177751608
 51
279.2274140613707
  0
ARC
  5
17D
330
1F
100
AcDbEntity
  8
0
  6
Continuous
 62
     7
370
    15
100
AcDbCircle
 10
7.29384989965957
 20
4.457799981276785
 30
0.0
 40
0.0305751688001309
100
AcDbArc
 50
330.1798869218793
 51
63.89990370244817
  0
LWPOLYLINE
  5
17E
330
1F
100
AcDbEntity
  8
0
  6
Continuous
 62
     7
370
    15
100
AcDbPolyline
 90
       21
 70
   128
 43
0.0
 10
7.319821629616568
 20
4.437935905821028
 10
7.321516629843098
 20
4.438527606811062
 10
7.324095773604336
 20
4.440032269140138
 10
7.326374579586815
 20
4.442165888118537
 10
7.328290823112615
 20
4.444870255379147
 10
7.329792235452284
 20
4.448071636633516
 10
7.330837886595459
 20
4.451682662067298
 10
7.331399014913231
 20
4.455604930133271
 10
7.331460686482904
 20
4.45973133019219
 10
7.331021241979729
 20
4.463949311147488
 10
7.330092020122795
 20
4.46814399356107
 10
7.328699293553891
 20
4.472200689033845
 10
7.326880120525647
 20
4.476009014282353
 10
7.324684833888642
 20
4.479464897301609
 10
7.322173169333682
 20
4.482474087461928
 10
7.319413159175292
 20
4.484954642079819
 10
7.316480855797594
 20
4.486838684375839
 10
7.313455630234203
 20
4.488075017194933
 10
7.310420172168222
 20
4.488629829523618
 10
7.307457447836875
 20
4.488487982512403
 10
7.306343211270928
 20
4.488245047584962
  0
ARC
  5
17F
330
1F
100
AcDbEntity
  8
0
  6
Continuous
 62
     7
370
    15
100
AcDbCircle
 10
7.295419576300388
 20
4.458358052134624
 30
0.0
 40
0.0360767317463369
100
AcDbArc
 50
359.9230871314732
 51
30.09824863101571
  0
LWPOLYLINE
  5
180
330
1F
100
AcDbEntity
  8
0
  6
Continuous
 62
     7
370
    15
100
AcDbPolyline
 90
       16
 70
   128
 43
0.0
 10
3.215422328478135
 20
5.030614516372647
 10
3.21449334860606
 20
5.034311366006429
 10
3.214053662118027
 20
5.038293818053145
 10
3.214115333687698
 20
5.042453263102265
 10
3.214676600282533
 20
5.046676233169885
 10
3.215722216856442
 20
5.050847532337486
 10
3.217223629196111
 20
5.05485339173498
 10
3.219139872721912
 20
5.058584536408135
 10
3.221418713273656
 20
5.061939199263553
 10
3.22399796074269
 20
5.064825851613071
 10
3.226807266673699
 20
5.06716575722155
 10
3.229769991005046
 20
5.068895097416769
 10
3.232805345363231
 20
5.069966722830327
 10
3.235830536357356
 20
5.070351363475386
 10
3.238762978012114
 20
5.070038551189941
 10
3.239171241037798
 20
5.069936751380835
  0
ARC
  5
181
330
1F
100
AcDbEntity
  8
0
  6
Continuous
 62
     7
370
    15
100
AcDbCircle
 10
3.230766497443784
 20
5.034664358894225
 30
0.0
 40
0.0158696170620463
100
AcDbArc
 50
194.7851236733669
 51
251.3548775977086
  0
ARC
  5
182
330
1F
100
AcDbEntity
  8
0
  6
Continuous
 62
     7
370
    15
100
AcDbCircle
 10
3.216602162984245
 20
5.04905536376545
 30
0.0
 40
0.0342485979097082
100
AcDbArc
 50
316.388180370869
 51
11.34388314054662
  0
ARC
  5
183
330
1F
100
AcDbEntity
  8
0
  6
Continuous
 62
     7
370
    15
100
AcDbCircle
 10
3.247006415877404
 20
5.040553896584522
 30
0.0
 40
0.0319411809476028
100
AcDbArc
 50
119.838904631822
 51
197.573337772241
  0
ARC
  5
184
330
1F
100
AcDbEntity
  8
0
  6
Continuous
 62
     7
370
    15
100
AcDbCircle
 10
3.22436286994334
 20
5.036119628340205
 30
0.0
 40
0.0156093237735237
100
AcDbArc
 50
194.2697455205837
 51
251.8702557505002
  0
LWPOLYLINE
  5
185
330
1F
100
AcDbEntity
  8
0
  6
Continuous
 62
     7
370
    15
100
AcDbPolyline
 90
       16
 70
   128
 43
0.0
 10
3.232984068465922
 20
5.071594363292646
 10
3.232575805440238
 20
5.07169616310175
 10
3.22964336378548
 20
5.072008975387197
 10
3.226618172791355
 20
5.071624334742137
 10
3.22358281843317
 20
5.07055270932858
 10
3.220620094101823
 20
5.068823369133361
 10
3.217810788170814
 20
5.066483463524882
 10
3.21523154070178
 20
5.063596811175364
 10
3.212952700150036
 20
5.060242148319946
 10
3.211036456624235
 20
5.05651100364679
 10
3.209535044284566
 20
5.052505144249296
 10
3.208489427710657
 20
5.048333845081695
 10
3.207928161115822
 20
5.044110875014076
 10
3.207866489546151
 20
5.039951429964955
 10
3.208306176034184
 20
5.03596897791824
 10
3.209235155906259
 20
5.032272128284457
  0
ARC
  5
186
330
1F
100
AcDbEntity
  8
0
  6
Continuous
 62
     7
370
    15
100
AcDbCircle
 10
3.243905620101396
 20
5.041708294100705
 30
0.0
 40
0.0360746237812271
100
AcDbArc
 50
149.9363655642863
 51
180.0676687789278
  0
LWPOLYLINE
  5
187
330
1F
100
AcDbEntity
  8
0
  6
Continuous
 62
     7
370
    15
100
AcDbPolyline
 90
       16
 70
   128
 43
0.0
 10
3.286133000556847
 20
5.195872454705193
 10
3.285204020684773
 20
5.199569298451332
 10
3.284764368766005
 20
5.203551759759536
 10
3.284826005766411
 20
5.207711201434811
 10
3.285387272361246
 20
5.211934165614788
 10
3.286432888935154
 20
5.216105476557675
 10
3.287934301274824
 20
5.220111335955169
 10
3.289850544800624
 20
5.22384247474068
 10
3.292129385352369
 20
5.227197131708456
 10
3.294708632821403
 20
5.230083784057974
 10
3.297517938752412
 20
5.232423695554096
 10
3.300480663083758
 20
5.234153041636958
 10
3.303516017441944
 20
5.23522465527523
 10
3.306541208436069
 20
5.235609307695575
 10
3.309473684660093
 20
5.235296492896331
 10
3.309881947685777
 20
5.235194693087226
  0
ARC
  5
188
330
1F
100
AcDbEntity
  8
0
  6
Continuous
 62
     7
370
    15
100
AcDbCircle
 10
3.301477063850303
 20
5.199922206502028
 30
0.0
 40
0.0158694917363327
100
AcDbArc
 50
194.7849043255672
 51
251.3551275794775
  0
ARC
  5
189
330
1F
100
AcDbEntity
  8
0
  6
Continuous
 62
     7
370
    15
100
AcDbCircle
 10
3.287312827020798
 20
5.214313301149577
 30
0.0
 40
0.0342486071393929
100
AcDbArc
 50
316.3881836683747
 51
11.34389170706766
  0
ARC
  5
18A
330
1F
100
AcDbEntity
  8
0
  6
Continuous
 62
     7
370
    15
100
AcDbCircle
 10
3.317716968600122
 20
5.205811901756493
 30
0.0
 40
0.0319410533679464
100
AcDbArc
 50
119.8387890808965
 51
197.5735296687551
  0
ARC
  5
18B
330
1F
100
AcDbEntity
  8
0
  6
Continuous
 62
     7
370
    15
100
AcDbCircle
 10
3.295073421417351
 20
5.201377461880635
 30
0.0
 40
0.0156091810601969
100
AcDbArc
 50
194.2694818531727
 51
251.8705500518814
  0
LWPOLYLINE
  5
18C
330
1F
100
AcDbEntity
  8
0
  6
Continuous
 62
     7
370
    15
100
AcDbPolyline
 90
       16
 70
   128
 43
0.0
 10
3.303694775113901
 20
5.236852304999037
 10
3.303286512088217
 20
5.236954104808142
 10
3.300354035864192
 20
5.237266919607386
 10
3.297328844870067
 20
5.23688226718704
 10
3.294293490511882
 20
5.235810653548769
 10
3.291330766180536
 20
5.234081307465907
 10
3.288521460249527
 20
5.231741395969785
 10
3.285942212780493
 20
5.228854743620267
 10
3.283663372228748
 20
5.225500086652492
 10
3.281747128702948
 20
5.22176894786698
 10
3.280245716363278
 20
5.217763088469486
 10
3.27920009978937
 20
5.213591777526599
 10
3.278638833194535
 20
5.209368813346622
 10
3.278577196194129
 20
5.205209371671347
 10
3.279016848112897
 20
5.201226910363143
 10
3.279945827984971
 20
5.197530066617003
  0
ARC
  5
18D
330
1F
100
AcDbEntity
  8
0
  6
Continuous
 62
     7
370
    15
100
AcDbCircle
 10
3.31461631066594
 20
5.206966227466839
 30
0.0
 40
0.0360746422681337
100
AcDbArc
 50
149.9363734458684
 51
180.0676702074022
  0
LWPOLYLINE
  5
18E
330
1F
100
AcDbEntity
  8
0
  6
Continuous
 62
     7
370
    15
100
AcDbPolyline
 90
       16
 70
   128
 43
0.0
 10
3.197744643173824
 20
5.432964319903637
 10
3.196815663301749
 20
5.436661157762133
 10
3.196376011382981
 20
5.440643619070336
 10
3.196437648383388
 20
5.444803066633256
 10
3.196998949547488
 20
5.449026034187077
 10
3.198044531552131
 20
5.453197335868475
 10
3.1995459438918
 20
5.45720319526597
 10
3.201462221986866
 20
5.460934349200614
 10
3.203741027969345
 20
5.464289002794544
 10
3.206320275438379
 20
5.467175655144061
 10
3.209129581369388
 20
5.469515560752541
 10
3.21209234027
 20
5.471244910209247
 10
3.215127694628185
 20
5.472316535622805
 10
3.218152851053044
 20
5.472701167006376
 10
3.221085327277069
 20
5.472388363982418
 10
3.221493590302753
 20
5.472286564173313
  0
ARC
  5
18F
330
1F
100
AcDbEntity
  8
0
  6
Continuous
 62
     7
370
    15
100
AcDbCircle
 10
3.213088743001046
 20
5.437014097794487
 30
0.0
 40
0.0158695337194572
100
AcDbArc
 50
194.7849617565044
 51
251.3550395145756
  0
ARC
  5
190
330
1F
100
AcDbEntity
  8
0
  6
Continuous
 62
     7
370
    15
100
AcDbCircle
 10
3.198924561273587
 20
5.451405112923963
 30
0.0
 40
0.0342485266440972
100
AcDbArc
 50
316.3881866138152
 51
11.34399983307287
  0
ARC
  5
191
330
1F
100
AcDbEntity
  8
0
  6
Continuous
 62
     7
370
    15
100
AcDbCircle
 10
3.229328654821582
 20
5.442903739704566
 30
0.0
 40
0.0319410884874
100
AcDbArc
 50
119.8388431171579
 51
197.5734695206148
  0
ARC
  5
192
330
1F
100
AcDbEntity
  8
0
  6
Continuous
 62
     7
370
    15
100
AcDbCircle
 10
3.206685112421753
 20
5.438469364362354
 30
0.0
 40
0.01560923714444
100
AcDbArc
 50
194.2695707056531
 51
251.8704305654374
  0
LWPOLYLINE
  5
193
330
1F
100
AcDbEntity
  8
0
  6
Continuous
 62
     7
370
    15
100
AcDbPolyline
 90
       16
 70
   128
 43
0.0
 10
3.215306417730876
 20
5.473944176085124
 10
3.214898154705193
 20
5.474045975894229
 10
3.211965678481168
 20
5.474358778918187
 10
3.208940522056309
 20
5.473974147534616
 10
3.205905167698124
 20
5.472902522121057
 10
3.202942408797512
 20
5.471173172664352
 10
3.200133102866503
 20
5.468833267055872
 10
3.197553855397469
 20
5.465946614706354
 10
3.19527504941499
 20
5.462591961112424
 10
3.193358771319924
 20
5.458860807177781
 10
3.191857358980255
 20
5.454854947780287
 10
3.190811776975612
 20
5.450683646098887
 10
3.190250475811512
 20
5.446460678545065
 10
3.190188838811105
 20
5.442301230982147
 10
3.190628490729873
 20
5.438318769673943
 10
3.191557470601948
 20
5.434621931815446
  0
ARC
  5
194
330
1F
100
AcDbEntity
  8
0
  6
Continuous
 62
     7
370
    15
100
AcDbCircle
 10
3.226228690380978
 20
5.444057895174545
 30
0.0
 40
0.0360753791398981
100
AcDbArc
 50
149.9366884469672
 51
180.0673645163515
  0
LWPOLYLINE
  5
195
330
1F
100
AcDbEntity
  8
0
  6
Continuous
 62
     7
370
    15
100
AcDbPolyline
 90
       16
 70
   128
 43
0.0
 10
1.62443206843004
 20
5.456858390451428
 10
1.623503088557966
 20
5.46055524008521
 10
1.623063402069932
 20
5.464537692131925
 10
1.623125073639604
 20
5.468697137181046
 10
1.623686340234439
 20
5.472920107248666
 10
1.624731956808347
 20
5.477091406416266
 10
1.626233369148017
 20
5.48109726581376
 10
1.628149612673817
 20
5.484828410486915
 10
1.630428453225561
 20
5.488183073342334
 10
1.633007700694596
 20
5.491069725691851
 10
1.635817006625604
 20
5.493409631300331
 10
1.638779730956951
 20
5.49513897149555
 10
1.641815085315136
 20
5.496210596909108
 10
1.644840276309261
 20
5.496595237554168
 10
1.64777271796402
 20
5.496282425268721
 10
1.648180980989704
 20
5.496180625459616
  0
ARC
  5
196
330
1F
100
AcDbEntity
  8
0
  6
Continuous
 62
     7
370
    15
100
AcDbCircle
 10
1.639776237395691
 20
5.460908232973007
 30
0.0
 40
0.0158696170620484
100
AcDbArc
 50
194.7851236733714
 51
251.3548775977061
  0
ARC
  5
197
330
1F
100
AcDbEntity
  8
0
  6
Continuous
 62
     7
370
    15
100
AcDbCircle
 10
1.625611902936155
 20
5.47529923784423
 30
0.0
 40
0.0342485979097039
100
AcDbArc
 50
316.3881803708642
 51
11.34388314055114
  0
ARC
  5
198
330
1F
100
AcDbEntity
  8
0
  6
Continuous
 62
     7
370
    15
100
AcDbCircle
 10
1.656016155829312
 20
5.466797770663302
 30
0.0
 40
0.0319411809476053
100
AcDbArc
 50
119.838904631826
 51
197.5733377722392
  0
ARC
  5
199
330
1F
100
AcDbEntity
  8
0
  6
Continuous
 62
     7
370
    15
100
AcDbCircle
 10
1.633372575325981
 20
5.462363511680474
 30
0.0
 40
0.0156093237735241
100
AcDbArc
 50
194.2697455205799
 51
251.8702557504964
  0
LWPOLYLINE
  5
19A
330
1F
100
AcDbEntity
  8
0
  6
Continuous
 62
     7
370
    15
100
AcDbPolyline
 90
       16
 70
   128
 43
0.0
 10
1.641993773848562
 20
5.497838246632914
 10
1.641585510822878
 20
5.497940046442019
 10
1.638653069168119
 20
5.498252858727466
 10
1.635627878173995
 20
5.497868218082407
 10
1.632592523815809
 20
5.496796592668849
 10
1.629629799484463
 20
5.495067252473631
 10
1.626820493553454
 20
5.492727346865151
 10
1.62424124608442
 20
5.489840694515633
 10
1.621962405532675
 20
5.486486031660215
 10
1.620046162006875
 20
5.482754886987059
 10
1.618544749667205
 20
5.478749027589565
 10
1.617499133093298
 20
5.474577728421965
 10
1.616937866498462
 20
5.470354758354345
 10
1.616876194928791
 20
5.466195313305225
 10
1.617315881416824
 20
5.462212861258509
 10
1.618244861288899
 20
5.458516011624727
  0
ARC
  5
19B
330
1F
100
AcDbEntity
  8
0
  6
Continuous
 62
     7
370
    15
100
AcDbCircle
 10
1.652915394622599
 20
5.46795215891799
 30
0.0
 40
0.0360746237812598
100
AcDbArc
 50
149.9363655643016
 51
180.067668778915
  0
LWPOLYLINE
  5
19C
330
1F
100
AcDbEntity
  8
0
  6
Continuous
 62
     7
370
    15
100
AcDbPolyline
 90
       11
 70
   128
 43
0.0
 10
1.942617613279398
 20
5.481885691721755
 10
1.941688598838058
 20
5.486080318566408
 10
1.94124894691929
 20
5.490298355090635
 10
1.941310618488962
 20
5.494424755149554
 10
1.941871885083797
 20
5.498346986169574
 10
1.94291746708844
 20
5.501958030126333
 10
1.944418879428109
 20
5.505159399605415
 10
1.946335192092441
 20
5.507863760118334
 10
1.948613998074919
 20
5.509997379096733
 10
1.951193210974688
 20
5.511502022902834
 10
1.952888142062687
 20
5.512093742415844
  0
LWPOLYLINE
  5
19D
330
1F
100
AcDbEntity
  8
0
  6
Continuous
 62
     7
370
    15
100
AcDbPolyline
 90
       11
 70
   128
 43
0.0
 10
1.966366560408327
 20
5.46178460065191
 10
1.965252185565318
 20
5.461541702770422
 10
1.962289461233971
 20
5.461399855759206
 10
1.959254072306521
 20
5.461954649564916
 10
1.956228915881661
 20
5.463190963861033
 10
1.953296405088371
 20
5.465075061725984
 10
1.950536671484105
 20
5.467555565802541
 10
1.948024868652083
 20
5.470564793008812
 10
1.945829512876547
 20
5.474020682775758
 10
1.944010547263894
 20
5.47782894068005
 10
1.942617613279398
 20
5.481885691721755
  0
ARC
  5
19E
330
1F
100
AcDbEntity
  8
0
  6
Continuous
 62
     7
370
    15
100
AcDbCircle
 10
1.946582166591209
 20
5.483306282212815
 30
0.0
 40
0.0305751000351704
100
AcDbArc
 50
330.1798210318385
 51
63.90029009960976
  0
LWPOLYLINE
  5
19F
330
1F
100
AcDbEntity
  8
0
  6
Continuous
 62
     7
370
    15
100
AcDbPolyline
 90
       21
 70
   128
 43
0.0
 10
1.972553750264835
 20
5.463442217194465
 10
1.974248681352835
 20
5.464033936707474
 10
1.976827894252604
 20
5.465538580513574
 10
1.979106769373614
 20
5.467672180968997
 10
1.981023012899414
 20
5.470376560004893
 10
1.982524425239084
 20
5.473577929483976
 10
1.983570007243726
 20
5.477188973440735
 10
1.984131273838561
 20
5.481111204460755
 10
1.984192945408233
 20
5.485237604519674
 10
1.983753293489465
 20
5.489455641043901
 10
1.982824279048125
 20
5.493650267888552
 10
1.981431345063628
 20
5.497707018930258
 10
1.979612379450976
 20
5.501515300385123
 10
1.977417023675441
 20
5.504971190152068
 10
1.974905220843418
 20
5.507980417358341
 10
1.972145487239152
 20
5.510460897884326
 10
1.969212976445862
 20
5.512344995749275
 10
1.966187820021003
 20
5.513581310045394
 10
1.963152500232084
 20
5.514136085328125
 10
1.960189706762206
 20
5.513994256839886
 10
1.959075331919196
 20
5.513751358958399
  0
ARC
  5
1A0
330
1F
100
AcDbEntity
  8
0
  6
Continuous
 62
     7
370
    15
100
AcDbCircle
 10
1.94815337674222
 20
5.483865043632071
 30
0.0
 40
0.0360750443335309
100
AcDbArc
 50
359.9327008661573
 51
30.09850713637429
  0
LINE
  5
1A1
330
1F
100
AcDbEntity
  8
0
  6
Continuous
 62
     7
370
    15
100
AcDbLine
 10
3.421223312143973
 20
5.880769450970318
 30
0.0
 11
2.140574467623519
 21
5.070124037392864
 31
0.0
  0
LINE
  5
1A2
330
1F
100
AcDbEntity
  8
0
  6
Continuous
 62
     7
370
    15
100
AcDbLine
 10
3.421223312143973
 20
5.880769450970318
 30
0.0
 11
3.421223312143973
 21
5.778616675060593
 31
0.0
  0
LINE
  5
1A3
330
1F
100
AcDbEntity
  8
0
  6
Continuous
 62
     7
370
    15
100
AcDbLine
 10
3.421223312143973
 20
5.747353478153657
 30
0.0
 11
3.421223312143973
 21
5.628999509638189
 31
0.0
  0
LINE
  5
1A4
330
1F
100
AcDbEntity
  8
0
  6
Continuous
 62
     7
370
    15
100
AcDbLine
 10
3.421223312143973
 20
5.566707797281664
 30
0.0
 11
3.421223312143973
 21
5.448353828766197
 31
0.0
  0
LINE
  5
1A5
330
1F
100
AcDbEntity
  8
0
  6
Continuous
 62
     7
370
    15
100
AcDbLine
 10
3.421223312143973
 20
5.386062104634386
 30
0.0
 11
3.421223312143973
 21
5.267708142006562
 31
0.0
  0
LINE
  5
1A6
330
1F
100
AcDbEntity
  8
0
  6
Continuous
 62
     7
370
    15
100
AcDbLine
 10
3.421223312143973
 20
5.205416423762395
 30
0.0
 11
3.421223312143973
 21
5.087062467022214
 31
0.0
  0
LINE
  5
1A7
330
1F
100
AcDbEntity
  8
0
  6
Continuous
 62
     7
370
    15
100
AcDbLine
 10
3.421223312143973
 20
5.033640300719073
 30
0.0
 11
3.421223312143973
 21
4.966458382584936
 31
0.0
  0
LINE
  5
1A8
330
1F
100
AcDbEntity
  8
0
  6
Continuous
 62
     7
370
    15
100
AcDbLine
 10
2.279877268913375
 20
4.243991037780946
 30
0.0
 11
3.421223312143973
 21
4.966458382584936
 31
0.0
  0
LINE
  5
1A9
330
1F
100
AcDbEntity
  8
0
  6
Continuous
 62
     7
370
    15
100
AcDbLine
 10
2.279877268913375
 20
4.243991037780946
 30
0.0
 11
2.200666221861123
 21
4.625555533620985
 31
0.0
  0
LINE
  5
1AA
330
1F
100
AcDbEntity
  8
0
  6
Continuous
 62
     7
370
    15
100
AcDbLine
 10
2.200666221861123
 20
4.625555533620985
 30
0.0
 11
2.139078724643394
 21
4.612021686444366
 31
0.0
  0
LINE
  5
1AB
330
1F
100
AcDbEntity
  8
0
  6
Continuous
 62
     7
370
    15
100
AcDbLine
 10
2.139078724643394
 20
4.612021686444366
 30
0.0
 11
2.212304172510963
 21
4.724597848709068
 31
0.0
  0
LINE
  5
1AC
330
1F
100
AcDbEntity
  8
0
  6
Continuous
 62
     7
370
    15
100
AcDbLine
 10
2.212304172510963
 20
4.724597848709068
 30
0.0
 11
2.140574467623519
 21
5.070124037392864
 31
0.0
  0
LINE
  5
1AD
330
1F
100
AcDbEntity
  8
0
  6
Continuous
 62
     7
370
    15
100
AcDbLine
 10
3.421223312143973
 20
5.880769450970318
 30
0.0
 11
3.244446631947192
 21
5.928129877307299
 31
0.0
  0
LINE
  5
1AE
330
1F
100
AcDbEntity
  8
0
  6
Continuous
 62
     7
370
    15
100
AcDbLine
 10
1.963797787426738
 20
5.117484463729845
 30
0.0
 11
2.140574467623519
 21
5.070124037392864
 31
0.0
  0
LINE
  5
1AF
330
1F
100
AcDbEntity
  8
0
  6
Continuous
 62
     7
370
    15
100
AcDbLine
 10
3.244446631947192
 20
5.928129877307299
 30
0.0
 11
1.963797787426738
 21
5.117484463729845
 31
0.0
  0
LINE
  5
1B0
330
1F
100
AcDbEntity
  8
0
  6
Continuous
 62
     7
370
    15
100
AcDbLine
 10
2.035527492314181
 20
4.771958275046048
 30
0.0
 11
2.212304172510963
 21
4.724597848709068
 31
0.0
  0
LINE
  5
1B1
330
1F
100
AcDbEntity
  8
0
  6
Continuous
 62
     7
370
    15
100
AcDbLine
 10
2.035527492314181
 20
4.771958275046048
 30
0.0
 11
1.963797787426738
 21
5.117484463729845
 31
0.0
  0
LINE
  5
1B2
330
1F
100
AcDbEntity
  8
0
  6
Continuous
 62
     7
370
    15
100
AcDbLine
 10
1.962302044446612
 20
4.659382112781346
 30
0.0
 11
2.139078724643394
 21
4.612021686444366
 31
0.0
  0
LINE
  5
1B3
330
1F
100
AcDbEntity
  8
0
  6
Continuous
 62
     7
370
    15
100
AcDbLine
 10
1.962302044446612
 20
4.659382112781346
 30
0.0
 11
2.035527492314181
 21
4.771958275046048
 31
0.0
  0
LINE
  5
1B4
330
1F
100
AcDbEntity
  8
0
  6
Continuous
 62
     7
370
    15
100
AcDbLine
 10
2.103100588716593
 20
4.291351464117927
 30
0.0
 11
2.279877268913375
 21
4.243991037780946
 31
0.0
  0
LINE
  5
1B5
330
1F
100
AcDbEntity
  8
0
  6
Continuous
 62
     7
370
    15
100
AcDbLine
 10
2.103100588716593
 20
4.291351464117927
 30
0.0
 11
2.030491718268677
 21
4.641113367495519
 31
0.0
  0
LINE
  5
1B6
330
1F
100
AcDbEntity
  8
0
  6
Continuous
 62
     7
370
    15
100
AcDbLine
 10
2.007009732292662
 20
6.449094622583017
 30
0.0
 11
2.183786447058708
 21
6.401734186984548
 31
0.0
  0
LINE
  5
1B7
330
1F
100
AcDbEntity
  8
0
  6
Continuous
 62
     7
370
    15
100
AcDbLine
 10
2.183786447058708
 20
6.401734186984548
 30
0.0
 11
3.464435222440631
 21
6.277288712898202
 31
0.0
  0
LINE
  5
1B8
330
1F
100
AcDbEntity
  8
0
  6
Continuous
 62
     7
370
    15
100
AcDbLine
 10
3.425534289684149
 20
6.069056219047029
 30
0.0
 11
3.464435222440631
 21
6.277288712898202
 31
0.0
  0
LINE
  5
1B9
330
1F
100
AcDbEntity
  8
0
  6
Continuous
 62
     7
370
    15
100
AcDbLine
 10
2.007009732292662
 20
6.449094622583017
 30
0.0
 11
3.287658507674585
 21
6.324649148496671
 31
0.0
  0
LINE
  5
1BA
330
1F
100
AcDbEntity
  8
0
  6
Continuous
 62
     7
370
    15
100
AcDbLine
 10
3.464435222440631
 20
6.277288712898202
 30
0.0
 11
3.287658507674585
 21
6.324649148496671
 31
0.0
  0
LINE
  5
1BB
330
1F
100
AcDbEntity
  8
0
  6
Continuous
 62
     7
370
    15
100
AcDbLine
 10
3.598000026910022
 20
6.022850739242747
 30
0.0
 11
3.774776707106803
 21
5.975490312905767
 31
0.0
  0
LINE
  5
1BC
330
1F
100
AcDbEntity
  8
0
  6
Continuous
 62
     7
370
    15
100
AcDbLine
 10
4.995333728251122
 20
5.374277844874946
 30
0.0
 11
5.056921225468852
 21
5.393743940021177
 31
0.0
  0
LINE
  5
1BD
330
1F
100
AcDbEntity
  8
0
  6
Continuous
 62
     7
370
    15
100
AcDbLine
 10
4.91612268119887
 20
4.950270319164483
 30
0.0
 11
4.995333728251122
 21
5.374277844874946
 31
0.0
  0
LINE
  5
1BE
330
1F
100
AcDbEntity
  8
0
  6
Continuous
 62
     7
370
    15
100
AcDbLine
 10
4.91612268119887
 20
4.950270319164483
 30
0.0
 11
4.570271837130853
 21
4.983877991347958
 31
0.0
  0
LINE
  5
1BF
330
1F
100
AcDbEntity
  8
0
  6
Continuous
 62
     7
370
    15
100
AcDbLine
 10
3.774776707106803
 20
5.975490312905767
 30
0.0
 11
5.055425482488725
 21
5.851044838819421
 31
0.0
  0
LINE
  5
1C0
330
1F
100
AcDbEntity
  8
0
  6
Continuous
 62
     7
370
    15
100
AcDbLine
 10
4.983695915878345
 20
5.467084325808647
 30
0.0
 11
5.055425482488725
 21
5.851044838819421
 31
0.0
  0
LINE
  5
1C1
330
1F
100
AcDbEntity
  8
0
  6
Continuous
 62
     7
370
    15
100
AcDbLine
 10
5.056921225468852
 20
5.393743940021177
 30
0.0
 11
4.983695915878345
 21
5.467084325808647
 31
0.0
  0
LINE
  5
1C2
330
1F
100
AcDbEntity
  8
0
  6
Continuous
 62
     7
370
    15
100
AcDbLine
 10
3.598000026910022
 20
6.022850739242747
 30
0.0
 11
4.878648802291944
 21
5.898405265156402
 31
0.0
  0
LINE
  5
1C3
330
1F
100
AcDbEntity
  8
0
  6
Continuous
 62
     7
370
    15
100
AcDbLine
 10
5.055425482488725
 20
5.851044838819421
 30
0.0
 11
4.878648802291944
 21
5.898405265156402
 31
0.0
  0
LINE
  5
1C4
330
1F
100
AcDbEntity
  8
0
  6
Continuous
 62
     7
370
    15
100
AcDbLine
 10
1.830233052095879
 20
6.307013325049099
 30
0.0
 11
0.5495842075754252
 21
5.496367911471645
 31
0.0
  0
LINE
  5
1C5
330
1F
100
AcDbEntity
  8
0
  6
Continuous
 62
     7
370
    15
100
AcDbLine
 10
1.830233052095879
 20
6.307013325049099
 30
0.0
 11
1.830233052095879
 21
6.204860549139374
 31
0.0
  0
LINE
  5
1C6
330
1F
100
AcDbEntity
  8
0
  6
Continuous
 62
     7
370
    15
100
AcDbLine
 10
1.830233052095879
 20
6.173597352232437
 30
0.0
 11
1.830233052095879
 21
6.055243383716971
 31
0.0
  0
LINE
  5
1C7
330
1F
100
AcDbEntity
  8
0
  6
Continuous
 62
     7
370
    15
100
AcDbLine
 10
1.830233052095879
 20
5.992951671360446
 30
0.0
 11
1.830233052095879
 21
5.874597702844979
 31
0.0
  0
LINE
  5
1C8
330
1F
100
AcDbEntity
  8
0
  6
Continuous
 62
     7
370
    15
100
AcDbLine
 10
1.830233052095879
 20
5.812305978713168
 30
0.0
 11
1.830233052095879
 21
5.693952016085344
 31
0.0
  0
LINE
  5
1C9
330
1F
100
AcDbEntity
  8
0
  6
Continuous
 62
     7
370
    15
100
AcDbLine
 10
1.830233052095879
 20
5.631660297841175
 30
0.0
 11
1.830233052095879
 21
5.513306341100995
 31
0.0
  0
LINE
  5
1CA
330
1F
100
AcDbEntity
  8
0
  6
Continuous
 62
     7
370
    15
100
AcDbLine
 10
1.830233052095879
 20
5.459884174797855
 30
0.0
 11
1.830233052095879
 21
5.392702256663716
 31
0.0
  0
LINE
  5
1CB
330
1F
100
AcDbEntity
  8
0
  6
Continuous
 62
     7
370
    15
100
AcDbLine
 10
0.6888870088652805
 20
4.670234911859728
 30
0.0
 11
1.830233052095879
 21
5.392702256663716
 31
0.0
  0
LINE
  5
1CC
330
1F
100
AcDbEntity
  8
0
  6
Continuous
 62
     7
370
    15
100
AcDbLine
 10
0.6888870088652805
 20
4.670234911859728
 30
0.0
 11
0.6096759618130295
 21
5.051799407699766
 31
0.0
  0
LINE
  5
1CD
330
1F
100
AcDbEntity
  8
0
  6
Continuous
 62
     7
370
    15
100
AcDbLine
 10
0.6096759618130295
 20
5.051799407699766
 30
0.0
 11
0.5480884645952995
 21
5.038265560523147
 31
0.0
  0
LINE
  5
1CE
330
1F
100
AcDbEntity
  8
0
  6
Continuous
 62
     7
370
    15
100
AcDbLine
 10
0.5480884645952995
 20
5.038265560523147
 30
0.0
 11
0.6213139124628685
 21
5.150841722787849
 31
0.0
  0
LINE
  5
1CF
330
1F
100
AcDbEntity
  8
0
  6
Continuous
 62
     7
370
    15
100
AcDbLine
 10
0.6213139124628685
 20
5.150841722787849
 30
0.0
 11
0.5495842075754252
 21
5.496367911471645
 31
0.0
  0
LINE
  5
1D0
330
1F
100
AcDbEntity
  8
0
  6
Continuous
 62
     7
370
    15
100
AcDbLine
 10
0.4445371976968219
 20
5.198202158386318
 30
0.0
 11
0.6213139124628685
 21
5.150841722787849
 31
0.0
  0
LINE
  5
1D1
330
1F
100
AcDbEntity
  8
0
  6
Continuous
 62
     7
370
    15
100
AcDbLine
 10
0.4445371976968219
 20
5.198202158386318
 30
0.0
 11
0.3728074928093781
 21
5.543728347070115
 31
0.0
  0
LINE
  5
1D2
330
1F
100
AcDbEntity
  8
0
  6
Continuous
 62
     7
370
    15
100
AcDbLine
 10
0.3728074928093781
 20
5.543728347070115
 30
0.0
 11
0.5495842075754252
 21
5.496367911471645
 31
0.0
  0
LINE
  5
1D3
330
1F
100
AcDbEntity
  8
0
  6
Continuous
 62
     7
370
    15
100
AcDbLine
 10
1.830233052095879
 20
6.307013325049099
 30
0.0
 11
1.653456337329832
 21
6.354373760647568
 31
0.0
  0
LINE
  5
1D4
330
1F
100
AcDbEntity
  8
0
  6
Continuous
 62
     7
370
    15
100
AcDbLine
 10
1.653456337329832
 20
6.354373760647568
 30
0.0
 11
0.3728074928093781
 21
5.543728347070115
 31
0.0
  0
LINE
  5
1D5
330
1F
100
AcDbEntity
  8
0
  6
Continuous
 62
     7
370
    15
100
AcDbLine
 10
0.3713117498292525
 20
5.085625996121616
 30
0.0
 11
0.5480884645952995
 21
5.038265560523147
 31
0.0
  0
LINE
  5
1D6
330
1F
100
AcDbEntity
  8
0
  6
Continuous
 62
     7
370
    15
100
AcDbLine
 10
0.3713117498292525
 20
5.085625996121616
 30
0.0
 11
0.4445371976968219
 21
5.198202158386318
 31
0.0
  0
LINE
  5
1D7
330
1F
100
AcDbEntity
  8
0
  6
Continuous
 62
     7
370
    15
100
AcDbLine
 10
0.5121102940992336
 20
4.717595347458197
 30
0.0
 11
0.6888870088652805
 21
4.670234911859728
 31
0.0
  0
LINE
  5
1D8
330
1F
100
AcDbEntity
  8
0
  6
Continuous
 62
     7
370
    15
100
AcDbLine
 10
0.5121102940992336
 20
4.717595347458197
 30
0.0
 11
0.4395014236513177
 21
5.067357250835788
 31
0.0
  0
LINE
  5
1D9
330
1F
100
AcDbEntity
  8
0
  6
Continuous
 62
     7
370
    15
100
AcDbLine
 10
4.364032437397486
 20
5.722901333080544
 30
0.0
 11
1.123126322666438
 21
6.591175899278588
 31
0.0
  0
LINE
  5
1DA
330
1F
100
AcDbEntity
  8
0
  6
Continuous
 62
     7
370
    15
100
AcDbLine
 10
4.364032437397486
 20
5.722901333080544
 30
0.0
 11
4.364032437397486
 21
5.409896534894143
 31
0.0
  0
LINE
  5
1DB
330
1F
100
AcDbEntity
  8
0
  6
Continuous
 62
     7
370
    15
100
AcDbLine
 10
4.364032437397486
 20
5.409896534894143
 30
0.0
 11
4.305106842762627
 21
5.399713265003727
 31
0.0
  0
LINE
  5
1DC
330
1F
100
AcDbEntity
  8
0
  6
Continuous
 62
     7
370
    15
100
AcDbLine
 10
4.305106842762627
 20
5.399713265003727
 30
0.0
 11
4.452420656503447
 21
5.257642814765012
 31
0.0
  0
LINE
  5
1DD
330
1F
100
AcDbEntity
  8
0
  6
Continuous
 62
     7
370
    15
100
AcDbLine
 10
4.452420656503447
 20
5.257642814765012
 30
0.0
 11
4.393495131007119
 21
5.247459514576332
 31
0.0
  0
LINE
  5
1DE
330
1F
100
AcDbEntity
  8
0
  6
Continuous
 62
     7
370
    15
100
AcDbLine
 10
4.393495131007119
 20
5.247459514576332
 30
0.0
 11
4.393495131007119
 21
4.831851276720267
 31
0.0
  0
LINE
  5
1DF
330
1F
100
AcDbEntity
  8
0
  6
Continuous
 62
     7
370
    15
100
AcDbLine
 10
4.098867365248415
 20
4.910785311353746
 30
0.0
 11
4.393495131007119
 21
4.831851276720267
 31
0.0
  0
LINE
  5
1E0
330
1F
100
AcDbEntity
  8
0
  6
Continuous
 62
     7
370
    15
100
AcDbLine
 10
1.093663490779742
 20
6.000027193536856
 30
0.0
 11
1.093663490779742
 21
6.131520880291883
 31
0.0
  0
LINE
  5
1E1
330
1F
100
AcDbEntity
  8
0
  6
Continuous
 62
     7
370
    15
100
AcDbLine
 10
1.093663490779742
 20
6.131520880291883
 30
0.0
 11
1.034737965283414
 21
6.173277779515572
 31
0.0
  0
LINE
  5
1E2
330
1F
100
AcDbEntity
  8
0
  6
Continuous
 62
     7
370
    15
100
AcDbLine
 10
1.034737965283414
 20
6.173277779515572
 30
0.0
 11
1.182051848162766
 21
6.236414213643784
 31
0.0
  0
LINE
  5
1E3
330
1F
100
AcDbEntity
  8
0
  6
Continuous
 62
     7
370
    15
100
AcDbLine
 10
1.182051848162766
 20
6.236414213643784
 30
0.0
 11
1.123126322666438
 21
6.278171101092187
 31
0.0
  0
LINE
  5
1E4
330
1F
100
AcDbEntity
  8
0
  6
Continuous
 62
     7
370
    15
100
AcDbLine
 10
1.123126322666438
 20
6.278171101092187
 30
0.0
 11
1.123126322666438
 21
6.591175899278588
 31
0.0
  0
LINE
  5
1E5
330
1F
100
AcDbEntity
  8
0
  6
Continuous
 62
     7
370
    15
100
AcDbLine
 10
4.540809126236585
 20
5.770261761732896
 30
0.0
 11
4.364032437397486
 21
5.722901333080544
 31
0.0
  0
LINE
  5
1E6
330
1F
100
AcDbEntity
  8
0
  6
Continuous
 62
     7
370
    15
100
AcDbLine
 10
4.540809126236585
 20
5.770261761732896
 30
0.0
 11
4.540809126236585
 21
5.457256963546496
 31
0.0
  0
LINE
  5
1E7
330
1F
100
AcDbEntity
  8
0
  6
Continuous
 62
     7
370
    15
100
AcDbLine
 10
4.540809126236585
 20
5.457256963546496
 30
0.0
 11
4.364032437397486
 21
5.409896534894143
 31
0.0
  0
LINE
  5
1E8
330
1F
100
AcDbEntity
  8
0
  6
Continuous
 62
     7
370
    15
100
AcDbLine
 10
1.299903011505536
 20
6.638536327930941
 30
0.0
 11
1.123126322666438
 21
6.591175899278588
 31
0.0
  0
LINE
  5
1E9
330
1F
100
AcDbEntity
  8
0
  6
Continuous
 62
     7
370
    15
100
AcDbLine
 10
4.540809126236585
 20
5.770261761732896
 30
0.0
 11
1.299903011505536
 21
6.638536327930941
 31
0.0
  0
LINE
  5
1EA
330
1F
100
AcDbEntity
  8
0
  6
Continuous
 62
     7
370
    15
100
AcDbLine
 10
4.486430634509967
 20
5.442688417061569
 30
0.0
 11
4.629197345342546
 21
5.305003243417365
 31
0.0
  0
LINE
  5
1EB
330
1F
100
AcDbEntity
  8
0
  6
Continuous
 62
     7
370
    15
100
AcDbLine
 10
4.629197345342546
 20
5.305003243417365
 30
0.0
 11
4.452420656503447
 21
5.257642814765012
 31
0.0
  0
LINE
  5
1EC
330
1F
100
AcDbEntity
  8
0
  6
Continuous
 62
     7
370
    15
100
AcDbLine
 10
4.570271819846217
 20
4.87921170537262
 30
0.0
 11
4.393495131007119
 21
4.831851276720267
 31
0.0
  0
LINE
  5
1ED
330
1F
100
AcDbEntity
  8
0
  6
Continuous
 62
     7
370
    15
100
AcDbLine
 10
4.570271819846217
 20
5.289216425928656
 30
0.0
 11
4.570271819846217
 21
4.87921170537262
 31
0.0
  0
LINE
  5
1EE
330
1F
100
AcDbEntity
  8
0
  6
Continuous
 62
     7
370
    15
100
AcDbLine
 10
7.907074909275584
 20
4.678960231065939
 30
0.0
 11
5.255424464339005
 21
5.389366690951071
 31
0.0
  0
LINE
  5
1EF
330
1F
100
AcDbEntity
  8
0
  6
Continuous
 62
     7
370
    15
100
AcDbLine
 10
7.907074909275584
 20
4.678960231065939
 30
0.0
 11
7.907074909275584
 21
4.365955432879538
 31
0.0
  0
LINE
  5
1F0
330
1F
100
AcDbEntity
  8
0
  6
Continuous
 62
     7
370
    15
100
AcDbLine
 10
7.907074909275584
 20
4.365955432879538
 30
0.0
 11
7.848149522056317
 21
4.355772107420192
 31
0.0
  0
LINE
  5
1F1
330
1F
100
AcDbEntity
  8
0
  6
Continuous
 62
     7
370
    15
100
AcDbLine
 10
7.848149522056317
 20
4.355772107420192
 30
0.0
 11
7.995463266658608
 21
4.213701675704454
 31
0.0
  0
LINE
  5
1F2
330
1F
100
AcDbEntity
  8
0
  6
Continuous
 62
     7
370
    15
100
AcDbLine
 10
7.995463266658608
 20
4.213701675704454
 30
0.0
 11
7.936537879439341
 21
4.203518338469821
 31
0.0
  0
LINE
  5
1F3
330
1F
100
AcDbEntity
  8
0
  6
Continuous
 62
     7
370
    15
100
AcDbLine
 10
7.936537879439341
 20
4.203518338469821
 30
0.0
 11
7.936537879439341
 21
3.787910100613755
 31
0.0
  0
LINE
  5
1F4
330
1F
100
AcDbEntity
  8
0
  6
Continuous
 62
     7
370
    15
100
AcDbLine
 10
5.225961632452309
 20
4.514103434108298
 30
0.0
 11
5.670585579539887
 21
4.394983764759047
 31
0.0
  0
LINE
  5
1F5
330
1F
100
AcDbEntity
  8
0
  6
Continuous
 62
     7
370
    15
100
AcDbLine
 10
7.199968050211396
 20
3.985245298335314
 30
0.0
 11
7.936537879439341
 21
3.787910100613755
 31
0.0
  0
LINE
  5
1F6
330
1F
100
AcDbEntity
  8
0
  6
Continuous
 62
     7
370
    15
100
AcDbLine
 10
5.225961632452309
 20
4.514103434108298
 30
0.0
 11
5.225961632452309
 21
4.929711671964364
 31
0.0
  0
LINE
  5
1F7
330
1F
100
AcDbEntity
  8
0
  6
Continuous
 62
     7
370
    15
100
AcDbLine
 10
5.225961632452309
 20
4.929711671964364
 30
0.0
 11
5.167036106955981
 21
4.971468571188054
 31
0.0
  0
LINE
  5
1F8
330
1F
100
AcDbEntity
  8
0
  6
Continuous
 62
     7
370
    15
100
AcDbLine
 10
5.167036106955981
 20
4.971468571188054
 30
0.0
 11
5.314349851558271
 21
5.034605042362218
 31
0.0
  0
LINE
  5
1F9
330
1F
100
AcDbEntity
  8
0
  6
Continuous
 62
     7
370
    15
100
AcDbLine
 10
5.314349851558271
 20
5.034605042362218
 30
0.0
 11
5.255424464339005
 21
5.076361892764669
 31
0.0
  0
LINE
  5
1FA
330
1F
100
AcDbEntity
  8
0
  6
Continuous
 62
     7
370
    15
100
AcDbLine
 10
5.255424464339005
 20
5.076361892764669
 30
0.0
 11
5.255424464339005
 21
5.389366690951071
 31
0.0
  0
LINE
  5
1FB
330
1F
100
AcDbEntity
  8
0
  6
Continuous
 62
     7
370
    15
100
AcDbLine
 10
8.083851615399314
 20
4.726320664349036
 30
0.0
 11
7.907074909275584
 21
4.678960231065939
 31
0.0
  0
LINE
  5
1FC
330
1F
100
AcDbEntity
  8
0
  6
Continuous
 62
     7
370
    15
100
AcDbLine
 10
5.432201170462735
 20
5.436727124234167
 30
0.0
 11
5.255424464339005
 21
5.389366690951071
 31
0.0
  0
LINE
  5
1FD
330
1F
100
AcDbEntity
  8
0
  6
Continuous
 62
     7
370
    15
100
AcDbLine
 10
8.083851615399314
 20
4.726320664349036
 30
0.0
 11
5.432201170462735
 21
5.436727124234167
 31
0.0
  0
LINE
  5
1FE
330
1F
100
AcDbEntity
  8
0
  6
Continuous
 62
     7
370
    15
100
AcDbLine
 10
8.083851615399314
 20
4.726320664349036
 30
0.0
 11
8.083851615399314
 21
4.413315866162635
 31
0.0
  0
LINE
  5
1FF
330
1F
100
AcDbEntity
  8
0
  6
Continuous
 62
     7
370
    15
100
AcDbLine
 10
8.083851615399314
 20
4.413315866162635
 30
0.0
 11
7.907074909275584
 21
4.365955432879538
 31
0.0
  0
LINE
  5
200
330
1F
100
AcDbEntity
  8
0
  6
Continuous
 62
     7
370
    15
100
AcDbLine
 10
8.02947333108829
 20
4.398747264108778
 30
0.0
 11
8.172239972782339
 21
4.26106210898755
 31
0.0
  0
LINE
  5
201
330
1F
100
AcDbEntity
  8
0
  6
Continuous
 62
     7
370
    15
100
AcDbLine
 10
8.172239972782339
 20
4.26106210898755
 30
0.0
 11
7.995463266658608
 21
4.213701675704454
 31
0.0
  0
LINE
  5
202
330
1F
100
AcDbEntity
  8
0
  6
Continuous
 62
     7
370
    15
100
AcDbLine
 10
8.113314585563072
 20
3.835270533896852
 30
0.0
 11
7.936537879439341
 21
3.787910100613755
 31
0.0
  0
LINE
  5
203
330
1F
100
AcDbEntity
  8
0
  6
Continuous
 62
     7
370
    15
100
AcDbLine
 10
8.113314585563072
 20
4.245275254452889
 30
0.0
 11
8.113314585563072
 21
3.835270533896852
 31
0.0
  0
LINE
  5
204
330
1F
100
AcDbEntity
  8
0
  6
Continuous
 62
     7
370
    15
100
AcDbLine
 10
3.892627827237989
 20
5.754474971476881
 30
0.0
 11
1.24097738230141
 21
6.464881431362012
 31
0.0
  0
LINE
  5
205
330
1F
100
AcDbEntity
  8
0
  6
Continuous
 62
     7
370
    15
100
AcDbLine
 10
3.892627827237989
 20
5.754474971476881
 30
0.0
 11
3.892627827237989
 21
5.441470173290479
 31
0.0
  0
LINE
  5
206
330
1F
100
AcDbEntity
  8
0
  6
Continuous
 62
     7
370
    15
100
AcDbLine
 10
3.892627827237989
 20
5.441470173290479
 30
0.0
 11
3.833702301741661
 21
5.431286884877087
 31
0.0
  0
LINE
  5
207
330
1F
100
AcDbEntity
  8
0
  6
Continuous
 62
     7
370
    15
100
AcDbLine
 10
3.833702301741661
 20
5.431286884877087
 30
0.0
 11
3.981016184621013
 21
5.289216416115395
 31
0.0
  0
LINE
  5
208
330
1F
100
AcDbEntity
  8
0
  6
Continuous
 62
     7
370
    15
100
AcDbLine
 10
3.981016184621013
 20
5.289216416115395
 30
0.0
 11
3.922090659124684
 21
5.279033115926715
 31
0.0
  0
LINE
  5
209
330
1F
100
AcDbEntity
  8
0
  6
Continuous
 62
     7
370
    15
100
AcDbLine
 10
3.922090659124684
 20
5.279033115926715
 30
0.0
 11
3.922090659124684
 21
4.86342487807065
 31
0.0
  0
LINE
  5
20A
330
1F
100
AcDbEntity
  8
0
  6
Continuous
 62
     7
370
    15
100
AcDbLine
 10
1.830233052095879
 20
5.423856649924597
 30
0.0
 11
2.264149238329985
 21
5.307605708048734
 31
0.0
  0
LINE
  5
20B
330
1F
100
AcDbEntity
  8
0
  6
Continuous
 62
     7
370
    15
100
AcDbLine
 10
3.421223312143973
 20
4.997612775845817
 30
0.0
 11
3.922090659124684
 21
4.86342487807065
 31
0.0
  0
LINE
  5
20C
330
1F
100
AcDbEntity
  8
0
  6
Continuous
 62
     7
370
    15
100
AcDbLine
 10
1.15978662255188
 20
6.041882839475678
 30
0.0
 11
1.152589024918386
 21
6.046983311598995
 31
0.0
  0
LINE
  5
20D
330
1F
100
AcDbEntity
  8
0
  6
Continuous
 62
     7
370
    15
100
AcDbLine
 10
1.152589024918386
 20
6.046983311598995
 30
0.0
 11
1.199829447286719
 21
6.06722977393044
 31
0.0
  0
LINE
  5
20E
330
1F
100
AcDbEntity
  8
0
  6
Continuous
 62
     7
370
    15
100
AcDbLine
 10
1.284655787551499
 20
6.120924491074618
 30
0.0
 11
1.24097738230141
 21
6.151876633175611
 31
0.0
  0
LINE
  5
20F
330
1F
100
AcDbEntity
  8
0
  6
Continuous
 62
     7
370
    15
100
AcDbLine
 10
1.24097738230141
 20
6.151876633175611
 30
0.0
 11
1.24097738230141
 21
6.464881431362012
 31
0.0
  0
LINE
  5
210
330
1F
100
AcDbEntity
  8
0
  6
Continuous
 62
     7
370
    15
100
AcDbLine
 10
4.06940453336172
 20
5.801835404759978
 30
0.0
 11
3.892627827237989
 21
5.754474971476881
 31
0.0
  0
LINE
  5
211
330
1F
100
AcDbEntity
  8
0
  6
Continuous
 62
     7
370
    15
100
AcDbLine
 10
4.06940453336172
 20
5.801835404759978
 30
0.0
 11
4.06940453336172
 21
5.488830606573576
 31
0.0
  0
LINE
  5
212
330
1F
100
AcDbEntity
  8
0
  6
Continuous
 62
     7
370
    15
100
AcDbLine
 10
4.06940453336172
 20
5.488830606573576
 30
0.0
 11
3.892627827237989
 21
5.441470173290479
 31
0.0
  0
LINE
  5
213
330
1F
100
AcDbEntity
  8
0
  6
Continuous
 62
     7
370
    15
100
AcDbLine
 10
1.417754088425141
 20
6.512241864645108
 30
0.0
 11
1.24097738230141
 21
6.464881431362012
 31
0.0
  0
LINE
  5
214
330
1F
100
AcDbEntity
  8
0
  6
Continuous
 62
     7
370
    15
100
AcDbLine
 10
4.06940453336172
 20
5.801835404759978
 30
0.0
 11
1.417754088425141
 21
6.512241864645108
 31
0.0
  0
LINE
  5
215
330
1F
100
AcDbEntity
  8
0
  6
Continuous
 62
     7
370
    15
100
AcDbLine
 10
4.015026110773634
 20
5.474262041565673
 30
0.0
 11
4.157792890744744
 21
5.336576849398491
 31
0.0
  0
LINE
  5
216
330
1F
100
AcDbEntity
  8
0
  6
Continuous
 62
     7
370
    15
100
AcDbLine
 10
4.157792890744744
 20
5.336576849398491
 30
0.0
 11
3.981016184621013
 21
5.289216416115395
 31
0.0
  0
LINE
  5
217
330
1F
100
AcDbEntity
  8
0
  6
Continuous
 62
     7
370
    15
100
AcDbLine
 10
4.098867365248415
 20
4.910785311353746
 30
0.0
 11
3.922090659124684
 21
4.86342487807065
 31
0.0
  0
LINE
  5
218
330
1F
100
AcDbEntity
  8
0
  6
Continuous
 62
     7
370
    15
100
AcDbLine
 10
4.098867365248415
 20
5.320790031909783
 30
0.0
 11
4.098867365248415
 21
4.910785311353746
 31
0.0
  0
LINE
  5
219
330
1F
100
AcDbEntity
  8
0
  6
Continuous
 62
     7
370
    15
100
AcDbLine
 10
1.841664624230618
 20
6.203591987255554
 30
0.0
 11
2.105350270092884
 21
6.132947688510507
 31
0.0
  0
LINE
  5
21A
330
1F
100
AcDbEntity
  8
0
  6
Continuous
 62
     7
370
    15
100
AcDbLine
 10
2.105350270092884
 20
6.132947688510507
 30
0.0
 11
2.09922202083407
 21
6.131305862805479
 31
0.0
  0
LINE
  5
21B
330
1F
100
AcDbEntity
  8
0
  6
Continuous
 62
     7
370
    15
100
AcDbLine
 10
1.835536374971804
 20
6.201950161550526
 30
0.0
 11
2.09922202083407
 21
6.131305862805479
 31
0.0
  0
ARC
  5
21C
330
1F
100
AcDbEntity
  8
0
  6
Continuous
 62
     7
370
    15
100
AcDbCircle
 10
1.830233106696462
 20
6.179009601490221
 30
0.0
 40
0.023545571776466
100
AcDbArc
 50
76.98334902604706
 51
103.0167510334298
  0
LINE
  5
21D
330
1F
100
AcDbEntity
  8
0
  6
Continuous
 62
     7
370
    15
100
AcDbLine
 10
1.649632509879241
 20
6.154986071343225
 30
0.0
 11
1.824929798358484
 21
6.201950152289037
 31
0.0
  0
LINE
  5
21E
330
1F
100
AcDbEntity
  8
0
  6
Continuous
 62
     7
370
    15
100
AcDbLine
 10
1.64350420876653
 20
6.156627910940486
 30
0.0
 11
1.649632509879241
 21
6.154986071343225
 31
0.0
  0
LINE
  5
21F
330
1F
100
AcDbEntity
  8
0
  6
Continuous
 62
     7
370
    15
100
AcDbLine
 10
1.818801497245773
 20
6.203591991886299
 30
0.0
 11
1.64350420876653
 21
6.156627910940486
 31
0.0
  0
ARC
  5
220
330
1F
100
AcDbEntity
  8
0
  6
Continuous
 62
     7
370
    15
100
AcDbCircle
 10
1.830233050722338
 20
6.15414123856082
 30
0.0
 40
0.0507548758184367
100
AcDbArc
 50
76.98353543741935
 51
103.0164413529708
  0
LINE
  5
221
330
1F
100
AcDbEntity
  8
0
  6
Continuous
 62
     7
370
    15
100
AcDbLine
 10
1.824929798358484
 20
6.171075728236883
 30
0.0
 11
1.824929798358484
 21
6.201950152289037
 31
0.0
  0
ARC
  5
222
330
1F
100
AcDbEntity
  8
0
  6
Continuous
 62
     7
370
    15
100
AcDbCircle
 10
1.840807673744392
 20
6.156449732092159
 30
0.0
 40
0.0215876513311643
100
AcDbArc
 50
137.3501006362428
 51
180.2834662996357
  0
LINE
  5
223
330
1F
100
AcDbEntity
  8
0
  6
Continuous
 62
     7
370
    15
100
AcDbLine
 10
1.819220286612805
 20
6.0659398167814
 30
0.0
 11
1.819220286612805
 21
6.156342929344579
 31
0.0
  0
ARC
  5
224
330
1F
100
AcDbEntity
  8
0
  6
Continuous
 62
     7
370
    15
100
AcDbCircle
 10
1.831655445823311
 20
6.064788829739772
 30
0.0
 40
0.0124883127667687
100
AcDbArc
 50
174.7118219440347
 51
237.4146517131627
  0
LINE
  5
225
330
1F
100
AcDbEntity
  8
0
  6
Continuous
 62
     7
370
    15
100
AcDbLine
 10
1.824929798358484
 20
5.990430070915464
 30
0.0
 11
1.824929798358484
 21
6.054266300483956
 31
0.0
  0
ARC
  5
226
330
1F
100
AcDbEntity
  8
0
  6
Continuous
 62
     7
370
    15
100
AcDbCircle
 10
1.840807842897126
 20
5.975804009217717
 30
0.0
 40
0.0215878201576123
100
AcDbArc
 50
137.3502768381253
 51
180.2832900977549
  0
LINE
  5
227
330
1F
100
AcDbEntity
  8
0
  6
Continuous
 62
     7
370
    15
100
AcDbLine
 10
1.819220286612805
 20
5.885294135909409
 30
0.0
 11
1.819220286612805
 21
5.97569727202316
 31
0.0
  0
ARC
  5
228
330
1F
100
AcDbEntity
  8
0
  6
Continuous
 62
     7
370
    15
100
AcDbCircle
 10
1.831655412490441
 20
5.884143132564687
 30
0.0
 40
0.0124882810783639
100
AcDbArc
 50
174.7117333695786
 51
237.4147402876101
  0
LINE
  5
229
330
1F
100
AcDbEntity
  8
0
  6
Continuous
 62
     7
370
    15
100
AcDbLine
 10
1.824929798358484
 20
5.809784378268186
 30
0.0
 11
1.824929798358484
 21
5.873620619611963
 31
0.0
  0
ARC
  5
22A
330
1F
100
AcDbEntity
  8
0
  6
Continuous
 62
     7
370
    15
100
AcDbCircle
 10
1.840807783939489
 20
5.795158339418732
 30
0.0
 40
0.0215877613136778
100
AcDbArc
 50
137.3502154238431
 51
180.283351512039
  0
LINE
  5
22B
330
1F
100
AcDbEntity
  8
0
  6
Continuous
 62
     7
370
    15
100
AcDbLine
 10
1.819220286612805
 20
5.704648449149773
 30
0.0
 11
1.819220286612805
 21
5.795051579375881
 31
0.0
  0
ARC
  5
22C
330
1F
100
AcDbEntity
  8
0
  6
Continuous
 62
     7
370
    15
100
AcDbCircle
 10
1.831655427519529
 20
5.703497453155772
 30
0.0
 40
0.012488295365994
100
AcDbArc
 50
174.7117733059869
 51
237.4147003512054
  0
LINE
  5
22D
330
1F
100
AcDbEntity
  8
0
  6
Continuous
 62
     7
370
    15
100
AcDbLine
 10
1.824929798358484
 20
5.629138697396193
 30
0.0
 11
1.824929798358484
 21
5.692974932852327
 31
0.0
  0
ARC
  5
22E
330
1F
100
AcDbEntity
  8
0
  6
Continuous
 62
     7
370
    15
100
AcDbCircle
 10
1.840807809558589
 20
5.614512648618377
 30
0.0
 40
0.0215877868833687
100
AcDbArc
 50
137.3502421104789
 51
180.283324825393
  0
LINE
  5
22F
330
1F
100
AcDbEntity
  8
0
  6
Continuous
 62
     7
370
    15
100
AcDbLine
 10
1.819220286612805
 20
5.524002774165425
 30
0.0
 11
1.819220286612805
 21
5.61440589850389
 31
0.0
  0
ARC
  5
230
330
1F
100
AcDbEntity
  8
0
  6
Continuous
 62
     7
370
    15
100
AcDbCircle
 10
1.831655379157744
 20
5.522851754517694
 30
0.0
 40
0.0124882493901534
100
AcDbArc
 50
174.7116447951397
 51
237.4148288620446
  0
LINE
  5
231
330
1F
100
AcDbEntity
  8
0
  6
Continuous
 62
     7
370
    15
100
AcDbLine
 10
1.824929798358484
 20
5.459295652464465
 30
0.0
 11
1.824929798358484
 21
5.512329257867979
 31
0.0
  0
LINE
  5
232
330
1F
100
AcDbEntity
  8
0
  6
Continuous
 62
     7
370
    15
100
AcDbLine
 10
1.561244152496218
 20
5.388651353719419
 30
0.0
 11
1.824929798358484
 21
5.459295652464465
 31
0.0
  0
LINE
  5
233
330
1F
100
AcDbEntity
  8
0
  6
Continuous
 62
     7
370
    15
100
AcDbLine
 10
1.561244152496218
 20
5.420480847698446
 30
0.0
 11
1.561244152496218
 21
5.388651353719419
 31
0.0
  0
ARC
  5
234
330
1F
100
AcDbEntity
  8
0
  6
Continuous
 62
     7
370
    15
100
AcDbCircle
 10
1.591092044980575
 20
5.420371148375639
 30
0.0
 40
0.0298480940714675
100
AcDbArc
 50
148.8080467232212
 51
179.7894229913941
  0
LINE
  5
235
330
1F
100
AcDbEntity
  8
0
  6
Continuous
 62
     7
370
    15
100
AcDbLine
 10
1.565558880801695
 20
5.435829681511532
 30
0.0
 11
1.645317781573763
 21
5.565870677384563
 31
0.0
  0
ARC
  5
236
330
1F
100
AcDbEntity
  8
0
  6
Continuous
 62
     7
370
    15
100
AcDbCircle
 10
1.619784607489091
 20
5.581329213389255
 30
0.0
 40
0.0298481040310187
100
AcDbArc
 50
328.8080518604004
 51
359.7893949509967
  0
LINE
  5
237
330
1F
100
AcDbEntity
  8
0
  6
Continuous
 62
     7
370
    15
100
AcDbLine
 10
1.649632509879241
 20
5.581219499422362
 30
0.0
 11
1.649632509879241
 21
5.664950240166449
 31
0.0
  0
ARC
  5
238
330
1F
100
AcDbEntity
  8
0
  6
Continuous
 62
     7
370
    15
100
AcDbCircle
 10
1.630326554260381
 20
5.665793148945065
 30
0.0
 40
0.0193243477914905
100
AcDbArc
 50
357.500022060331
 51
39.12520756907766
  0
LINE
  5
239
330
1F
100
AcDbEntity
  8
0
  6
Continuous
 62
     7
370
    15
100
AcDbLine
 10
1.645317781573763
 20
5.677987144238036
 30
0.0
 11
1.565558880801695
 21
5.765291555164132
 31
0.0
  0
ARC
  5
23A
330
1F
100
AcDbEntity
  8
0
  6
Continuous
 62
     7
370
    15
100
AcDbCircle
 10
1.580550102451935
 20
5.777485548392479
 30
0.0
 40
0.0193243420953883
100
AcDbArc
 50
177.5000239322258
 51
219.1252134155777
  0
LINE
  5
23B
330
1F
100
AcDbEntity
  8
0
  6
Continuous
 62
     7
370
    15
100
AcDbLine
 10
1.561244152496218
 20
5.942346161078964
 30
0.0
 11
1.561244152496218
 21
5.778328456291897
 31
0.0
  0
ARC
  5
23C
330
1F
100
AcDbEntity
  8
0
  6
Continuous
 62
     7
370
    15
100
AcDbCircle
 10
1.591092044980569
 20
5.942236461756157
 30
0.0
 40
0.0298480940714617
100
AcDbArc
 50
148.8080467232167
 51
179.7894229913941
  0
LINE
  5
23D
330
1F
100
AcDbEntity
  8
0
  6
Continuous
 62
     7
370
    15
100
AcDbLine
 10
1.565558880801695
 20
5.957694994892049
 30
0.0
 11
1.645317781573763
 21
6.08773599076508
 31
0.0
  0
ARC
  5
23E
330
1F
100
AcDbEntity
  8
0
  6
Continuous
 62
     7
370
    15
100
AcDbCircle
 10
1.619784654375596
 20
6.103194513673606
 30
0.0
 40
0.0298480571399745
100
AcDbArc
 50
328.808026752477
 51
359.789397155691
  0
LINE
  5
23F
330
1F
100
AcDbEntity
  8
0
  6
Continuous
 62
     7
370
    15
100
AcDbLine
 10
1.649632509879241
 20
6.103084801027594
 30
0.0
 11
1.649632509879241
 21
6.154986071343225
 31
0.0
  0
LINE
  5
240
330
1F
100
AcDbEntity
  8
0
  6
Continuous
 62
     7
370
    15
100
AcDbLine
 10
2.09922202083407
 20
6.079404592489848
 30
0.0
 11
2.09922202083407
 21
6.131305862805479
 31
0.0
  0
ARC
  5
241
330
1F
100
AcDbEntity
  8
0
  6
Continuous
 62
     7
370
    15
100
AcDbCircle
 10
2.079916105870051
 20
6.078561689530398
 30
0.0
 40
0.0193243069215167
100
AcDbArc
 50
320.8747503814143
 51
2.499965960332661
  0
LINE
  5
242
330
1F
100
AcDbEntity
  8
0
  6
Continuous
 62
     7
370
    15
100
AcDbLine
 10
2.094907292528593
 20
6.066367709025012
 30
0.0
 11
2.015148391756525
 21
5.979063295155095
 31
0.0
  0
ARC
  5
243
330
1F
100
AcDbEntity
  8
0
  6
Continuous
 62
     7
370
    15
100
AcDbCircle
 10
2.0301396121219
 20
5.96686930197132
 30
0.0
 40
0.0193243410705042
100
AcDbArc
 50
140.8747842830427
 51
182.4999938059495
  0
LINE
  5
244
330
1F
100
AcDbEntity
  8
0
  6
Continuous
 62
     7
370
    15
100
AcDbLine
 10
2.010833663451047
 20
5.966026388139686
 30
0.0
 11
2.010833663451047
 21
5.80200868335262
 31
0.0
  0
ARC
  5
245
330
1F
100
AcDbEntity
  8
0
  6
Continuous
 62
     7
370
    15
100
AcDbCircle
 10
2.040681560888272
 20
5.80211838999746
 30
0.0
 40
0.0298480990512132
100
AcDbArc
 50
180.2105910287887
 51
211.1919507082026
  0
LINE
  5
246
330
1F
100
AcDbEntity
  8
0
  6
Continuous
 62
     7
370
    15
100
AcDbLine
 10
2.015148391756525
 20
5.786659855427177
 30
0.0
 11
2.094907292528593
 21
5.656618862497968
 31
0.0
  0
ARC
  5
247
330
1F
100
AcDbEntity
  8
0
  6
Continuous
 62
     7
370
    15
100
AcDbCircle
 10
2.069374116473379
 20
5.641160326002463
 30
0.0
 40
0.0298481059708889
100
AcDbArc
 50
0.2105890246718053
 51
31.19194698651363
  0
LINE
  5
248
330
1F
100
AcDbEntity
  8
0
  6
Continuous
 62
     7
370
    15
100
AcDbLine
 10
2.09922202083407
 20
5.557539290884617
 30
0.0
 11
2.09922202083407
 21
5.641270031628703
 31
0.0
  0
ARC
  5
249
330
1F
100
AcDbEntity
  8
0
  6
Continuous
 62
     7
370
    15
100
AcDbCircle
 10
2.079916069593436
 20
5.556696388917433
 30
0.0
 40
0.0193243431203246
100
AcDbArc
 50
320.8747888858576
 51
2.499958329539529
  0
LINE
  5
24A
330
1F
100
AcDbEntity
  8
0
  6
Continuous
 62
     7
370
    15
100
AcDbLine
 10
2.094907292528593
 20
5.544502395644495
 30
0.0
 11
2.015148391756525
 21
5.457197981774577
 31
0.0
  0
ARC
  5
24B
330
1F
100
AcDbEntity
  8
0
  6
Continuous
 62
     7
370
    15
100
AcDbCircle
 10
2.0301396121219
 20
5.445003988590801
 30
0.0
 40
0.0193243410705051
100
AcDbArc
 50
140.8747842830386
 51
182.4999938059442
  0
LINE
  5
24C
330
1F
100
AcDbEntity
  8
0
  6
Continuous
 62
     7
370
    15
100
AcDbLine
 10
2.010833663451047
 20
5.444161074759169
 30
0.0
 11
2.010833663451047
 21
5.412331580780141
 31
0.0
  0
LINE
  5
24D
330
1F
100
AcDbEntity
  8
0
  6
Continuous
 62
     7
370
    15
100
AcDbLine
 10
1.835536374971804
 20
5.459295661725954
 30
0.0
 11
2.010833663451047
 21
5.412331580780141
 31
0.0
  0
LINE
  5
24E
330
1F
100
AcDbEntity
  8
0
  6
Continuous
 62
     7
370
    15
100
AcDbLine
 10
1.835536374971804
 20
5.459295661725954
 30
0.0
 11
1.835536374971804
 21
5.512329267129468
 31
0.0
  0
ARC
  5
24F
330
1F
100
AcDbEntity
  8
0
  6
Continuous
 62
     7
370
    15
100
AcDbCircle
 10
1.828810575641822
 20
5.522851888618532
 30
0.0
 40
0.0124884722696306
100
AcDbArc
 50
302.5857074609703
 51
5.287664021846231
  0
LINE
  5
250
330
1F
100
AcDbEntity
  8
0
  6
Continuous
 62
     7
370
    15
100
AcDbLine
 10
1.841245904002117
 20
5.614405903134633
 30
0.0
 11
1.841245904002117
 21
5.52400277879617
 31
0.0
  0
ARC
  5
251
330
1F
100
AcDbEntity
  8
0
  6
Continuous
 62
     7
370
    15
100
AcDbCircle
 10
1.819657929680133
 20
5.614512464292455
 30
0.0
 40
0.0215882373205174
100
AcDbArc
 50
359.7171825885498
 51
42.6493552250752
  0
LINE
  5
252
330
1F
100
AcDbEntity
  8
0
  6
Continuous
 62
     7
370
    15
100
AcDbLine
 10
1.835536374971804
 20
5.629138706657682
 30
0.0
 11
1.835536374971804
 21
5.692974942113816
 31
0.0
  0
ARC
  5
253
330
1F
100
AcDbEntity
  8
0
  6
Continuous
 62
     7
370
    15
100
AcDbCircle
 10
1.828810527278436
 20
5.703497587257474
 30
0.0
 40
0.0124885182473238
100
AcDbArc
 50
302.5858359716006
 51
5.287535511211854
  0
LINE
  5
254
330
1F
100
AcDbEntity
  8
0
  6
Continuous
 62
     7
370
    15
100
AcDbLine
 10
1.841245904002117
 20
5.795051584006626
 30
0.0
 11
1.841245904002117
 21
5.704648453780518
 31
0.0
  0
ARC
  5
255
330
1F
100
AcDbEntity
  8
0
  6
Continuous
 62
     7
370
    15
100
AcDbCircle
 10
1.819657955300308
 20
5.79515815509325
 30
0.0
 40
0.0215882117496672
100
AcDbArc
 50
359.7171559018879
 51
42.64938191174738
  0
LINE
  5
256
330
1F
100
AcDbEntity
  8
0
  6
Continuous
 62
     7
370
    15
100
AcDbLine
 10
1.835536374971804
 20
5.809784387529673
 30
0.0
 11
1.835536374971804
 21
5.87362062887345
 31
0.0
  0
ARC
  5
257
330
1F
100
AcDbEntity
  8
0
  6
Continuous
 62
     7
370
    15
100
AcDbCircle
 10
1.828810542308065
 20
5.884143266666097
 30
0.0
 40
0.0124885039590766
100
AcDbArc
 50
302.5857960351441
 51
5.287575447668444
  0
LINE
  5
258
330
1F
100
AcDbEntity
  8
0
  6
Continuous
 62
     7
370
    15
100
AcDbLine
 10
1.841245904002117
 20
5.975697276653904
 30
0.0
 11
1.841245904002117
 21
5.885294140540152
 31
0.0
  0
ARC
  5
259
330
1F
100
AcDbEntity
  8
0
  6
Continuous
 62
     7
370
    15
100
AcDbCircle
 10
1.81965789633949
 20
5.975803824890941
 30
0.0
 40
0.021588270596981
100
AcDbArc
 50
359.7172173169789
 51
42.64932049664824
  0
LINE
  5
25A
330
1F
100
AcDbEntity
  8
0
  6
Continuous
 62
     7
370
    15
100
AcDbLine
 10
1.835536374971804
 20
5.990430080176952
 30
0.0
 11
1.835536374971804
 21
6.054266309745443
 31
0.0
  0
ARC
  5
25B
330
1F
100
AcDbEntity
  8
0
  6
Continuous
 62
     7
370
    15
100
AcDbCircle
 10
1.828810508974135
 20
6.064788963841757
 30
0.0
 40
0.0124885356487172
100
AcDbArc
 50
302.5858846093295
 51
5.28748687348148
  0
LINE
  5
25C
330
1F
100
AcDbEntity
  8
0
  6
Continuous
 62
     7
370
    15
100
AcDbLine
 10
1.841245904002117
 20
6.156342933975324
 30
0.0
 11
1.841245904002117
 21
6.065939821412145
 31
0.0
  0
ARC
  5
25D
330
1F
100
AcDbEntity
  8
0
  6
Continuous
 62
     7
370
    15
100
AcDbCircle
 10
1.819658065500695
 20
6.156449547768844
 30
0.0
 40
0.0215881017614901
100
AcDbArc
 50
359.7170411134479
 51
42.64949670018455
  0
LINE
  5
25E
330
1F
100
AcDbEntity
  8
0
  6
Continuous
 62
     7
370
    15
100
AcDbLine
 10
1.835536374971804
 20
6.171075737498371
 30
0.0
 11
1.835536374971804
 21
6.201950161550526
 31
0.0
  0
LINE
  5
25F
330
1F
100
AcDbEntity
  8
0
  6
Continuous
 62
     7
370
    15
100
AcDbLine
 10
2.105350270092884
 20
6.081046418194875
 30
0.0
 11
2.105350270092884
 21
6.132947688510507
 31
0.0
  0
LINE
  5
260
330
1F
100
AcDbEntity
  8
0
  6
Continuous
 62
     7
370
    15
100
AcDbLine
 10
2.09922202083407
 20
6.079404592489848
 30
0.0
 11
2.105350270092884
 21
6.081046418194875
 31
0.0
  0
LINE
  5
261
330
1F
100
AcDbEntity
  8
0
  6
Continuous
 62
     7
370
    15
100
AcDbLine
 10
2.101035541787406
 20
6.06800953473004
 30
0.0
 11
2.094907292528593
 21
6.066367709025012
 31
0.0
  0
ARC
  5
262
330
1F
100
AcDbEntity
  8
0
  6
Continuous
 62
     7
370
    15
100
AcDbCircle
 10
2.086044355128858
 20
6.080203515235429
 30
0.0
 40
0.0193243069215228
100
AcDbArc
 50
320.8747503814182
 51
2.499965960321334
  0
LINE
  5
263
330
1F
100
AcDbEntity
  8
0
  6
Continuous
 62
     7
370
    15
100
AcDbLine
 10
1.645317781573763
 20
6.08773599076508
 30
0.0
 11
1.639189480461052
 21
6.089377830362342
 31
0.0
  0
LINE
  5
264
330
1F
100
AcDbEntity
  8
0
  6
Continuous
 62
     7
370
    15
100
AcDbLine
 10
1.559430579688984
 20
5.95933683448931
 30
0.0
 11
1.565558880801695
 21
5.957694994892049
 31
0.0
  0
LINE
  5
265
330
1F
100
AcDbEntity
  8
0
  6
Continuous
 62
     7
370
    15
100
AcDbLine
 10
1.559430579688984
 20
5.95933683448931
 30
0.0
 11
1.639189480461052
 21
6.089377830362342
 31
0.0
  0
LINE
  5
266
330
1F
100
AcDbEntity
  8
0
  6
Continuous
 62
     7
370
    15
100
AcDbLine
 10
2.015148391756525
 20
5.979063295155095
 30
0.0
 11
2.021276641015338
 21
5.980705120860124
 31
0.0
  0
LINE
  5
267
330
1F
100
AcDbEntity
  8
0
  6
Continuous
 62
     7
370
    15
100
AcDbLine
 10
2.101035541787406
 20
6.06800953473004
 30
0.0
 11
2.021276641015338
 21
5.980705120860124
 31
0.0
  0
LINE
  5
268
330
1F
100
AcDbEntity
  8
0
  6
Continuous
 62
     7
370
    15
100
AcDbLine
 10
1.561244152496218
 20
5.942346161078964
 30
0.0
 11
1.555115851383506
 21
5.943988000676224
 31
0.0
  0
ARC
  5
269
330
1F
100
AcDbEntity
  8
0
  6
Continuous
 62
     7
370
    15
100
AcDbCircle
 10
1.584963743867865
 20
5.943878301353413
 30
0.0
 40
0.0298480940714691
100
AcDbArc
 50
148.8080467232173
 51
179.7894229913873
  0
LINE
  5
26A
330
1F
100
AcDbEntity
  8
0
  6
Continuous
 62
     7
370
    15
100
AcDbLine
 10
1.555115851383506
 20
5.779970295889158
 30
0.0
 11
1.561244152496218
 21
5.778328456291897
 31
0.0
  0
LINE
  5
26B
330
1F
100
AcDbEntity
  8
0
  6
Continuous
 62
     7
370
    15
100
AcDbLine
 10
1.555115851383506
 20
5.943988000676224
 30
0.0
 11
1.555115851383506
 21
5.779970295889158
 31
0.0
  0
LINE
  5
26C
330
1F
100
AcDbEntity
  8
0
  6
Continuous
 62
     7
370
    15
100
AcDbLine
 10
1.64350420876653
 20
6.104726640624854
 30
0.0
 11
1.649632509879241
 21
6.103084801027594
 31
0.0
  0
LINE
  5
26D
330
1F
100
AcDbEntity
  8
0
  6
Continuous
 62
     7
370
    15
100
AcDbLine
 10
1.64350420876653
 20
6.104726640624854
 30
0.0
 11
1.64350420876653
 21
6.156627910940486
 31
0.0
  0
ARC
  5
26E
330
1F
100
AcDbEntity
  8
0
  6
Continuous
 62
     7
370
    15
100
AcDbCircle
 10
1.613656353262895
 20
6.104836353270864
 30
0.0
 40
0.0298480571399647
100
AcDbArc
 50
328.8080267524736
 51
359.789397155696
  0
LINE
  5
26F
330
1F
100
AcDbEntity
  8
0
  6
Continuous
 62
     7
370
    15
100
AcDbLine
 10
1.565558880801695
 20
5.765291555164132
 30
0.0
 11
1.559430579688984
 21
5.766933394761393
 31
0.0
  0
ARC
  5
270
330
1F
100
AcDbEntity
  8
0
  6
Continuous
 62
     7
370
    15
100
AcDbCircle
 10
1.574421801339235
 20
5.779127387989743
 30
0.0
 40
0.0193243420953993
100
AcDbArc
 50
177.5000239322378
 51
219.1252134155659
  0
LINE
  5
271
330
1F
100
AcDbEntity
  8
0
  6
Continuous
 62
     7
370
    15
100
AcDbLine
 10
2.094907292528593
 20
5.656618862497968
 30
0.0
 11
2.101035541787406
 21
5.658260688202995
 31
0.0
  0
LINE
  5
272
330
1F
100
AcDbEntity
  8
0
  6
Continuous
 62
     7
370
    15
100
AcDbLine
 10
2.021276641015338
 20
5.788301681132206
 30
0.0
 11
2.015148391756525
 21
5.786659855427177
 31
0.0
  0
LINE
  5
273
330
1F
100
AcDbEntity
  8
0
  6
Continuous
 62
     7
370
    15
100
AcDbLine
 10
2.021276641015338
 20
5.788301681132206
 30
0.0
 11
2.101035541787406
 21
5.658260688202995
 31
0.0
  0
LINE
  5
274
330
1F
100
AcDbEntity
  8
0
  6
Continuous
 62
     7
370
    15
100
AcDbLine
 10
1.639189480461052
 20
5.679628983835296
 30
0.0
 11
1.645317781573763
 21
5.677987144238036
 31
0.0
  0
LINE
  5
275
330
1F
100
AcDbEntity
  8
0
  6
Continuous
 62
     7
370
    15
100
AcDbLine
 10
1.639189480461052
 20
5.679628983835296
 30
0.0
 11
1.559430579688984
 21
5.766933394761393
 31
0.0
  0
LINE
  5
276
330
1F
100
AcDbEntity
  8
0
  6
Continuous
 62
     7
370
    15
100
AcDbLine
 10
2.01696191270986
 20
5.967668213844715
 30
0.0
 11
2.010833663451047
 21
5.966026388139686
 31
0.0
  0
ARC
  5
277
330
1F
100
AcDbEntity
  8
0
  6
Continuous
 62
     7
370
    15
100
AcDbCircle
 10
2.036267861380712
 20
5.968511127676349
 30
0.0
 40
0.0193243410705034
100
AcDbArc
 50
140.874784283041
 51
182.4999938059522
  0
LINE
  5
278
330
1F
100
AcDbEntity
  8
0
  6
Continuous
 62
     7
370
    15
100
AcDbLine
 10
2.105350270092884
 20
5.642911857333731
 30
0.0
 11
2.09922202083407
 21
5.641270031628703
 31
0.0
  0
ARC
  5
279
330
1F
100
AcDbEntity
  8
0
  6
Continuous
 62
     7
370
    15
100
AcDbCircle
 10
2.075502365732191
 20
5.642802151707488
 30
0.0
 40
0.0298481059708898
100
AcDbArc
 50
0.2105890246769138
 51
31.19194698651654
  0
LINE
  5
27A
330
1F
100
AcDbEntity
  8
0
  6
Continuous
 62
     7
370
    15
100
AcDbLine
 10
2.09922202083407
 20
5.557539290884617
 30
0.0
 11
2.105350270092884
 21
5.559181116589645
 31
0.0
  0
LINE
  5
27B
330
1F
100
AcDbEntity
  8
0
  6
Continuous
 62
     7
370
    15
100
AcDbLine
 10
2.105350270092884
 20
5.559181116589645
 30
0.0
 11
2.105350270092884
 21
5.642911857333731
 31
0.0
  0
LINE
  5
27C
330
1F
100
AcDbEntity
  8
0
  6
Continuous
 62
     7
370
    15
100
AcDbLine
 10
2.010833663451047
 20
5.80200868335262
 30
0.0
 11
2.01696191270986
 21
5.803650509057648
 31
0.0
  0
LINE
  5
27D
330
1F
100
AcDbEntity
  8
0
  6
Continuous
 62
     7
370
    15
100
AcDbLine
 10
2.01696191270986
 20
5.967668213844715
 30
0.0
 11
2.01696191270986
 21
5.803650509057648
 31
0.0
  0
LINE
  5
27E
330
1F
100
AcDbEntity
  8
0
  6
Continuous
 62
     7
370
    15
100
AcDbLine
 10
2.101035541787406
 20
5.546144221349522
 30
0.0
 11
2.094907292528593
 21
5.544502395644495
 31
0.0
  0
ARC
  5
27F
330
1F
100
AcDbEntity
  8
0
  6
Continuous
 62
     7
370
    15
100
AcDbCircle
 10
2.086044318852235
 20
5.558338214622466
 30
0.0
 40
0.0193243431203391
100
AcDbArc
 50
320.8747888858691
 51
2.499958329521848
  0
LINE
  5
280
330
1F
100
AcDbEntity
  8
0
  6
Continuous
 62
     7
370
    15
100
AcDbLine
 10
2.015148391756525
 20
5.457197981774577
 30
0.0
 11
2.021276641015338
 21
5.458839807479606
 31
0.0
  0
LINE
  5
281
330
1F
100
AcDbEntity
  8
0
  6
Continuous
 62
     7
370
    15
100
AcDbLine
 10
2.101035541787406
 20
5.546144221349522
 30
0.0
 11
2.021276641015338
 21
5.458839807479606
 31
0.0
  0
LINE
  5
282
330
1F
100
AcDbEntity
  8
0
  6
Continuous
 62
     7
370
    15
100
AcDbLine
 10
1.645317781573763
 20
5.565870677384563
 30
0.0
 11
1.639189480461052
 21
5.567512516981825
 31
0.0
  0
LINE
  5
283
330
1F
100
AcDbEntity
  8
0
  6
Continuous
 62
     7
370
    15
100
AcDbLine
 10
1.559430579688984
 20
5.437471521108792
 30
0.0
 11
1.565558880801695
 21
5.435829681511532
 31
0.0
  0
LINE
  5
284
330
1F
100
AcDbEntity
  8
0
  6
Continuous
 62
     7
370
    15
100
AcDbLine
 10
1.559430579688984
 20
5.437471521108792
 30
0.0
 11
1.639189480461052
 21
5.567512516981825
 31
0.0
  0
ARC
  5
285
330
1F
100
AcDbEntity
  8
0
  6
Continuous
 62
     7
370
    15
100
AcDbCircle
 10
2.046809810147063
 20
5.803760215702482
 30
0.0
 40
0.029848099051191
100
AcDbArc
 50
180.2105910287769
 51
211.191950708213
  0
LINE
  5
286
330
1F
100
AcDbEntity
  8
0
  6
Continuous
 62
     7
370
    15
100
AcDbLine
 10
1.561244152496218
 20
5.420480847698446
 30
0.0
 11
1.555115851383506
 21
5.422122687295706
 31
0.0
  0
ARC
  5
287
330
1F
100
AcDbEntity
  8
0
  6
Continuous
 62
     7
370
    15
100
AcDbCircle
 10
1.584963743867866
 20
5.422012987972895
 30
0.0
 40
0.0298480940714703
100
AcDbArc
 50
148.8080467232167
 51
179.7894229913874
  0
LINE
  5
288
330
1F
100
AcDbEntity
  8
0
  6
Continuous
 62
     7
370
    15
100
AcDbLine
 10
1.555115851383506
 20
5.390293193316679
 30
0.0
 11
1.561244152496218
 21
5.388651353719419
 31
0.0
  0
LINE
  5
289
330
1F
100
AcDbEntity
  8
0
  6
Continuous
 62
     7
370
    15
100
AcDbLine
 10
1.555115851383506
 20
5.422122687295706
 30
0.0
 11
1.555115851383506
 21
5.390293193316679
 31
0.0
  0
LINE
  5
28A
330
1F
100
AcDbEntity
  8
0
  6
Continuous
 62
     7
370
    15
100
AcDbLine
 10
1.649632509879241
 20
5.664950240166449
 30
0.0
 11
1.64350420876653
 21
5.666592079763709
 31
0.0
  0
ARC
  5
28B
330
1F
100
AcDbEntity
  8
0
  6
Continuous
 62
     7
370
    15
100
AcDbCircle
 10
1.624198253147674
 20
5.667434988542328
 30
0.0
 40
0.0193243477914861
100
AcDbArc
 50
357.5000220603251
 51
39.12520756908147
  0
LINE
  5
28C
330
1F
100
AcDbEntity
  8
0
  6
Continuous
 62
     7
370
    15
100
AcDbLine
 10
1.64350420876653
 20
5.582861339019624
 30
0.0
 11
1.649632509879241
 21
5.581219499422362
 31
0.0
  0
LINE
  5
28D
330
1F
100
AcDbEntity
  8
0
  6
Continuous
 62
     7
370
    15
100
AcDbLine
 10
1.64350420876653
 20
5.582861339019624
 30
0.0
 11
1.64350420876653
 21
5.666592079763709
 31
0.0
  0
ARC
  5
28E
330
1F
100
AcDbEntity
  8
0
  6
Continuous
 62
     7
370
    15
100
AcDbCircle
 10
1.613656306376387
 20
5.582971052986512
 30
0.0
 40
0.0298481040310109
100
AcDbArc
 50
328.8080518604013
 51
359.7893949510051
  0
SPLINE
  5
28F
330
1F
100
AcDbEntity
  8
0
  6
Continuous
 62
     7
370
    15
100
AcDbSpline
210
0.0
220
0.0
230
1.0
 70
     8
 71
     3
 72
    15
 73
    11
 74
     0
 42
0.0000000001
 43
0.0000000001
 40
0.0
 40
0.0
 40
0.0
 40
0.0
 40
0.1587456737351947
 40
0.2939442587865322
 40
0.4065645913078094
 40
0.4982983262664741
 40
0.6036110744212985
 40
0.7205482203312437
 40
0.8519959017974175
 40
1.0
 40
1.0
 40
1.0
 40
1.0
 10
1.835536374971804
 20
6.171075737498371
 30
0.0
 10
1.835086592964288
 20
6.171466391861253
 30
0.0
 10
1.834253746085984
 20
6.172189753981539
 30
0.0
 10
1.832801325607064
 20
6.172976515290419
 30
0.0
 10
1.831473431899581
 20
6.173455691129715
 30
0.0
 10
1.830181492776293
 20
6.173654331053536
 30
0.0
 10
1.828861423254486
 20
6.173503450509505
 30
0.0
 10
1.827476425810779
 20
6.173026454621981
 30
0.0
 10
1.826090392405692
 20
6.172220079985319
 30
0.0
 10
1.825331647260859
 20
6.171471953338284
 30
0.0
 10
1.824929798358484
 20
6.171075728236883
 30
0.0
  0
LINE
  5
290
330
1F
100
AcDbEntity
  8
0
  6
Continuous
 62
     7
370
    15
100
AcDbLine
 10
2.01696191270986
 20
5.445802900464197
 30
0.0
 11
2.010833663451047
 21
5.444161074759169
 31
0.0
  0
ARC
  5
291
330
1F
100
AcDbEntity
  8
0
  6
Continuous
 62
     7
370
    15
100
AcDbCircle
 10
2.036267861380705
 20
5.446645814295834
 30
0.0
 40
0.0193243410704968
100
AcDbArc
 50
140.8747842830347
 51
182.4999938059583
  0
LINE
  5
292
330
1F
100
AcDbEntity
  8
0
  6
Continuous
 62
     7
370
    15
100
AcDbLine
 10
2.010833663451047
 20
5.412331580780141
 30
0.0
 11
2.01696191270986
 21
5.41397340648517
 31
0.0
  0
LINE
  5
293
330
1F
100
AcDbEntity
  8
0
  6
Continuous
 62
     7
370
    15
100
AcDbLine
 10
2.01696191270986
 20
5.445802900464197
 30
0.0
 11
2.01696191270986
 21
5.41397340648517
 31
0.0
  0
SPLINE
  5
294
330
1F
100
AcDbEntity
  8
0
  6
Continuous
 62
     7
370
    15
100
AcDbSpline
210
0.0
220
0.0
230
1.0
 70
     8
 71
     3
 72
    15
 73
    11
 74
     0
 42
0.0000000001
 43
0.0000000001
 40
0.0
 40
0.0
 40
0.0
 40
0.0
 40
0.1480034770514349
 40
0.279450695134225
 40
0.3963885856846971
 40
0.5017015625945311
 40
0.5934354968125615
 40
0.7060560739620124
 40
0.8412556666320888
 40
1.0
 40
1.0
 40
1.0
 40
1.0
 10
1.824929798358484
 20
6.054266300483956
 30
0.0
 10
1.825331646835493
 20
6.054061205425742
 30
0.0
 10
1.826090391416878
 20
6.053673958060156
 30
0.0
 10
1.827476434862173
 20
6.053238141608757
 30
0.0
 10
1.82886141890045
 20
6.0529714304657
 30
0.0
 10
1.830181493416345
 20
6.052883097762228
 30
0.0
 10
1.831473431211776
 20
6.053027674003229
 30
0.0
 10
1.832801331188284
 20
6.053325620252634
 30
0.0
 10
1.834253731644303
 20
6.053753159781405
 30
0.0
 10
1.835086590035389
 20
6.05408636328722
 30
0.0
 10
1.835536374971804
 20
6.054266309745443
 30
0.0
  0
SPLINE
  5
295
330
1F
100
AcDbEntity
  8
0
  6
Continuous
 62
     7
370
    15
100
AcDbSpline
210
0.0
220
0.0
230
1.0
 70
     8
 71
     3
 72
    12
 73
     8
 74
     0
 42
0.0000000001
 43
0.0000000001
 40
0.0
 40
0.0
 40
0.0
 40
0.0
 40
0.0705467933549007
 40
0.2845176698267407
 40
0.4817092932209638
 40
0.8565998683975683
 40
1.0
 40
1.0
 40
1.0
 40
1.0
 10
1.823571986747746
 20
6.055480646788403
 30
0.0
 10
1.823865783010665
 20
6.055458168515533
 30
0.0
 10
1.825050673551456
 20
6.055367512859697
 30
0.0
 10
1.827328750458615
 20
6.055268681464546
 30
0.0
 10
1.831079070230115
 20
6.055197785905315
 30
0.0
 10
1.834594941067275
 20
6.055443611186834
 30
0.0
 10
1.836776568266179
 20
6.055592535925879
 30
0.0
 10
1.837380178601727
 20
6.055633740267185
 30
0.0
  0
SPLINE
  5
296
330
1F
100
AcDbEntity
  8
0
  6
Continuous
 62
     7
370
    15
100
AcDbSpline
210
0.0
220
0.0
230
1.0
 70
     8
 71
     3
 72
    15
 73
    11
 74
     0
 42
0.0000000001
 43
0.0000000001
 40
0.0
 40
0.0
 40
0.0
 40
0.0
 40
0.1587443938751642
 40
0.2939433241306389
 40
0.4065644707037835
 40
0.4982984398872724
 40
0.6036114569383752
 40
0.7205493920610874
 40
0.8519974091541723
 40
1.0
 40
1.0
 40
1.0
 40
1.0
 10
1.835536374971804
 20
5.990430080176952
 30
0.0
 10
1.835086591517721
 20
5.990820716351801
 30
0.0
 10
1.834253737894327
 20
5.991544048325658
 30
0.0
 10
1.832801321544787
 20
5.992330803510983
 30
0.0
 10
1.831473435570907
 20
5.992810016024532
 30
0.0
 10
1.830181492679855
 20
5.993008647162145
 30
0.0
 10
1.828861419704662
 20
5.992857776388962
 30
0.0
 10
1.827476429173639
 20
5.992380743535977
 30
0.0
 10
1.826090401708537
 20
5.991574374812978
 30
0.0
 10
1.825331648907832
 20
5.990826277896786
 30
0.0
 10
1.824929798358484
 20
5.990430070915464
 30
0.0
  0
SPLINE
  5
297
330
1F
100
AcDbEntity
  8
0
  6
Continuous
 62
     7
370
    15
100
AcDbSpline
210
0.0
220
0.0
230
1.0
 70
     8
 71
     3
 72
    15
 73
    11
 74
     0
 42
0.0000000001
 43
0.0000000001
 40
0.0
 40
0.0
 40
0.0
 40
0.0
 40
0.1480029373381758
 40
0.2794508435779123
 40
0.3963886800839854
 40
0.5017016083220286
 40
0.5934356203990726
 40
0.7060561454994283
 40
0.8412553187087292
 40
1.0
 40
1.0
 40
1.0
 40
1.0
 10
1.824929798358484
 20
5.873620619611963
 30
0.0
 10
1.825331648421222
 20
5.873415532406117
 30
0.0
 10
1.826090399166604
 20
5.873028298249069
 30
0.0
 10
1.827476429480945
 20
5.872592442029628
 30
0.0
 10
1.828861419297754
 20
5.872325740862256
 30
0.0
 10
1.830181494340831
 20
5.872237400180709
 30
0.0
 10
1.831473430343338
 20
5.872381997635346
 30
0.0
 10
1.832801328806216
 20
5.872679940757119
 30
0.0
 10
1.834253736508597
 20
5.873107461790217
 30
0.0
 10
1.835086591029965
 20
5.873440676127498
 30
0.0
 10
1.835536374971804
 20
5.87362062887345
 30
0.0
  0
SPLINE
  5
298
330
1F
100
AcDbEntity
  8
0
  6
Continuous
 62
     7
370
    15
100
AcDbSpline
210
0.0
220
0.0
230
1.0
 70
     8
 71
     3
 72
    12
 73
     8
 74
     0
 42
0.0000000001
 43
0.0000000001
 40
0.0
 40
0.0
 40
0.0
 40
0.0
 40
0.0705467983063142
 40
0.2845176897959634
 40
0.4817093270303232
 40
0.8566000108043015
 40
1.0
 40
1.0
 40
1.0
 40
1.0
 10
1.823571986747746
 20
5.874834954141125
 30
0.0
 10
1.823865783012227
 20
5.874812475855798
 30
0.0
 10
1.825050673559318
 20
5.874721820149725
 30
0.0
 10
1.827328750348075
 20
5.874622989698607
 30
0.0
 10
1.831079071128392
 20
5.874552089218743
 30
0.0
 10
1.834594938339593
 20
5.874797940798099
 30
0.0
 10
1.836776568113723
 20
5.874946848132363
 30
0.0
 10
1.837380178601727
 20
5.874988047619907
 30
0.0
  0
SPLINE
  5
299
330
1F
100
AcDbEntity
  8
0
  6
Continuous
 62
     7
370
    15
100
AcDbSpline
210
0.0
220
0.0
230
1.0
 70
     8
 71
     3
 72
    15
 73
    11
 74
     0
 42
0.0000000001
 43
0.0000000001
 40
0.0
 40
0.0
 40
0.0
 40
0.0
 40
0.1587445224574115
 40
0.2939437397932815
 40
0.4065644332722079
 40
0.4982984151607494
 40
0.6036113777710309
 40
0.7205492524435025
 40
0.8519970143563377
 40
1.0
 40
1.0
 40
1.0
 40
1.0
 10
1.835536374971804
 20
5.809784387529673
 30
0.0
 10
1.83508659090326
 20
5.810175023738631
 30
0.0
 10
1.834253735638959
 20
5.810898356212609
 30
0.0
 10
1.832801327586388
 20
5.81168513808264
 30
0.0
 10
1.831473431867332
 20
5.812164316174806
 30
0.0
 10
1.830181493694456
 20
5.812362964109254
 30
0.0
 10
1.828861419300155
 20
5.812212088858337
 30
0.0
 10
1.82747643074944
 20
5.811735055543504
 30
0.0
 10
1.826090397864648
 20
5.810928696130529
 30
0.0
 10
1.825331648146443
 20
5.81018059064627
 30
0.0
 10
1.824929798358484
 20
5.809784378268186
 30
0.0
  0
SPLINE
  5
29A
330
1F
100
AcDbEntity
  8
0
  6
Continuous
 62
     7
370
    15
100
AcDbSpline
210
0.0
220
0.0
230
1.0
 70
     8
 71
     3
 72
    15
 73
    11
 74
     0
 42
0.0000000001
 43
0.0000000001
 40
0.0
 40
0.0
 40
0.0
 40
0.0
 40
0.1480029856436622
 40
0.2794507475564977
 40
0.3963886222289692
 40
0.5017015848392507
 40
0.5934355667277922
 40
0.7060562602067186
 40
0.8412554775425885
 40
1.0
 40
1.0
 40
1.0
 40
1.0
 10
1.824929798358484
 20
5.692974932852327
 30
0.0
 10
1.825331648146443
 20
5.692769844889589
 30
0.0
 10
1.826090397864649
 20
5.692382609562865
 30
0.0
 10
1.827476430749439
 20
5.691946762928771
 30
0.0
 10
1.828861419300155
 20
5.691680058730011
 30
0.0
 10
1.830181493694456
 20
5.691591722212463
 30
0.0
 10
1.831473431867332
 20
5.691736306850446
 30
0.0
 10
1.832801327586387
 20
5.692034262959282
 30
0.0
 10
1.83425373563896
 20
5.692461780745313
 30
0.0
 10
1.83508659090326
 20
5.692794991443168
 30
0.0
 10
1.835536374971804
 20
5.692974942113816
 30
0.0
  0
SPLINE
  5
29B
330
1F
100
AcDbEntity
  8
0
  6
Continuous
 62
     7
370
    15
100
AcDbSpline
210
0.0
220
0.0
230
1.0
 70
     8
 71
     3
 72
    12
 73
     8
 74
     0
 42
0.0000000001
 43
0.0000000001
 40
0.0
 40
0.0
 40
0.0
 40
0.0
 40
0.0705467235360264
 40
0.2845176322386618
 40
0.4817092853361931
 40
0.8565999992684238
 40
1.0
 40
1.0
 40
1.0
 40
1.0
 10
1.823571986747746
 20
5.69418926738149
 30
0.0
 10
1.823865783065502
 20
5.694166791327718
 30
0.0
 10
1.825050674843582
 20
5.694076144543842
 30
0.0
 10
1.827328750045282
 20
5.693977307056863
 30
0.0
 10
1.83107907129082
 20
5.693906409296109
 30
0.0
 10
1.834594938322749
 20
5.694152259827657
 30
0.0
 10
1.836776568110073
 20
5.694301167239035
 30
0.0
 10
1.837380178601727
 20
5.694342366747914
 30
0.0
  0
SPLINE
  5
29C
330
1F
100
AcDbEntity
  8
0
  6
Continuous
 62
     7
370
    15
100
AcDbSpline
210
0.0
220
0.0
230
1.0
 70
     8
 71
     3
 72
    15
 73
    11
 74
     0
 42
0.0000000001
 43
0.0000000001
 40
0.0
 40
0.0
 40
0.0
 40
0.0
 40
0.1587443636235123
 40
0.2939436250849994
 40
0.4065644869437425
 40
0.4982984386456434
 40
0.6036114356274217
 40
0.7205493484654684
 40
0.8519969660518931
 40
1.0
 40
1.0
 40
1.0
 40
1.0
 10
1.835536374971804
 20
5.629138706657682
 30
0.0
 10
1.835086590776556
 20
5.629529340834442
 30
0.0
 10
1.834253734769329
 20
5.630252669986909
 30
0.0
 10
1.832801326366548
 20
5.631039448403813
 30
0.0
 10
1.831473433391315
 20
5.631518639201217
 30
0.0
 10
1.830181493048103
 20
5.631717274481293
 30
0.0
 10
1.828861419302555
 20
5.631566403305259
 30
0.0
 10
1.827476432017926
 20
5.631089367310556
 30
0.0
 10
1.826090396562703
 20
5.630283016756928
 30
0.0
 10
1.825331647871666
 20
5.629534910466629
 30
0.0
 10
1.824929798358484
 20
5.629138697396193
 30
0.0
  0
ARC
  5
29D
330
1F
100
AcDbEntity
  8
0
  6
Continuous
 62
     7
370
    15
100
AcDbCircle
 10
1.83023310669646
 20
5.436355101665657
 30
0.0
 40
0.0235455717764587
100
AcDbArc
 50
76.98334902603743
 51
103.0167510334285
  0
SPLINE
  5
29E
330
1F
100
AcDbEntity
  8
0
  6
Continuous
 62
     7
370
    15
100
AcDbSpline
210
0.0
220
0.0
230
1.0
 70
     8
 71
     3
 72
    15
 73
    11
 74
     0
 42
0.0000000001
 43
0.0000000001
 40
0.0
 40
0.0
 40
0.0
 40
0.0
 40
0.1480033115742384
 40
0.2794511315973034
 40
0.3963888914038586
 40
0.5017017505671604
 40
0.5934358227410507
 40
0.7060562739736128
 40
0.8412550015356085
 40
1.0
 40
1.0
 40
1.0
 40
1.0
 10
1.824929798358484
 20
5.512329257867979
 30
0.0
 10
1.82533164794089
 20
5.51212416581527
 30
0.0
 10
1.826090396642799
 20
5.511736923086705
 30
0.0
 10
1.827476429727898
 20
5.511301068569874
 30
0.0
 10
1.828861419081921
 20
5.511034368668201
 30
0.0
 10
1.830181495398858
 20
5.51094602210128
 30
0.0
 10
1.831473429432721
 20
5.511090640277476
 30
0.0
 10
1.832801326439036
 20
5.511388580431237
 30
0.0
 10
1.834253741368073
 20
5.511816082913554
 30
0.0
 10
1.835086592022861
 20
5.512149308091038
 30
0.0
 10
1.835536374971804
 20
5.512329267129468
 30
0.0
  0
SPLINE
  5
29F
330
1F
100
AcDbEntity
  8
0
  6
Continuous
 62
     7
370
    15
100
AcDbSpline
210
0.0
220
0.0
230
1.0
 70
     8
 71
     3
 72
    12
 73
     8
 74
     0
 42
0.0000000001
 43
0.0000000001
 40
0.0
 40
0.0
 40
0.0
 40
0.0
 40
0.0705468032572515
 40
0.2845177097632659
 40
0.4817093608364316
 40
0.856600153207167
 40
1.0
 40
1.0
 40
1.0
 40
1.0
 10
1.823571986747746
 20
5.513543580621854
 30
0.0
 10
1.823865783013789
 20
5.51352110232407
 30
0.0
 10
1.825050673567182
 20
5.513430446567761
 30
0.0
 10
1.827328750237536
 20
5.513331617060676
 30
0.0
 10
1.831079072026676
 20
5.513260711660175
 30
0.0
 10
1.834594935611966
 20
5.513506589537397
 30
0.0
 10
1.83677656796127
 20
5.513655479466853
 30
0.0
 10
1.837380178601727
 20
5.513696674100636
 30
0.0
  0
LINE
  5
2A0
330
1F
100
AcDbEntity
  8
0
  6
Continuous
 62
     7
370
    15
100
AcDbLine
 10
3.432654884278712
 20
5.777348113176774
 30
0.0
 11
3.696340495571712
 21
5.706703823693215
 31
0.0
  0
LINE
  5
2A1
330
1F
100
AcDbEntity
  8
0
  6
Continuous
 62
     7
370
    15
100
AcDbLine
 10
3.696340495571712
 20
5.706703823693215
 30
0.0
 11
3.6902122463129
 21
5.705061997988186
 31
0.0
  0
LINE
  5
2A2
330
1F
100
AcDbEntity
  8
0
  6
Continuous
 62
     7
370
    15
100
AcDbLine
 10
3.426526635019899
 20
5.775706287471745
 30
0.0
 11
3.6902122463129
 21
5.705061997988186
 31
0.0
  0
ARC
  5
2A3
330
1F
100
AcDbEntity
  8
0
  6
Continuous
 62
     7
370
    15
100
AcDbCircle
 10
3.421223329428606
 20
5.752765073764979
 30
0.0
 40
0.0235462170323423
100
AcDbArc
 50
76.98361880097987
 51
103.0163811990201
  0
LINE
  5
2A4
330
1F
100
AcDbEntity
  8
0
  6
Continuous
 62
     7
370
    15
100
AcDbLine
 10
3.24062273535807
 20
5.728742206525933
 30
0.0
 11
3.415920023837313
 21
5.775706287471745
 31
0.0
  0
LINE
  5
2A5
330
1F
100
AcDbEntity
  8
0
  6
Continuous
 62
     7
370
    15
100
AcDbLine
 10
3.234494468814625
 20
5.730384036861705
 30
0.0
 11
3.24062273535807
 21
5.728742206525933
 31
0.0
  0
LINE
  5
2A6
330
1F
100
AcDbEntity
  8
0
  6
Continuous
 62
     7
370
    15
100
AcDbLine
 10
3.409791757293867
 20
5.777348117807518
 30
0.0
 11
3.234494468814625
 21
5.730384036861705
 31
0.0
  0
ARC
  5
2A7
330
1F
100
AcDbEntity
  8
0
  6
Continuous
 62
     7
370
    15
100
AcDbCircle
 10
3.421223310770435
 20
5.727897364482063
 30
0.0
 40
0.0507548758184137
100
AcDbArc
 50
76.98353543741567
 51
103.0164413529789
  0
LINE
  5
2A8
330
1F
100
AcDbEntity
  8
0
  6
Continuous
 62
     7
370
    15
100
AcDbLine
 10
3.415920023837313
 20
5.74483186341959
 30
0.0
 11
3.415920023837313
 21
5.775706287471745
 31
0.0
  0
ARC
  5
2A9
330
1F
100
AcDbEntity
  8
0
  6
Continuous
 62
     7
370
    15
100
AcDbCircle
 10
3.431797899223223
 20
5.730205867274865
 30
0.0
 40
0.0215876513311661
100
AcDbArc
 50
137.3501006362438
 51
180.2834662996334
  0
LINE
  5
2AA
330
1F
100
AcDbEntity
  8
0
  6
Continuous
 62
     7
370
    15
100
AcDbLine
 10
3.410210512091634
 20
5.639695951964108
 30
0.0
 11
3.410210512091634
 21
5.730099064527286
 31
0.0
  0
ARC
  5
2AB
330
1F
100
AcDbEntity
  8
0
  6
Continuous
 62
     7
370
    15
100
AcDbCircle
 10
3.422645671302146
 20
5.638544964922481
 30
0.0
 40
0.0124883127667741
100
AcDbArc
 50
174.7118219440413
 51
237.414651713147
  0
LINE
  5
2AC
330
1F
100
AcDbEntity
  8
0
  6
Continuous
 62
     7
370
    15
100
AcDbLine
 10
3.415920023837313
 20
5.564186206098171
 30
0.0
 11
3.415920023837313
 21
5.628022435666662
 31
0.0
  0
ARC
  5
2AD
330
1F
100
AcDbEntity
  8
0
  6
Continuous
 62
     7
370
    15
100
AcDbCircle
 10
3.431798068375956
 20
5.549560144400423
 30
0.0
 40
0.0215878201576141
100
AcDbArc
 50
137.3502768381264
 51
180.2832900977525
  0
LINE
  5
2AE
330
1F
100
AcDbEntity
  8
0
  6
Continuous
 62
     7
370
    15
100
AcDbLine
 10
3.410210512091634
 20
5.459050271092117
 30
0.0
 11
3.410210512091634
 21
5.549453407205867
 31
0.0
  0
ARC
  5
2AF
330
1F
100
AcDbEntity
  8
0
  6
Continuous
 62
     7
370
    15
100
AcDbCircle
 10
3.422645637969271
 20
5.457899267747396
 30
0.0
 40
0.0124882810783661
100
AcDbArc
 50
174.7117333695873
 51
237.4147402876094
  0
LINE
  5
2B0
330
1F
100
AcDbEntity
  8
0
  6
Continuous
 62
     7
370
    15
100
AcDbLine
 10
3.415920023837313
 20
5.383540513450892
 30
0.0
 11
3.415920023837313
 21
5.44737675479467
 31
0.0
  0
ARC
  5
2B1
330
1F
100
AcDbEntity
  8
0
  6
Continuous
 62
     7
370
    15
100
AcDbCircle
 10
3.431798009418312
 20
5.368914474601441
 30
0.0
 40
0.021587761313672
100
AcDbArc
 50
137.3502154238375
 51
180.2833515120414
  0
LINE
  5
2B2
330
1F
100
AcDbEntity
  8
0
  6
Continuous
 62
     7
370
    15
100
AcDbLine
 10
3.410210512091634
 20
5.278404584332482
 30
0.0
 11
3.410210512091634
 21
5.368807714558589
 31
0.0
  0
ARC
  5
2B3
330
1F
100
AcDbEntity
  8
0
  6
Continuous
 62
     7
370
    15
100
AcDbCircle
 10
3.422645652998357
 20
5.277253588338479
 30
0.0
 40
0.012488295365993
100
AcDbArc
 50
174.7117733059827
 51
237.4147003512058
  0
LINE
  5
2B4
330
1F
100
AcDbEntity
  8
0
  6
Continuous
 62
     7
370
    15
100
AcDbLine
 10
3.415920023837313
 20
5.2028948325789
 30
0.0
 11
3.415920023837313
 21
5.266731068035035
 31
0.0
  0
ARC
  5
2B5
330
1F
100
AcDbEntity
  8
0
  6
Continuous
 62
     7
370
    15
100
AcDbCircle
 10
3.431798035037418
 20
5.188268783801085
 30
0.0
 40
0.0215877868833678
100
AcDbArc
 50
137.3502421104795
 51
180.2833248253954
  0
LINE
  5
2B6
330
1F
100
AcDbEntity
  8
0
  6
Continuous
 62
     7
370
    15
100
AcDbLine
 10
3.410210512091634
 20
5.097758909348132
 30
0.0
 11
3.410210512091634
 21
5.188162033686597
 31
0.0
  0
ARC
  5
2B7
330
1F
100
AcDbEntity
  8
0
  6
Continuous
 62
     7
370
    15
100
AcDbCircle
 10
3.422645604636574
 20
5.096607889700403
 30
0.0
 40
0.0124882493901543
100
AcDbArc
 50
174.7116447951482
 51
237.4148288620464
  0
LINE
  5
2B8
330
1F
100
AcDbEntity
  8
0
  6
Continuous
 62
     7
370
    15
100
AcDbLine
 10
3.415920023837313
 20
5.033051787647173
 30
0.0
 11
3.415920023837313
 21
5.086085393050686
 31
0.0
  0
LINE
  5
2B9
330
1F
100
AcDbEntity
  8
0
  6
Continuous
 62
     7
370
    15
100
AcDbLine
 10
3.152234377975046
 20
4.962407488902126
 30
0.0
 11
3.415920023837313
 21
5.033051787647173
 31
0.0
  0
LINE
  5
2BA
330
1F
100
AcDbEntity
  8
0
  6
Continuous
 62
     7
370
    15
100
AcDbLine
 10
3.152234377975046
 20
4.994236982881154
 30
0.0
 11
3.152234377975046
 21
4.962407488902126
 31
0.0
  0
ARC
  5
2BB
330
1F
100
AcDbEntity
  8
0
  6
Continuous
 62
     7
370
    15
100
AcDbCircle
 10
3.182082270459412
 20
4.994127283558341
 30
0.0
 40
0.0298480940714769
100
AcDbArc
 50
148.8080467232204
 51
179.7894229913822
  0
LINE
  5
2BC
330
1F
100
AcDbEntity
  8
0
  6
Continuous
 62
     7
370
    15
100
AcDbLine
 10
3.156549106280524
 20
5.009585816694239
 30
0.0
 11
3.236308007052592
 21
5.139626812567271
 31
0.0
  0
ARC
  5
2BD
330
1F
100
AcDbEntity
  8
0
  6
Continuous
 62
     7
370
    15
100
AcDbCircle
 10
3.210774832967919
 20
5.15508534857196
 30
0.0
 40
0.0298481040310185
100
AcDbArc
 50
328.8080518604062
 51
359.7893949510035
  0
LINE
  5
2BE
330
1F
100
AcDbEntity
  8
0
  6
Continuous
 62
     7
370
    15
100
AcDbLine
 10
3.24062273535807
 20
5.154975634605071
 30
0.0
 11
3.24062273535807
 21
5.238706375349157
 31
0.0
  0
ARC
  5
2BF
330
1F
100
AcDbEntity
  8
0
  6
Continuous
 62
     7
370
    15
100
AcDbCircle
 10
3.221316779739205
 20
5.239549284127772
 30
0.0
 40
0.0193243477914948
100
AcDbArc
 50
357.5000220603367
 51
39.12520756907057
  0
LINE
  5
2C0
330
1F
100
AcDbEntity
  8
0
  6
Continuous
 62
     7
370
    15
100
AcDbLine
 10
3.236308007052592
 20
5.251743279420743
 30
0.0
 11
3.156549106280524
 21
5.339047690346839
 31
0.0
  0
ARC
  5
2C1
330
1F
100
AcDbEntity
  8
0
  6
Continuous
 62
     7
370
    15
100
AcDbCircle
 10
3.171540327930779
 20
5.351241683575191
 30
0.0
 40
0.0193243420954031
100
AcDbArc
 50
177.5000239322436
 51
219.1252134155659
  0
LINE
  5
2C2
330
1F
100
AcDbEntity
  8
0
  6
Continuous
 62
     7
370
    15
100
AcDbLine
 10
3.152234377975046
 20
5.516102296261671
 30
0.0
 11
3.152234377975046
 21
5.352084591474604
 31
0.0
  0
ARC
  5
2C3
330
1F
100
AcDbEntity
  8
0
  6
Continuous
 62
     7
370
    15
100
AcDbCircle
 10
3.182082270459419
 20
5.515992596938858
 30
0.0
 40
0.0298480940714831
100
AcDbArc
 50
148.8080467232251
 51
179.7894229913823
  0
LINE
  5
2C4
330
1F
100
AcDbEntity
  8
0
  6
Continuous
 62
     7
370
    15
100
AcDbLine
 10
3.156549106280524
 20
5.531451130074757
 30
0.0
 11
3.236308007052592
 21
5.661492125947789
 31
0.0
  0
ARC
  5
2C5
330
1F
100
AcDbEntity
  8
0
  6
Continuous
 62
     7
370
    15
100
AcDbCircle
 10
3.210774879854433
 20
5.676950648856311
 30
0.0
 40
0.0298480571399664
100
AcDbArc
 50
328.8080267524755
 51
359.789397155696
  0
LINE
  5
2C6
330
1F
100
AcDbEntity
  8
0
  6
Continuous
 62
     7
370
    15
100
AcDbLine
 10
3.24062273535807
 20
5.676840936210301
 30
0.0
 11
3.24062273535807
 21
5.728742206525933
 31
0.0
  0
LINE
  5
2C7
330
1F
100
AcDbEntity
  8
0
  6
Continuous
 62
     7
370
    15
100
AcDbLine
 10
3.6902122463129
 20
5.653160727672555
 30
0.0
 11
3.6902122463129
 21
5.705061997988186
 31
0.0
  0
ARC
  5
2C8
330
1F
100
AcDbEntity
  8
0
  6
Continuous
 62
     7
370
    15
100
AcDbCircle
 10
3.670906119445658
 20
5.652317798015826
 30
0.0
 40
0.0193245197875708
100
AcDbArc
 50
320.8752949900632
 51
2.500017635759351
  0
LINE
  5
2C9
330
1F
100
AcDbEntity
  8
0
  6
Continuous
 62
     7
370
    15
100
AcDbLine
 10
3.685897587145952
 20
5.640123825684742
 30
0.0
 11
3.606138686373885
 21
5.552819411814826
 31
0.0
  0
ARC
  5
2CA
330
1F
100
AcDbEntity
  8
0
  6
Continuous
 62
     7
370
    15
100
AcDbCircle
 10
3.621129487213542
 20
5.540625557478362
 30
0.0
 40
0.019323928001138
100
AcDbArc
 50
140.8743187321355
 51
182.5004593568543
  0
LINE
  5
2CB
330
1F
100
AcDbEntity
  8
0
  6
Continuous
 62
     7
370
    15
100
AcDbLine
 10
3.601823958068407
 20
5.539782504799417
 30
0.0
 11
3.601823958068407
 21
5.37576480001235
 31
0.0
  0
ARC
  5
2CC
330
1F
100
AcDbEntity
  8
0
  6
Continuous
 62
     7
370
    15
100
AcDbCircle
 10
3.631671194343072
 20
5.375874320796953
 30
0.0
 40
0.0298474372105539
100
AcDbArc
 50
180.2102389147835
 51
211.1923028222085
  0
LINE
  5
2CD
330
1F
100
AcDbEntity
  8
0
  6
Continuous
 62
     7
370
    15
100
AcDbLine
 10
3.606138686373885
 20
5.360415972086908
 30
0.0
 11
3.685897587145952
 21
5.230374979157698
 31
0.0
  0
ARC
  5
2CE
330
1F
100
AcDbEntity
  8
0
  6
Continuous
 62
     7
370
    15
100
AcDbCircle
 10
3.660364170614245
 20
5.214916509379505
 30
0.0
 40
0.0298482771305983
100
AcDbArc
 50
0.2104953041807423
 51
31.19159836069633
  0
LINE
  5
2CF
330
1F
100
AcDbEntity
  8
0
  6
Continuous
 62
     7
370
    15
100
AcDbLine
 10
3.6902122463129
 20
5.131295426067323
 30
0.0
 11
3.6902122463129
 21
5.215026166811409
 31
0.0
  0
ARC
  5
2D0
330
1F
100
AcDbEntity
  8
0
  6
Continuous
 62
     7
370
    15
100
AcDbCircle
 10
3.670906083167741
 20
5.130452497403106
 30
0.0
 40
0.0193245559876666
100
AcDbArc
 50
320.8753334949345
 51
2.50001000405633
  0
LINE
  5
2D1
330
1F
100
AcDbEntity
  8
0
  6
Continuous
 62
     7
370
    15
100
AcDbLine
 10
3.685897587145952
 20
5.118258512304225
 30
0.0
 11
3.606138686373885
 21
5.030954098434308
 31
0.0
  0
ARC
  5
2D2
330
1F
100
AcDbEntity
  8
0
  6
Continuous
 62
     7
370
    15
100
AcDbCircle
 10
3.621129487213537
 20
5.018760244097847
 30
0.0
 40
0.0193239280011323
100
AcDbArc
 50
140.8743187321316
 51
182.5004593568602
  0
LINE
  5
2D3
330
1F
100
AcDbEntity
  8
0
  6
Continuous
 62
     7
370
    15
100
AcDbLine
 10
3.601823958068407
 20
5.0179171914189
 30
0.0
 11
3.601823958068407
 21
4.986087697439873
 31
0.0
  0
LINE
  5
2D4
330
1F
100
AcDbEntity
  8
0
  6
Continuous
 62
     7
370
    15
100
AcDbLine
 10
3.426526635019899
 20
5.033051787647173
 30
0.0
 11
3.601823958068407
 21
4.986087697439873
 31
0.0
  0
LINE
  5
2D5
330
1F
100
AcDbEntity
  8
0
  6
Continuous
 62
     7
370
    15
100
AcDbLine
 10
3.426526635019899
 20
5.033051787647173
 30
0.0
 11
3.426526635019899
 21
5.086085393050686
 31
0.0
  0
ARC
  5
2D6
330
1F
100
AcDbEntity
  8
0
  6
Continuous
 62
     7
370
    15
100
AcDbCircle
 10
3.419801015483658
 20
5.09660792660241
 30
0.0
 40
0.012488301345396
100
AcDbArc
 50
302.5852297068214
 51
5.288141775986295
  0
LINE
  5
2D7
330
1F
100
AcDbEntity
  8
0
  6
Continuous
 62
     7
370
    15
100
AcDbLine
 10
3.432236164050212
 20
5.188162029055852
 30
0.0
 11
3.432236164050212
 21
5.097758904717387
 31
0.0
  0
ARC
  5
2D8
330
1F
100
AcDbEntity
  8
0
  6
Continuous
 62
     7
370
    15
100
AcDbCircle
 10
3.410648518601515
 20
5.188268717664743
 30
0.0
 40
0.0215879090807307
100
AcDbArc
 50
359.7168400204004
 51
42.64969779323076
  0
LINE
  5
2D9
330
1F
100
AcDbEntity
  8
0
  6
Continuous
 62
     7
370
    15
100
AcDbLine
 10
3.426526635019899
 20
5.2028948325789
 30
0.0
 11
3.426526635019899
 21
5.266731068035035
 31
0.0
  0
ARC
  5
2DA
330
1F
100
AcDbEntity
  8
0
  6
Continuous
 62
     7
370
    15
100
AcDbCircle
 10
3.419800967120993
 20
5.277253625240998
 30
0.0
 40
0.0124883473221698
100
AcDbArc
 50
302.5853582190531
 51
5.288013263758218
  0
LINE
  5
2DB
330
1F
100
AcDbEntity
  8
0
  6
Continuous
 62
     7
370
    15
100
AcDbLine
 10
3.432236164050212
 20
5.368807709927844
 30
0.0
 11
3.432236164050212
 21
5.278404579701737
 31
0.0
  0
ARC
  5
2DC
330
1F
100
AcDbEntity
  8
0
  6
Continuous
 62
     7
370
    15
100
AcDbCircle
 10
3.410648544221106
 20
5.368914408465314
 30
0.0
 40
0.0215878835105221
100
AcDbArc
 50
359.7168133335262
 51
42.64972448010465
  0
LINE
  5
2DD
330
1F
100
AcDbEntity
  8
0
  6
Continuous
 62
     7
370
    15
100
AcDbLine
 10
3.426526635019899
 20
5.383540513450892
 30
0.0
 11
3.426526635019899
 21
5.44737675479467
 31
0.0
  0
ARC
  5
2DE
330
1F
100
AcDbEntity
  8
0
  6
Continuous
 62
     7
370
    15
100
AcDbCircle
 10
3.419800982150319
 20
5.457899304649771
 30
0.0
 40
0.012488333034284
100
AcDbArc
 50
302.5853182823112
 51
5.288053200501964
  0
LINE
  5
2DF
330
1F
100
AcDbEntity
  8
0
  6
Continuous
 62
     7
370
    15
100
AcDbLine
 10
3.432236164050212
 20
5.549453402575124
 30
0.0
 11
3.432236164050212
 21
5.459050266461372
 31
0.0
  0
ARC
  5
2E0
330
1F
100
AcDbEntity
  8
0
  6
Continuous
 62
     7
370
    15
100
AcDbCircle
 10
3.410648485262793
 20
5.549560078263975
 30
0.0
 40
0.0215879423551984
100
AcDbArc
 50
359.7168747478803
 51
42.64966306574971
  0
LINE
  5
2E1
330
1F
100
AcDbEntity
  8
0
  6
Continuous
 62
     7
370
    15
100
AcDbLine
 10
3.426526635019899
 20
5.564186206098171
 30
0.0
 11
3.426526635019899
 21
5.628022435666662
 31
0.0
  0
ARC
  5
2E2
330
1F
100
AcDbEntity
  8
0
  6
Continuous
 62
     7
370
    15
100
AcDbCircle
 10
3.419800948816803
 20
5.638545001825226
 30
0.0
 40
0.0124883647233697
100
AcDbArc
 50
302.5854068578221
 51
5.287964624994773
  0
LINE
  5
2E3
330
1F
100
AcDbEntity
  8
0
  6
Continuous
 62
     7
370
    15
100
AcDbLine
 10
3.432236164050212
 20
5.730099059896542
 30
0.0
 11
3.432236164050212
 21
5.639695947333364
 31
0.0
  0
ARC
  5
2E4
330
1F
100
AcDbEntity
  8
0
  6
Continuous
 62
     7
370
    15
100
AcDbCircle
 10
3.41064865441785
 20
5.730205801139496
 30
0.0
 40
0.0215877735262408
100
AcDbArc
 50
359.7166985453914
 51
42.64983926823714
  0
LINE
  5
2E5
330
1F
100
AcDbEntity
  8
0
  6
Continuous
 62
     7
370
    15
100
AcDbLine
 10
3.426526635019899
 20
5.74483186341959
 30
0.0
 11
3.426526635019899
 21
5.775706287471745
 31
0.0
  0
LINE
  5
2E6
330
1F
100
AcDbEntity
  8
0
  6
Continuous
 62
     7
370
    15
100
AcDbLine
 10
3.696340495571712
 20
5.654802553377583
 30
0.0
 11
3.696340495571712
 21
5.706703823693215
 31
0.0
  0
LINE
  5
2E7
330
1F
100
AcDbEntity
  8
0
  6
Continuous
 62
     7
370
    15
100
AcDbLine
 10
3.6902122463129
 20
5.653160727672555
 30
0.0
 11
3.696340495571712
 21
5.654802553377583
 31
0.0
  0
LINE
  5
2E8
330
1F
100
AcDbEntity
  8
0
  6
Continuous
 62
     7
370
    15
100
AcDbLine
 10
3.692025836404766
 20
5.641765651389771
 30
0.0
 11
3.685897587145952
 21
5.640123825684742
 31
0.0
  0
ARC
  5
2E9
330
1F
100
AcDbEntity
  8
0
  6
Continuous
 62
     7
370
    15
100
AcDbCircle
 10
3.677034368704475
 20
5.653959623720854
 30
0.0
 40
0.0193245197875664
100
AcDbArc
 50
320.8752949900599
 51
2.500017635762557
  0
LINE
  5
2EA
330
1F
100
AcDbEntity
  8
0
  6
Continuous
 62
     7
370
    15
100
AcDbLine
 10
3.236308007052592
 20
5.661492125947789
 30
0.0
 11
3.230179740509147
 21
5.663133956283561
 31
0.0
  0
LINE
  5
2EB
330
1F
100
AcDbEntity
  8
0
  6
Continuous
 62
     7
370
    15
100
AcDbLine
 10
3.150420839737079
 20
5.533092960410529
 30
0.0
 11
3.156549106280524
 21
5.531451130074757
 31
0.0
  0
LINE
  5
2EC
330
1F
100
AcDbEntity
  8
0
  6
Continuous
 62
     7
370
    15
100
AcDbLine
 10
3.150420839737079
 20
5.533092960410529
 30
0.0
 11
3.230179740509147
 21
5.663133956283561
 31
0.0
  0
LINE
  5
2ED
330
1F
100
AcDbEntity
  8
0
  6
Continuous
 62
     7
370
    15
100
AcDbLine
 10
3.606138686373885
 20
5.552819411814826
 30
0.0
 11
3.612266935632698
 21
5.554461237519854
 31
0.0
  0
LINE
  5
2EE
330
1F
100
AcDbEntity
  8
0
  6
Continuous
 62
     7
370
    15
100
AcDbLine
 10
3.692025836404766
 20
5.641765651389771
 30
0.0
 11
3.612266935632698
 21
5.554461237519854
 31
0.0
  0
LINE
  5
2EF
330
1F
100
AcDbEntity
  8
0
  6
Continuous
 62
     7
370
    15
100
AcDbLine
 10
3.152234377975046
 20
5.516102296261671
 30
0.0
 11
3.1461061114316
 21
5.517744126597444
 31
0.0
  0
ARC
  5
2F0
330
1F
100
AcDbEntity
  8
0
  6
Continuous
 62
     7
370
    15
100
AcDbCircle
 10
3.175954003915968
 20
5.51763442727463
 30
0.0
 40
0.0298480940714781
100
AcDbArc
 50
148.8080467232198
 51
179.7894229913806
  0
LINE
  5
2F1
330
1F
100
AcDbEntity
  8
0
  6
Continuous
 62
     7
370
    15
100
AcDbLine
 10
3.1461061114316
 20
5.353726421810377
 30
0.0
 11
3.152234377975046
 21
5.352084591474604
 31
0.0
  0
LINE
  5
2F2
330
1F
100
AcDbEntity
  8
0
  6
Continuous
 62
     7
370
    15
100
AcDbLine
 10
3.1461061114316
 20
5.517744126597444
 30
0.0
 11
3.1461061114316
 21
5.353726421810377
 31
0.0
  0
LINE
  5
2F3
330
1F
100
AcDbEntity
  8
0
  6
Continuous
 62
     7
370
    15
100
AcDbLine
 10
3.234494468814625
 20
5.678482766546074
 30
0.0
 11
3.24062273535807
 21
5.676840936210301
 31
0.0
  0
LINE
  5
2F4
330
1F
100
AcDbEntity
  8
0
  6
Continuous
 62
     7
370
    15
100
AcDbLine
 10
3.234494468814625
 20
5.678482766546074
 30
0.0
 11
3.234494468814625
 21
5.730384036861705
 31
0.0
  0
ARC
  5
2F5
330
1F
100
AcDbEntity
  8
0
  6
Continuous
 62
     7
370
    15
100
AcDbCircle
 10
3.204646613310997
 20
5.678592479192081
 30
0.0
 40
0.0298480571399569
100
AcDbArc
 50
328.8080267524701
 51
359.7893971557011
  0
LINE
  5
2F6
330
1F
100
AcDbEntity
  8
0
  6
Continuous
 62
     7
370
    15
100
AcDbLine
 10
3.156549106280524
 20
5.339047690346839
 30
0.0
 11
3.150420839737079
 21
5.340689520682611
 31
0.0
  0
ARC
  5
2F7
330
1F
100
AcDbEntity
  8
0
  6
Continuous
 62
     7
370
    15
100
AcDbCircle
 10
3.16541206138733
 20
5.352883513910962
 30
0.0
 40
0.0193243420953993
100
AcDbArc
 50
177.5000239322378
 51
219.1252134155684
  0
LINE
  5
2F8
330
1F
100
AcDbEntity
  8
0
  6
Continuous
 62
     7
370
    15
100
AcDbLine
 10
3.685897587145952
 20
5.230374979157698
 30
0.0
 11
3.692025836404766
 21
5.232016804862725
 31
0.0
  0
LINE
  5
2F9
330
1F
100
AcDbEntity
  8
0
  6
Continuous
 62
     7
370
    15
100
AcDbLine
 10
3.612266935632698
 20
5.362057797791936
 30
0.0
 11
3.606138686373885
 21
5.360415972086908
 31
0.0
  0
LINE
  5
2FA
330
1F
100
AcDbEntity
  8
0
  6
Continuous
 62
     7
370
    15
100
AcDbLine
 10
3.612266935632698
 20
5.362057797791936
 30
0.0
 11
3.692025836404766
 21
5.232016804862725
 31
0.0
  0
LINE
  5
2FB
330
1F
100
AcDbEntity
  8
0
  6
Continuous
 62
     7
370
    15
100
AcDbLine
 10
3.230179740509147
 20
5.253385109756516
 30
0.0
 11
3.236308007052592
 21
5.251743279420743
 31
0.0
  0
LINE
  5
2FC
330
1F
100
AcDbEntity
  8
0
  6
Continuous
 62
     7
370
    15
100
AcDbLine
 10
3.230179740509147
 20
5.253385109756516
 30
0.0
 11
3.150420839737079
 21
5.340689520682611
 31
0.0
  0
LINE
  5
2FD
330
1F
100
AcDbEntity
  8
0
  6
Continuous
 62
     7
370
    15
100
AcDbLine
 10
3.60795220732722
 20
5.541424330504445
 30
0.0
 11
3.601823958068407
 21
5.539782504799417
 31
0.0
  0
ARC
  5
2FE
330
1F
100
AcDbEntity
  8
0
  6
Continuous
 62
     7
370
    15
100
AcDbCircle
 10
3.627257736472344
 20
5.542267383183395
 30
0.0
 40
0.0193239280011263
100
AcDbArc
 50
140.874318732127
 51
182.5004593568715
  0
LINE
  5
2FF
330
1F
100
AcDbEntity
  8
0
  6
Continuous
 62
     7
370
    15
100
AcDbLine
 10
3.696340495571712
 20
5.216667992516438
 30
0.0
 11
3.6902122463129
 21
5.215026166811409
 31
0.0
  0
ARC
  5
300
330
1F
100
AcDbEntity
  8
0
  6
Continuous
 62
     7
370
    15
100
AcDbCircle
 10
3.666492419873074
 20
5.216558335084537
 30
0.0
 40
0.0298482771305814
100
AcDbArc
 50
0.2104953041740416
 51
31.19159836070391
  0
LINE
  5
301
330
1F
100
AcDbEntity
  8
0
  6
Continuous
 62
     7
370
    15
100
AcDbLine
 10
3.6902122463129
 20
5.131295426067323
 30
0.0
 11
3.696340495571712
 21
5.132937251772352
 31
0.0
  0
LINE
  5
302
330
1F
100
AcDbEntity
  8
0
  6
Continuous
 62
     7
370
    15
100
AcDbLine
 10
3.696340495571712
 20
5.132937251772352
 30
0.0
 11
3.696340495571712
 21
5.216667992516438
 31
0.0
  0
LINE
  5
303
330
1F
100
AcDbEntity
  8
0
  6
Continuous
 62
     7
370
    15
100
AcDbLine
 10
3.601823958068407
 20
5.37576480001235
 30
0.0
 11
3.60795220732722
 21
5.377406625717378
 31
0.0
  0
LINE
  5
304
330
1F
100
AcDbEntity
  8
0
  6
Continuous
 62
     7
370
    15
100
AcDbLine
 10
3.60795220732722
 20
5.541424330504445
 30
0.0
 11
3.60795220732722
 21
5.377406625717378
 31
0.0
  0
LINE
  5
305
330
1F
100
AcDbEntity
  8
0
  6
Continuous
 62
     7
370
    15
100
AcDbLine
 10
3.692025836404766
 20
5.119900338009254
 30
0.0
 11
3.685897587145952
 21
5.118258512304225
 31
0.0
  0
ARC
  5
306
330
1F
100
AcDbEntity
  8
0
  6
Continuous
 62
     7
370
    15
100
AcDbCircle
 10
3.677034332426555
 20
5.132094323108132
 30
0.0
 40
0.0193245559876648
100
AcDbArc
 50
320.875333494938
 51
2.500010004064452
  0
LINE
  5
307
330
1F
100
AcDbEntity
  8
0
  6
Continuous
 62
     7
370
    15
100
AcDbLine
 10
3.606138686373885
 20
5.030954098434308
 30
0.0
 11
3.612266935632698
 21
5.032595924139336
 31
0.0
  0
LINE
  5
308
330
1F
100
AcDbEntity
  8
0
  6
Continuous
 62
     7
370
    15
100
AcDbLine
 10
3.692025836404766
 20
5.119900338009254
 30
0.0
 11
3.612266935632698
 21
5.032595924139336
 31
0.0
  0
LINE
  5
309
330
1F
100
AcDbEntity
  8
0
  6
Continuous
 62
     7
370
    15
100
AcDbLine
 10
3.236308007052592
 20
5.139626812567271
 30
0.0
 11
3.230179740509147
 21
5.141268642903043
 31
0.0
  0
LINE
  5
30A
330
1F
100
AcDbEntity
  8
0
  6
Continuous
 62
     7
370
    15
100
AcDbLine
 10
3.150420839737079
 20
5.011227647030012
 30
0.0
 11
3.156549106280524
 21
5.009585816694239
 31
0.0
  0
LINE
  5
30B
330
1F
100
AcDbEntity
  8
0
  6
Continuous
 62
     7
370
    15
100
AcDbLine
 10
3.150420839737079
 20
5.011227647030012
 30
0.0
 11
3.230179740509147
 21
5.141268642903043
 31
0.0
  0
ARC
  5
30C
330
1F
100
AcDbEntity
  8
0
  6
Continuous
 62
     7
370
    15
100
AcDbCircle
 10
3.637799443601872
 20
5.377516146501977
 30
0.0
 40
0.0298474372105405
100
AcDbArc
 50
180.2102389147767
 51
211.1923028222159
  0
LINE
  5
30D
330
1F
100
AcDbEntity
  8
0
  6
Continuous
 62
     7
370
    15
100
AcDbLine
 10
3.152234377975046
 20
4.994236982881154
 30
0.0
 11
3.1461061114316
 21
4.995878813216926
 31
0.0
  0
ARC
  5
30E
330
1F
100
AcDbEntity
  8
0
  6
Continuous
 62
     7
370
    15
100
AcDbCircle
 10
3.175954003915971
 20
4.995769113894112
 30
0.0
 40
0.0298480940714813
100
AcDbArc
 50
148.8080467232234
 51
179.7894229913823
  0
LINE
  5
30F
330
1F
100
AcDbEntity
  8
0
  6
Continuous
 62
     7
370
    15
100
AcDbLine
 10
3.1461061114316
 20
4.964049319237899
 30
0.0
 11
3.152234377975046
 21
4.962407488902126
 31
0.0
  0
LINE
  5
310
330
1F
100
AcDbEntity
  8
0
  6
Continuous
 62
     7
370
    15
100
AcDbLine
 10
3.1461061114316
 20
4.995878813216926
 30
0.0
 11
3.1461061114316
 21
4.964049319237899
 31
0.0
  0
LINE
  5
311
330
1F
100
AcDbEntity
  8
0
  6
Continuous
 62
     7
370
    15
100
AcDbLine
 10
3.24062273535807
 20
5.238706375349157
 30
0.0
 11
3.234494468814625
 21
5.240348205684929
 31
0.0
  0
ARC
  5
312
330
1F
100
AcDbEntity
  8
0
  6
Continuous
 62
     7
370
    15
100
AcDbCircle
 10
3.215188513195765
 20
5.241191114463545
 30
0.0
 40
0.0193243477914898
100
AcDbArc
 50
357.5000220603308
 51
39.12520756907933
  0
LINE
  5
313
330
1F
100
AcDbEntity
  8
0
  6
Continuous
 62
     7
370
    15
100
AcDbLine
 10
3.234494468814625
 20
5.156617464940843
 30
0.0
 11
3.24062273535807
 21
5.154975634605071
 31
0.0
  0
LINE
  5
314
330
1F
100
AcDbEntity
  8
0
  6
Continuous
 62
     7
370
    15
100
AcDbLine
 10
3.234494468814625
 20
5.156617464940843
 30
0.0
 11
3.234494468814625
 21
5.240348205684929
 31
0.0
  0
ARC
  5
315
330
1F
100
AcDbEntity
  8
0
  6
Continuous
 62
     7
370
    15
100
AcDbCircle
 10
3.20464656642448
 20
5.156727178907732
 30
0.0
 40
0.0298481040310123
100
AcDbArc
 50
328.8080518604009
 51
359.7893949510051
  0
SPLINE
  5
316
330
1F
100
AcDbEntity
  8
0
  6
Continuous
 62
     7
370
    15
100
AcDbSpline
210
0.0
220
0.0
230
1.0
 70
     8
 71
     3
 72
    15
 73
    11
 74
     0
 42
0.0000000001
 43
0.0000000001
 40
0.0
 40
0.0
 40
0.0
 40
0.0
 40
0.1587490047617104
 40
0.2939474560414448
 40
0.4065644624589612
 40
0.4983010423352642
 40
0.6036136862888859
 40
0.7205470000170241
 40
0.851995678865807
 40
1.0
 40
1.0
 40
1.0
 40
1.0
 10
3.426526635019899
 20
5.74483186341959
 30
0.0
 10
3.426076841537811
 20
5.745222519886096
 30
0.0
 10
3.425243981829479
 20
5.745945878591165
 30
0.0
 10
3.423791565246394
 20
5.746732644682037
 30
0.0
 10
3.422463664623081
 20
5.747211822921416
 30
0.0
 10
3.421171733636487
 20
5.747410465089407
 30
0.0
 10
3.419851654173988
 20
5.747259600044107
 30
0.0
 10
3.41846671898075
 20
5.746782544722677
 30
0.0
 10
3.417080649812797
 20
5.745976215242593
 30
0.0
 10
3.416321883043147
 20
5.745228087805827
 30
0.0
 10
3.415920023837313
 20
5.74483186341959
 30
0.0
  0
LINE
  5
317
330
1F
100
AcDbEntity
  8
0
  6
Continuous
 62
     7
370
    15
100
AcDbLine
 10
3.60795220732722
 20
5.019559017123928
 30
0.0
 11
3.601823958068407
 21
5.0179171914189
 31
0.0
  0
ARC
  5
318
330
1F
100
AcDbEntity
  8
0
  6
Continuous
 62
     7
370
    15
100
AcDbCircle
 10
3.627257736472338
 20
5.020402069802879
 30
0.0
 40
0.0193239280011206
100
AcDbArc
 50
140.8743187321203
 51
182.5004593568749
  0
LINE
  5
319
330
1F
100
AcDbEntity
  8
0
  6
Continuous
 62
     7
370
    15
100
AcDbLine
 10
3.601823958068407
 20
4.986087697439873
 30
0.0
 11
3.60795220732722
 21
4.9877295231449
 31
0.0
  0
LINE
  5
31A
330
1F
100
AcDbEntity
  8
0
  6
Continuous
 62
     7
370
    15
100
AcDbLine
 10
3.60795220732722
 20
5.019559017123928
 30
0.0
 11
3.60795220732722
 21
4.9877295231449
 31
0.0
  0
SPLINE
  5
31B
330
1F
100
AcDbEntity
  8
0
  6
Continuous
 62
     7
370
    15
100
AcDbSpline
210
0.0
220
0.0
230
1.0
 70
     8
 71
     3
 72
    15
 73
    11
 74
     0
 42
0.0000000001
 43
0.0000000001
 40
0.0
 40
0.0
 40
0.0
 40
0.0
 40
0.1480036999774094
 40
0.2794519154437865
 40
0.3963859738118049
 40
0.5016988465135177
 40
0.5934356256495366
 40
0.7060528766808454
 40
0.8412523355697302
 40
1.0
 40
1.0
 40
1.0
 40
1.0
 10
3.415920023837313
 20
5.628022435666662
 30
0.0
 10
3.416321882617793
 20
5.627817337986259
 30
0.0
 10
3.417080648824046
 20
5.627430084561848
 30
0.0
 10
3.418466728032188
 20
5.626994257886481
 30
0.0
 10
3.419851649819811
 20
5.626727565404467
 30
0.0
 10
3.421171734276577
 20
5.6266392388475
 30
0.0
 10
3.422463663935268
 20
5.626783785826692
 30
0.0
 10
3.423791570827498
 20
5.627081767142528
 30
0.0
 10
3.425243967387982
 20
5.627509300422732
 30
0.0
 10
3.426076838608901
 20
5.62784249318949
 30
0.0
 10
3.426526635019899
 20
5.628022435666662
 30
0.0
  0
SPLINE
  5
31C
330
1F
100
AcDbEntity
  8
0
  6
Continuous
 62
     7
370
    15
100
AcDbSpline
210
0.0
220
0.0
230
1.0
 70
     8
 71
     3
 72
    12
 73
     8
 74
     0
 42
0.0000000001
 43
0.0000000001
 40
0.0
 40
0.0
 40
0.0
 40
0.0
 40
0.070546978306339
 40
0.2845167557093519
 40
0.4817110753240852
 40
0.8566026333455191
 40
1.0
 40
1.0
 40
1.0
 40
1.0
 10
3.414562246795841
 20
5.629236772709623
 30
0.0
 10
3.414856043285042
 20
5.629214294229512
 30
0.0
 10
3.41604092782515
 20
5.62912363826681
 30
0.0
 10
3.418318988451638
 20
5.629024822152249
 30
0.0
 10
3.42206932511666
 20
5.628953904966396
 30
0.0
 10
3.425585181671698
 20
5.629199727527212
 30
0.0
 10
3.427766804513495
 20
5.629348667536499
 30
0.0
 10
3.428370404080556
 20
5.629389875449892
 30
0.0
  0
SPLINE
  5
31D
330
1F
100
AcDbEntity
  8
0
  6
Continuous
 62
     7
370
    15
100
AcDbSpline
210
0.0
220
0.0
230
1.0
 70
     8
 71
     3
 72
    15
 73
    11
 74
     0
 42
0.0000000001
 43
0.0000000001
 40
0.0
 40
0.0
 40
0.0
 40
0.0
 40
0.1587477249369931
 40
0.2939465214103991
 40
0.4065643418773651
 40
0.4983011559788871
 40
0.6036140688206351
 40
0.7205481717581075
 40
0.851997186226505
 40
1.0
 40
1.0
 40
1.0
 40
1.0
 10
3.426526635019899
 20
5.564186206098171
 30
0.0
 10
3.426076840091303
 20
5.564576844376663
 30
0.0
 10
3.425243973638184
 20
5.56530017293547
 30
0.0
 10
3.423791561183861
 20
5.566086932902359
 30
0.0
 10
3.422463668294623
 20
5.566566147816577
 30
0.0
 10
3.421171733540035
 20
5.566764781197829
 30
0.0
 10
3.419851650624027
 20
5.566613925923695
 30
0.0
 10
3.418466722343832
 20
5.566136833636337
 30
0.0
 10
3.417080659115888
 20
5.565330510070087
 30
0.0
 10
3.41632188469016
 20
5.564582412364308
 30
0.0
 10
3.415920023837313
 20
5.564186206098171
 30
0.0
  0
SPLINE
  5
31E
330
1F
100
AcDbEntity
  8
0
  6
Continuous
 62
     7
370
    15
100
AcDbSpline
210
0.0
220
0.0
230
1.0
 70
     8
 71
     3
 72
    15
 73
    11
 74
     0
 42
0.0000000001
 43
0.0000000001
 40
0.0
 40
0.0
 40
0.0
 40
0.0
 40
0.1587478535155241
 40
0.2939469370714623
 40
0.4065643044370651
 40
0.4983011312418279
 40
0.6036139896446944
 40
0.7205480321360011
 40
0.8519967914277783
 40
1.0
 40
1.0
 40
1.0
 40
1.0
 10
3.426526635019899
 20
5.383540513450892
 30
0.0
 10
3.426076839476797
 20
5.383931151763402
 30
0.0
 10
3.425243971382673
 20
5.384654480822169
 30
0.0
 10
3.423791567225578
 20
5.385441267473992
 30
0.0
 10
3.422463664590919
 20
5.385920447966745
 30
0.0
 10
3.421171734554647
 20
5.38611909814494
 30
0.0
 10
3.419851650219527
 20
5.385968238393119
 30
0.0
 10
3.418466723919586
 20
5.385491145643948
 30
0.0
 10
3.417080655271919
 20
5.384684831387721
 30
0.0
 10
3.416321883928758
 20
5.383936725113807
 30
0.0
 10
3.415920023837313
 20
5.383540513450892
 30
0.0
  0
SPLINE
  5
31F
330
1F
100
AcDbEntity
  8
0
  6
Continuous
 62
     7
370
    15
100
AcDbSpline
210
0.0
220
0.0
230
1.0
 70
     8
 71
     3
 72
    15
 73
    11
 74
     0
 42
0.0000000001
 43
0.0000000001
 40
0.0
 40
0.0
 40
0.0
 40
0.0
 40
0.1480031602684738
 40
0.2794520638866444
 40
0.3963860682142344
 40
0.5016988922461855
 40
0.5934357492376613
 40
0.7060529482235304
 40
0.8412519876545978
 40
0.9999999999999998
 40
0.9999999999999998
 40
0.9999999999999998
 40
0.9999999999999998
 10
3.415920023837313
 20
5.44737675479467
 30
0.0
 10
3.416321884203537
 20
5.447171664966614
 30
0.0
 10
3.417080656573884
 20
5.446784424750737
 30
0.0
 10
3.418466722651133
 20
5.446348558307654
 30
0.0
 10
3.419851650217135
 20
5.446081875800869
 30
0.0
 10
3.421171735201007
 20
5.445993541266093
 30
0.0
 10
3.422463663066911
 20
5.446138109458476
 30
0.0
 10
3.423791568445452
 20
5.446436087646941
 30
0.0
 10
3.425243972252256
 20
5.446863602431417
 30
0.0
 10
3.426076839603491
 20
5.4471968060297
 30
0.0
 10
3.426526635019899
 20
5.44737675479467
 30
0.0
  0
SPLINE
  5
320
330
1F
100
AcDbEntity
  8
0
  6
Continuous
 62
     7
370
    15
100
AcDbSpline
210
0.0
220
0.0
230
1.0
 70
     8
 71
     3
 72
    12
 73
     8
 74
     0
 42
0.0000000001
 43
0.0000000001
 40
0.0
 40
0.0
 40
0.0
 40
0.0
 40
0.070546983258014
 40
0.2845167756795128
 40
0.4817111091352668
 40
0.8566027757556803
 40
1.0
 40
1.0
 40
1.0
 40
1.0
 10
3.414562246795841
 20
5.448591080062344
 30
0.0
 10
3.414856043286605
 20
5.448568601569777
 30
0.0
 10
3.416040927833013
 20
5.448477945556839
 30
0.0
 10
3.418318988341096
 20
5.448379130386317
 30
0.0
 10
3.422069326014961
 20
5.448308208279719
 30
0.0
 10
3.425585178943929
 20
5.448554057138635
 30
0.0
 10
3.42776680436104
 20
5.448702979742962
 30
0.0
 10
3.428370404080556
 20
5.448744182802614
 30
0.0
  0
SPLINE
  5
321
330
1F
100
AcDbEntity
  8
0
  6
Continuous
 62
     7
370
    15
100
AcDbSpline
210
0.0
220
0.0
230
1.0
 70
     8
 71
     3
 72
    12
 73
     8
 74
     0
 42
0.0000000001
 43
0.0000000001
 40
0.0
 40
0.0
 40
0.0
 40
0.0
 40
0.0705469084875452
 40
0.2845167181219868
 40
0.4817110674411707
 40
0.8566027642199948
 40
1.0
 40
1.0
 40
1.0
 40
1.0
 10
3.414562246795841
 20
5.267945393302708
 30
0.0
 10
3.41485604333988
 20
5.267922917041698
 30
0.0
 10
3.416040929117267
 20
5.267832269950913
 30
0.0
 10
3.418318988038298
 20
5.267733447744556
 30
0.0
 10
3.422069326177391
 20
5.267662528357091
 30
0.0
 10
3.425585178927085
 20
5.267908376168196
 30
0.0
 10
3.427766804357389
 20
5.268057298849634
 30
0.0
 10
3.428370404080556
 20
5.268098501930621
 30
0.0
  0
SPLINE
  5
322
330
1F
100
AcDbEntity
  8
0
  6
Continuous
 62
     7
370
    15
100
AcDbSpline
210
0.0
220
0.0
230
1.0
 70
     8
 71
     3
 72
    15
 73
    11
 74
     0
 42
0.0000000001
 43
0.0000000001
 40
0.0
 40
0.0
 40
0.0
 40
0.0
 40
0.1480032085722217
 40
0.2794519678639991
 40
0.3963860103553057
 40
0.5016988687581721
 40
0.593435695562935
 40
0.7060530629285378
 40
0.8412521464844758
 40
1.0
 40
1.0
 40
1.0
 40
1.0
 10
3.415920023837313
 20
5.266731068035035
 30
0.0
 10
3.416321883928758
 20
5.26652597745009
 30
0.0
 10
3.417080655271918
 20
5.266138736064541
 30
0.0
 10
3.418466723919586
 20
5.265702879206723
 30
0.0
 10
3.419851650219527
 20
5.265436193668691
 30
0.0
 10
3.421171734554647
 20
5.265347863297812
 30
0.0
 10
3.42246366459092
 20
5.265492418673638
 30
0.0
 10
3.423791567225578
 20
5.265790409849112
 30
0.0
 10
3.425243971382673
 20
5.266217921386465
 30
0.0
 10
3.426076839476797
 20
5.26655112134536
 30
0.0
 10
3.426526635019899
 20
5.266731068035035
 30
0.0
  0
SPLINE
  5
323
330
1F
100
AcDbEntity
  8
0
  6
Continuous
 62
     7
370
    15
100
AcDbSpline
210
0.0
220
0.0
230
1.0
 70
     8
 71
     3
 72
    15
 73
    11
 74
     0
 42
0.0000000001
 43
0.0000000001
 40
0.0
 40
0.0
 40
0.0
 40
0.0
 40
0.1587476946856061
 40
0.2939468223654631
 40
0.4065643581120456
 40
0.4983011547319572
 40
0.6036140475049975
 40
0.7205481281591976
 40
0.8519967431250723
 40
0.9999999999999998
 40
0.9999999999999998
 40
0.9999999999999998
 40
0.9999999999999998
 10
3.426526635019899
 20
5.2028948325789
 30
0.0
 10
3.426076839350103
 20
5.203285468859222
 30
0.0
 10
3.425243970513097
 20
5.20400879459651
 30
0.0
 10
3.423791566005693
 20
5.204795577795164
 30
0.0
 10
3.422463666114919
 20
5.205274770993082
 30
0.0
 10
3.421171733908309
 20
5.205473408517018
 30
0.0
 10
3.419851650221917
 20
5.205322552839983
 30
0.0
 10
3.41846672518803
 20
5.204845457411081
 30
0.0
 10
3.417080653969962
 20
5.204039152014134
 30
0.0
 10
3.41632188365398
 20
5.203291044934169
 30
0.0
 10
3.415920023837313
 20
5.2028948325789
 30
0.0
  0
SPLINE
  5
324
330
1F
100
AcDbEntity
  8
0
  6
Continuous
 62
     7
370
    15
100
AcDbSpline
210
0.0
220
0.0
230
1.0
 70
     8
 71
     3
 72
    12
 73
     8
 74
     0
 42
0.0000000001
 43
0.0000000001
 40
0.0
 40
0.0
 40
0.0
 40
0.0
 40
0.070546988209213
 40
0.2845167956477538
 40
0.4817111429431977
 40
0.856602918161974
 40
1.0
 40
1.0
 40
1.0
 40
1.0
 10
3.414562246795841
 20
5.087299706543073
 30
0.0
 10
3.414856043288168
 20
5.08727722803805
 30
0.0
 10
3.416040927840876
 20
5.087186571974874
 30
0.0
 10
3.418318988230553
 20
5.087087757748395
 30
0.0
 10
3.422069326913268
 20
5.087016830721046
 30
0.0
 10
3.425585176216216
 20
5.087262705878092
 30
0.0
 10
3.427766804208587
 20
5.08741161107743
 30
0.0
 10
3.428370404080556
 20
5.087452809283344
 30
0.0
  0
SPLINE
  5
325
330
1F
100
AcDbEntity
  8
0
  6
Continuous
 62
     7
370
    15
100
AcDbSpline
210
0.0
220
0.0
230
1.0
 70
     8
 71
     3
 72
    15
 73
    11
 74
     0
 42
0.0000000001
 43
0.0000000001
 40
0.0
 40
0.0
 40
0.0
 40
0.0
 40
0.1480035345049574
 40
0.2794523519077649
 40
0.3963862795400965
 40
0.5016990344989468
 40
0.5934359515828051
 40
0.7060530767047434
 40
0.8412516704909654
 40
0.9999999999999998
 40
0.9999999999999998
 40
0.9999999999999998
 40
0.9999999999999998
 10
3.415920023837313
 20
5.086085393050686
 30
0.0
 10
3.416321883723192
 20
5.085880298375771
 30
0.0
 10
3.41708065405001
 20
5.085493049588365
 30
0.0
 10
3.418466722898078
 20
5.085057184847901
 30
0.0
 10
3.419851650001322
 20
5.084790503606712
 30
0.0
 10
3.421171736258985
 20
5.084702163186781
 30
0.0
 10
3.422463662156373
 20
5.084846752100275
 30
0.0
 10
3.423791566078299
 20
5.085144727320986
 30
0.0
 10
3.425243977111714
 20
5.085572223554626
 30
0.0
 10
3.4260768405964
 20
5.085905437993172
 30
0.0
 10
3.426526635019899
 20
5.086085393050686
 30
0.0
  0
ARC
  5
326
330
1F
100
AcDbEntity
  8
0
  6
Continuous
 62
     7
370
    15
100
AcDbCircle
 10
3.421223329428606
 20
5.010110573940394
 30
0.0
 40
0.0235462170323544
100
AcDbArc
 50
76.98361880098666
 51
103.0163811990133
  0
LINE
  5
327
330
1F
100
AcDbEntity
  8
0
  6
Continuous
 62
     8
370
    15
100
AcDbLine
 10
6.9432972515605
 20
4.717970847754723
 30
0.0
 11
6.944280124917506
 21
4.718953602799651
 31
0.0
  0
LINE
  5
328
330
1F
100
AcDbEntity
  8
0
  6
Continuous
 62
     8
370
    15
100
AcDbLine
 10
6.9432972515605
 20
4.196105534374206
 30
0.0
 11
6.944280124917506
 21
4.197088289419133
 31
0.0
  0
ARC
  5
329
330
1F
100
AcDbEntity
  8
0
  6
Continuous
 62
     8
370
    15
100
AcDbCircle
 10
7.021820154635218
 20
4.695494866408473
 30
0.0
 40
0.0260830018613558
100
AcDbArc
 50
318.2215377537271
 51
131.7703182453158
  0
ARC
  5
32A
330
1F
100
AcDbEntity
  8
0
  6
Continuous
 62
     8
370
    15
100
AcDbCircle
 10
7.02182015457762
 20
4.242836932225309
 30
0.0
 40
0.0260830018659396
100
AcDbArc
 50
318.2215379323629
 51
131.7703180666802
  0
ARC
  5
32B
330
1F
100
AcDbEntity
  8
0
  6
Continuous
 62
     8
370
    15
100
AcDbCircle
 10
6.925227424010377
 20
4.103457246555474
 30
0.0
 40
0.0260830106522408
100
AcDbArc
 50
318.2215652289303
 51
131.7703589623988
  0
LWPOLYLINE
  5
32C
330
1F
100
AcDbEntity
  8
0
  6
Continuous
 62
     8
370
    15
100
AcDbPolyline
 90
       21
 70
   128
 43
0.0
 10
7.317833637580199
 20
4.07476555150551
 10
7.318948150700271
 20
4.075008412341044
 10
7.321910875031616
 20
4.075150259352259
 10
7.324946056543475
 20
4.074595521115481
 10
7.327971282106865
 20
4.073359188296386
 10
7.330903862038686
 20
4.07147507190846
 10
7.333663595642953
 20
4.068994591382475
 10
7.336175260197913
 20
4.065985401222156
 10
7.338370546834918
 20
4.062529529978187
 10
7.340189719863163
 20
4.058721192954393
 10
7.341582722986189
 20
4.054664423389711
 10
7.342511668289
 20
4.050469815068036
 10
7.342951389346298
 20
4.046251760020831
 10
7.342889717776627
 20
4.042125359961913
 10
7.342328312904729
 20
4.038203165987845
 10
7.341282661761556
 20
4.034592140554063
 10
7.339781249421887
 20
4.031390771074981
 10
7.337865005896085
 20
4.028686392039085
 10
7.335586199913607
 20
4.026552773060686
 10
7.33300705615237
 20
4.025048110731609
 10
7.331312055925839
 20
4.024456409741575
  0
LWPOLYLINE
  5
32D
330
1F
100
AcDbEntity
  8
0
  6
Continuous
 62
     8
370
    15
100
AcDbPolyline
 90
       14
 70
   128
 43
0.0
 10
7.307518255174909
 20
4.044561331124741
 10
7.308909045864944
 20
4.040531107026469
 10
7.310733473421548
 20
4.036757559486756
 10
7.312938992561143
 20
4.033349250865625
 10
7.315462272389315
 20
4.030404232831559
 10
7.318230855725553
 20
4.028007176101062
 10
7.321164818427994
 20
4.026227088942558
 10
7.324179811488793
 20
4.025115206883913
 10
7.32718927346711
 20
4.02470345795428
 10
7.330106366367981
 20
4.025003732085598
 10
7.332847570845935
 20
4.026007318277549
 10
7.335333515867356
 20
4.027685459490737
 10
7.337493127022352
 20
4.029989772055325
 10
7.338054255340125
 20
4.030773737899195
  0
LWPOLYLINE
  5
32E
330
1F
100
AcDbEntity
  8
0
  6
Continuous
 62
     8
370
    15
100
AcDbPolyline
 90
       13
 70
   128
 43
0.0
 10
7.32497877635328
 20
4.073435423848319
 10
7.322276566006824
 20
4.074085615470783
 10
7.31930250295639
 20
4.074141593014853
 10
7.316463121764387
 20
4.073487305554753
 10
7.31384000589742
 20
4.072141614918396
 10
7.311508931185489
 20
4.070143167007029
 10
7.309536547172498
 20
4.06754953815572
 10
7.307979824008011
 20
4.064435310866777
 10
7.30688356346013
 20
4.060890055871607
 10
7.306279016144874
 20
4.057015829420375
 10
7.306184158080313
 20
4.052923943413351
 10
7.306601201699436
 20
4.048732264496162
 10
7.307518255174909
 20
4.044561331124741
  0
LWPOLYLINE
  5
32F
330
1F
100
AcDbEntity
  8
0
  6
Continuous
 62
     8
370
    15
100
AcDbPolyline
 90
       21
 70
   128
 43
0.0
 10
7.388544378797443
 20
4.202135124357852
 10
7.38965861536339
 20
4.202378065172934
 10
7.392621339694737
 20
4.202519918071793
 10
7.395656797760718
 20
4.201965093967823
 10
7.398682023324109
 20
4.200728772924014
 10
7.401614326701805
 20
4.198844718852708
 10
7.404374336860197
 20
4.196364158347173
 10
7.406886001415156
 20
4.193354968186854
 10
7.409081288052162
 20
4.189899096942886
 10
7.410900184526282
 20
4.186090851673927
 10
7.41229318764931
 20
4.182034076221602
 10
7.413222132952118
 20
4.17783947378757
 10
7.413661854009419
 20
4.173621418740365
 10
7.413600182439746
 20
4.169495018681447
 10
7.413039054121973
 20
4.165572750615473
 10
7.411993402978799
 20
4.161961713406404
 10
7.41049199063913
 20
4.158760343927323
 10
7.408575747113329
 20
4.156055970779069
 10
7.406296941130851
 20
4.153922357688314
 10
7.403717520815488
 20
4.152417769451143
 10
7.402022797143083
 20
4.151825994369203
  0
LWPOLYLINE
  5
330
330
1F
100
AcDbEntity
  8
0
  6
Continuous
 62
     8
370
    15
100
AcDbPolyline
 90
       14
 70
   128
 43
0.0
 10
7.378228719838029
 20
4.171930978068989
 10
7.379619510528064
 20
4.167900748083074
 10
7.381443938084666
 20
4.164127200543361
 10
7.383649733778387
 20
4.160718835493254
 10
7.386173013606558
 20
4.1577738056839
 10
7.388941320388672
 20
4.15537682304531
 10
7.391875559645238
 20
4.153596673570186
 10
7.394890552706037
 20
4.152484791511541
 10
7.397900014684354
 20
4.152073030806622
 10
7.400817107585226
 20
4.152373316713227
 10
7.403558312063179
 20
4.153376891129891
 10
7.406044257084598
 20
4.15505503234308
 10
7.408203868239596
 20
4.157359339020023
 10
7.408764996557368
 20
4.158143310751536
  0
LWPOLYLINE
  5
331
330
1F
100
AcDbEntity
  8
0
  6
Continuous
 62
     8
370
    15
100
AcDbPolyline
 90
       13
 70
   128
 43
0.0
 10
7.395689517570525
 20
4.200805002588304
 10
7.392987307224068
 20
4.201455200098412
 10
7.390013244173634
 20
4.201511159979552
 10
7.38717386298163
 20
4.200856872519451
 10
7.384550747114663
 20
4.199511187770737
 10
7.382219672402731
 20
4.197512733971727
 10
7.380247288389742
 20
4.194919116895705
 10
7.378690565225254
 20
4.191804883719118
 10
7.377594304677372
 20
4.188259628723948
 10
7.376989757362118
 20
4.18438540816036
 10
7.376894899297556
 20
4.180293528040979
 10
7.377311666362555
 20
4.176101911440411
 10
7.378228719838029
 20
4.171930978068989
  0
LWPOLYLINE
  5
332
330
1F
100
AcDbEntity
  8
0
  6
Continuous
 62
     8
370
    15
100
AcDbPolyline
 90
       21
 70
   128
 43
0.0
 10
3.526200751375736
 20
5.497671757135449
 10
3.527315126218746
 20
5.497914655016936
 10
3.530277885119358
 20
5.498056492766664
 10
3.533313239477543
 20
5.497501708222444
 10
3.536338395902402
 20
5.496265393926326
 10
3.539270872126426
 20
5.494381305322865
 10
3.542030640299958
 20
5.491900815535391
 10
3.544542443131981
 20
5.488891588329119
 10
3.546737764338251
 20
5.485435696048376
 10
3.548556729950903
 20
5.481627426368797
 10
3.549949698504666
 20
5.477570666065603
 10
3.55087867837674
 20
5.473376048482441
 10
3.551318330295508
 20
5.469158011958212
 10
3.551256693295102
 20
5.465031602637806
 10
3.550695426700267
 20
5.461109371617785
 10
3.549649810126358
 20
5.457498336922514
 10
3.548148397786689
 20
5.454296955668146
 10
3.546232154260888
 20
5.451592588407536
 10
3.543953313709144
 20
5.449458978690625
 10
3.54137406624011
 20
5.447954344146013
 10
3.53967913515211
 20
5.447362624633004
  0
LWPOLYLINE
  5
333
330
1F
100
AcDbEntity
  8
0
  6
Continuous
 62
     8
370
    15
100
AcDbPolyline
 90
       14
 70
   128
 43
0.0
 10
3.51588526526265
 20
5.46746755276386
 10
3.517276021383419
 20
5.463437337927075
 10
3.519100448940023
 20
5.459663790387361
 10
3.521306037218149
 20
5.456255475018541
 10
3.523829386184852
 20
5.453310438461499
 10
3.526597865813293
 20
5.45091339774018
 10
3.529531863085
 20
5.449133313095474
 10
3.53254692528433
 20
5.448021412513853
 10
3.535556352693382
 20
5.447609661070421
 10
3.538473583871316
 20
5.447909909931072
 10
3.541214650072207
 20
5.448913521393691
 10
3.543700698801423
 20
5.450591634822414
 10
3.545860240817889
 20
5.452895965909978
 10
3.546421438274194
 20
5.45367991323087
  0
LWPOLYLINE
  5
334
330
1F
100
AcDbEntity
  8
0
  6
Continuous
 62
     8
370
    15
100
AcDbPolyline
 90
       13
 70
   128
 43
0.0
 10
3.533345821010287
 20
5.496341648001236
 10
3.530643610663831
 20
5.496991839623699
 10
3.527669547613396
 20
5.497047793617197
 10
3.524830200990658
 20
5.496393496895608
 10
3.522207188831488
 20
5.49504780202536
 10
3.519875975842495
 20
5.493049379384658
 10
3.51790362639877
 20
5.490455753047148
 10
3.516346937803548
 20
5.487341516496717
 10
3.515250608117135
 20
5.483796268249237
 10
3.514646233648208
 20
5.47992200726585
 10
3.514551168168053
 20
5.475830176827756
 10
3.514968177217911
 20
5.471638507172055
 10
3.51588526526265
 20
5.46746755276386
  0
ARC
  5
335
330
1F
100
AcDbEntity
  8
0
  6
Continuous
 62
     8
370
    15
100
AcDbCircle
 10
3.301033054075636
 20
5.652185419246882
 30
0.0
 40
0.0141704540507692
100
AcDbArc
 50
193.714230870682
 51
321.4147732312054
  0
ARC
  5
336
330
1F
100
AcDbEntity
  8
0
  6
Continuous
 62
     8
370
    15
100
AcDbCircle
 10
3.306598574509846
 20
5.672663089668664
 30
0.0
 40
0.0143319196712782
100
AcDbArc
 50
4.180468894931536
 51
109.4582123501564
  0
LWPOLYLINE
  5
337
330
1F
100
AcDbEntity
  8
0
  6
Continuous
 62
     8
370
    15
100
AcDbPolyline
 90
       21
 70
   128
 43
0.0
 10
7.388544378797443
 20
4.654793064371068
 10
7.38965861536339
 20
4.65503602284908
 10
7.392621339694737
 20
4.655177846309723
 10
7.395656797760718
 20
4.654623057531612
 10
7.398682023324109
 20
4.653386724712517
 10
7.401614326701805
 20
4.651502682416497
 10
7.404374336860197
 20
4.649022104248033
 10
7.406886001415156
 20
4.646012914087714
 10
7.409081288052162
 20
4.642557042843745
 10
7.410900184526282
 20
4.638748803462429
 10
7.41229318764931
 20
4.634692010347174
 10
7.413222132952118
 20
4.630497425576073
 10
7.413661854009419
 20
4.626279370528868
 10
7.413600182439746
 20
4.622152946919377
 10
7.413039054121973
 20
4.618230702403977
 10
7.411993402978799
 20
4.614619653419621
 10
7.41049199063913
 20
4.611418283940539
 10
7.408575747113329
 20
4.608713904904642
 10
7.406296941130851
 20
4.606580309476816
 10
7.403717520815488
 20
4.605075721239646
 10
7.402022797143083
 20
4.604483946157706
  0
LWPOLYLINE
  5
338
330
1F
100
AcDbEntity
  8
0
  6
Continuous
 62
     8
370
    15
100
AcDbPolyline
 90
       14
 70
   128
 43
0.0
 10
7.378228719838029
 20
4.624588918082206
 10
7.379619510528064
 20
4.620558693983933
 10
7.381443938084666
 20
4.61678514644422
 10
7.383649733778387
 20
4.613376787281756
 10
7.386173013606558
 20
4.610431745697117
 10
7.388941320388672
 20
4.608034763058527
 10
7.391875559645238
 20
4.606254625358689
 10
7.394890552706037
 20
4.605142719749471
 10
7.397900014684354
 20
4.604730970819837
 10
7.400817107585226
 20
4.605031244951156
 10
7.403558312063179
 20
4.606034831143107
 10
7.406044257084598
 20
4.607712972356295
 10
7.408203868239596
 20
4.610017284920882
 10
7.408764996557368
 20
4.610801250764753
  0
LWPOLYLINE
  5
339
330
1F
100
AcDbEntity
  8
0
  6
Continuous
 62
     8
370
    15
100
AcDbPolyline
 90
       13
 70
   128
 43
0.0
 10
7.395689517570525
 20
4.653462936713878
 10
7.392987307224068
 20
4.654113128336342
 10
7.390013244173634
 20
4.65416910588041
 10
7.38717386298163
 20
4.65351481842031
 10
7.384550747114663
 20
4.652169127783954
 10
7.382219672402731
 20
4.650170679872586
 10
7.380247288389742
 20
4.647577051021278
 10
7.378690565225254
 20
4.644462823732335
 10
7.377594304677372
 20
4.640917568737165
 10
7.376989757362118
 20
4.637043342285934
 10
7.376894899297556
 20
4.632951479829482
 10
7.377311666362555
 20
4.628759851453628
 10
7.378228719838029
 20
4.624588918082206
  0
LWPOLYLINE
  5
33A
330
1F
100
AcDbEntity
  8
0
  6
Continuous
 62
     8
370
    15
100
AcDbPolyline
 90
       21
 70
   128
 43
0.0
 10
2.023598883279931
 20
6.092121255281401
 10
2.024713258122941
 20
6.092364176713462
 10
2.027675982454287
 20
6.092506000174105
 10
2.030711302243207
 20
6.091951248441946
 10
2.033736458668065
 20
6.090714934145829
 10
2.036668969461356
 20
6.088830836280878
 10
2.039428703065622
 20
6.086350332204321
 10
2.041940575036175
 20
6.083341086475072
 10
2.04413586167318
 20
6.079885215231103
 10
2.045954827285833
 20
6.076076957326811
 10
2.047347761270328
 20
6.072020182734533
 10
2.048276775711669
 20
6.067825579440454
 10
2.048716427630437
 20
6.063607542916225
 10
2.048654756060765
 20
6.059481119306735
 10
2.048093489465931
 20
6.055558911837287
 10
2.047047907461287
 20
6.051947844329955
 10
2.045546495121618
 20
6.048746474850874
 10
2.043630251595817
 20
6.046042095814978
 10
2.041351376474807
 20
6.043908518910128
 10
2.038772163575039
 20
6.042403875104028
 10
2.037077232487039
 20
6.041812155591017
  0
LWPOLYLINE
  5
33B
330
1F
100
AcDbEntity
  8
0
  6
Continuous
 62
     8
370
    15
100
AcDbPolyline
 90
       14
 70
   128
 43
0.0
 10
2.013283362597579
 20
6.061917071946587
 10
2.014674084149083
 20
6.057886866371291
 10
2.016498511705687
 20
6.054113318831578
 10
2.018704099983813
 20
6.050705015238044
 10
2.021227448950515
 20
6.047759955130428
 10
2.023995963148222
 20
6.045362916922908
 10
2.026929925850663
 20
6.043582853314976
 10
2.029944988049993
 20
6.042470929182782
 10
2.032954450028311
 20
6.042059180253149
 10
2.035871681206245
 20
6.042359417338514
 10
2.038612747407135
 20
6.043363040576418
 10
2.041098761567087
 20
6.045041163266629
 10
2.043258372722084
 20
6.047345475831217
 10
2.043819501039857
 20
6.048129441675087
  0
LWPOLYLINE
  5
33C
330
1F
100
AcDbEntity
  8
0
  6
Continuous
 62
     8
370
    15
100
AcDbPolyline
 90
       13
 70
   128
 43
0.0
 10
2.030743883775951
 20
6.090791164670165
 10
2.028041673429494
 20
6.091441356292629
 10
2.025067679517591
 20
6.091497315313722
 10
2.022228298325587
 20
6.090843027853622
 10
2.019605251597151
 20
6.089497318694288
 10
2.017274038608158
 20
6.087498907828874
 10
2.015301723733699
 20
6.084905260454589
 10
2.013745000569211
 20
6.081791033165647
 10
2.012648670882799
 20
6.078245796693454
 10
2.012044330983137
 20
6.074371514673292
 10
2.011949265502982
 20
6.070279707785769
 10
2.012366309122106
 20
6.066088005318008
 10
2.013283362597579
 20
6.061917071946587
  0
LWPOLYLINE
  5
33D
330
1F
100
AcDbEntity
  8
0
  6
Continuous
 62
     8
370
    15
100
AcDbPolyline
 90
       21
 70
   128
 43
0.0
 10
3.543878436680047
 20
5.085849859075574
 10
3.544992811523057
 20
5.086092756957062
 10
3.547955535854403
 20
5.086234603968278
 10
3.550990890212589
 20
5.085679819424058
 10
3.554016081206713
 20
5.084443495866451
 10
3.556948522861472
 20
5.082559416524478
 10
3.55970832560427
 20
5.080078917475517
 10
3.562220128436292
 20
5.077069690269245
 10
3.564415415073296
 20
5.073613819025275
 10
3.566234380685949
 20
5.06980553757041
 10
3.567627383808976
 20
5.065748768005729
 10
3.568556329111786
 20
5.061554159684054
 10
3.568995981030553
 20
5.057336123159825
 10
3.568934378599413
 20
5.053209704577931
 10
3.568373112004577
 20
5.04928747355791
 10
3.567327460861404
 20
5.045676448124128
 10
3.565826048521734
 20
5.042475078645047
 10
3.563909804995934
 20
5.03977069960915
 10
3.561630999013455
 20
5.037637080630751
 10
3.559051716975155
 20
5.036132455347628
 10
3.557356785887156
 20
5.035540735834617
  0
LWPOLYLINE
  5
33E
330
1F
100
AcDbEntity
  8
0
  6
Continuous
 62
     8
370
    15
100
AcDbPolyline
 90
       14
 70
   128
 43
0.0
 10
3.533562915997695
 20
5.05564567574076
 10
3.534953672118465
 20
5.051615460903975
 10
3.536778099675068
 20
5.047841913364261
 10
3.53898372252246
 20
5.044433576958667
 10
3.541507036919897
 20
5.041488549663112
 10
3.544275551117604
 20
5.039091511455592
 10
3.547209513820046
 20
5.037311424297088
 10
3.550224610588641
 20
5.036199514453978
 10
3.553234037997693
 20
5.035787774785832
 10
3.556151234606361
 20
5.036088021132687
 10
3.558892300807252
 20
5.037091644370591
 10
3.561378384105734
 20
5.038769748537825
 10
3.5635379261222
 20
5.041074079625389
 10
3.564099123578504
 20
5.041858026946283
  0
LWPOLYLINE
  5
33F
330
1F
100
AcDbEntity
  8
0
  6
Continuous
 62
     8
370
    15
100
AcDbPolyline
 90
       13
 70
   128
 43
0.0
 10
3.551023506314598
 20
5.084519749941361
 10
3.548321261398876
 20
5.085169950825313
 10
3.545347232917708
 20
5.085225919107895
 10
3.542507851725704
 20
5.084571631647794
 10
3.539884839566533
 20
5.083225913226972
 10
3.53755362657754
 20
5.081227502361558
 10
3.535581311703081
 20
5.078633854987273
 10
3.534024588538594
 20
5.07551962769833
 10
3.532928293421446
 20
5.071974381964649
 10
3.532323918952519
 20
5.068100109205976
 10
3.532228853472364
 20
5.064008278767881
 10
3.532645862522223
 20
5.059816609112181
 10
3.533562915997695
 20
5.05564567574076
  0
LWPOLYLINE
  5
340
330
1F
100
AcDbEntity
  8
0
  6
Continuous
 62
     8
370
    15
100
AcDbPolyline
 90
       21
 70
   128
 43
0.0
 10
3.61458910875876
 20
5.213219450450893
 10
3.61570348360177
 20
5.213462354220023
 10
3.618666207933116
 20
5.213604207118883
 10
3.621701596860566
 20
5.213049401537888
 10
3.624726753285425
 20
5.211813099017056
 10
3.627659194940185
 20
5.209929007899797
 10
3.630418997682982
 20
5.207448502963192
 10
3.632930800515004
 20
5.20443927575692
 10
3.635126087152009
 20
5.200983404512951
 10
3.636945052764662
 20
5.197175140721014
 10
3.638338055887689
 20
5.19311836526869
 10
3.639267001190498
 20
5.188923762834659
 10
3.639706722247797
 20
5.184705707787454
 10
3.639645050678125
 20
5.180579307728536
 10
3.63908378408329
 20
5.176657076708515
 10
3.638038132940117
 20
5.173046039499446
 10
3.636536720600447
 20
5.169844670020365
 10
3.634620477074646
 20
5.167140296872111
 10
3.632341671092167
 20
5.165006683781355
 10
3.629762389053868
 20
5.163502058498232
 10
3.628067457965868
 20
5.162910338985222
  0
LWPOLYLINE
  5
341
330
1F
100
AcDbEntity
  8
0
  6
Continuous
 62
     8
370
    15
100
AcDbPolyline
 90
       14
 70
   128
 43
0.0
 10
3.604273588076408
 20
5.183015267116078
 10
3.605664378766443
 20
5.178985037130162
 10
3.607488806323046
 20
5.175211489590449
 10
3.609694394601173
 20
5.171803180109272
 10
3.612217743567876
 20
5.168858131776942
 10
3.614986188627051
 20
5.166461112092399
 10
3.617920220468023
 20
5.164681018186205
 10
3.620935282667353
 20
5.163569117604583
 10
3.623944675507139
 20
5.16315737542264
 10
3.626861906685074
 20
5.163457624283291
 10
3.629602972885965
 20
5.16446123574591
 10
3.632089056184447
 20
5.166139339913145
 10
3.634248598200913
 20
5.168443665113065
 10
3.634809795657217
 20
5.169227618321602
  0
LWPOLYLINE
  5
342
330
1F
100
AcDbEntity
  8
0
  6
Continuous
 62
     8
370
    15
100
AcDbPolyline
 90
       13
 70
   128
 43
0.0
 10
3.62173417839331
 20
5.211889347204324
 10
3.619031968046854
 20
5.21253954471443
 10
3.61605790499642
 20
5.212595504595569
 10
3.613218523804416
 20
5.211941217135469
 10
3.610595546214511
 20
5.210595495340803
 10
3.608264333225518
 20
5.208597078587746
 10
3.606292018351059
 20
5.206003442988747
 10
3.604735295186572
 20
5.20288920981216
 10
3.603638965500159
 20
5.199343973339967
 10
3.603034556461966
 20
5.195469715730426
 10
3.602939560120342
 20
5.191377872656998
 10
3.603356534600935
 20
5.1871862004875
 10
3.604273588076408
 20
5.183015267116078
  0
ARC
  5
343
330
1F
100
AcDbEntity
  8
0
  6
Continuous
 62
     8
370
    15
100
AcDbCircle
 10
1.710042793264405
 20
5.625771349851728
 30
0.0
 40
0.0141704524889236
100
AcDbArc
 50
193.7142180083247
 51
321.4147860935595
  0
ARC
  5
344
330
1F
100
AcDbEntity
  8
0
  6
Continuous
 62
     8
370
    15
100
AcDbCircle
 10
1.715608325595711
 20
5.646249035366932
 30
0.0
 40
0.0143319068605585
100
AcDbArc
 50
4.180378808751087
 51
109.4582776514756
  0
ARC
  5
345
330
1F
100
AcDbEntity
  8
0
  6
Continuous
 62
     8
370
    15
100
AcDbCircle
 10
1.621654460069299
 20
5.862863263895402
 30
0.0
 40
0.0141704889633583
100
AcDbArc
 50
193.714409815217
 51
321.4146685562675
  0
ARC
  5
346
330
1F
100
AcDbEntity
  8
0
  6
Continuous
 62
     8
370
    15
100
AcDbCircle
 10
1.627219999144757
 20
5.883340935600759
 30
0.0
 40
0.0143318730276829
100
AcDbArc
 50
4.180224656846529
 51
109.4584565882402
  0
ARC
  5
347
330
1F
100
AcDbEntity
  8
0
  6
Continuous
 62
     8
370
    15
100
AcDbCircle
 10
1.710042794027542
 20
6.078429293325662
 30
0.0
 40
0.0141704540507678
100
AcDbArc
 50
193.7142308706744
 51
321.4147732312099
  0
ARC
  5
348
330
1F
100
AcDbEntity
  8
0
  6
Continuous
 62
     8
370
    15
100
AcDbCircle
 10
1.715608314461749
 20
6.098906963747442
 30
0.0
 40
0.0143319196712813
100
AcDbArc
 50
4.180468894948596
 51
109.4582123501387
  0
LWPOLYLINE
  5
349
330
1F
100
AcDbEntity
  8
0
  6
Continuous
 62
     8
370
    15
100
AcDbPolyline
 90
       21
 70
   128
 43
0.0
 10
2.023598883279931
 20
5.639463315268186
 10
2.024713258122941
 20
5.639706219037316
 10
2.027675982454287
 20
5.639848071936174
 10
2.030711302243207
 20
5.639293284878157
 10
2.033736458668065
 20
5.638056982357325
 10
2.036668969461356
 20
5.636172872717088
 10
2.039428703065622
 20
5.633692386303462
 10
2.041940575036175
 20
5.630683140574213
 10
2.04413586167318
 20
5.627227269330243
 10
2.045954827285833
 20
5.623419005538308
 10
2.047347761270328
 20
5.61936224860896
 10
2.048276775711669
 20
5.615167627651951
 10
2.048716427630437
 20
5.610949591127723
 10
2.048654756060765
 20
5.606823191068804
 10
2.048093489465931
 20
5.602900960048785
 10
2.047047907461287
 20
5.599289904316739
 10
2.045546495121618
 20
5.596088534837657
 10
2.043630251595817
 20
5.593384161689404
 10
2.041351376474807
 20
5.591250567121625
 10
2.038772163575039
 20
5.589745923315525
 10
2.037077232487039
 20
5.589154203802514
  0
LWPOLYLINE
  5
34A
330
1F
100
AcDbEntity
  8
0
  6
Continuous
 62
     8
370
    15
100
AcDbPolyline
 90
       14
 70
   128
 43
0.0
 10
2.013283362597579
 20
5.60925913193337
 10
2.014674084149083
 20
5.605228920470431
 10
2.016498511705687
 20
5.601455372930718
 10
2.018704099983813
 20
5.598047063449541
 10
2.021227448950515
 20
5.595102015117212
 10
2.023995963148222
 20
5.592704976909692
 10
2.026929925850663
 20
5.590924901526473
 10
2.029944988049993
 20
5.589813000944853
 10
2.032954450028311
 20
5.589401240239933
 10
2.035871681206245
 20
5.589701489100584
 10
2.038612747407135
 20
5.590705100563202
 10
2.041098761567087
 20
5.592383223253413
 10
2.043258372722084
 20
5.594687529930357
 10
2.043819501039857
 20
5.59547150166187
  0
LWPOLYLINE
  5
34B
330
1F
100
AcDbEntity
  8
0
  6
Continuous
 62
     8
370
    15
100
AcDbPolyline
 90
       13
 70
   128
 43
0.0
 10
2.030743883775951
 20
5.638133230544592
 10
2.028041673429494
 20
5.6387834280547
 10
2.025067679517591
 20
5.638839369412862
 10
2.022228298325587
 20
5.638185081952762
 10
2.019605251597151
 20
5.636839378681072
 10
2.017274038608158
 20
5.634840961928015
 10
2.015301723733699
 20
5.632247326329015
 10
2.013745000569211
 20
5.62913309315243
 10
2.012648670882799
 20
5.625587856680237
 10
2.012044330983137
 20
5.621713580547718
 10
2.011949265502982
 20
5.617621755997267
 10
2.012366309122106
 20
5.613430065304792
 10
2.013283362597579
 20
5.60925913193337
  0
ARC
  5
34C
330
1F
100
AcDbEntity
  8
0
  6
Continuous
 62
     8
370
    15
100
AcDbCircle
 10
6.901079391593874
 20
4.512276584838715
 30
0.0
 40
0.0260830017027031
100
AcDbArc
 50
318.2215315698021
 51
131.7703244292393
  0
LWPOLYLINE
  5
34D
330
1F
100
AcDbEntity
  8
0
  6
Continuous
 62
     8
370
    15
100
AcDbPolyline
 90
       21
 70
   128
 43
0.0
 10
1.935210525896907
 20
5.923915621952742
 10
1.936324900739917
 20
5.924158519834229
 10
1.939287625071263
 20
5.924300366845445
 10
1.942322944860183
 20
5.923745591562713
 10
1.945348170423573
 20
5.922509258743618
 10
1.948280612078332
 20
5.920625179401645
 10
1.95104041482113
 20
5.918144680352685
 10
1.953552217653152
 20
5.915135453146412
 10
1.955747504290156
 20
5.911679570127156
 10
1.957566469902809
 20
5.907871300447578
 10
1.958959403887306
 20
5.903814549405873
 10
1.959888418328646
 20
5.899619922561221
 10
1.960328070247413
 20
5.895401886036993
 10
1.960266467816273
 20
5.891275467455098
 10
1.959705132082907
 20
5.887353254958055
 10
1.958659550078264
 20
5.883742211001295
 10
1.957158137738595
 20
5.880540829746927
 10
1.955241894212794
 20
5.877836462486317
 10
1.952963019091784
 20
5.875702862030895
 10
1.950383806192016
 20
5.874198218224795
 10
1.948688875104016
 20
5.873606498711784
  0
LWPOLYLINE
  5
34E
330
1F
100
AcDbEntity
  8
0
  6
Continuous
 62
     8
370
    15
100
AcDbPolyline
 90
       14
 70
   128
 43
0.0
 10
1.924895005214556
 20
5.89371142684264
 10
1.926285726766059
 20
5.889681221267344
 10
1.928110154322663
 20
5.885907673727631
 10
1.93031581173932
 20
5.882499339835835
 10
1.932839091567492
 20
5.879554321801768
 10
1.935607605765198
 20
5.877157271818962
 10
1.93854156846764
 20
5.875377196435743
 10
1.941556699805501
 20
5.874265277331145
 10
1.944566092645288
 20
5.873853535149202
 10
1.947483323823221
 20
5.874153784009854
 10
1.950224390024112
 20
5.875157395472472
 10
1.952710473322594
 20
5.876835499639707
 10
1.95487001533906
 20
5.87913983072727
 10
1.955431143656833
 20
5.87992379657114
  0
LWPOLYLINE
  5
34F
330
1F
100
AcDbEntity
  8
0
  6
Continuous
 62
     8
370
    15
100
AcDbPolyline
 90
       13
 70
   128
 43
0.0
 10
1.942355595531458
 20
5.922585512818528
 10
1.93965331604647
 20
5.923235722963969
 10
1.936679322134568
 20
5.923291658434489
 10
1.933839940942564
 20
5.922637370974388
 10
1.931216894214128
 20
5.921291685365628
 10
1.928885681225134
 20
5.919293262724927
 10
1.926913366350675
 20
5.916699627125928
 10
1.925356643186189
 20
5.913585399836986
 10
1.924260382638306
 20
5.910040133066529
 10
1.923655973600114
 20
5.906165881344631
 10
1.923560908119959
 20
5.902074050906536
 10
1.923977951739082
 20
5.897882371989349
 10
1.924895005214556
 20
5.89371142684264
  0
LWPOLYLINE
  5
350
330
1F
100
AcDbEntity
  8
0
  6
Continuous
 62
     8
370
    15
100
AcDbPolyline
 90
       21
 70
   128
 43
0.0
 10
3.61458910875876
 20
5.665877390464109
 10
3.61570348360177
 20
5.666120311896169
 10
3.618666207933116
 20
5.666262135356812
 10
3.621701596860566
 20
5.665707365101676
 10
3.624726753285425
 20
5.664471050805559
 10
3.627659194940185
 20
5.662586971463586
 10
3.630418997682982
 20
5.660106448864052
 10
3.632930800515004
 20
5.657097221657779
 10
3.635126087152009
 20
5.65364135041381
 10
3.636945052764662
 20
5.649833092509518
 10
3.638338055887689
 20
5.645776299394263
 10
3.639267001190498
 20
5.641581714623161
 10
3.639706722247797
 20
5.637363659575957
 10
3.639645050678125
 20
5.633237235966466
 10
3.63908378408329
 20
5.629315028497018
 10
3.638038132940117
 20
5.625703979512663
 10
3.636536720600447
 20
5.622502610033581
 10
3.634620477074646
 20
5.619798230997684
 10
3.632341671092167
 20
5.617664635569858
 10
3.629762389053868
 20
5.616160010286734
 10
3.628067457965868
 20
5.615568290773724
  0
LWPOLYLINE
  5
351
330
1F
100
AcDbEntity
  8
0
  6
Continuous
 62
     8
370
    15
100
AcDbPolyline
 90
       14
 70
   128
 43
0.0
 10
3.604273588076408
 20
5.635673207129294
 10
3.605664378766443
 20
5.631642983031022
 10
3.607488806323046
 20
5.627869435491308
 10
3.609694394601173
 20
5.624461131897774
 10
3.612217743567876
 20
5.621516071790158
 10
3.614986188627051
 20
5.619119052105616
 10
3.617920220468023
 20
5.617338969974707
 10
3.620935282667353
 20
5.616227045842513
 10
3.623944675507139
 20
5.615815315435857
 10
3.626861906685074
 20
5.616115552521222
 10
3.629602972885965
 20
5.617119175759126
 10
3.632089056184447
 20
5.61879727992636
 10
3.634248598200913
 20
5.621101611013925
 10
3.634809795657217
 20
5.621885558334818
  0
LWPOLYLINE
  5
352
330
1F
100
AcDbEntity
  8
0
  6
Continuous
 62
     8
370
    15
100
AcDbPolyline
 90
       13
 70
   128
 43
0.0
 10
3.62173417839331
 20
5.664547281329896
 10
3.619031968046854
 20
5.665197472952359
 10
3.61605790499642
 20
5.66525345049643
 10
3.613218523804416
 20
5.664599163036329
 10
3.610595546214511
 20
5.663253435354019
 10
3.608264333225518
 20
5.661255024488605
 10
3.606292018351059
 20
5.658661377114319
 10
3.604735295186572
 20
5.655547149825377
 10
3.603638965500159
 20
5.652001913353184
 10
3.603034556461966
 20
5.648127649855998
 10
3.602939560120342
 20
5.6440358244455
 10
3.603356534600935
 20
5.639844140500716
 10
3.604273588076408
 20
5.635673207129294
  0
LWPOLYLINE
  5
353
330
1F
100
AcDbEntity
  8
0
  6
Continuous
 62
     8
370
    15
100
AcDbPolyline
 90
       21
 70
   128
 43
0.0
 10
7.300156021414419
 20
4.486587431042408
 10
7.301270257980366
 20
4.486830365969847
 10
7.304232982311713
 20
4.486972212981063
 10
7.307268440377694
 20
4.486417400652379
 10
7.310293665941085
 20
4.485181067833284
 10
7.313225969318783
 20
4.483297025537264
 10
7.315985979477173
 20
4.480816470919373
 10
7.318497644032133
 20
4.477807280759054
 10
7.320692930669138
 20
4.474351397739798
 10
7.322512103697382
 20
4.47054307249129
 10
7.323904830266286
 20
4.466486377018515
 10
7.32483405212322
 20
4.462291694604934
 10
7.325273496626395
 20
4.458073713649636
 10
7.325211825056722
 20
4.453947313590717
 10
7.32465069673895
 20
4.450025045524744
 10
7.323605045595775
 20
4.446414020090961
 10
7.322103633256106
 20
4.443212638836592
 10
7.320187389730306
 20
4.440508271575983
 10
7.317908583747827
 20
4.438374652597584
 10
7.315329439986589
 20
4.436869990268507
 10
7.313634439760059
 20
4.436278289278472
  0
LWPOLYLINE
  5
354
330
1F
100
AcDbEntity
  8
0
  6
Continuous
 62
     8
370
    15
100
AcDbPolyline
 90
       14
 70
   128
 43
0.0
 10
7.289840362455006
 20
4.456383272978259
 10
7.29123115314504
 20
4.452353048879986
 10
7.293055580701644
 20
4.448579501340273
 10
7.295261376395363
 20
4.445171130402523
 10
7.297784656223535
 20
4.442226112368457
 10
7.300553239559773
 20
4.439829043862673
 10
7.303487202262215
 20
4.438048968479455
 10
7.306502195323013
 20
4.436937086420811
 10
7.30951165730133
 20
4.436525325715892
 10
7.312428750202203
 20
4.436825611622496
 10
7.315169954680155
 20
4.43782918603916
 10
7.317655899701575
 20
4.439507327252349
 10
7.319815510856573
 20
4.441811639816936
 10
7.320376639174345
 20
4.442595605660805
  0
LWPOLYLINE
  5
355
330
1F
100
AcDbEntity
  8
0
  6
Continuous
 62
     8
370
    15
100
AcDbPolyline
 90
       13
 70
   128
 43
0.0
 10
7.307301160187501
 20
4.485257303385218
 10
7.304598949841046
 20
4.485907495007682
 10
7.301624886790611
 20
4.485963449001178
 10
7.298785505598607
 20
4.485309161541078
 10
7.296162389731639
 20
4.483963494455293
 10
7.293831315019708
 20
4.48196503476864
 10
7.291858931006718
 20
4.479371417692617
 10
7.290302207842231
 20
4.476257190403675
 10
7.289205947294349
 20
4.472711923633219
 10
7.288601399979095
 20
4.468837708957273
 10
7.288506541914532
 20
4.464745822950249
 10
7.288923308979532
 20
4.460554218124967
 10
7.289840362455006
 20
4.456383272978259
  0
ARC
  5
356
330
1F
100
AcDbEntity
  8
0
  6
Continuous
 62
     8
370
    15
100
AcDbCircle
 10
3.230322371681324
 20
5.034269592558318
 30
0.0
 40
0.0141704906597782
100
AcDbArc
 50
193.714423785711
 51
321.4146545857729
  0
ARC
  5
357
330
1F
100
AcDbEntity
  8
0
  6
Continuous
 62
     8
370
    15
100
AcDbCircle
 10
3.235887904900771
 20
5.054747222960656
 30
0.0
 40
0.0143319150722723
100
AcDbArc
 50
4.180352788761463
 51
109.4582293169411
  0
ARC
  5
358
330
1F
100
AcDbEntity
  8
0
  6
Continuous
 62
     8
370
    15
100
AcDbCircle
 10
3.3010330533125
 20
5.199527475772947
 30
0.0
 40
0.0141704524889241
100
AcDbArc
 50
193.7142180083279
 51
321.4147860935556
  0
ARC
  5
359
330
1F
100
AcDbEntity
  8
0
  6
Continuous
 62
     8
370
    15
100
AcDbCircle
 10
3.306598585643807
 20
5.220005161288153
 30
0.0
 40
0.0143319068605563
100
AcDbArc
 50
4.180378808740851
 51
109.4582776514887
  0
ARC
  5
35A
330
1F
100
AcDbEntity
  8
0
  6
Continuous
 62
     8
370
    15
100
AcDbCircle
 10
3.212644720117394
 20
5.436619389816622
 30
0.0
 40
0.0141704889633598
100
AcDbArc
 50
193.7144098152238
 51
321.414668556263
  0
ARC
  5
35B
330
1F
100
AcDbEntity
  8
0
  6
Continuous
 62
     8
370
    15
100
AcDbCircle
 10
3.21821025919285
 20
5.457097061521976
 30
0.0
 40
0.0143318730276848
100
AcDbArc
 50
4.180224656853223
 51
109.4584565882291
  0
ARC
  5
35C
330
1F
100
AcDbEntity
  8
0
  6
Continuous
 62
     8
370
    15
100
AcDbCircle
 10
1.639332111633229
 20
5.460513466637099
 30
0.0
 40
0.0141704906597783
100
AcDbArc
 50
193.7144237857147
 51
321.4146545857701
  0
ARC
  5
35D
330
1F
100
AcDbEntity
  8
0
  6
Continuous
 62
     8
370
    15
100
AcDbCircle
 10
1.644897644852678
 20
5.480991097039439
 30
0.0
 40
0.0143319150722704
100
AcDbArc
 50
4.180352788754964
 51
109.4582293169502
  0
LWPOLYLINE
  5
35E
330
1F
100
AcDbEntity
  8
0
  6
Continuous
 62
     8
370
    15
100
AcDbPolyline
 90
       21
 70
   128
 43
0.0
 10
1.952888142062687
 20
5.512093742415844
 10
1.954002516905697
 20
5.512336640297331
 10
1.956965310375575
 20
5.51247846878557
 10
1.960000630164494
 20
5.511923693502839
 10
1.963025786589353
 20
5.510687379206721
 10
1.965958297382644
 20
5.50880328134177
 10
1.968718030986909
 20
5.506322800815786
 10
1.971229833818932
 20
5.503313573609513
 10
1.973425189594467
 20
5.499857683842567
 10
1.97524415520712
 20
5.496049402387703
 10
1.976637089191616
 20
5.491992651345999
 10
1.977566103632956
 20
5.487798024501346
 10
1.978005755551724
 20
5.483579987977119
 10
1.977944083982052
 20
5.479453587918199
 10
1.977382817387217
 20
5.47553135689818
 10
1.976337235382575
 20
5.471920312941421
 10
1.974835823042905
 20
5.468718943462339
 10
1.972919579517105
 20
5.466014564426442
 10
1.970640704396095
 20
5.46388096397102
 10
1.968061491496326
 20
5.46237632016492
 10
1.966366560408327
 20
5.46178460065191
  0
LWPOLYLINE
  5
35F
330
1F
100
AcDbEntity
  8
0
  6
Continuous
 62
     8
370
    15
100
AcDbPolyline
 90
       14
 70
   128
 43
0.0
 10
1.942572690518866
 20
5.481889540558052
 10
1.94396341207037
 20
5.477859334982757
 10
1.945787839626974
 20
5.474085787443043
 10
1.9479934279051
 20
5.470677460298936
 10
1.950516776871803
 20
5.467732423741893
 10
1.953285291069509
 20
5.465335385534373
 10
1.956219253771951
 20
5.46355529837587
 10
1.959234315971281
 20
5.462443397794248
 10
1.962243777949598
 20
5.462031648864615
 10
1.965161009127532
 20
5.462331885949979
 10
1.967902075328423
 20
5.463335509187883
 10
1.970388089488374
 20
5.465013631878095
 10
1.97254763150484
 20
5.467317962965658
 10
1.973108828961144
 20
5.468101910286552
  0
LWPOLYLINE
  5
360
330
1F
100
AcDbEntity
  8
0
  6
Continuous
 62
     8
370
    15
100
AcDbPolyline
 90
       13
 70
   128
 43
0.0
 10
1.960033211697238
 20
5.510763633281631
 10
1.957331001350782
 20
5.511413824904095
 10
1.954356938300348
 20
5.511469802448163
 10
1.951517626246875
 20
5.510815496465087
 10
1.948894579518439
 20
5.509469787305754
 10
1.946563366529445
 20
5.507471376440339
 10
1.944591051654986
 20
5.504877729066055
 10
1.943034328490499
 20
5.501763501777111
 10
1.941937998804086
 20
5.498218265304918
 10
1.941333658904424
 20
5.494343983284757
 10
1.94123859342427
 20
5.490252152846662
 10
1.941655567904862
 20
5.48606049245245
 10
1.942572690518866
 20
5.481889540558052
  0
TEXT
  5
368
330
1F
100
AcDbEntity
  8
0
100
AcDbText
 10
2.795894140619573
 20
3.26385634580054
 30
0.0
 40
0.25
  1
USP  MP
100
AcDbText
  0
TEXT
  5
369
330
1F
100
AcDbEntity
  8
0
100
AcDbText
 10
1.873101562431394
 20
2.784747069733903
 30
0.0
 40
0.25
  1
SIMPSON  LS
100
AcDbText
  0
ENDSEC
  0
SECTION
  2
OBJECTS
  0
DICTIONARY
  5
C
330
0
100
AcDbDictionary
281
     1
  3
ACAD_COLOR
350
365
  3
ACAD_GROUP
350
D
  3
ACAD_LAYOUT
350
1A
  3
ACAD_MATERIAL
350
364
  3
ACAD_MLINESTYLE
350
17
  3
ACAD_PLOTSETTINGS
350
19
  3
ACAD_PLOTSTYLENAME
350
E
  0
DICTIONARY
  5
365
102
{ACAD_REACTORS
330
C
102
}
330
C
100
AcDbDictionary
281
     1
  0
DICTIONARY
  5
D
102
{ACAD_REACTORS
330
C
102
}
330
C
100
AcDbDictionary
281
     1
  0
DICTIONARY
  5
1A
102
{ACAD_REACTORS
330
C
102
}
330
C
100
AcDbDictionary
281
     1
  3
Layout1
350
1E
  3
Layout2
350
26
  3
Model
350
22
  0
DICTIONARY
  5
364
102
{ACAD_REACTORS
330
C
102
}
330
C
100
AcDbDictionary
281
     1
  0
DICTIONARY
  5
17
102
{ACAD_REACTORS
330
C
102
}
330
C
100
AcDbDictionary
281
     1
  3
Standard
350
18
  0
DICTIONARY
  5
19
102
{ACAD_REACTORS
330
C
102
}
330
C
100
AcDbDictionary
281
     1
  0
ACDBDICTIONARYWDFLT
  5
E
102
{ACAD_REACTORS
330
C
102
}
330
C
100
AcDbDictionary
281
     1
  3
Normal
350
F
100
AcDbDictionaryWithDefault
340
F
  0
LAYOUT
  5
1E
102
{ACAD_REACTORS
330
1A
102
}
330
1A
100
AcDbPlotSettings
  1

  2
none_device
  4

  6

 40
0.0
 41
0.0
 42
0.0
 43
0.0
 44
0.0
 45
0.0
 46
0.0
 47
0.0
 48
0.0
 49
0.0
140
0.0
141
0.0
142
1.0
143
1.0
 70
   688
 72
     0
 73
     0
 74
     5
  7

 75
    16
147
1.0
 76
     0
 77
     2
 78
   300
148
0.0
149
0.0
100
AcDbLayout
  1
Layout1
 70
     1
 71
     1
 10
0.0
 20
0.0
 11
12.0
 21
9.0
 12
0.0
 22
0.0
 32
0.0
 14
1.000000000000000E+20
 24
1.000000000000000E+20
 34
1.000000000000000E+20
 15
-1.000000000000000E+20
 25
-1.000000000000000E+20
 35
-1.000000000000000E+20
146
0.0
 13
0.0
 23
0.0
 33
0.0
 16
1.0
 26
0.0
 36
0.0
 17
0.0
 27
1.0
 37
0.0
 76
     0
330
1B
  0
LAYOUT
  5
26
102
{ACAD_REACTORS
330
1A
102
}
330
1A
100
AcDbPlotSettings
  1

  2
none_device
  4

  6

 40
0.0
 41
0.0
 42
0.0
 43
0.0
 44
0.0
 45
0.0
 46
0.0
 47
0.0
 48
0.0
 49
0.0
140
0.0
141
0.0
142
1.0
143
1.0
 70
   688
 72
     0
 73
     0
 74
     5
  7

 75
    16
147
1.0
 76
     0
 77
     2
 78
   300
148
0.0
149
0.0
100
AcDbLayout
  1
Layout2
 70
     1
 71
     2
 10
0.0
 20
0.0
 11
0.0
 21
0.0
 12
0.0
 22
0.0
 32
0.0
 14
0.0
 24
0.0
 34
0.0
 15
0.0
 25
0.0
 35
0.0
146
0.0
 13
0.0
 23
0.0
 33
0.0
 16
1.0
 26
0.0
 36
0.0
 17
0.0
 27
1.0
 37
0.0
 76
     0
330
23
  0
LAYOUT
  5
22
102
{ACAD_REACTORS
330
1A
102
}
330
1A
100
AcDbPlotSettings
  1

  2
none_device
  4

  6

 40
0.0
 41
0.0
 42
0.0
 43
0.0
 44
0.0
 45
0.0
 46
0.0
 47
0.0
 48
0.0
 49
0.0
140
0.0
141
0.0
142
1.0
143
1.0
 70
  1712
 72
     0
 73
     0
 74
     0
  7

 75
     0
147
1.0
 76
     0
 77
     2
 78
   300
148
0.0
149
0.0
100
AcDbLayout
  1
Model
 70
     1
 71
     0
 10
0.0
 20
0.0
 11
8.5
 21
11.0
 12
0.0
 22
0.0
 32
0.0
 14
0.0
 24
0.0
 34
0.0
 15
8.5
 25
11.0
 35
0.0
146
0.0
 13
0.0
 23
0.0
 33
0.0
 16
1.0
 26
0.0
 36
0.0
 17
0.0
 27
1.0
 37
0.0
 76
     0
330
1F
  0
MLINESTYLE
  5
18
102
{ACAD_REACTORS
330
17
102
}
330
17
100
AcDbMlineStyle
  2
STANDARD
 70
     0
  3

 62
   256
 51
90.0
 52
90.0
 71
     2
 49
0.5
 62
   256
  6
BYLAYER
 49
-0.5
 62
   256
  6
BYLAYER
  0
ACDBPLACEHOLDER
  5
F
102
{ACAD_REACTORS
330
E
102
}
330
E
  0
ENDSEC
  0
EOF
